  0
SECTION
  2
HEADER
  9
$ACADVER
  1
AC1009
  9
$INSBASE
 10
0.0
 20
0.0
 30
0.0
  9
$EXTMIN
 10
461603.67349953909
 20
4710338.664605164
 30
0.0996124563268559
  9
$EXTMAX
 10
488788.41734036442
 20
4730186.7066867054
 30
12.80038760281213
  9
$LIMMIN
 10
0.0
 20
0.0
  9
$LIMMAX
 10
12.0
 20
9.0
  9
$ORTHOMODE
 70
     0
  9
$REGENMODE
 70
     1
  9
$FILLMODE
 70
     1
  9
$QTEXTMODE
 70
     0
  9
$MIRRTEXT
 70
     1
  9
$DRAGMODE
 70
     2
  9
$LTSCALE
 40
1.0
  9
$OSMODE
 70
    37
  9
$ATTMODE
 70
     1
  9
$TEXTSIZE
 40
0.2
  9
$TRACEWID
 40
0.05
  9
$TEXTSTYLE
  7
STANDARD
  9
$CLAYER
  8
0
  9
$CELTYPE
  6
BYLAYER
  9
$CECOLOR
 62
   256
  9
$DIMSCALE
 40
1.0
  9
$DIMASZ
 40
0.18
  9
$DIMEXO
 40
0.0625
  9
$DIMDLI
 40
0.38
  9
$DIMRND
 40
0.0
  9
$DIMDLE
 40
0.0
  9
$DIMEXE
 40
0.18
  9
$DIMTP
 40
0.0
  9
$DIMTM
 40
0.0
  9
$DIMTXT
 40
0.18
  9
$DIMCEN
 40
0.09
  9
$DIMTSZ
 40
0.0
  9
$DIMTOL
 70
     0
  9
$DIMLIM
 70
     0
  9
$DIMTIH
 70
     1
  9
$DIMTOH
 70
     1
  9
$DIMSE1
 70
     0
  9
$DIMSE2
 70
     0
  9
$DIMTAD
 70
     0
  9
$DIMZIN
 70
     0
  9
$DIMBLK
  1

  9
$DIMASO
 70
     1
  9
$DIMSHO
 70
     1
  9
$DIMPOST
  1

  9
$DIMAPOST
  1

  9
$DIMALT
 70
     0
  9
$DIMALTD
 70
     2
  9
$DIMALTF
 40
25.399999999999999
  9
$DIMLFAC
 40
1.0
  9
$DIMTOFL
 70
     0
  9
$DIMTVP
 40
0.0
  9
$DIMTIX
 70
     0
  9
$DIMSOXD
 70
     0
  9
$DIMSAH
 70
     0
  9
$DIMBLK1
  1

  9
$DIMBLK2
  1

  9
$DIMSTYLE
  2
STANDARD
  9
$DIMCLRD
 70
     0
  9
$DIMCLRE
 70
     0
  9
$DIMCLRT
 70
     0
  9
$DIMTFAC
 40
1.0
  9
$DIMGAP
 40
0.09
  9
$LUNITS
 70
     2
  9
$LUPREC
 70
     4
  9
$SKETCHINC
 40
0.1
  9
$FILLETRAD
 40
0.5
  9
$AUNITS
 70
     0
  9
$AUPREC
 70
     0
  9
$MENU
  1
.
  9
$ELEVATION
 40
0.0
  9
$PELEVATION
 40
0.0
  9
$THICKNESS
 40
0.0
  9
$LIMCHECK
 70
     0
  9
$BLIPMODE
 70
     0
  9
$CHAMFERA
 40
0.5
  9
$CHAMFERB
 40
0.5
  9
$SKPOLY
 70
     0
  9
$TDCREATE
 40
2456320.7140726279
  9
$TDUPDATE
 40
2456320.718710023
  9
$TDINDWG
 40
0.1015990046
  9
$TDUSRTIMER
 40
0.1015758565
  9
$USRTIMER
 70
     1
  9
$ANGBASE
 50
0.0
  9
$ANGDIR
 70
     1
  9
$PDMODE
 70
    66
  9
$PDSIZE
 40
0.0
  9
$PLINEWID
 40
0.0
  9
$COORDS
 70
     1
  9
$SPLFRAME
 70
     0
  9
$SPLINETYPE
 70
     6
  9
$SPLINESEGS
 70
     8
  9
$ATTDIA
 70
     0
  9
$ATTREQ
 70
     1
  9
$HANDLING
 70
     1
  9
$HANDSEED
  5
610
  9
$SURFTAB1
 70
     6
  9
$SURFTAB2
 70
     6
  9
$SURFTYPE
 70
     6
  9
$SURFU
 70
     6
  9
$SURFV
 70
     6
  9
$UCSNAME
  2

  9
$UCSORG
 10
0.0
 20
0.0
 30
0.0
  9
$UCSXDIR
 10
1.0
 20
0.0
 30
0.0
  9
$UCSYDIR
 10
0.0
 20
1.0
 30
0.0
  9
$PUCSNAME
  2

  9
$PUCSORG
 10
0.0
 20
0.0
 30
0.0
  9
$PUCSXDIR
 10
1.0
 20
0.0
 30
0.0
  9
$PUCSYDIR
 10
0.0
 20
1.0
 30
0.0
  9
$USERI1
 70
     0
  9
$USERI2
 70
     0
  9
$USERI3
 70
     0
  9
$USERI4
 70
     0
  9
$USERI5
 70
     0
  9
$USERR1
 40
0.0
  9
$USERR2
 40
0.0
  9
$USERR3
 40
0.0
  9
$USERR4
 40
0.0
  9
$USERR5
 40
0.0
  9
$WORLDVIEW
 70
     1
  9
$SHADEDGE
 70
     3
  9
$SHADEDIF
 70
    70
  9
$TILEMODE
 70
     1
  9
$MAXACTVP
 70
    64
  9
$PLIMCHECK
 70
     0
  9
$PEXTMIN
 10
0.0
 20
0.0
 30
0.0
  9
$PEXTMAX
 10
0.0
 20
0.0
 30
0.0
  9
$PLIMMIN
 10
0.0
 20
0.0
  9
$PLIMMAX
 10
12.0
 20
9.0
  9
$UNITMODE
 70
     0
  9
$VISRETAIN
 70
     1
  9
$PLINEGEN
 70
     0
  9
$PSLTSCALE
 70
     1
  0
ENDSEC
  0
SECTION
  2
TABLES
  0
TABLE
  2
VPORT
 70
     1
  0
VPORT
  2
*ACTIVE
 70
     0
 10
0.0
 20
0.0
 11
1.0
 21
1.0
 12
476814.81626258488
 22
4721560.5865431512
 13
0.0
 23
0.0
 14
0.5
 24
0.5
 15
0.5
 25
0.5
 16
0.0
 26
0.0
 36
1.0
 17
0.0
 27
0.0
 37
0.0
 40
51196.388623198509
 41
1.7470817120622559
 42
50.0
 43
0.0
 44
0.0
 50
0.0
 51
0.0
 71
     0
 72
   100
 73
     1
 74
     2
 75
     0
 76
     0
 77
     0
 78
     0
  0
ENDTAB
  0
TABLE
  2
LTYPE
 70
     1
  0
LTYPE
  2
CONTINUOUS
 70
     0
  3
Solid line
 72
    65
 73
     0
 40
0.0
  0
ENDTAB
  0
TABLE
  2
LAYER
 70
     2
  0
LAYER
  2
0
 70
     0
 62
     7
  6
CONTINUOUS
  0
LAYER
  2
1HS
 70
     0
 62
     1
  6
CONTINUOUS
  0
ENDTAB
  0
TABLE
  2
STYLE
 70
     1
  0
STYLE
  2
STANDARD
 70
     0
 40
0.0
 41
1.0
 50
0.0
 71
     0
 42
0.2
  3
txt
  4

  0
ENDTAB
  0
TABLE
  2
VIEW
 70
     0
  0
ENDTAB
  0
TABLE
  2
UCS
 70
     0
  0
ENDTAB
  0
TABLE
  2
APPID
 70
     4
  0
APPID
  2
ACAD
 70
     0
  0
APPID
  2
DCO15
 70
     0
  0
APPID
  2
ADE
 70
     0
  0
APPID
  2
ACAECLAYERSTANDARD
 70
     0
  0
ENDTAB
  0
TABLE
  2
DIMSTYLE
 70
     1
  0
DIMSTYLE
  2
STANDARD
 70
     0
  3

  4

  5

  6

  7

 40
1.0
 41
0.18
 42
0.0625
 43
0.38
 44
0.18
 45
0.0
 46
0.0
 47
0.0
 48
0.0
140
0.18
141
0.09
142
0.0
143
25.399999999999999
144
1.0
145
0.0
146
1.0
147
0.09
 71
     0
 72
     0
 73
     1
 74
     1
 75
     0
 76
     0
 77
     0
 78
     0
170
     0
171
     2
172
     0
173
     0
174
     0
175
     0
176
     0
177
     0
178
     0
  0
ENDTAB
  0
ENDSEC
  0
SECTION
  2
BLOCKS
  0
BLOCK
  8
0
  2
$MODEL_SPACE
 70
     0
 10
0.0
 20
0.0
 30
0.0
  3
$MODEL_SPACE
  1

  0
ENDBLK
  5
17
  8
0
  0
BLOCK
 67
     1
  8
0
  2
$PAPER_SPACE
 70
     0
 10
0.0
 20
0.0
 30
0.0
  3
$PAPER_SPACE
  1

  0
ENDBLK
  5
1C
 67
     1
  8
0
  0
ENDSEC
  0
SECTION
  2
ENTITIES
  0
POLYLINE
  5
6C
  8
1HS
 66
     1
 10
0.0
 20
0.0
 30
0.25
 70
     1
1001
DCO15
1071
        2
1071
        2
1000
Jan27
1004
074139313700
  0
VERTEX
  5
128
  8
1HS
 10
488403.49995141319
 20
4717953.5000390792
 30
0.25
  0
VERTEX
  5
129
  8
1HS
 10
488393.99995141319
 20
4717942.0000390783
 30
0.25
  0
VERTEX
  5
12A
  8
1HS
 10
488390.49995141331
 20
4717934.5000390792
 30
0.25
  0
VERTEX
  5
12B
  8
1HS
 10
488393.49995141308
 20
4717920.5000390783
 30
0.25
  0
VERTEX
  5
12C
  8
1HS
 10
488402.49995141319
 20
4717910.0000390783
 30
0.25
  0
VERTEX
  5
12D
  8
1HS
 10
488416.0
 20
4717907.0
 30
0.25
  0
VERTEX
  5
12E
  8
1HS
 10
488434.00000798091
 20
4717935.0001139352
 30
0.25
  0
VERTEX
  5
12F
  8
1HS
 10
488414.49995141319
 20
4717949.5000390783
 30
0.25
  0
SEQEND
  5
130
  8
1HS
  0
POLYLINE
  5
71
  8
1HS
 66
     1
 10
0.0
 20
0.0
 30
0.1
 70
     1
1001
DCO15
1071
        2
1071
        2
1000
Jan27
1004
074138353100
  0
VERTEX
  5
131
  8
1HS
 10
488421.50000000012
 20
4715492.5
 30
0.1
  0
VERTEX
  5
132
  8
1HS
 10
488428.00001886027
 20
4715476.9999593636
 30
0.1
  0
VERTEX
  5
133
  8
1HS
 10
488413.0
 20
4715465.5
 30
0.1
  0
VERTEX
  5
134
  8
1HS
 10
488413.0
 20
4715465.5
 30
0.1
  0
VERTEX
  5
135
  8
1HS
 10
488394.00001886021
 20
4715457.4999593655
 30
0.1
  0
VERTEX
  5
136
  8
1HS
 10
488390.0
 20
4715469.5
 30
0.1
  0
VERTEX
  5
137
  8
1HS
 10
488390.0
 20
4715469.5
 30
0.1
  0
VERTEX
  5
138
  8
1HS
 10
488386.0000541372
 20
4715490.9999954132
 30
0.1
  0
VERTEX
  5
139
  8
1HS
 10
488409.5000541372
 20
4715512.4999954132
 30
0.1
  0
VERTEX
  5
13A
  8
1HS
 10
488409.5000541372
 20
4715512.4999954132
 30
0.1
  0
VERTEX
  5
13B
  8
1HS
 10
488421.50000000012
 20
4715492.5
 30
0.1
  0
SEQEND
  5
13C
  8
1HS
  0
POLYLINE
  5
72
  8
1HS
 66
     1
 10
0.0
 20
0.0
 30
0.2
 70
     1
1001
DCO15
1071
        2
1071
        2
1000
Jan27
1004
074138353200
  0
VERTEX
  5
13D
  8
1HS
 10
488415.5000541372
 20
4715589.9999954142
 30
0.2
  0
VERTEX
  5
13E
  8
1HS
 10
488419.00001886027
 20
4715569.4999593636
 30
0.2
  0
VERTEX
  5
13F
  8
1HS
 10
488404.0
 20
4715544.5
 30
0.2
  0
VERTEX
  5
140
  8
1HS
 10
488404.0
 20
4715544.5
 30
0.2
  0
VERTEX
  5
141
  8
1HS
 10
488385.00001886021
 20
4715549.9999593655
 30
0.2
  0
VERTEX
  5
142
  8
1HS
 10
488373.00001886021
 20
4715562.4999593636
 30
0.2
  0
VERTEX
  5
143
  8
1HS
 10
488373.00001886021
 20
4715562.4999593636
 30
0.2
  0
VERTEX
  5
144
  8
1HS
 10
488377.0000541372
 20
4715583.4999954132
 30
0.2
  0
VERTEX
  5
145
  8
1HS
 10
488400.5000541372
 20
4715604.9999954132
 30
0.2
  0
VERTEX
  5
146
  8
1HS
 10
488400.5000541372
 20
4715604.9999954132
 30
0.2
  0
VERTEX
  5
147
  8
1HS
 10
488415.5000541372
 20
4715589.9999954142
 30
0.2
  0
SEQEND
  5
148
  8
1HS
  0
POLYLINE
  5
73
  8
1HS
 66
     1
 10
0.0
 20
0.0
 30
0.25
 70
     1
1001
DCO15
1071
        2
1071
        2
1000
Jan27
1004
074138363400
  0
VERTEX
  5
149
  8
1HS
 10
488614.0000541372
 20
4715695.4999954132
 30
0.25
  0
VERTEX
  5
14A
  8
1HS
 10
488623.5
 20
4715682.0
 30
0.25
  0
VERTEX
  5
14B
  8
1HS
 10
488600.0
 20
4715652.5
 30
0.25
  0
VERTEX
  5
14C
  8
1HS
 10
488600.0
 20
4715652.5
 30
0.25
  0
VERTEX
  5
14D
  8
1HS
 10
488583.50001886027
 20
4715655.4999593636
 30
0.25
  0
VERTEX
  5
14E
  8
1HS
 10
488571.50001886027
 20
4715667.9999593636
 30
0.25
  0
VERTEX
  5
14F
  8
1HS
 10
488571.50001886027
 20
4715667.9999593636
 30
0.25
  0
VERTEX
  5
150
  8
1HS
 10
488575.5000541372
 20
4715688.9999954132
 30
0.25
  0
VERTEX
  5
151
  8
1HS
 10
488599.0000541372
 20
4715710.4999954132
 30
0.25
  0
VERTEX
  5
152
  8
1HS
 10
488599.0000541372
 20
4715710.4999954132
 30
0.25
  0
VERTEX
  5
153
  8
1HS
 10
488614.0000541372
 20
4715695.4999954132
 30
0.25
  0
SEQEND
  5
154
  8
1HS
  0
POLYLINE
  5
74
  8
1HS
 66
     1
 10
0.0
 20
0.0
 30
0.25
 70
     1
1001
DCO15
1071
        2
1071
        2
1000
Jan27
1004
074138363300
  0
VERTEX
  5
155
  8
1HS
 10
488770.00005413708
 20
4715792.9999954132
 30
0.25
  0
VERTEX
  5
156
  8
1HS
 10
488773.50001886021
 20
4715772.4999593636
 30
0.25
  0
VERTEX
  5
157
  8
1HS
 10
488762.0000541372
 20
4715753.4999954132
 30
0.25
  0
VERTEX
  5
158
  8
1HS
 10
488762.0000541372
 20
4715753.4999954132
 30
0.25
  0
VERTEX
  5
159
  8
1HS
 10
488739.50001886021
 20
4715752.9999593636
 30
0.25
  0
VERTEX
  5
15A
  8
1HS
 10
488727.50001886021
 20
4715765.4999593636
 30
0.25
  0
VERTEX
  5
15B
  8
1HS
 10
488727.50001886021
 20
4715765.4999593636
 30
0.25
  0
VERTEX
  5
15C
  8
1HS
 10
488735.0
 20
4715784.0
 30
0.25
  0
VERTEX
  5
15D
  8
1HS
 10
488755.0000541372
 20
4715807.9999954132
 30
0.25
  0
VERTEX
  5
15E
  8
1HS
 10
488755.0000541372
 20
4715807.9999954132
 30
0.25
  0
VERTEX
  5
15F
  8
1HS
 10
488770.00005413708
 20
4715792.9999954132
 30
0.25
  0
SEQEND
  5
160
  8
1HS
  0
POLYLINE
  5
75
  8
1HS
 66
     1
 10
0.0
 20
0.0
 30
0.25
 70
     1
1001
DCO15
1071
        2
1071
        2
1000
Jan27
1004
074138373200
  0
VERTEX
  5
161
  8
1HS
 10
488294.99993578048
 20
4715626.9999808874
 30
0.25
  0
VERTEX
  5
162
  8
1HS
 10
488291.99993578042
 20
4715613.4999808883
 30
0.25
  0
VERTEX
  5
163
  8
1HS
 10
488285.99993578048
 20
4715592.9999808874
 30
0.25
  0
VERTEX
  5
164
  8
1HS
 10
488285.99993578048
 20
4715592.9999808874
 30
0.25
  0
VERTEX
  5
165
  8
1HS
 10
488257.99993578048
 20
4715593.9999808874
 30
0.25
  0
VERTEX
  5
166
  8
1HS
 10
488245.99993578048
 20
4715606.4999808874
 30
0.25
  0
VERTEX
  5
167
  8
1HS
 10
488245.99993578048
 20
4715606.4999808874
 30
0.25
  0
VERTEX
  5
168
  8
1HS
 10
488244.5
 20
4715624.0
 30
0.25
  0
VERTEX
  5
169
  8
1HS
 10
488254.5
 20
4715640.0
 30
0.25
  0
VERTEX
  5
16A
  8
1HS
 10
488264.0
 20
4715648.0
 30
0.25
  0
VERTEX
  5
16B
  8
1HS
 10
488295.99993578048
 20
4715640.4999808874
 30
0.25
  0
SEQEND
  5
16C
  8
1HS
  0
POLYLINE
  5
76
  8
1HS
 66
     1
 10
0.0
 20
0.0
 30
0.25
 70
     1
1001
DCO15
1071
        2
1071
        2
1000
Jan27
1004
074138343200
  0
VERTEX
  5
16D
  8
1HS
 10
487258.50006504089
 20
4715586.9999795388
 30
0.25
  0
VERTEX
  5
16E
  8
1HS
 10
487270.5
 20
4715601.5
 30
0.25
  0
VERTEX
  5
16F
  8
1HS
 10
487275.0
 20
4715612.5
 30
0.25
  0
VERTEX
  5
170
  8
1HS
 10
487257.50006504089
 20
4715623.4999795388
 30
0.25
  0
VERTEX
  5
171
  8
1HS
 10
487257.50006504089
 20
4715623.4999795388
 30
0.25
  0
VERTEX
  5
172
  8
1HS
 10
487231.5
 20
4715633.5
 30
0.25
  0
VERTEX
  5
173
  8
1HS
 10
487222.0
 20
4715621.0
 30
0.25
  0
VERTEX
  5
174
  8
1HS
 10
487226.50002874061
 20
4715603.9999547424
 30
0.25
  0
VERTEX
  5
175
  8
1HS
 10
487226.50002874061
 20
4715603.9999547424
 30
0.25
  0
SEQEND
  5
176
  8
1HS
  0
POLYLINE
  5
77
  8
1HS
 66
     1
 10
0.0
 20
0.0
 30
0.25
 70
     1
1001
DCO15
1071
        2
1071
        2
1000
Jan27
1004
074138373600
  0
VERTEX
  5
177
  8
1HS
 10
487077.50006504089
 20
4716130.4999795388
 30
0.25
  0
VERTEX
  5
178
  8
1HS
 10
487087.00006504089
 20
4716150.4999795388
 30
0.25
  0
VERTEX
  5
179
  8
1HS
 10
487085.50006504089
 20
4716159.4999795379
 30
0.25
  0
VERTEX
  5
17A
  8
1HS
 10
487076.50006504089
 20
4716166.9999795388
 30
0.25
  0
VERTEX
  5
17B
  8
1HS
 10
487076.50006504089
 20
4716166.9999795388
 30
0.25
  0
VERTEX
  5
17C
  8
1HS
 10
487054.49999999988
 20
4716177.0
 30
0.25
  0
VERTEX
  5
17D
  8
1HS
 10
487043.5
 20
4716167.5
 30
0.25
  0
VERTEX
  5
17E
  8
1HS
 10
487045.50002874061
 20
4716147.4999547424
 30
0.25
  0
VERTEX
  5
17F
  8
1HS
 10
487045.50002874061
 20
4716147.4999547424
 30
0.25
  0
SEQEND
  5
180
  8
1HS
  0
POLYLINE
  5
78
  8
1HS
 66
     1
 10
0.0
 20
0.0
 30
0.25
 70
     1
1001
DCO15
1071
        2
1071
        2
1000
Jan27
1004
074138373500
  0
VERTEX
  5
181
  8
1HS
 10
487113.0
 20
4716110.5
 30
0.25
  0
VERTEX
  5
182
  8
1HS
 10
487122.5
 20
4716130.5
 30
0.25
  0
VERTEX
  5
183
  8
1HS
 10
487121.0
 20
4716139.5
 30
0.25
  0
VERTEX
  5
184
  8
1HS
 10
487112.0
 20
4716147.0
 30
0.25
  0
VERTEX
  5
185
  8
1HS
 10
487112.0
 20
4716147.0
 30
0.25
  0
VERTEX
  5
186
  8
1HS
 10
487097.5
 20
4716151.0
 30
0.25
  0
VERTEX
  5
187
  8
1HS
 10
487087.5
 20
4716149.5
 30
0.25
  0
VERTEX
  5
188
  8
1HS
 10
487080.99996369961
 20
4716127.4999752026
 30
0.25
  0
VERTEX
  5
189
  8
1HS
 10
487080.99996369961
 20
4716127.4999752026
 30
0.25
  0
SEQEND
  5
18A
  8
1HS
  0
POLYLINE
  5
79
  8
1HS
 66
     1
 10
0.0
 20
0.0
 30
0.25
 70
     1
1001
DCO15
1071
        2
1071
        2
1000
Jan27
1004
074138373700
  0
VERTEX
  5
18B
  8
1HS
 10
487191.03704128048
 20
4716215.1552438987
 30
0.25
  0
VERTEX
  5
18C
  8
1HS
 10
487196.99995824712
 20
4716226.49994752
 30
0.25
  0
VERTEX
  5
18D
  8
1HS
 10
487196.99995824712
 20
4716242.999947519
 30
0.25
  0
VERTEX
  5
18E
  8
1HS
 10
487188.0
 20
4716248.0
 30
0.25
  0
VERTEX
  5
18F
  8
1HS
 10
487188.0
 20
4716248.0
 30
0.25
  0
VERTEX
  5
190
  8
1HS
 10
487172.0
 20
4716251.5
 30
0.25
  0
VERTEX
  5
191
  8
1HS
 10
487147.5
 20
4716247.5
 30
0.25
  0
VERTEX
  5
192
  8
1HS
 10
487149.0
 20
4716215.0
 30
0.25
  0
VERTEX
  5
193
  8
1HS
 10
487149.0
 20
4716215.0
 30
0.25
  0
SEQEND
  5
194
  8
1HS
  0
POLYLINE
  5
7A
  8
1HS
 66
     1
 10
0.0
 20
0.0
 30
0.25
 70
     1
1001
DCO15
1071
        2
1071
        2
1000
Jan27
1004
074138323300
  0
VERTEX
  5
195
  8
1HS
 10
487415.49998870603
 20
4717609.4999646256
 30
0.25
  0
VERTEX
  5
196
  8
1HS
 10
487423.49998870603
 20
4717591.9999646256
 30
0.25
  0
VERTEX
  5
197
  8
1HS
 10
487451.50001058268
 20
4717593.4999461444
 30
0.25
  0
VERTEX
  5
198
  8
1HS
 10
487467.0
 20
4717591.5
 30
0.25
  0
VERTEX
  5
199
  8
1HS
 10
487459.0
 20
4717631.5
 30
0.25
  0
VERTEX
  5
19A
  8
1HS
 10
487418.5
 20
4717637.5
 30
0.25
  0
SEQEND
  5
19B
  8
1HS
  0
POLYLINE
  5
7B
  8
1HS
 66
     1
 10
0.0
 20
0.0
 30
0.25
 70
     1
1001
DCO15
1071
        2
1071
        2
1000
Jan27
1004
074138323500
  0
VERTEX
  5
19C
  8
1HS
 10
486869.4999935794
 20
4717487.5000028824
 30
0.25
  0
VERTEX
  5
19D
  8
1HS
 10
486873.50005206681
 20
4717479.5000272561
 30
0.25
  0
VERTEX
  5
19E
  8
1HS
 10
486915.00005206693
 20
4717478.0000272561
 30
0.25
  0
VERTEX
  5
19F
  8
1HS
 10
486927.0
 20
4717486.0
 30
0.25
  0
VERTEX
  5
1A0
  8
1HS
 10
486923.0
 20
4717517.5
 30
0.25
  0
VERTEX
  5
1A1
  8
1HS
 10
486881.5
 20
4717518.0
 30
0.25
  0
SEQEND
  5
1A2
  8
1HS
  0
POLYLINE
  5
7C
  8
1HS
 66
     1
 10
0.0
 20
0.0
 30
0.25
 70
     1
1001
DCO15
1071
        2
1071
        2
1000
Jan27
1004
074138323700
  0
VERTEX
  5
1A3
  8
1HS
 10
486550.0
 20
4717759.5
 30
0.25
  0
VERTEX
  5
1A4
  8
1HS
 10
486559.0
 20
4717751.0
 30
0.25
  0
VERTEX
  5
1A5
  8
1HS
 10
486589.0
 20
4717750.5
 30
0.25
  0
VERTEX
  5
1A6
  8
1HS
 10
486597.50005908892
 20
4717757.5000104113
 30
0.25
  0
VERTEX
  5
1A7
  8
1HS
 10
486592.0
 20
4717787.5
 30
0.25
  0
VERTEX
  5
1A8
  8
1HS
 10
486553.4999935794
 20
4717790.5000028834
 30
0.25
  0
SEQEND
  5
1A9
  8
1HS
  0
POLYLINE
  5
7D
  8
1HS
 66
     1
 10
0.0
 20
0.0
 30
0.25
 70
     1
1001
DCO15
1071
        2
1071
        2
1000
Jan27
1004
074138333200
  0
VERTEX
  5
1AA
  8
1HS
 10
486765.4999935794
 20
4717893.0000028834
 30
0.25
  0
VERTEX
  5
1AB
  8
1HS
 10
486769.50005206693
 20
4717885.0000272561
 30
0.25
  0
VERTEX
  5
1AC
  8
1HS
 10
486811.00005206681
 20
4717883.5000272561
 30
0.25
  0
VERTEX
  5
1AD
  8
1HS
 10
486827.5
 20
4717899.5
 30
0.25
  0
VERTEX
  5
1AE
  8
1HS
 10
486819.0
 20
4717931.5
 30
0.25
  0
VERTEX
  5
1AF
  8
1HS
 10
486765.9999935794
 20
4717928.5000028824
 30
0.25
  0
SEQEND
  5
1B0
  8
1HS
  0
POLYLINE
  5
7E
  8
1HS
 66
     1
 10
0.0
 20
0.0
 30
0.25
 70
     1
1001
DCO15
1071
        2
1071
        2
1000
Jan27
1004
074138333300
  0
VERTEX
  5
1B1
  8
1HS
 10
486686.49999357952
 20
4717902.0000028824
 30
0.25
  0
VERTEX
  5
1B2
  8
1HS
 10
486690.50005206681
 20
4717894.0000272561
 30
0.25
  0
VERTEX
  5
1B3
  8
1HS
 10
486732.00005206681
 20
4717892.5000272561
 30
0.25
  0
VERTEX
  5
1B4
  8
1HS
 10
486731.00005908881
 20
4717904.5000104113
 30
0.25
  0
VERTEX
  5
1B5
  8
1HS
 10
486728.50001376233
 20
4717938.5000452558
 30
0.25
  0
VERTEX
  5
1B6
  8
1HS
 10
486686.9999935794
 20
4717937.5000028824
 30
0.25
  0
SEQEND
  5
1B7
  8
1HS
  0
POLYLINE
  5
7F
  8
1HS
 66
     1
 10
0.0
 20
0.0
 30
0.25
 70
     1
1001
DCO15
1071
        2
1071
        2
1000
Jan27
1004
074138333800
  0
VERTEX
  5
1B8
  8
1HS
 10
486762.0
 20
4718044.0
 30
0.25
  0
VERTEX
  5
1B9
  8
1HS
 10
486764.0
 20
4718020.0
 30
0.25
  0
VERTEX
  5
1BA
  8
1HS
 10
486808.00000702211
 20
4718017.9999831552
 30
0.25
  0
VERTEX
  5
1BB
  8
1HS
 10
486820.00000702211
 20
4718029.4999831542
 30
0.25
  0
VERTEX
  5
1BC
  8
1HS
 10
486821.5
 20
4718061.0
 30
0.25
  0
VERTEX
  5
1BD
  8
1HS
 10
486766.0
 20
4718063.0
 30
0.25
  0
SEQEND
  5
1BE
  8
1HS
  0
POLYLINE
  5
80
  8
1HS
 66
     1
 10
0.0
 20
0.0
 30
0.25
 70
     1
1001
DCO15
1071
        2
1071
        2
1000
Jan27
1004
074137383400
  0
VERTEX
  5
1BF
  8
1HS
 10
485916.49993519881
 20
4716236.0000197794
 30
0.25
  0
VERTEX
  5
1C0
  8
1HS
 10
485919.99993519881
 20
4716226.5000197794
 30
0.25
  0
VERTEX
  5
1C1
  8
1HS
 10
485954.49993519881
 20
4716225.5000197794
 30
0.25
  0
VERTEX
  5
1C2
  8
1HS
 10
485966.49993519881
 20
4716237.0000197776
 30
0.25
  0
VERTEX
  5
1C3
  8
1HS
 10
485961.0
 20
4716267.0
 30
0.25
  0
VERTEX
  5
1C4
  8
1HS
 10
485911.0
 20
4716267.4999999991
 30
0.25
  0
SEQEND
  5
1C5
  8
1HS
  0
POLYLINE
  5
81
  8
1HS
 66
     1
 10
0.0
 20
0.0
 30
0.25
 70
     1
1001
DCO15
1071
        2
1071
        2
1000
Jan27
1004
074137383700
  0
VERTEX
  5
1C6
  8
1HS
 10
485760.49993519881
 20
4716300.0000197776
 30
0.25
  0
VERTEX
  5
1C7
  8
1HS
 10
485763.99993519881
 20
4716290.5000197794
 30
0.25
  0
VERTEX
  5
1C8
  8
1HS
 10
485798.49993519869
 20
4716289.5000197794
 30
0.25
  0
VERTEX
  5
1C9
  8
1HS
 10
485810.49993519869
 20
4716301.0000197794
 30
0.25
  0
VERTEX
  5
1CA
  8
1HS
 10
485810.50000000012
 20
4716327.5
 30
0.25
  0
VERTEX
  5
1CB
  8
1HS
 10
485764.0
 20
4716328.5
 30
0.25
  0
SEQEND
  5
1CC
  8
1HS
  0
POLYLINE
  5
82
  8
1HS
 66
     1
 10
0.0
 20
0.0
 30
0.25
 70
     1
1001
DCO15
1071
        2
1071
        2
1000
Jan27
1004
074137333700
  0
VERTEX
  5
1CD
  8
1HS
 10
485046.0
 20
4717979.0
 30
0.25
  0
VERTEX
  5
1CE
  8
1HS
 10
485027.0
 20
4717948.5
 30
0.25
  0
VERTEX
  5
1CF
  8
1HS
 10
485033.50000000012
 20
4717935.5
 30
0.25
  0
VERTEX
  5
1D0
  8
1HS
 10
485061.0
 20
4717924.0
 30
0.25
  0
VERTEX
  5
1D1
  8
1HS
 10
485072.5
 20
4717925.4999999991
 30
0.25
  0
VERTEX
  5
1D2
  8
1HS
 10
485092.5
 20
4717961.5
 30
0.25
  0
VERTEX
  5
1D3
  8
1HS
 10
485075.5
 20
4717975.5
 30
0.25
  0
VERTEX
  5
1D4
  8
1HS
 10
485052.0
 20
4717982.0
 30
0.25
  0
SEQEND
  5
1D5
  8
1HS
  0
POLYLINE
  5
83
  8
1HS
 66
     1
 10
0.0
 20
0.0
 30
0.25
 70
     1
1001
DCO15
1071
        2
1071
        2
1000
Jan27
1004
074238313400
  0
VERTEX
  5
1D6
  8
1HS
 10
483457.80259683641
 20
4714633.3204825604
 30
0.25
  0
VERTEX
  5
1D7
  8
1HS
 10
483482.75892784953
 20
4714627.5300369244
 30
0.25
  0
VERTEX
  5
1D8
  8
1HS
 10
483488.13919548591
 20
4714657.9314833824
 30
0.25
  0
VERTEX
  5
1D9
  8
1HS
 10
483492.01973930921
 20
4714678.6158293299
 30
0.25
  0
VERTEX
  5
1DA
  8
1HS
 10
483492.01973930921
 20
4714678.6158293299
 30
0.25
  0
VERTEX
  5
1DB
  8
1HS
 10
483446.66121153772
 20
4714691.2242247527
 30
0.25
  0
VERTEX
  5
1DC
  8
1HS
 10
483440.86779265222
 20
4714684.9884082917
 30
0.25
  0
VERTEX
  5
1DD
  8
1HS
 10
483437.69415518228
 20
4714639.832591407
 30
0.25
  0
VERTEX
  5
1DE
  8
1HS
 10
483437.69415518228
 20
4714639.832591407
 30
0.25
  0
SEQEND
  5
1DF
  8
1HS
  0
POLYLINE
  5
84
  8
1HS
 66
     1
 10
0.0
 20
0.0
 30
0.25
 70
     1
1001
DCO15
1071
        2
1071
        2
1000
Jan27
1004
074238313200
  0
VERTEX
  5
1E0
  8
1HS
 10
483512.21476853569
 20
4714986.7206709906
 30
0.25
  0
VERTEX
  5
1E1
  8
1HS
 10
483541.96453344228
 20
4714988.0133979768
 30
0.25
  0
VERTEX
  5
1E2
  8
1HS
 10
483543.25793530571
 20
4715006.112289954
 30
0.25
  0
VERTEX
  5
1E3
  8
1HS
 10
483545.84490814898
 20
4715037.1388981463
 30
0.25
  0
VERTEX
  5
1E4
  8
1HS
 10
483539.37756059901
 20
4715038.4316251324
 30
0.25
  0
VERTEX
  5
1E5
  8
1HS
 10
483497.9866715722
 20
4715039.7244413886
 30
0.25
  0
VERTEX
  5
1E6
  8
1HS
 10
483492.81289500208
 20
4715035.8460818892
 30
0.25
  0
VERTEX
  5
1E7
  8
1HS
 10
483492.81289500208
 20
4714988.0133979768
 30
0.25
  0
VERTEX
  5
1E8
  8
1HS
 10
483496.69326970878
 20
4714985.4278547354
 30
0.25
  0
SEQEND
  5
1E9
  8
1HS
  0
POLYLINE
  5
85
  8
1HS
 66
     1
 10
0.0
 20
0.0
 30
0.25
 70
     1
1001
DCO15
1071
        2
1071
        2
1000
Jan27
1004
074131303000
  0
VERTEX
  5
1EA
  8
1HS
 10
482901.00534694752
 20
4714306.799927704
 30
0.25
  0
VERTEX
  5
1EB
  8
1HS
 10
482914.72187805339
 20
4714296.2272248846
 30
0.25
  0
VERTEX
  5
1EC
  8
1HS
 10
482914.72187805339
 20
4714296.2272248846
 30
0.25
  0
VERTEX
  5
1ED
  8
1HS
 10
482926.65926107112
 20
4714305.7251994275
 30
0.25
  0
VERTEX
  5
1EE
  8
1HS
 10
482930.63823840133
 20
4714317.6417045528
 30
0.25
  0
VERTEX
  5
1EF
  8
1HS
 10
482927.8240525357
 20
4714333.3367202934
 30
0.25
  0
VERTEX
  5
1F0
  8
1HS
 10
482918.5532254905
 20
4714345.0036211489
 30
0.25
  0
VERTEX
  5
1F1
  8
1HS
 10
482905.45728634892
 20
4714349.5618652403
 30
0.25
  0
VERTEX
  5
1F2
  8
1HS
 10
482887.17971637752
 20
4714336.4108833494
 30
0.25
  0
VERTEX
  5
1F3
  8
1HS
 10
482889.7245333594
 20
4714318.6994256061
 30
0.25
  0
SEQEND
  5
1F4
  8
1HS
  0
POLYLINE
  5
86
  8
1HS
 66
     1
 10
0.0
 20
0.0
 30
0.25
 70
     1
1001
DCO15
1071
        2
1071
        2
1000
Jan27
1004
074130393600
  0
VERTEX
  5
1F5
  8
1HS
 10
482869.9589019987
 20
4714616.9910223642
 30
0.25
  0
VERTEX
  5
1F6
  8
1HS
 10
482890.42635183199
 20
4714613.1214113776
 30
0.25
  0
VERTEX
  5
1F7
  8
1HS
 10
482890.42635183199
 20
4714613.1214113776
 30
0.25
  0
VERTEX
  5
1F8
  8
1HS
 10
482905.91533729411
 20
4714621.9662492406
 30
0.25
  0
VERTEX
  5
1F9
  8
1HS
 10
482913.65966890991
 20
4714630.2582345242
 30
0.25
  0
VERTEX
  5
1FA
  8
1HS
 10
482913.65966890991
 20
4714630.2582345242
 30
0.25
  0
VERTEX
  5
1FB
  8
1HS
 10
482908.12793442048
 20
4714647.395057668
 30
0.25
  0
VERTEX
  5
1FC
  8
1HS
 10
482895.40497731842
 20
4714643.5254466822
 30
0.25
  0
VERTEX
  5
1FD
  8
1HS
 10
482878.2566648479
 20
4714637.4446931845
 30
0.25
  0
VERTEX
  5
1FE
  8
1HS
 10
482863.87405850663
 20
4714629.705471213
 30
0.25
  0
SEQEND
  5
1FF
  8
1HS
  0
POLYLINE
  5
87
  8
1HS
 66
     1
 10
0.0
 20
0.0
 30
0.25
 70
     1
1001
DCO15
1071
        2
1071
        2
1000
Jan27
1004
074131303100
  0
VERTEX
  5
200
  8
1HS
 10
482675.24149352382
 20
4714340.1354296738
 30
0.25
  0
VERTEX
  5
201
  8
1HS
 10
482704.18858106749
 20
4714337.2039297512
 30
0.25
  0
VERTEX
  5
202
  8
1HS
 10
482704.18858106749
 20
4714337.2039297512
 30
0.25
  0
VERTEX
  5
203
  8
1HS
 10
482716.12596408511
 20
4714346.7019042922
 30
0.25
  0
VERTEX
  5
204
  8
1HS
 10
482720.10494141543
 20
4714358.6184094194
 30
0.25
  0
VERTEX
  5
205
  8
1HS
 10
482717.29075554968
 20
4714374.3134251591
 30
0.25
  0
VERTEX
  5
206
  8
1HS
 10
482714.66384226742
 20
4714387.6161197657
 30
0.25
  0
VERTEX
  5
207
  8
1HS
 10
482694.92398936301
 20
4714390.5385701051
 30
0.25
  0
VERTEX
  5
208
  8
1HS
 10
482666.46747369459
 20
4714381.4705558401
 30
0.25
  0
VERTEX
  5
209
  8
1HS
 10
482664.58741865418
 20
4714356.4189155316
 30
0.25
  0
SEQEND
  5
20A
  8
1HS
  0
POLYLINE
  5
88
  8
1HS
 66
     1
 10
0.0
 20
0.0
 30
0.25
 70
     1
1001
DCO15
1071
        2
1071
        2
1000
Jan27
1004
074131303800
  0
VERTEX
  5
20B
  8
1HS
 10
482418.92018024402
 20
4714254.0727175027
 30
0.25
  0
VERTEX
  5
20C
  8
1HS
 10
482435.73740066658
 20
4714249.1935457475
 30
0.25
  0
VERTEX
  5
20D
  8
1HS
 10
482435.73740066658
 20
4714249.1935457475
 30
0.25
  0
VERTEX
  5
20E
  8
1HS
 10
482448.75713224668
 20
4714251.9042463172
 30
0.25
  0
VERTEX
  5
20F
  8
1HS
 10
482453.6828233843
 20
4714260.8674134919
 30
0.25
  0
VERTEX
  5
210
  8
1HS
 10
482450.86863751872
 20
4714276.5624292307
 30
0.25
  0
VERTEX
  5
211
  8
1HS
 10
482448.24172423629
 20
4714289.8651238382
 30
0.25
  0
VERTEX
  5
212
  8
1HS
 10
482428.50187133189
 20
4714292.7875741767
 30
0.25
  0
VERTEX
  5
213
  8
1HS
 10
482410.22430136049
 20
4714279.6365922866
 30
0.25
  0
VERTEX
  5
214
  8
1HS
 10
482410.24041289568
 20
4714265.9994429247
 30
0.25
  0
SEQEND
  5
215
  8
1HS
  0
POLYLINE
  5
89
  8
1HS
 66
     1
 10
0.0
 20
0.0
 30
0.2
 70
     1
1001
DCO15
1071
        2
1071
        2
1000
Jan27
1004
074134333100
  0
VERTEX
  5
216
  8
1HS
 10
468773.06527902698
 20
4729167.1859030761
 30
0.2
  0
VERTEX
  5
217
  8
1HS
 10
468790.76375692739
 20
4729173.0813258924
 30
0.2
  0
VERTEX
  5
218
  8
1HS
 10
468807.47896628518
 20
4729188.8023757758
 30
0.2
  0
VERTEX
  5
219
  8
1HS
 10
468789.78048838471
 20
4729216.3145041643
 30
0.2
  0
VERTEX
  5
21A
  8
1HS
 10
468756.35042553907
 20
4729196.6630171537
 30
0.2
  0
VERTEX
  5
21B
  8
1HS
 10
468763.23294946877
 20
4729179.9592415532
 30
0.2
  0
SEQEND
  5
21C
  8
1HS
  0
POLYLINE
  5
8A
  8
1HS
 66
     1
 10
0.0
 20
0.0
 30
0.25
 70
     1
1001
DCO15
1071
        2
1071
        2
1000
Jan27
1004
074134303100
  0
VERTEX
  5
21D
  8
1HS
 10
468141.62858372641
 20
4729211.0585516859
 30
0.25
  0
VERTEX
  5
21E
  8
1HS
 10
468191.080977228
 20
4729201.6455762703
 30
0.25
  0
VERTEX
  5
21F
  8
1HS
 10
468187.94113707118
 20
4729173.4061842738
 30
0.25
  0
VERTEX
  5
220
  8
1HS
 10
468152.61784634017
 20
4729178.1127884202
 30
0.25
  0
VERTEX
  5
221
  8
1HS
 10
468136.13395241951
 20
4729186.7414462483
 30
0.25
  0
SEQEND
  5
222
  8
1HS
  0
POLYLINE
  5
8B
  8
1HS
 66
     1
 10
0.0
 20
0.0
 30
0.25
 70
     1
1001
DCO15
1071
        2
1071
        2
1000
Jan27
1004
074133393900
  0
VERTEX
  5
223
  8
1HS
 10
468291.46084498032
 20
4729635.6992248632
 30
0.25
  0
VERTEX
  5
224
  8
1HS
 10
468271.40223788109
 20
4729611.2191080507
 30
0.25
  0
VERTEX
  5
225
  8
1HS
 10
468318.89521169511
 20
4729592.3195692273
 30
0.25
  0
VERTEX
  5
226
  8
1HS
 10
468331.9584841053
 20
4729590.869233734
 30
0.25
  0
VERTEX
  5
227
  8
1HS
 10
468339.27766040631
 20
4729621.7084242869
 30
0.25
  0
VERTEX
  5
228
  8
1HS
 10
468311.63795675721
 20
4729634.3834901918
 30
0.25
  0
VERTEX
  5
229
  8
1HS
 10
468294.56865684577
 20
4729637.1896145772
 30
0.25
  0
SEQEND
  5
22A
  8
1HS
  0
POLYLINE
  5
8C
  8
1HS
 66
     1
 10
0.0
 20
0.0
 30
0.25
 70
     1
1001
DCO15
1071
        2
1071
        2
1000
Jan27
1004
074234373500
  0
VERTEX
  5
22B
  8
1HS
 10
468549.00069116522
 20
4729783.5258574598
 30
0.25
  0
VERTEX
  5
22C
  8
1HS
 10
468556.16791101749
 20
4729778.2750281962
 30
0.25
  0
VERTEX
  5
22D
  8
1HS
 10
468589.6154114884
 20
4729779.7071995623
 30
0.25
  0
VERTEX
  5
22E
  8
1HS
 10
468595.08584364189
 20
4729787.2681328831
 30
0.25
  0
VERTEX
  5
22F
  8
1HS
 10
468597.06341269438
 20
4729820.8526678672
 30
0.25
  0
VERTEX
  5
230
  8
1HS
 10
468592.61468303337
 20
4729828.7319391174
 30
0.25
  0
VERTEX
  5
231
  8
1HS
 10
468547.49571734422
 20
4729825.1778253941
 30
0.25
  0
VERTEX
  5
232
  8
1HS
 10
468547.56724719482
 20
4729794.0277488614
 30
0.25
  0
SEQEND
  5
233
  8
1HS
  0
POLYLINE
  5
8D
  8
1HS
 66
     1
 10
0.0
 20
0.0
 30
0.25
 70
     1
1001
DCO15
1071
        2
1071
        2
1000
Jan27
1004
074235323700
  0
VERTEX
  5
234
  8
1HS
 10
470589.2766598473
 20
4728331.3889065906
 30
0.25
  0
VERTEX
  5
235
  8
1HS
 10
470598.10851196368
 20
4728361.3069029711
 30
0.25
  0
VERTEX
  5
236
  8
1HS
 10
470545.01025534229
 20
4728372.2306088666
 30
0.25
  0
VERTEX
  5
237
  8
1HS
 10
470531.7357679375
 20
4728316.8324030172
 30
0.25
  0
VERTEX
  5
238
  8
1HS
 10
470584.05300982803
 20
4728309.0298133474
 30
0.25
  0
SEQEND
  5
239
  8
1HS
  0
POLYLINE
  5
8E
  8
1HS
 66
     1
 10
0.0
 20
0.0
 30
0.25
 70
     1
1001
DCO15
1071
        2
1071
        2
1000
Jan27
1004
074134353700
  0
VERTEX
  5
23A
  8
1HS
 10
467898.58174938679
 20
4728592.9352721917
 30
0.25
  0
VERTEX
  5
23B
  8
1HS
 10
467893.97456068028
 20
4728604.9046404175
 30
0.25
  0
VERTEX
  5
23C
  8
1HS
 10
467892.13193079981
 20
4728623.319145794
 30
0.25
  0
VERTEX
  5
23D
  8
1HS
 10
467900.42468627001
 20
4728632.5263984827
 30
0.25
  0
VERTEX
  5
23E
  8
1HS
 10
467920.69607097661
 20
4728633.4471036606
 30
0.25
  0
VERTEX
  5
23F
  8
1HS
 10
467930.83176332997
 20
4728624.2398509728
 30
0.25
  0
VERTEX
  5
240
  8
1HS
 10
467943.7320145095
 20
4728616.8740086444
 30
0.25
  0
VERTEX
  5
241
  8
1HS
 10
467943.7320145095
 20
4728602.1425248804
 30
0.25
  0
VERTEX
  5
242
  8
1HS
 10
467938.20320385991
 20
4728591.0936609386
 30
0.25
  0
VERTEX
  5
243
  8
1HS
 10
467903.54874519428
 20
4728590.7971388251
 30
0.25
  0
SEQEND
  5
244
  8
1HS
  0
POLYLINE
  5
8F
  8
1HS
 66
     1
 10
0.0
 20
0.0
 30
0.25
 70
     1
1001
DCO15
1071
        2
1071
        2
1000
Jan27
1004
074134363100
  0
VERTEX
  5
245
  8
1HS
 10
467898.58174938679
 20
4728545.0575983943
 30
0.25
  0
VERTEX
  5
246
  8
1HS
 10
467893.97456068028
 20
4728533.0882301666
 30
0.25
  0
VERTEX
  5
247
  8
1HS
 10
467897.66043444659
 20
4728523.8809774797
 30
0.25
  0
VERTEX
  5
248
  8
1HS
 10
467904.11056003621
 20
4728517.4358403292
 30
0.25
  0
VERTEX
  5
249
  8
1HS
 10
467928.06751150661
 20
4728518.3565455079
 30
0.25
  0
VERTEX
  5
24A
  8
1HS
 10
467931.75338527292
 20
4728520.1979558673
 30
0.25
  0
VERTEX
  5
24B
  8
1HS
 10
467933.59601515351
 20
4728522.0395671213
 30
0.25
  0
VERTEX
  5
24C
  8
1HS
 10
467927.14619656641
 20
4728546.8990087518
 30
0.25
  0
SEQEND
  5
24D
  8
1HS
  0
POLYLINE
  5
90
  8
1HS
 66
     1
 10
0.0
 20
0.0
 30
0.25
 70
     1
1001
DCO15
1071
        2
1071
        2
1000
Jan27
1004
074134363300
  0
VERTEX
  5
24E
  8
1HS
 10
467890.28899391647
 20
4728466.7960509928
 30
0.25
  0
VERTEX
  5
24F
  8
1HS
 10
467909.63906368311
 20
4728464.0339354547
 30
0.25
  0
VERTEX
  5
250
  8
1HS
 10
467915.16756732989
 20
4728465.8753458131
 30
0.25
  0
VERTEX
  5
251
  8
1HS
 10
467918.85344109632
 20
4728480.6068295771
 30
0.25
  0
VERTEX
  5
252
  8
1HS
 10
467917.0105042131
 20
4728502.7043565661
 30
0.25
  0
VERTEX
  5
253
  8
1HS
 10
467895.81749756337
 20
4728503.6250617448
 30
0.25
  0
VERTEX
  5
254
  8
1HS
 10
467886.60312015028
 20
4728502.7043565661
 30
0.25
  0
VERTEX
  5
255
  8
1HS
 10
467883.83886832697
 20
4728473.2411881424
 30
0.25
  0
VERTEX
  5
256
  8
1HS
 10
467885.68180521007
 20
4728468.6374613512
 30
0.25
  0
SEQEND
  5
257
  8
1HS
  0
POLYLINE
  5
91
  8
1HS
 66
     1
 10
0.0
 20
0.0
 30
0.25
 70
     1
1001
DCO15
1071
        2
1071
        2
1000
Jan27
1004
074134353900
  0
VERTEX
  5
258
  8
1HS
 10
467939.20771651721
 20
4728845.1351643568
 30
0.25
  0
VERTEX
  5
259
  8
1HS
 10
467939.20771651721
 20
4728869.0511995908
 30
0.25
  0
VERTEX
  5
25A
  8
1HS
 10
467939.20771651721
 20
4728875.030258623
 30
0.25
  0
VERTEX
  5
25B
  8
1HS
 10
467928.73647027201
 20
4728882.5039819647
 30
0.25
  0
VERTEX
  5
25C
  8
1HS
 10
467901.81018921081
 20
4728876.525123829
 30
0.25
  0
VERTEX
  5
25D
  8
1HS
 10
467883.8594375042
 20
4728870.5460647959
 30
0.25
  0
VERTEX
  5
25E
  8
1HS
 10
467882.36372061347
 20
4728858.5879467316
 30
0.25
  0
VERTEX
  5
25F
  8
1HS
 10
467889.84322607482
 20
4728842.1456348421
 30
0.25
  0
VERTEX
  5
260
  8
1HS
 10
467918.26522402669
 20
4728840.6509705307
 30
0.25
  0
VERTEX
  5
261
  8
1HS
 10
467933.22423494927
 20
4728843.6405000482
 30
0.25
  0
SEQEND
  5
262
  8
1HS
  0
POLYLINE
  5
92
  8
1HS
 66
     1
 10
0.0
 20
0.0
 30
0.25
 70
     1
1001
DCO15
1071
        2
1071
        2
1000
Jan27
1004
074234363000
  0
VERTEX
  5
263
  8
1HS
 10
467644.27502167667
 20
4729488.1786325779
 30
0.25
  0
VERTEX
  5
264
  8
1HS
 10
467683.46448303718
 20
4729473.6738804262
 30
0.25
  0
VERTEX
  5
265
  8
1HS
 10
467702.33341704973
 20
4729509.9357608072
 30
0.25
  0
VERTEX
  5
266
  8
1HS
 10
467657.33793821698
 20
4729527.3416496888
 30
0.25
  0
VERTEX
  5
267
  8
1HS
 10
467647.17785247788
 20
4729499.782480875
 30
0.25
  0
SEQEND
  5
268
  8
1HS
  0
POLYLINE
  5
93
  8
1HS
 66
     1
 10
0.0
 20
0.0
 30
0.25
 70
     1
1001
DCO15
1071
        2
1071
        2
1000
Jan27
1004
074234373300
  0
VERTEX
  5
269
  8
1HS
 10
467926.10314358171
 20
4729377.7814007159
 30
0.25
  0
VERTEX
  5
26A
  8
1HS
 10
467965.29260494222
 20
4729363.2766485643
 30
0.25
  0
VERTEX
  5
26B
  8
1HS
 10
467984.16153895471
 20
4729399.5385289453
 30
0.25
  0
VERTEX
  5
26C
  8
1HS
 10
467939.1660601219
 20
4729416.9444178278
 30
0.25
  0
VERTEX
  5
26D
  8
1HS
 10
467929.00597438292
 20
4729389.3852490131
 30
0.25
  0
SEQEND
  5
26E
  8
1HS
  0
POLYLINE
  5
94
  8
1HS
 66
     1
 10
0.0
 20
0.0
 30
0.1
 70
     1
1001
DCO15
1071
        2
1071
        2
1000
Jan27
1004
074234353200
  0
VERTEX
  5
26F
  8
1HS
 10
467595.81236300181
 20
4729332.4276718963
 30
0.1
  0
VERTEX
  5
270
  8
1HS
 10
467638.18241216359
 20
4729317.1861138474
 30
0.1
  0
VERTEX
  5
271
  8
1HS
 10
467639.03004646878
 20
4729314.6457872074
 30
0.1
  0
VERTEX
  5
272
  8
1HS
 10
467624.62394731148
 20
4729272.3080143509
 30
0.1
  0
VERTEX
  5
273
  8
1HS
 10
467623.77662000881
 20
4729272.3080143509
 30
0.1
  0
VERTEX
  5
274
  8
1HS
 10
467619.53967649309
 20
4729272.3080143509
 30
0.1
  0
VERTEX
  5
275
  8
1HS
 10
467564.02009000361
 20
4729291.3185773902
 30
0.1
  0
VERTEX
  5
276
  8
1HS
 10
467562.25912282697
 20
4729305.0419663284
 30
0.1
  0
VERTEX
  5
277
  8
1HS
 10
467573.18903102522
 20
4729342.8013252551
 30
0.1
  0
SEQEND
  5
278
  8
1HS
  0
POLYLINE
  5
95
  8
1HS
 66
     1
 10
0.0
 20
0.0
 30
0.25
 70
     1
1001
DCO15
1071
        2
1071
        2
1000
Jan27
1004
074234383100
  0
VERTEX
  5
279
  8
1HS
 10
468512.75534151471
 20
4729837.3766652104
 30
0.25
  0
VERTEX
  5
27A
  8
1HS
 10
468519.92256136698
 20
4729832.1258359468
 30
0.25
  0
VERTEX
  5
27B
  8
1HS
 10
468553.37006183789
 20
4729833.5580073129
 30
0.25
  0
VERTEX
  5
27C
  8
1HS
 10
468558.84049399139
 20
4729841.1189406337
 30
0.25
  0
VERTEX
  5
27D
  8
1HS
 10
468560.81806304399
 20
4729874.7034756169
 30
0.25
  0
VERTEX
  5
27E
  8
1HS
 10
468556.36933338293
 20
4729882.582746868
 30
0.25
  0
VERTEX
  5
27F
  8
1HS
 10
468511.25036769372
 20
4729879.0286331447
 30
0.25
  0
VERTEX
  5
280
  8
1HS
 10
468511.32189754432
 20
4729847.8785566119
 30
0.25
  0
SEQEND
  5
281
  8
1HS
  0
POLYLINE
  5
96
  8
1HS
 66
     1
 10
0.0
 20
0.0
 30
0.25
 70
     1
1001
DCO15
1071
        2
1071
        2
1000
Jan27
1004
074235313500
  0
VERTEX
  5
282
  8
1HS
 10
468358.24481451209
 20
4729996.1902644858
 30
0.25
  0
VERTEX
  5
283
  8
1HS
 10
468365.41203436448
 20
4729990.9394352231
 30
0.25
  0
VERTEX
  5
284
  8
1HS
 10
468398.85953483533
 20
4729992.3716065893
 30
0.25
  0
VERTEX
  5
285
  8
1HS
 10
468404.32996698871
 20
4729999.932539911
 30
0.25
  0
VERTEX
  5
286
  8
1HS
 10
468406.30753604131
 20
4730033.5170748942
 30
0.25
  0
VERTEX
  5
287
  8
1HS
 10
468401.8588063803
 20
4730041.3963461444
 30
0.25
  0
VERTEX
  5
288
  8
1HS
 10
468356.73984069109
 20
4730037.8422324201
 30
0.25
  0
VERTEX
  5
289
  8
1HS
 10
468356.81137054169
 20
4730006.6921558883
 30
0.25
  0
SEQEND
  5
28A
  8
1HS
  0
POLYLINE
  5
97
  8
1HS
 66
     1
 10
0.0
 20
0.0
 30
0.25
 70
     1
1001
DCO15
1071
        2
1071
        2
1000
Jan27
1004
074235313300
  0
VERTEX
  5
28B
  8
1HS
 10
468463.57376500953
 20
4729997.1401550556
 30
0.25
  0
VERTEX
  5
28C
  8
1HS
 10
468470.74098486191
 20
4729991.8893257929
 30
0.25
  0
VERTEX
  5
28D
  8
1HS
 10
468504.18848533282
 20
4729993.3214971591
 30
0.25
  0
VERTEX
  5
28E
  8
1HS
 10
468509.6589174862
 20
4730000.8824304808
 30
0.25
  0
VERTEX
  5
28F
  8
1HS
 10
468511.6364865388
 20
4730034.4669654639
 30
0.25
  0
VERTEX
  5
290
  8
1HS
 10
468507.18775687768
 20
4730042.3462367142
 30
0.25
  0
VERTEX
  5
291
  8
1HS
 10
468462.06879118847
 20
4730038.7921229908
 30
0.25
  0
VERTEX
  5
292
  8
1HS
 10
468462.14032103919
 20
4730007.6420464581
 30
0.25
  0
SEQEND
  5
293
  8
1HS
  0
POLYLINE
  5
98
  8
1HS
 66
     1
 10
0.0
 20
0.0
 30
0.25
 70
     1
1001
DCO15
1071
        2
1071
        2
1000
Jan27
1004
074134373600
  0
VERTEX
  5
294
  8
1HS
 10
467903.59040824202
 20
4726002.5592173114
 30
0.25
  0
VERTEX
  5
295
  8
1HS
 10
467927.36038256268
 20
4725988.1613540463
 30
0.25
  0
VERTEX
  5
296
  8
1HS
 10
467942.71047497127
 20
4725997.7457242804
 30
0.25
  0
VERTEX
  5
297
  8
1HS
 10
467940.79198032268
 20
4726019.789752529
 30
0.25
  0
VERTEX
  5
298
  8
1HS
 10
467905.29466920882
 20
4726022.6650403114
 30
0.25
  0
VERTEX
  5
299
  8
1HS
 10
467901.45732404158
 20
4726005.4130807417
 30
0.25
  0
SEQEND
  5
29A
  8
1HS
  0
POLYLINE
  5
99
  8
1HS
 66
     1
 10
0.0
 20
0.0
 30
0.25
 70
     1
1001
DCO15
1071
        2
1071
        2
1000
Jan27
1004
074134393000
  0
VERTEX
  5
29B
  8
1HS
 10
467986.84901907691
 20
4726094.5865904791
 30
0.25
  0
VERTEX
  5
29C
  8
1HS
 10
467999.1927225425
 20
4726109.2301351754
 30
0.25
  0
VERTEX
  5
29D
  8
1HS
 10
467998.42119659227
 20
4726136.9763013227
 30
0.25
  0
VERTEX
  5
29E
  8
1HS
 10
467968.33346387843
 20
4726150.8492679615
 30
0.25
  0
VERTEX
  5
29F
  8
1HS
 10
467952.90365661139
 20
4726146.2251009978
 30
0.25
  0
VERTEX
  5
2A0
  8
1HS
 10
467948.2748567792
 20
4726120.0203238372
 30
0.25
  0
VERTEX
  5
2A1
  8
1HS
 10
467959.84703429451
 20
4726098.4401793862
 30
0.25
  0
VERTEX
  5
2A2
  8
1HS
 10
467987.6205450272
 20
4726093.044968619
 30
0.25
  0
SEQEND
  5
2A3
  8
1HS
  0
POLYLINE
  5
9A
  8
1HS
 66
     1
 10
0.0
 20
0.0
 30
0.25
 70
     1
1001
DCO15
1071
        2
1071
        2
1000
Jan27
1004
074134393700
  0
VERTEX
  5
2A4
  8
1HS
 10
467981.44869329443
 20
4726247.960733044
 30
0.25
  0
VERTEX
  5
2A5
  8
1HS
 10
467962.93278222613
 20
4726263.3750886694
 30
0.25
  0
VERTEX
  5
2A6
  8
1HS
 10
467945.18875297782
 20
4726241.7949442193
 30
0.25
  0
VERTEX
  5
2A7
  8
1HS
 10
467945.18875297782
 20
4726236.3997334521
 30
0.25
  0
VERTEX
  5
2A8
  8
1HS
 10
467963.7043081763
 20
4726222.5267668143
 30
0.25
  0
VERTEX
  5
2A9
  8
1HS
 10
467983.76291527553
 20
4726244.1069112653
 30
0.25
  0
SEQEND
  5
2AA
  8
1HS
  0
POLYLINE
  5
9B
  8
1HS
 66
     1
 10
0.0
 20
0.0
 30
0.25
 70
     1
1001
DCO15
1071
        2
1071
        2
1000
Jan27
1004
074134393800
  0
VERTEX
  5
2AB
  8
1HS
 10
467976.04801164212
 20
4726387.4616760984
 30
0.25
  0
VERTEX
  5
2AC
  8
1HS
 10
467995.33509279089
 20
4726392.8568868646
 30
0.25
  0
VERTEX
  5
2AD
  8
1HS
 10
468015.39369989
 20
4726386.69109804
 30
0.25
  0
VERTEX
  5
2AE
  8
1HS
 10
468016.16522584041
 20
4726366.652109704
 30
0.25
  0
VERTEX
  5
2AF
  8
1HS
 10
468007.67879625648
 20
4726355.8621539157
 30
0.25
  0
VERTEX
  5
2B0
  8
1HS
 10
467990.70629295858
 20
4726350.4669431495
 30
0.25
  0
VERTEX
  5
2B1
  8
1HS
 10
467972.19073776022
 20
4726358.1741209608
 30
0.25
  0
VERTEX
  5
2B2
  8
1HS
 10
467971.41921180981
 20
4726382.8375091339
 30
0.25
  0
SEQEND
  5
2B3
  8
1HS
  0
POLYLINE
  5
9C
  8
1HS
 66
     1
 10
0.0
 20
0.0
 30
0.25
 70
     1
1001
DCO15
1071
        2
1071
        2
1000
Jan27
1004
074133343300
  0
VERTEX
  5
2B4
  8
1HS
 10
467469.07432392938
 20
4725777.2274292028
 30
0.25
  0
VERTEX
  5
2B5
  8
1HS
 10
467467.24266153702
 20
4725760.7602529684
 30
0.25
  0
VERTEX
  5
2B6
  8
1HS
 10
467491.05213741708
 20
4725753.4415079746
 30
0.25
  0
VERTEX
  5
2B7
  8
1HS
 10
467510.28263525118
 20
4725753.4415079746
 30
0.25
  0
VERTEX
  5
2B8
  8
1HS
 10
467507.53531959769
 20
4725781.8015283868
 30
0.25
  0
VERTEX
  5
2B9
  8
1HS
 10
467470.90563045163
 20
4725782.7164879469
 30
0.25
  0
SEQEND
  5
2BA
  8
1HS
  0
POLYLINE
  5
9D
  8
1HS
 66
     1
 10
0.0
 20
0.0
 30
0.25
 70
     1
1001
DCO15
1071
        2
1071
        2
1000
Jan27
1004
074133343200
  0
VERTEX
  5
2BB
  8
1HS
 10
467329.76655919547
 20
4725771.8906696569
 30
0.25
  0
VERTEX
  5
2BC
  8
1HS
 10
467333.89571768342
 20
4725798.2922248347
 30
0.25
  0
VERTEX
  5
2BD
  8
1HS
 10
467377.66664817883
 20
4725802.4173441175
 30
0.25
  0
VERTEX
  5
2BE
  8
1HS
 10
467381.79580666689
 20
4725766.94024707
 30
0.25
  0
VERTEX
  5
2BF
  8
1HS
 10
467342.15439052909
 20
4725761.1649869252
 30
0.25
  0
VERTEX
  5
2C0
  8
1HS
 10
467331.41815141652
 20
4725767.7653174996
 30
0.25
  0
SEQEND
  5
2C1
  8
1HS
  0
POLYLINE
  5
9E
  8
1HS
 66
     1
 10
0.0
 20
0.0
 30
0.25
 70
     1
1001
DCO15
1071
        2
1071
        2
1000
Jan27
1004
074133353000
  0
VERTEX
  5
2C2
  8
1HS
 10
467523.32918177592
 20
4725877.0153081911
 30
0.25
  0
VERTEX
  5
2C3
  8
1HS
 10
467551.56354403333
 20
4725876.3593038432
 30
0.25
  0
VERTEX
  5
2C4
  8
1HS
 10
467561.41295534681
 20
4725882.2631101012
 30
0.25
  0
VERTEX
  5
2C5
  8
1HS
 10
467556.81653967581
 20
4725903.9100892153
 30
0.25
  0
VERTEX
  5
2C6
  8
1HS
 10
467520.70250601962
 20
4725901.9423090443
 30
0.25
  0
VERTEX
  5
2C7
  8
1HS
 10
467518.73276610498
 20
4725899.3182916529
 30
0.25
  0
VERTEX
  5
2C8
  8
1HS
 10
467520.04592604807
 20
4725877.6713125389
 30
0.25
  0
SEQEND
  5
2C9
  8
1HS
  0
POLYLINE
  5
9F
  8
1HS
 66
     1
 10
0.0
 20
0.0
 30
0.25
 70
     1
1001
DCO15
1071
        2
1071
        2
1000
Jan27
1004
074133333900
  0
VERTEX
  5
2CA
  8
1HS
 10
467316.07161770703
 20
4725833.4586687759
 30
0.25
  0
VERTEX
  5
2CB
  8
1HS
 10
467348.65328670299
 20
4725838.2453813674
 30
0.25
  0
VERTEX
  5
2CC
  8
1HS
 10
467355.36143438012
 20
4725845.9041215144
 30
0.25
  0
VERTEX
  5
2CD
  8
1HS
 10
467349.61164435261
 20
4725863.1362868464
 30
0.25
  0
VERTEX
  5
2CE
  8
1HS
 10
467309.36347003002
 20
4725859.3069167715
 30
0.25
  0
VERTEX
  5
2CF
  8
1HS
 10
467311.91434549668
 20
4725851.3743175147
 30
0.25
  0
VERTEX
  5
2D0
  8
1HS
 10
467313.89476150851
 20
4725832.5821333248
 30
0.25
  0
SEQEND
  5
2D1
  8
1HS
  0
POLYLINE
  5
A0
  8
1HS
 66
     1
 10
0.0
 20
0.0
 30
0.25
 70
     1
1001
DCO15
1071
        2
1071
        2
1000
Jan27
1004
074133333800
  0
VERTEX
  5
2D2
  8
1HS
 10
467258.57442917151
 20
4725829.6292987019
 30
0.25
  0
VERTEX
  5
2D3
  8
1HS
 10
467285.40630814008
 20
4725828.6719561834
 30
0.25
  0
VERTEX
  5
2D4
  8
1HS
 10
467311.28018532909
 20
4725832.5013262583
 30
0.25
  0
VERTEX
  5
2D5
  8
1HS
 10
467309.60439395427
 20
4725850.0555554908
 30
0.25
  0
VERTEX
  5
2D6
  8
1HS
 10
467300.73896292353
 20
4725859.3069167715
 30
0.25
  0
VERTEX
  5
2D7
  8
1HS
 10
467264.32421919901
 20
4725855.4775466984
 30
0.25
  0
VERTEX
  5
2D8
  8
1HS
 10
467258.57442917151
 20
4725840.1600664044
 30
0.25
  0
SEQEND
  5
2D9
  8
1HS
  0
POLYLINE
  5
A1
  8
1HS
 66
     1
 10
0.0
 20
0.0
 30
0.25
 70
     1
1001
DCO15
1071
        2
1071
        2
1000
Jan27
1004
074133363900
  0
VERTEX
  5
2DA
  8
1HS
 10
467909.43343618419
 20
4726810.7719435804
 30
0.25
  0
VERTEX
  5
2DB
  8
1HS
 10
467911.31990254141
 20
4726829.4677181859
 30
0.25
  0
VERTEX
  5
2DC
  8
1HS
 10
467914.16223545908
 20
4726852.1901066294
 30
0.25
  0
VERTEX
  5
2DD
  8
1HS
 10
467931.21730057459
 20
4726852.1901066294
 30
0.25
  0
VERTEX
  5
2DE
  8
1HS
 10
467938.32366667333
 20
4726828.0474233618
 30
0.25
  0
VERTEX
  5
2DF
  8
1HS
 10
467934.05963349208
 20
4726799.6443213718
 30
0.25
  0
VERTEX
  5
2E0
  8
1HS
 10
467921.268601558
 20
4726795.3839026494
 30
0.25
  0
VERTEX
  5
2E1
  8
1HS
 10
467911.31990254141
 20
4726802.4846781446
 30
0.25
  0
SEQEND
  5
2E2
  8
1HS
  0
POLYLINE
  5
A2
  8
1HS
 66
     1
 10
0.0
 20
0.0
 30
0.25
 70
     1
1001
DCO15
1071
        2
1071
        2
1000
Jan27
1004
074133363800
  0
VERTEX
  5
2E3
  8
1HS
 10
467709.07441019057
 20
4726823.2038896624
 30
0.25
  0
VERTEX
  5
2E4
  8
1HS
 10
467719.18289479369
 20
4726832.2948011756
 30
0.25
  0
VERTEX
  5
2E5
  8
1HS
 10
467729.29173526668
 20
4726832.2948011756
 30
0.25
  0
VERTEX
  5
2E6
  8
1HS
 10
467741.42191679042
 20
4726824.2140944414
 30
0.25
  0
VERTEX
  5
2E7
  8
1HS
 10
467739.4002198698
 20
4726804.0123276031
 30
0.25
  0
VERTEX
  5
2E8
  8
1HS
 10
467727.26968247612
 20
4726795.9313879954
 30
0.25
  0
VERTEX
  5
2E9
  8
1HS
 10
467712.10677763663
 20
4726800.9819461396
 30
0.25
  0
VERTEX
  5
2EA
  8
1HS
 10
467708.06338379532
 20
4726819.1635362944
 30
0.25
  0
SEQEND
  5
2EB
  8
1HS
  0
POLYLINE
  5
A3
  8
1HS
 66
     1
 10
0.0
 20
0.0
 30
0.25
 70
     1
1001
DCO15
1071
        2
1071
        2
1000
Jan27
1004
074133373000
  0
VERTEX
  5
2EC
  8
1HS
 10
467536.21594271401
 20
4726938.3546592556
 30
0.25
  0
VERTEX
  5
2ED
  8
1HS
 10
467585.74840694381
 20
4726941.3848078446
 30
0.25
  0
VERTEX
  5
2EE
  8
1HS
 10
467588.78113025968
 20
4726897.9508927073
 30
0.25
  0
VERTEX
  5
2EF
  8
1HS
 10
467539.24866602989
 20
4726891.8903626567
 30
0.25
  0
VERTEX
  5
2F0
  8
1HS
 10
467534.19424579339
 20
4726934.314073015
 30
0.25
  0
SEQEND
  5
2F1
  8
1HS
  0
POLYLINE
  5
A4
  8
1HS
 66
     1
 10
0.0
 20
0.0
 30
12.800000000000001
 70
     1
1001
DCO15
1071
        2
1071
        2
1000
Jan27
1004
074234363500
  0
VERTEX
  5
2F2
  8
1HS
 10
467837.8761836394
 20
4729610.334189157
 30
12.800000000000001
  0
VERTEX
  5
2F3
  8
1HS
 10
467802.30591919553
 20
4729627.4473561831
 30
12.800000000000001
  0
VERTEX
  5
2F4
  8
1HS
 10
467779.90995857149
 20
4729595.8536558384
 30
12.800000000000001
  0
VERTEX
  5
2F5
  8
1HS
 10
467772.00537627941
 20
4729574.7911889385
 30
12.800000000000001
  0
VERTEX
  5
2F6
  8
1HS
 10
467815.48022301542
 20
4729556.3615886224
 30
12.800000000000001
  0
VERTEX
  5
2F7
  8
1HS
 10
467824.70223568939
 20
4729556.3615886224
 30
12.800000000000001
  0
VERTEX
  5
2F8
  8
1HS
 10
467844.4633355494
 20
4729605.068455996
 30
12.800000000000001
  0
SEQEND
  5
2F9
  8
1HS
  0
POLYLINE
  5
A5
  8
1HS
 66
     1
 10
0.0
 20
0.0
 30
0.25
 70
     1
1001
DCO15
1071
        2
1071
        2
1000
Jan27
1004
074133303400
  0
VERTEX
  5
2FA
  8
1HS
 10
465826.7236882592
 20
4726480.3769955132
 30
0.25
  0
VERTEX
  5
2FB
  8
1HS
 10
465830.69911094889
 20
4726501.2296434827
 30
0.25
  0
VERTEX
  5
2FC
  8
1HS
 10
465838.65066806797
 20
4726503.2155877789
 30
0.25
  0
VERTEX
  5
2FD
  8
1HS
 10
465866.48076211527
 20
4726496.2647827454
 30
0.25
  0
VERTEX
  5
2FE
  8
1HS
 10
465868.46829552518
 20
4726492.2928941566
 30
0.25
  0
VERTEX
  5
2FF
  8
1HS
 10
465858.52920499613
 20
4726465.4824133003
 30
0.25
  0
VERTEX
  5
300
  8
1HS
 10
465826.7236882592
 20
4726471.4402461853
 30
0.25
  0
SEQEND
  5
301
  8
1HS
  0
POLYLINE
  5
A6
  8
1HS
 66
     1
 10
0.0
 20
0.0
 30
6.2999999999999989
 70
     1
1001
DCO15
1071
        2
1071
        2
1000
Jan27
1004
074135393500
  0
VERTEX
  5
302
  8
1HS
 10
468075.53500443918
 20
4725675.2295994991
 30
6.2999999999999989
  0
VERTEX
  5
303
  8
1HS
 10
468102.74771896889
 20
4725667.8137341309
 30
6.2999999999999989
  0
VERTEX
  5
304
  8
1HS
 10
468118.82790355431
 20
4725660.3976678653
 30
6.2999999999999989
  0
VERTEX
  5
305
  8
1HS
 10
468116.35407623393
 20
4725635.6778487749
 30
6.2999999999999989
  0
VERTEX
  5
306
  8
1HS
 10
468103.98463262909
 20
4725615.9020738602
 30
6.2999999999999989
  0
VERTEX
  5
307
  8
1HS
 10
468085.4306207234
 20
4725614.6659623692
 30
6.2999999999999989
  0
VERTEX
  5
308
  8
1HS
 10
468068.11321547528
 20
4725627.0258719139
 30
6.2999999999999989
  0
VERTEX
  5
309
  8
1HS
 10
468070.5873497983
 20
4725662.8696899526
 30
6.2999999999999989
  0
SEQEND
  5
30A
  8
1HS
  0
POLYLINE
  5
A7
  8
1HS
 66
     1
 10
0.0
 20
0.0
 30
0.25
 70
     1
1001
DCO15
1071
        2
1071
        2
1000
Jan27
1004
074135383900
  0
VERTEX
  5
30B
  8
1HS
 10
468149.75135906471
 20
4725706.1295742588
 30
0.25
  0
VERTEX
  5
30C
  8
1HS
 10
468170.77950529353
 20
4725703.6575521706
 30
0.25
  0
VERTEX
  5
30D
  8
1HS
 10
468184.38586255832
 20
4725693.7696647132
 30
0.25
  0
VERTEX
  5
30E
  8
1HS
 10
468184.38586255832
 20
4725673.9936889028
 30
0.25
  0
VERTEX
  5
30F
  8
1HS
 10
468178.20098725479
 20
4725650.5097804079
 30
0.25
  0
VERTEX
  5
310
  8
1HS
 10
468168.30567797308
 20
4725648.0377583206
 30
0.25
  0
VERTEX
  5
311
  8
1HS
 10
468137.38191545988
 20
4725664.1058014464
 30
0.25
  0
VERTEX
  5
312
  8
1HS
 10
468138.61882912018
 20
4725670.2857562192
 30
0.25
  0
VERTEX
  5
313
  8
1HS
 10
468147.27753174439
 20
4725703.6575521706
 30
0.25
  0
SEQEND
  5
314
  8
1HS
  0
POLYLINE
  5
A8
  8
1HS
 66
     1
 10
0.0
 20
0.0
 30
0.25
 70
     1
1001
DCO15
1071
        2
1071
        2
1000
Jan27
1004
074134323300
  0
VERTEX
  5
315
  8
1HS
 10
468862.85552606691
 20
4729300.5545910718
 30
0.25
  0
VERTEX
  5
316
  8
1HS
 10
468879.55151844991
 20
4729303.0677607311
 30
0.25
  0
VERTEX
  5
317
  8
1HS
 10
468896.2667278077
 20
4729318.7888106136
 30
0.25
  0
VERTEX
  5
318
  8
1HS
 10
468878.56824990711
 20
4729346.3009390021
 30
0.25
  0
VERTEX
  5
319
  8
1HS
 10
468845.13818706147
 20
4729326.6494519915
 30
0.25
  0
VERTEX
  5
31A
  8
1HS
 10
468852.02071099117
 20
4729309.9456763901
 30
0.25
  0
SEQEND
  5
31B
  8
1HS
  0
POLYLINE
  5
A9
  8
1HS
 66
     1
 10
0.0
 20
0.0
 30
0.25
 70
     1
1001
DCO15
1071
        2
1071
        2
1000
Jan27
1004
074134303200
  0
VERTEX
  5
31C
  8
1HS
 10
468259.50586288387
 20
4729200.814451131
 30
0.25
  0
VERTEX
  5
31D
  8
1HS
 10
468308.95825638552
 20
4729191.4014757155
 30
0.25
  0
VERTEX
  5
31E
  8
1HS
 10
468305.81841622881
 20
4729163.1620837199
 30
0.25
  0
VERTEX
  5
31F
  8
1HS
 10
468270.49512549769
 20
4729167.8686878653
 30
0.25
  0
VERTEX
  5
320
  8
1HS
 10
468254.01123157702
 20
4729176.4973456934
 30
0.25
  0
SEQEND
  5
321
  8
1HS
  0
POLYLINE
  5
AA
  8
1HS
 66
     1
 10
0.0
 20
0.0
 30
0.25
 70
     1
1001
DCO15
1071
        2
1071
        2
1000
Jan27
1004
074134323800
  0
VERTEX
  5
322
  8
1HS
 10
468679.65725855023
 20
4729222.2099269796
 30
0.25
  0
VERTEX
  5
323
  8
1HS
 10
468697.35573645058
 20
4729228.1053497968
 30
0.25
  0
VERTEX
  5
324
  8
1HS
 10
468714.07094580837
 20
4729243.8263996802
 30
0.25
  0
VERTEX
  5
325
  8
1HS
 10
468696.37246790779
 20
4729271.3385280687
 30
0.25
  0
VERTEX
  5
326
  8
1HS
 10
468662.9424050622
 20
4729251.6870410591
 30
0.25
  0
VERTEX
  5
327
  8
1HS
 10
468669.82492899202
 20
4729234.9832654567
 30
0.25
  0
SEQEND
  5
328
  8
1HS
  0
POLYLINE
  5
AB
  8
1HS
 66
     1
 10
0.0
 20
0.0
 30
0.25
 70
     1
1001
DCO15
1071
        2
1071
        2
1000
Jan27
1004
074134323600
  0
VERTEX
  5
329
  8
1HS
 10
468658.02570647839
 20
4729255.6174781844
 30
0.25
  0
VERTEX
  5
32A
  8
1HS
 10
468675.72418437881
 20
4729261.5129009997
 30
0.25
  0
VERTEX
  5
32B
  8
1HS
 10
468692.4393937366
 20
4729277.2339508841
 30
0.25
  0
VERTEX
  5
32C
  8
1HS
 10
468674.74091583601
 20
4729304.7460792717
 30
0.25
  0
VERTEX
  5
32D
  8
1HS
 10
468641.31085299049
 20
4729285.094592263
 30
0.25
  0
VERTEX
  5
32E
  8
1HS
 10
468648.19337692019
 20
4729268.3908166606
 30
0.25
  0
SEQEND
  5
32F
  8
1HS
  0
POLYLINE
  5
AC
  8
1HS
 66
     1
 10
0.0
 20
0.0
 30
0.25
 70
     1
1001
DCO15
1071
        2
1071
        2
1000
Jan27
1004
074136383500
  0
VERTEX
  5
330
  8
1HS
 10
479745.0
 20
4718977.0
 30
0.25
  0
VERTEX
  5
331
  8
1HS
 10
479772.0
 20
4718974.5
 30
0.25
  0
VERTEX
  5
332
  8
1HS
 10
479773.0
 20
4719000.4999999991
 30
0.25
  0
VERTEX
  5
333
  8
1HS
 10
479759.5
 20
4719011.0
 30
0.25
  0
VERTEX
  5
334
  8
1HS
 10
479739.5
 20
4719013.5
 30
0.25
  0
VERTEX
  5
335
  8
1HS
 10
479730.0
 20
4719010.0
 30
0.25
  0
VERTEX
  5
336
  8
1HS
 10
479729.5
 20
4718988.0
 30
0.25
  0
VERTEX
  5
337
  8
1HS
 10
479733.5
 20
4718981.0
 30
0.25
  0
SEQEND
  5
338
  8
1HS
  0
POLYLINE
  5
AD
  8
1HS
 66
     1
 10
0.0
 20
0.0
 30
0.25
 70
     1
1001
DCO15
1071
        2
1071
        2
1000
Jan27
1004
074136373700
  0
VERTEX
  5
339
  8
1HS
 10
479965.50006630563
 20
4721438.0000001863
 30
0.25
  0
VERTEX
  5
33A
  8
1HS
 10
479980.50000049919
 20
4721436.0000045002
 30
0.25
  0
VERTEX
  5
33B
  8
1HS
 10
479993.50000049919
 20
4721438.0000044992
 30
0.25
  0
VERTEX
  5
33C
  8
1HS
 10
480000.50006630563
 20
4721476.0000001863
 30
0.25
  0
VERTEX
  5
33D
  8
1HS
 10
479963.50006630563
 20
4721486.0000001863
 30
0.25
  0
VERTEX
  5
33E
  8
1HS
 10
479952.00006630563
 20
4721443.5000001863
 30
0.25
  0
SEQEND
  5
33F
  8
1HS
  0
POLYLINE
  5
AE
  8
1HS
 66
     1
 10
0.0
 20
0.0
 30
0.25
 70
     1
1001
DCO15
1071
        2
1071
        2
1000
Jan27
1004
074136363900
  0
VERTEX
  5
340
  8
1HS
 10
479746.0
 20
4721800.4999999991
 30
0.25
  0
VERTEX
  5
341
  8
1HS
 10
479763.5
 20
4721800.0
 30
0.25
  0
VERTEX
  5
342
  8
1HS
 10
479776.5
 20
4721803.0
 30
0.25
  0
VERTEX
  5
343
  8
1HS
 10
479782.00006630563
 20
4721835.0000001863
 30
0.25
  0
VERTEX
  5
344
  8
1HS
 10
479742.5
 20
4721841.5
 30
0.25
  0
VERTEX
  5
345
  8
1HS
 10
479735.0
 20
4721807.5
 30
0.25
  0
SEQEND
  5
346
  8
1HS
  0
POLYLINE
  5
AF
  8
1HS
 66
     1
 10
0.0
 20
0.0
 30
0.25
 70
     1
1001
DCO15
1071
        2
1071
        2
1000
Jan27
1004
074131353400
  0
VERTEX
  5
347
  8
1HS
 10
480901.92037920182
 20
4716619.5881838221
 30
0.25
  0
VERTEX
  5
348
  8
1HS
 10
480917.86223309819
 20
4716624.3091629632
 30
0.25
  0
VERTEX
  5
349
  8
1HS
 10
480926.71889313869
 20
4716632.5709649948
 30
0.25
  0
VERTEX
  5
34A
  8
1HS
 10
480924.35705003951
 20
4716642.6030899389
 30
0.25
  0
VERTEX
  5
34B
  8
1HS
 10
480916.68131154857
 20
4716655.5858711116
 30
0.25
  0
VERTEX
  5
34C
  8
1HS
 10
480916.68131154857
 20
4716655.5858711116
 30
0.25
  0
VERTEX
  5
34D
  8
1HS
 10
480906.05335304409
 20
4716654.4056263268
 30
0.25
  0
VERTEX
  5
34E
  8
1HS
 10
480898.98459581833
 20
4716650.5930930441
 30
0.25
  0
VERTEX
  5
34F
  8
1HS
 10
480888.3402006838
 20
4716638.3539962303
 30
0.25
  0
VERTEX
  5
350
  8
1HS
 10
480888.3402006838
 20
4716626.3727985267
 30
0.25
  0
SEQEND
  5
351
  8
1HS
  0
POLYLINE
  5
B0
  8
1HS
 66
     1
 10
0.0
 20
0.0
 30
0.25
 70
     1
1001
DCO15
1071
        2
1071
        2
1000
Jan27
1004
074131393700
  0
VERTEX
  5
352
  8
1HS
 10
480805.86806787492
 20
4716645.4459119365
 30
0.25
  0
VERTEX
  5
353
  8
1HS
 10
480808.56317203341
 20
4716640.1375992186
 30
0.25
  0
VERTEX
  5
354
  8
1HS
 10
480827.35879388382
 20
4716655.2688313872
 30
0.25
  0
VERTEX
  5
355
  8
1HS
 10
480836.88214376388
 20
4716668.1885764571
 30
0.25
  0
VERTEX
  5
356
  8
1HS
 10
480818.80336024641
 20
4716682.5946278414
 30
0.25
  0
VERTEX
  5
357
  8
1HS
 10
480799.80982795288
 20
4716698.7960572159
 30
0.25
  0
VERTEX
  5
358
  8
1HS
 10
480788.5118251947
 20
4716691.2681122869
 30
0.25
  0
VERTEX
  5
359
  8
1HS
 10
480775.90409137832
 20
4716678.3396908985
 30
0.25
  0
VERTEX
  5
35A
  8
1HS
 10
480789.00307916699
 20
4716663.1201904798
 30
0.25
  0
VERTEX
  5
35B
  8
1HS
 10
480800.46477734228
 20
4716653.7920867298
 30
0.25
  0
SEQEND
  5
35C
  8
1HS
  0
POLYLINE
  5
B1
  8
1HS
 66
     1
 10
0.0
 20
0.0
 30
0.25
 70
     1
1001
DCO15
1071
        2
1071
        2
1000
Jan27
1004
074131393100
  0
VERTEX
  5
35D
  8
1HS
 10
480768.53679128102
 20
4716619.216164574
 30
0.25
  0
VERTEX
  5
35E
  8
1HS
 10
480783.34502086928
 20
4716619.9208940379
 30
0.25
  0
VERTEX
  5
35F
  8
1HS
 10
480807.32019381953
 20
4716638.2450995902
 30
0.25
  0
VERTEX
  5
360
  8
1HS
 10
480794.2426742824
 20
4716653.3011665186
 30
0.25
  0
VERTEX
  5
361
  8
1HS
 10
480785.89202763699
 20
4716662.3018720821
 30
0.25
  0
VERTEX
  5
362
  8
1HS
 10
480767.55344473291
 20
4716679.3216198543
 30
0.25
  0
VERTEX
  5
363
  8
1HS
 10
480767.55344473291
 20
4716679.3216198543
 30
0.25
  0
VERTEX
  5
364
  8
1HS
 10
480757.72903617081
 20
4716673.102824999
 30
0.25
  0
VERTEX
  5
365
  8
1HS
 10
480733.65960417909
 20
4716653.4647770775
 30
0.25
  0
VERTEX
  5
366
  8
1HS
 10
480754.43382729648
 20
4716631.9020917406
 30
0.25
  0
SEQEND
  5
367
  8
1HS
  0
POLYLINE
  5
B2
  8
1HS
 66
     1
 10
0.0
 20
0.0
 30
0.25
 70
     1
1001
DCO15
1071
        2
1071
        2
1000
Jan27
1004
074132343300
  0
VERTEX
  5
368
  8
1HS
 10
480100.02651121537
 20
4716949.2019293988
 30
0.25
  0
VERTEX
  5
369
  8
1HS
 10
480106.88729475549
 20
4716950.0962983752
 30
0.25
  0
VERTEX
  5
36A
  8
1HS
 10
480111.9584982738
 20
4716951.8851248613
 30
0.25
  0
VERTEX
  5
36B
  8
1HS
 10
480116.8752310141
 20
4716961.0031377794
 30
0.25
  0
VERTEX
  5
36C
  8
1HS
 10
480120.6269756729
 20
4716969.4397941688
 30
0.25
  0
VERTEX
  5
36D
  8
1HS
 10
480123.29440591339
 20
4716980.586914449
 30
0.25
  0
VERTEX
  5
36E
  8
1HS
 10
480110.70327644778
 20
4716993.1713818219
 30
0.25
  0
VERTEX
  5
36F
  8
1HS
 10
480104.40771171497
 20
4716995.8680344289
 30
0.25
  0
VERTEX
  5
370
  8
1HS
 10
480091.81658224942
 20
4716986.8791924017
 30
0.25
  0
VERTEX
  5
371
  8
1HS
 10
480094.77148579428
 20
4716953.2585505117
 30
0.25
  0
SEQEND
  5
372
  8
1HS
  0
POLYLINE
  5
B3
  8
1HS
 66
     1
 10
0.0
 20
0.0
 30
0.25
 70
     1
1001
DCO15
1071
        2
1071
        2
1000
Jan27
1004
074131393900
  0
VERTEX
  5
373
  8
1HS
 10
480584.29676064273
 20
4716950.7910235152
 30
0.25
  0
VERTEX
  5
374
  8
1HS
 10
480599.10499023087
 20
4716951.49575298
 30
0.25
  0
VERTEX
  5
375
  8
1HS
 10
480610.70925101353
 20
4716961.5671869516
 30
0.25
  0
VERTEX
  5
376
  8
1HS
 10
480626.5482921119
 20
4716983.592461668
 30
0.25
  0
VERTEX
  5
377
  8
1HS
 10
480616.90703456983
 20
4717000.7996356059
 30
0.25
  0
VERTEX
  5
378
  8
1HS
 10
480603.13397723029
 20
4717000.1113734376
 30
0.25
  0
VERTEX
  5
379
  8
1HS
 10
480590.04958114401
 20
4716993.2284861561
 30
0.25
  0
VERTEX
  5
37A
  8
1HS
 10
480579.03100109578
 20
4716987.033861042
 30
0.25
  0
VERTEX
  5
37B
  8
1HS
 10
480570.19379665807
 20
4716975.4581483835
 30
0.25
  0
VERTEX
  5
37C
  8
1HS
 10
480570.19379665807
 20
4716963.4769506818
 30
0.25
  0
SEQEND
  5
37D
  8
1HS
  0
POLYLINE
  5
B4
  8
1HS
 66
     1
 10
0.0
 20
0.0
 30
0.25
 70
     1
1001
DCO15
1071
        2
1071
        2
1000
Jan27
1004
074131363100
  0
VERTEX
  5
37E
  8
1HS
 10
480716.13765343308
 20
4717925.9812255567
 30
0.25
  0
VERTEX
  5
37F
  8
1HS
 10
480754.8534645238
 20
4717911.4706156943
 30
0.25
  0
VERTEX
  5
380
  8
1HS
 10
480752.77943017043
 20
4717899.032848916
 30
0.25
  0
VERTEX
  5
381
  8
1HS
 10
480731.34740641143
 20
4717885.9041639529
 30
0.25
  0
VERTEX
  5
382
  8
1HS
 10
480707.15017123532
 20
4717899.0328489151
 30
0.25
  0
SEQEND
  5
383
  8
1HS
  0
POLYLINE
  5
B5
  8
1HS
 66
     1
 10
0.0
 20
0.0
 30
0.1
 70
     1
1001
DCO15
1071
        2
1071
        2
1000
Jan27
1004
074130353800
  0
VERTEX
  5
384
  8
1HS
 10
481895.38803378103
 20
4714324.7616037438
 30
0.1
  0
VERTEX
  5
385
  8
1HS
 10
481916.83263659361
 20
4714324.0853821794
 30
0.1
  0
VERTEX
  5
386
  8
1HS
 10
481932.55276370549
 20
4714323.8807804473
 30
0.1
  0
VERTEX
  5
387
  8
1HS
 10
481938.58752272761
 20
4714326.8965090569
 30
0.1
  0
VERTEX
  5
388
  8
1HS
 10
481940.85057832592
 20
4714341.2213748991
 30
0.1
  0
VERTEX
  5
389
  8
1HS
 10
481944.15467639809
 20
4714375.1867676089
 30
0.1
  0
VERTEX
  5
38A
  8
1HS
 10
481939.24297527922
 20
4714378.8686249256
 30
0.1
  0
VERTEX
  5
38B
  8
1HS
 10
481893.37085674988
 20
4714379.02382477
 30
0.1
  0
VERTEX
  5
38C
  8
1HS
 10
481887.66935878713
 20
4714358.4137636833
 30
0.1
  0
VERTEX
  5
38D
  8
1HS
 10
481883.1668962111
 20
4714325.686074229
 30
0.1
  0
SEQEND
  5
38E
  8
1HS
  0
POLYLINE
  5
B6
  8
1HS
 66
     1
 10
0.0
 20
0.0
 30
0.25
 70
     1
1001
DCO15
1071
        2
1071
        2
1000
Jan27
1004
074130353700
  0
VERTEX
  5
38F
  8
1HS
 10
481830.36539636948
 20
4714324.4588179681
 30
0.25
  0
VERTEX
  5
390
  8
1HS
 10
481859.85388464108
 20
4714324.0853821794
 30
0.25
  0
VERTEX
  5
391
  8
1HS
 10
481875.57401175308
 20
4714323.8807804473
 30
0.25
  0
VERTEX
  5
392
  8
1HS
 10
481875.57401175308
 20
4714323.8807804473
 30
0.25
  0
VERTEX
  5
393
  8
1HS
 10
481880.7109617914
 20
4714349.0045629246
 30
0.25
  0
VERTEX
  5
394
  8
1HS
 10
481885.21342436731
 20
4714378.0503950631
 30
0.25
  0
VERTEX
  5
395
  8
1HS
 10
481866.55717843038
 20
4714379.6938489638
 30
0.25
  0
VERTEX
  5
396
  8
1HS
 10
481836.3921047973
 20
4714379.02382477
 30
0.25
  0
VERTEX
  5
397
  8
1HS
 10
481831.18404117611
 20
4714360.0502234101
 30
0.25
  0
VERTEX
  5
398
  8
1HS
 10
481831.69961465203
 20
4714337.2159263529
 30
0.25
  0
SEQEND
  5
399
  8
1HS
  0
POLYLINE
  5
B7
  8
1HS
 66
     1
 10
0.0
 20
0.0
 30
0.25
 70
     1
1001
DCO15
1071
        2
1071
        2
1000
Jan27
1004
074130363500
  0
VERTEX
  5
39A
  8
1HS
 10
481954.865153494
 20
4714768.1147008771
 30
0.25
  0
VERTEX
  5
39B
  8
1HS
 10
481971.74020544492
 20
4714757.5876716999
 30
0.25
  0
VERTEX
  5
39C
  8
1HS
 10
481987.33789643552
 20
4714763.4129335824
 30
0.25
  0
VERTEX
  5
39D
  8
1HS
 10
481993.37265545753
 20
4714766.428662193
 30
0.25
  0
VERTEX
  5
39E
  8
1HS
 10
481995.63571105589
 20
4714780.7535280343
 30
0.25
  0
VERTEX
  5
39F
  8
1HS
 10
481997.89876665419
 20
4714808.6492168969
 30
0.25
  0
VERTEX
  5
3A0
  8
1HS
 10
481983.24249203311
 20
4714820.3380758194
 30
0.25
  0
VERTEX
  5
3A1
  8
1HS
 10
481960.23775113589
 20
4714818.9009943279
 30
0.25
  0
VERTEX
  5
3A2
  8
1HS
 10
481948.7354645477
 20
4714793.992437643
 30
0.25
  0
VERTEX
  5
3A3
  8
1HS
 10
481951.19223757111
 20
4714783.4107830795
 30
0.25
  0
SEQEND
  5
3A4
  8
1HS
  0
POLYLINE
  5
B8
  8
1HS
 66
     1
 10
0.0
 20
0.0
 30
0.5
 70
     1
1001
DCO15
1071
        2
1071
        2
1000
Jan27
1004
074237363600
  0
VERTEX
  5
3A5
  8
1HS
 10
478032.0000344757
 20
4713470.9999605222
 30
0.5
  0
VERTEX
  5
3A6
  8
1HS
 10
478027.49999949132
 20
4713484.4999327054
 30
0.5
  0
VERTEX
  5
3A7
  8
1HS
 10
478027.49999949132
 20
4713484.4999327054
 30
0.5
  0
VERTEX
  5
3A8
  8
1HS
 10
478016.5
 20
4713496.4999999991
 30
0.5
  0
VERTEX
  5
3A9
  8
1HS
 10
477989.0
 20
4713483.0
 30
0.5
  0
VERTEX
  5
3AA
  8
1HS
 10
477986.5
 20
4713476.0
 30
0.5
  0
VERTEX
  5
3AB
  8
1HS
 10
477985.0000344757
 20
4713461.9999605222
 30
0.5
  0
VERTEX
  5
3AC
  8
1HS
 10
477994.0
 20
4713439.4999999991
 30
0.5
  0
VERTEX
  5
3AD
  8
1HS
 10
478007.0
 20
4713424.0
 30
0.5
  0
VERTEX
  5
3AE
  8
1HS
 10
478021.0
 20
4713438.0
 30
0.5
  0
SEQEND
  5
3AF
  8
1HS
  0
POLYLINE
  5
B9
  8
1HS
 66
     1
 10
0.0
 20
0.0
 30
0.25
 70
     1
1001
DCO15
1071
        2
1071
        2
1000
Jan27
1004
074237343700
  0
VERTEX
  5
3B0
  8
1HS
 10
478223.99998181249
 20
4713875.5000014277
 30
0.25
  0
VERTEX
  5
3B1
  8
1HS
 10
478219.49994682812
 20
4713888.999973611
 30
0.25
  0
VERTEX
  5
3B2
  8
1HS
 10
478219.49994682812
 20
4713888.999973611
 30
0.25
  0
VERTEX
  5
3B3
  8
1HS
 10
478197.99998181249
 20
4713900.0000014277
 30
0.25
  0
VERTEX
  5
3B4
  8
1HS
 10
478176.49994682817
 20
4713892.99997361
 30
0.25
  0
VERTEX
  5
3B5
  8
1HS
 10
478174.99998181249
 20
4713879.0000014286
 30
0.25
  0
VERTEX
  5
3B6
  8
1HS
 10
478176.99998181249
 20
4713866.5000014286
 30
0.25
  0
VERTEX
  5
3B7
  8
1HS
 10
478187.99994682812
 20
4713854.999973611
 30
0.25
  0
VERTEX
  5
3B8
  8
1HS
 10
478204.99998181249
 20
4713854.5000014286
 30
0.25
  0
VERTEX
  5
3B9
  8
1HS
 10
478216.99998181249
 20
4713865.0000014277
 30
0.25
  0
SEQEND
  5
3BA
  8
1HS
  0
POLYLINE
  5
BA
  8
1HS
 66
     1
 10
0.0
 20
0.0
 30
0.25
 70
     1
1001
DCO15
1071
        2
1071
        2
1000
Jan27
1004
074237343900
  0
VERTEX
  5
3BB
  8
1HS
 10
478298.99998181249
 20
4713947.0000014286
 30
0.25
  0
VERTEX
  5
3BC
  8
1HS
 10
478294.49994682812
 20
4713960.499973611
 30
0.25
  0
VERTEX
  5
3BD
  8
1HS
 10
478294.49994682812
 20
4713960.499973611
 30
0.25
  0
VERTEX
  5
3BE
  8
1HS
 10
478272.99998181249
 20
4713971.5000014286
 30
0.25
  0
VERTEX
  5
3BF
  8
1HS
 10
478251.49994682812
 20
4713964.499973611
 30
0.25
  0
VERTEX
  5
3C0
  8
1HS
 10
478249.99998181249
 20
4713950.5000014286
 30
0.25
  0
VERTEX
  5
3C1
  8
1HS
 10
478251.99998181249
 20
4713938.0000014277
 30
0.25
  0
VERTEX
  5
3C2
  8
1HS
 10
478262.99994682812
 20
4713926.49997361
 30
0.25
  0
VERTEX
  5
3C3
  8
1HS
 10
478284.0
 20
4713915.4999999991
 30
0.25
  0
VERTEX
  5
3C4
  8
1HS
 10
478298.5
 20
4713928.5
 30
0.25
  0
SEQEND
  5
3C5
  8
1HS
  0
POLYLINE
  5
BB
  8
1HS
 66
     1
 10
0.0
 20
0.0
 30
0.25
 70
     1
1001
DCO15
1071
        2
1071
        2
1000
Jan27
1004
074135333000
  0
VERTEX
  5
3C6
  8
1HS
 10
474450.08717271499
 20
4727026.6227646638
 30
0.25
  0
VERTEX
  5
3C7
  8
1HS
 10
474461.22495733103
 20
4727039.7770123761
 30
0.25
  0
VERTEX
  5
3C8
  8
1HS
 10
474463.2499620734
 20
4727056.9786768453
 30
0.25
  0
VERTEX
  5
3C9
  8
1HS
 10
474441.9869813901
 20
4727070.1329245567
 30
0.25
  0
VERTEX
  5
3CA
  8
1HS
 10
474424.78590272099
 20
4727072.6655443581
 30
0.25
  0
VERTEX
  5
3CB
  8
1HS
 10
474407.56103899301
 20
4727064.0617039213
 30
0.25
  0
VERTEX
  5
3CC
  8
1HS
 10
474406.54862279957
 20
4727044.8363310732
 30
0.25
  0
VERTEX
  5
3CD
  8
1HS
 10
474423.76159399812
 20
4727033.7058872376
 30
0.25
  0
SEQEND
  5
3CE
  8
1HS
  0
POLYLINE
  5
BC
  8
1HS
 66
     1
 10
0.0
 20
0.0
 30
0.25
 70
     1
1001
DCO15
1071
        2
1071
        2
1000
Jan27
1004
074135343000
  0
VERTEX
  5
3CF
  8
1HS
 10
474415.40907422459
 20
4726838.4667806374
 30
0.25
  0
VERTEX
  5
3D0
  8
1HS
 10
474421.07698476611
 20
4726851.1901391866
 30
0.25
  0
VERTEX
  5
3D1
  8
1HS
 10
474428.57186358311
 20
4726868.822692818
 30
0.25
  0
VERTEX
  5
3D2
  8
1HS
 10
474407.30888289982
 20
4726881.9769405294
 30
0.25
  0
VERTEX
  5
3D3
  8
1HS
 10
474382.53760606132
 20
4726885.5777108772
 30
0.25
  0
VERTEX
  5
3D4
  8
1HS
 10
474376.34383889631
 20
4726873.5420369096
 30
0.25
  0
VERTEX
  5
3D5
  8
1HS
 10
474371.87052430928
 20
4726856.680347045
 30
0.25
  0
VERTEX
  5
3D6
  8
1HS
 10
474389.08349550777
 20
4726845.5499032112
 30
0.25
  0
SEQEND
  5
3D7
  8
1HS
  0
POLYLINE
  5
BD
  8
1HS
 66
     1
 10
0.0
 20
0.0
 30
0.25
 70
     1
1001
DCO15
1071
        2
1071
        2
1000
Jan27
1004
074135333700
  0
VERTEX
  5
3D8
  8
1HS
 10
474373.24695531389
 20
4726738.3989804452
 30
0.25
  0
VERTEX
  5
3D9
  8
1HS
 10
474384.25823099469
 20
4726750.778544452
 30
0.25
  0
VERTEX
  5
3DA
  8
1HS
 10
474393.20486016868
 20
4726768.6600626307
 30
0.25
  0
VERTEX
  5
3DB
  8
1HS
 10
474374.46223392797
 20
4726778.9177458184
 30
0.25
  0
VERTEX
  5
3DC
  8
1HS
 10
474347.12406666228
 20
4726784.988870956
 30
0.25
  0
VERTEX
  5
3DD
  8
1HS
 10
474340.03629153088
 20
4726772.8465251829
 30
0.25
  0
VERTEX
  5
3DE
  8
1HS
 10
474339.0238753375
 20
4726753.6211523339
 30
0.25
  0
VERTEX
  5
3DF
  8
1HS
 10
474356.23684653611
 20
4726742.4907085001
 30
0.25
  0
SEQEND
  5
3E0
  8
1HS
  0
POLYLINE
  5
BE
  8
1HS
 66
     1
 10
0.0
 20
0.0
 30
0.35
 70
     1
1001
DCO15
1071
        2
1071
        2
1000
Jan27
1004
074135333400
  0
VERTEX
  5
3E1
  8
1HS
 10
474385.69446935679
 20
4726777.460056955
 30
0.35
  0
VERTEX
  5
3E2
  8
1HS
 10
474396.83225397288
 20
4726790.6143046673
 30
0.35
  0
VERTEX
  5
3E3
  8
1HS
 10
474398.8572587152
 20
4726807.8159691356
 30
0.35
  0
VERTEX
  5
3E4
  8
1HS
 10
474377.5942780319
 20
4726820.970216848
 30
0.35
  0
VERTEX
  5
3E5
  8
1HS
 10
474350.25611076632
 20
4726827.0413419846
 30
0.35
  0
VERTEX
  5
3E6
  8
1HS
 10
474343.16833563492
 20
4726814.8989962116
 30
0.35
  0
VERTEX
  5
3E7
  8
1HS
 10
474342.15591944149
 20
4726795.6736233644
 30
0.35
  0
VERTEX
  5
3E8
  8
1HS
 10
474359.36889063998
 20
4726784.5431795297
 30
0.35
  0
SEQEND
  5
3E9
  8
1HS
  0
POLYLINE
  5
BF
  8
1HS
 66
     1
 10
0.0
 20
0.0
 30
0.25
 70
     1
1001
DCO15
1071
        2
1071
        2
1000
Jan27
1004
074236333900
  0
VERTEX
  5
3EA
  8
1HS
 10
473394.9102697437
 20
4726191.159623405
 30
0.25
  0
VERTEX
  5
3EB
  8
1HS
 10
473405.91137645009
 20
4726237.8681230331
 30
0.25
  0
VERTEX
  5
3EC
  8
1HS
 10
473358.54050204362
 20
4726248.2189172413
 30
0.25
  0
VERTEX
  5
3ED
  8
1HS
 10
473347.19933794031
 20
4726203.2749431068
 30
0.25
  0
VERTEX
  5
3EE
  8
1HS
 10
473389.82629962842
 20
4726190.3779683113
 30
0.25
  0
SEQEND
  5
3EF
  8
1HS
  0
POLYLINE
  5
C0
  8
1HS
 66
     1
 10
0.0
 20
0.0
 30
0.25
 70
     1
1001
DCO15
1071
        2
1071
        2
1000
Jan27
1004
074131343200
  0
VERTEX
  5
3F0
  8
1HS
 10
481221.4697670028
 20
4716371.67152943
 30
0.25
  0
VERTEX
  5
3F1
  8
1HS
 10
481196.20733757003
 20
4716363.6133552603
 30
0.25
  0
VERTEX
  5
3F2
  8
1HS
 10
481180.61987754313
 20
4716338.3643859122
 30
0.25
  0
VERTEX
  5
3F3
  8
1HS
 10
481206.95722903381
 20
4716320.6363673219
 30
0.25
  0
VERTEX
  5
3F4
  8
1HS
 10
481228.99472457159
 20
4716331.9177934546
 30
0.25
  0
VERTEX
  5
3F5
  8
1HS
 10
481232.21965846652
 20
4716357.1667628018
 30
0.25
  0
VERTEX
  5
3F6
  8
1HS
 10
481223.08223395032
 20
4716371.1343060136
 30
0.25
  0
SEQEND
  5
3F7
  8
1HS
  0
POLYLINE
  5
C1
  8
1HS
 66
     1
 10
0.0
 20
0.0
 30
0.25
 70
     1
1001
DCO15
1071
        2
1071
        2
1000
Jan27
1004
074131353100
  0
VERTEX
  5
3F8
  8
1HS
 10
481172.34168624628
 20
4716544.3901856663
 30
0.25
  0
VERTEX
  5
3F9
  8
1HS
 10
481195.56932797277
 20
4716552.1286640977
 30
0.25
  0
VERTEX
  5
3FA
  8
1HS
 10
481176.51072004222
 20
4716596.1781511223
 30
0.25
  0
VERTEX
  5
3FB
  8
1HS
 10
481151.49634954601
 20
4716584.2729154648
 30
0.25
  0
VERTEX
  5
3FC
  8
1HS
 10
481167.57707619382
 20
4716542.009156242
 30
0.25
  0
SEQEND
  5
3FD
  8
1HS
  0
POLYLINE
  5
C2
  8
1HS
 66
     1
 10
0.0
 20
0.0
 30
0.25
 70
     1
1001
DCO15
1071
        2
1071
        2
1000
Jan27
1004
074230303400
  0
VERTEX
  5
3FE
  8
1HS
 10
480436.21312299441
 20
4713838.4175303224
 30
0.25
  0
VERTEX
  5
3FF
  8
1HS
 10
480416.54166357359
 20
4713862.993730925
 30
0.25
  0
VERTEX
  5
400
  8
1HS
 10
480381.41423716588
 20
4713840.0701917438
 30
0.25
  0
VERTEX
  5
401
  8
1HS
 10
480396.41165571992
 20
4713816.4252787344
 30
0.25
  0
VERTEX
  5
402
  8
1HS
 10
480404.59827150672
 20
4713806.1173708402
 30
0.25
  0
VERTEX
  5
403
  8
1HS
 10
480439.02328356291
 20
4713822.2674505822
 30
0.25
  0
SEQEND
  5
404
  8
1HS
  0
POLYLINE
  5
C3
  8
1HS
 66
     1
 10
0.0
 20
0.0
 30
0.25
 70
     1
1001
DCO15
1071
        2
1071
        2
1000
Jan27
1004
074230303100
  0
VERTEX
  5
405
  8
1HS
 10
480395.46520772902
 20
4713890.3786679925
 30
0.25
  0
VERTEX
  5
406
  8
1HS
 10
480387.0345583029
 20
4713907.2309097163
 30
0.25
  0
VERTEX
  5
407
  8
1HS
 10
480344.1788968207
 20
4713892.7334913975
 30
0.25
  0
VERTEX
  5
408
  8
1HS
 10
480359.17631537467
 20
4713869.0885783881
 30
0.25
  0
VERTEX
  5
409
  8
1HS
 10
480365.25552038598
 20
4713853.1632860973
 30
0.25
  0
VERTEX
  5
40A
  8
1HS
 10
480402.49069301062
 20
4713870.0155278211
 30
0.25
  0
SEQEND
  5
40B
  8
1HS
  0
POLYLINE
  5
C4
  8
1HS
 66
     1
 10
0.0
 20
0.0
 30
0.2
 70
     1
1001
DCO15
1071
        2
1071
        2
1000
Jan27
1004
074235393500
  0
VERTEX
  5
40C
  8
1HS
 10
471426.24927715759
 20
4727824.8035774967
 30
0.2
  0
VERTEX
  5
40D
  8
1HS
 10
471486.42466703651
 20
4727812.0728144143
 30
0.2
  0
VERTEX
  5
40E
  8
1HS
 10
471471.08770989109
 20
4727752.0429572649
 30
0.2
  0
VERTEX
  5
40F
  8
1HS
 10
471409.74058951729
 20
4727766.0923999902
 30
0.2
  0
VERTEX
  5
410
  8
1HS
 10
471423.26099258638
 20
4727822.3602834987
 30
0.2
  0
SEQEND
  5
411
  8
1HS
  0
POLYLINE
  5
C5
  8
1HS
 66
     1
 10
0.0
 20
0.0
 30
0.1
 70
     1
1001
DCO15
1071
        2
1071
        2
1000
Jan27
1004
074235383400
  0
VERTEX
  5
412
  8
1HS
 10
471146.57466536138
 20
4727965.9874789212
 30
0.1
  0
VERTEX
  5
413
  8
1HS
 10
471146.57466536138
 20
4727918.8312217249
 30
0.1
  0
VERTEX
  5
414
  8
1HS
 10
471204.58329220052
 20
4727922.1040142355
 30
0.1
  0
VERTEX
  5
415
  8
1HS
 10
471206.68454598001
 20
4727966.2034418425
 30
0.1
  0
SEQEND
  5
416
  8
1HS
  0
POLYLINE
  5
C6
  8
1HS
 66
     1
 10
0.0
 20
0.0
 30
0.25
 70
     1
1001
DCO15
1071
        2
1071
        2
1000
Jan27
1004
074235383300
  0
VERTEX
  5
417
  8
1HS
 10
471091.49872874829
 20
4727962.284166838
 30
0.25
  0
VERTEX
  5
418
  8
1HS
 10
471091.49872874829
 20
4727915.1279096436
 30
0.25
  0
VERTEX
  5
419
  8
1HS
 10
471145.1231926207
 20
4727917.8645114219
 30
0.25
  0
VERTEX
  5
41A
  8
1HS
 10
471144.6394864085
 20
4727965.2419548267
 30
0.25
  0
SEQEND
  5
41B
  8
1HS
  0
POLYLINE
  5
C7
  8
1HS
 66
     1
 10
0.0
 20
0.0
 30
0.25
 70
     1
1001
DCO15
1071
        2
1071
        2
1000
Jan27
1004
074235393400
  0
VERTEX
  5
41C
  8
1HS
 10
471571.76021613361
 20
4727784.9050807236
 30
0.25
  0
VERTEX
  5
41D
  8
1HS
 10
471631.93560601241
 20
4727772.1743176412
 30
0.25
  0
VERTEX
  5
41E
  8
1HS
 10
471616.59864886699
 20
4727712.1444604928
 30
0.25
  0
VERTEX
  5
41F
  8
1HS
 10
471555.25152849319
 20
4727726.1939032171
 30
0.25
  0
VERTEX
  5
420
  8
1HS
 10
471568.77193156228
 20
4727782.4617867256
 30
0.25
  0
SEQEND
  5
421
  8
1HS
  0
POLYLINE
  5
C8
  8
1HS
 66
     1
 10
0.0
 20
0.0
 30
0.25
 70
     1
1001
DCO15
1071
        2
1071
        2
1000
Jan27
1004
074331323400
  0
VERTEX
  5
422
  8
1HS
 10
471034.4192710896
 20
4727257.7440098757
 30
0.25
  0
VERTEX
  5
423
  8
1HS
 10
471057.16089924722
 20
4727298.6268957788
 30
0.25
  0
VERTEX
  5
424
  8
1HS
 10
471011.76475254301
 20
4727322.2174799126
 30
0.25
  0
VERTEX
  5
425
  8
1HS
 10
470989.0666791909
 20
4727283.2025226057
 30
0.25
  0
VERTEX
  5
426
  8
1HS
 10
471031.00110413082
 20
4727256.890002084
 30
0.25
  0
SEQEND
  5
427
  8
1HS
  0
POLYLINE
  5
C9
  8
1HS
 66
     1
 10
0.0
 20
0.0
 30
0.25
 70
     1
1001
DCO15
1071
        2
1071
        2
1000
Jan27
1004
074136383100
  0
VERTEX
  5
428
  8
1HS
 10
478401.52408637753
 20
4719890.2838668441
 30
0.25
  0
VERTEX
  5
429
  8
1HS
 10
478421.74661790731
 20
4719896.1717192093
 30
0.25
  0
VERTEX
  5
42A
  8
1HS
 10
478429.45900538948
 20
4719914.1555041177
 30
0.25
  0
VERTEX
  5
42B
  8
1HS
 10
478420.88968596479
 20
4719934.7083437564
 30
0.25
  0
VERTEX
  5
42C
  8
1HS
 10
478408.03570682788
 20
4719934.7083437564
 30
0.25
  0
VERTEX
  5
42D
  8
1HS
 10
478386.61240826623
 20
4719929.570234295
 30
0.25
  0
VERTEX
  5
42E
  8
1HS
 10
478380.61388466891
 20
4719921.0064506643
 30
0.25
  0
VERTEX
  5
42F
  8
1HS
 10
478384.17121454253
 20
4719912.1491583548
 30
0.25
  0
VERTEX
  5
430
  8
1HS
 10
478394.73378599359
 20
4719894.0536754159
 30
0.25
  0
SEQEND
  5
431
  8
1HS
  0
POLYLINE
  5
CA
  8
1HS
 66
     1
 10
0.0
 20
0.0
 30
0.25
 70
     1
1001
DCO15
1071
        2
1071
        2
1000
Jan27
1004
074130393200
  0
VERTEX
  5
432
  8
1HS
 10
482643.71573040338
 20
4714651.3225159766
 30
0.25
  0
VERTEX
  5
433
  8
1HS
 10
482664.42211430339
 20
4714658.7947297022
 30
0.25
  0
VERTEX
  5
434
  8
1HS
 10
482664.42211430339
 20
4714658.7947297022
 30
0.25
  0
VERTEX
  5
435
  8
1HS
 10
482664.42211430339
 20
4714658.7947297022
 30
0.25
  0
VERTEX
  5
436
  8
1HS
 10
482664.42211430339
 20
4714658.7947297022
 30
0.25
  0
VERTEX
  5
437
  8
1HS
 10
482669.59875055723
 20
4714692.1325527057
 30
0.25
  0
VERTEX
  5
438
  8
1HS
 10
482660.97102346743
 20
4714703.0535559952
 30
0.25
  0
VERTEX
  5
439
  8
1HS
 10
482644.67986576172
 20
4714697.1915838476
 30
0.25
  0
VERTEX
  5
43A
  8
1HS
 10
482640.26480068278
 20
4714688.109039274
 30
0.25
  0
VERTEX
  5
43B
  8
1HS
 10
482630.48670998099
 20
4714660.9741811659
 30
0.25
  0
SEQEND
  5
43C
  8
1HS
  0
POLYLINE
  5
CB
  8
1HS
 66
     1
 10
0.0
 20
0.0
 30
0.25
 70
     1
1001
DCO15
1071
        2
1071
        2
1000
Jan27
1004
074131303900
  0
VERTEX
  5
43D
  8
1HS
 10
482090.17493847758
 20
4714029.8870233148
 30
0.25
  0
VERTEX
  5
43E
  8
1HS
 10
482107.12215461809
 20
4714029.6652419847
 30
0.25
  0
VERTEX
  5
43F
  8
1HS
 10
482107.12215461809
 20
4714029.6652419847
 30
0.25
  0
VERTEX
  5
440
  8
1HS
 10
482113.32076991937
 20
4714037.4177985284
 30
0.25
  0
VERTEX
  5
441
  8
1HS
 10
482117.08877465228
 20
4714050.8656050302
 30
0.25
  0
VERTEX
  5
442
  8
1HS
 10
482120.22432910028
 20
4714066.7747373916
 30
0.25
  0
VERTEX
  5
443
  8
1HS
 10
482107.3997807402
 20
4714084.7541381223
 30
0.25
  0
VERTEX
  5
444
  8
1HS
 10
482093.0421683715
 20
4714084.7309962548
 30
0.25
  0
VERTEX
  5
445
  8
1HS
 10
482087.48366764077
 20
4714068.6167881722
 30
0.25
  0
VERTEX
  5
446
  8
1HS
 10
482089.09836569667
 20
4714048.1760615828
 30
0.25
  0
SEQEND
  5
447
  8
1HS
  0
POLYLINE
  5
CC
  8
1HS
 66
     1
 10
0.0
 20
0.0
 30
0.25
 70
     1
1001
DCO15
1071
        2
1071
        2
1000
Jan27
1004
074130373100
  0
VERTEX
  5
448
  8
1HS
 10
482073.05192111729
 20
4714516.4890648453
 30
0.25
  0
VERTEX
  5
449
  8
1HS
 10
482085.5604093154
 20
4714518.4583401512
 30
0.25
  0
VERTEX
  5
44A
  8
1HS
 10
482085.5604093154
 20
4714518.4583401512
 30
0.25
  0
VERTEX
  5
44B
  8
1HS
 10
482102.70113087771
 20
4714520.9056814313
 30
0.25
  0
VERTEX
  5
44C
  8
1HS
 10
482101.4767696631
 20
4714539.8728198204
 30
0.25
  0
VERTEX
  5
44D
  8
1HS
 10
482098.66258379747
 20
4714555.5678355591
 30
0.25
  0
VERTEX
  5
44E
  8
1HS
 10
482097.18555078108
 20
4714579.3529471904
 30
0.25
  0
VERTEX
  5
44F
  8
1HS
 10
482071.48042306869
 20
4714573.5240944214
 30
0.25
  0
VERTEX
  5
450
  8
1HS
 10
482071.48042306869
 20
4714573.5240944214
 30
0.25
  0
VERTEX
  5
451
  8
1HS
 10
482066.15489513677
 20
4714542.0894512888
 30
0.25
  0
SEQEND
  5
452
  8
1HS
  0
POLYLINE
  5
CD
  8
1HS
 66
     1
 10
0.0
 20
0.0
 30
0.25
 70
     1
1001
DCO15
1071
        2
1071
        2
1000
Jan27
1004
074131313000
  0
VERTEX
  5
453
  8
1HS
 10
482156.81583229807
 20
4714726.160214209
 30
0.25
  0
VERTEX
  5
454
  8
1HS
 10
482172.73219264578
 20
4714723.712872928
 30
0.25
  0
VERTEX
  5
455
  8
1HS
 10
482172.73219264578
 20
4714723.712872928
 30
0.25
  0
VERTEX
  5
456
  8
1HS
 10
482190.88621151331
 20
4714736.0367963333
 30
0.25
  0
VERTEX
  5
457
  8
1HS
 10
482188.64855299372
 20
4714745.1273525972
 30
0.25
  0
VERTEX
  5
458
  8
1HS
 10
482185.83436712797
 20
4714760.8223683368
 30
0.25
  0
VERTEX
  5
459
  8
1HS
 10
482181.45564662543
 20
4714775.9082423896
 30
0.25
  0
VERTEX
  5
45A
  8
1HS
 10
482160.41833179281
 20
4714773.7334329942
 30
0.25
  0
VERTEX
  5
45B
  8
1HS
 10
482148.0862405342
 20
4714764.3093184642
 30
0.25
  0
VERTEX
  5
45C
  8
1HS
 10
482150.6940262253
 20
4714742.6800113171
 30
0.25
  0
SEQEND
  5
45D
  8
1HS
  0
POLYLINE
  5
CE
  8
1HS
 66
     1
 10
0.0
 20
0.0
 30
0.25
 70
     1
1001
DCO15
1071
        2
1071
        2
1000
Jan27
1004
074237373000
  0
VERTEX
  5
45E
  8
1HS
 10
477879.46733696689
 20
4713449.6303075841
 30
0.25
  0
VERTEX
  5
45F
  8
1HS
 10
477869.99292744102
 20
4713445.4878374133
 30
0.25
  0
VERTEX
  5
460
  8
1HS
 10
477859.92610174161
 20
4713430.1018353263
 30
0.25
  0
VERTEX
  5
461
  8
1HS
 10
477860.51816381089
 20
4713419.4499413669
 30
0.25
  0
VERTEX
  5
462
  8
1HS
 10
477870.58498951042
 20
4713403.4718995336
 30
0.25
  0
VERTEX
  5
463
  8
1HS
 10
477891.90276504762
 20
4713400.513107066
 30
0.25
  0
VERTEX
  5
464
  8
1HS
 10
477905.52231726708
 20
4713404.6555772359
 30
0.25
  0
VERTEX
  5
465
  8
1HS
 10
477911.4440002729
 20
4713417.0827868562
 30
0.25
  0
VERTEX
  5
466
  8
1HS
 10
477913.81260265439
 20
4713433.6524666464
 30
0.25
  0
VERTEX
  5
467
  8
1HS
 10
477911.4440002729
 20
4713442.5290449448
 30
0.25
  0
VERTEX
  5
468
  8
1HS
 10
477905.52231726708
 20
4713450.8137843916
 30
0.25
  0
VERTEX
  5
469
  8
1HS
 10
477895.45584567188
 20
4713454.9562545642
 30
0.25
  0
SEQEND
  5
46A
  8
1HS
  0
POLYLINE
  5
CF
  8
1HS
 66
     1
 10
0.0
 20
0.0
 30
0.25
 70
     1
1001
DCO15
1071
        2
1071
        2
1000
Jan27
1004
074136343800
  0
VERTEX
  5
46B
  8
1HS
 10
470704.3744121776
 20
4724338.6117765298
 30
0.25
  0
VERTEX
  5
46C
  8
1HS
 10
470705.06739391788
 20
4724351.0747455908
 30
0.25
  0
VERTEX
  5
46D
  8
1HS
 10
470700.2172299443
 20
4724360.7681659712
 30
0.25
  0
VERTEX
  5
46E
  8
1HS
 10
470690.5176102054
 20
4724367.6918367753
 30
0.25
  0
VERTEX
  5
46F
  8
1HS
 10
470681.51061810279
 20
4724364.2300013732
 30
0.25
  0
VERTEX
  5
470
  8
1HS
 10
470680.81799046649
 20
4724351.7670323122
 30
0.25
  0
VERTEX
  5
471
  8
1HS
 10
470687.05340971251
 20
4724336.5347154681
 30
0.25
  0
VERTEX
  5
472
  8
1HS
 10
470699.52460230811
 20
4724332.3803924462
 30
0.25
  0
SEQEND
  5
473
  8
1HS
  0
POLYLINE
  5
D0
  8
1HS
 66
     1
 10
0.0
 20
0.0
 30
0.25
 70
     1
1001
DCO15
1071
        2
1071
        2
1000
Jan27
1004
074136353000
  0
VERTEX
  5
474
  8
1HS
 10
470531.69023212692
 20
4724424.1198341912
 30
0.25
  0
VERTEX
  5
475
  8
1HS
 10
470558.48174897279
 20
4724415.6649360498
 30
0.25
  0
VERTEX
  5
476
  8
1HS
 10
470561.30183409248
 20
4724393.1184070818
 30
0.25
  0
VERTEX
  5
477
  8
1HS
 10
470541.560530046
 20
4724383.254225322
 30
0.25
  0
VERTEX
  5
478
  8
1HS
 10
470517.58909831999
 20
4724398.7549388763
 30
0.25
  0
VERTEX
  5
479
  8
1HS
 10
470527.45975034317
 20
4724428.3472832609
 30
0.25
  0
SEQEND
  5
47A
  8
1HS
  0
POLYLINE
  5
D1
  8
1HS
 66
     1
 10
0.0
 20
0.0
 30
0.25
 70
     1
1001
DCO15
1071
        2
1071
        2
1000
Jan27
1004
074136333800
  0
VERTEX
  5
47B
  8
1HS
 10
470074.06484987459
 20
4726813.3553993898
 30
0.25
  0
VERTEX
  5
47C
  8
1HS
 10
470081.87815702788
 20
4726853.176953095
 30
0.25
  0
VERTEX
  5
47D
  8
1HS
 10
470087.34764908708
 20
4726856.3002791749
 30
0.25
  0
VERTEX
  5
47E
  8
1HS
 10
470108.44340134843
 20
4726853.176953095
 30
0.25
  0
VERTEX
  5
47F
  8
1HS
 10
470106.88073991769
 20
4726832.8758358192
 30
0.25
  0
VERTEX
  5
480
  8
1HS
 10
470099.06743276468
 20
4726803.2047403054
 30
0.25
  0
VERTEX
  5
481
  8
1HS
 10
470080.31549559732
 20
4726803.2047403054
 30
0.25
  0
VERTEX
  5
482
  8
1HS
 10
470073.28369621153
 20
4726811.0129550556
 30
0.25
  0
SEQEND
  5
483
  8
1HS
  0
POLYLINE
  5
D2
  8
1HS
 66
     1
 10
0.0
 20
0.0
 30
0.25
 70
     1
1001
DCO15
1071
        2
1071
        2
1000
Jan27
1004
074331313200
  0
VERTEX
  5
484
  8
1HS
 10
470814.81310973142
 20
4728046.3972044764
 30
0.25
  0
VERTEX
  5
485
  8
1HS
 10
470820.65051595931
 20
4727999.7295257226
 30
0.25
  0
VERTEX
  5
486
  8
1HS
 10
470770.44988471171
 20
4727996.22952013
 30
0.25
  0
VERTEX
  5
487
  8
1HS
 10
470766.94744097482
 20
4728039.3971932903
 30
0.25
  0
VERTEX
  5
488
  8
1HS
 10
470768.11492222053
 20
4728045.2306029098
 30
0.25
  0
VERTEX
  5
489
  8
1HS
 10
470813.64562848583
 20
4728048.7306085033
 30
0.25
  0
SEQEND
  5
48A
  8
1HS
  0
POLYLINE
  5
D3
  8
1HS
 66
     1
 10
0.0
 20
0.0
 30
0.25
 70
     1
1001
DCO15
1071
        2
1071
        2
1000
Jan27
1004
074230323300
  0
VERTEX
  5
48B
  8
1HS
 10
480708.267023472
 20
4713407.1539077908
 30
0.25
  0
VERTEX
  5
48C
  8
1HS
 10
480692.30839750433
 20
4713432.0758330878
 30
0.25
  0
VERTEX
  5
48D
  8
1HS
 10
480664.38105364167
 20
4713414.1320574991
 30
0.25
  0
VERTEX
  5
48E
  8
1HS
 10
480679.37847219571
 20
4713390.4871444879
 30
0.25
  0
VERTEX
  5
48F
  8
1HS
 10
480683.72914752521
 20
4713387.2010334916
 30
0.25
  0
VERTEX
  5
490
  8
1HS
 10
480709.4454292109
 20
4713404.4642493566
 30
0.25
  0
SEQEND
  5
491
  8
1HS
  0
POLYLINE
  5
D4
  8
1HS
 66
     1
 10
0.0
 20
0.0
 30
0.25
 70
     1
1001
DCO15
1071
        2
1071
        2
1000
Jan27
1004
074136373400
  0
VERTEX
  5
492
  8
1HS
 10
480640.90602386149
 20
4721269.9937161189
 30
0.25
  0
VERTEX
  5
493
  8
1HS
 10
480661.7639396154
 20
4721250.3051153682
 30
0.25
  0
VERTEX
  5
494
  8
1HS
 10
480679.1455081235
 20
4721259.5703600822
 30
0.25
  0
VERTEX
  5
495
  8
1HS
 10
480684.93942019972
 20
4721276.9426496541
 30
0.25
  0
VERTEX
  5
496
  8
1HS
 10
480688.41576744558
 20
4721288.5242055459
 30
0.25
  0
VERTEX
  5
497
  8
1HS
 10
480696.00002396939
 20
4721303.5000289204
 30
0.25
  0
VERTEX
  5
498
  8
1HS
 10
480675.00002396927
 20
4721310.0000289194
 30
0.25
  0
SEQEND
  5
499
  8
1HS
  0
POLYLINE
  5
D5
  8
1HS
 66
     1
 10
0.0
 20
0.0
 30
0.25
 70
     1
1001
DCO15
1071
        2
1071
        2
1000
Jan27
1004
074136373800
  0
VERTEX
  5
49A
  8
1HS
 10
480529.4999965505
 20
4721091.000030335
 30
0.25
  0
VERTEX
  5
49B
  8
1HS
 10
480567.4999965505
 20
4721070.000030335
 30
0.25
  0
VERTEX
  5
49C
  8
1HS
 10
480573.9999965505
 20
4721070.000030335
 30
0.25
  0
VERTEX
  5
49D
  8
1HS
 10
480595.9999965505
 20
4721095.000030335
 30
0.25
  0
VERTEX
  5
49E
  8
1HS
 10
480595.9999965505
 20
4721101.500030335
 30
0.25
  0
VERTEX
  5
49F
  8
1HS
 10
480567.4999965505
 20
4721123.500030335
 30
0.25
  0
VERTEX
  5
4A0
  8
1HS
 10
480546.4999965505
 20
4721130.000030335
 30
0.25
  0
SEQEND
  5
4A1
  8
1HS
  0
POLYLINE
  5
D6
  8
1HS
 66
     1
 10
0.0
 20
0.0
 30
0.25
 70
     1
1001
DCO15
1071
        2
1071
        2
1000
Jan27
1004
074235353900
  0
VERTEX
  5
4A2
  8
1HS
 10
471878.61692160752
 20
4729438.0500137946
 30
0.25
  0
VERTEX
  5
4A3
  8
1HS
 10
471890.44541524642
 20
4729473.5127326148
 30
0.25
  0
VERTEX
  5
4A4
  8
1HS
 10
471873.2402048246
 20
4729485.3336388897
 30
0.25
  0
VERTEX
  5
4A5
  8
1HS
 10
471851.73333769338
 20
4729486.4084311007
 30
0.25
  0
VERTEX
  5
4A6
  8
1HS
 10
471845.28156083717
 20
4729483.1844562562
 30
0.25
  0
VERTEX
  5
4A7
  8
1HS
 10
471836.6789556265
 20
4729467.0649838196
 30
0.25
  0
VERTEX
  5
4A8
  8
1HS
 10
471837.75401569973
 20
4729442.3485799571
 30
0.25
  0
VERTEX
  5
4A9
  8
1HS
 10
471852.8087518707
 20
4729434.8262398448
 30
0.25
  0
SEQEND
  5
4AA
  8
1HS
  0
POLYLINE
  5
D7
  8
1HS
 66
     1
 10
0.0
 20
0.0
 30
0.25
 70
     1
1001
DCO15
1071
        2
1071
        2
1000
Jan27
1004
074235353600
  0
VERTEX
  5
4AB
  8
1HS
 10
471462.8353136435
 20
4728533.8789558019
 30
0.25
  0
VERTEX
  5
4AC
  8
1HS
 10
471462.47837670211
 20
4728476.0599562787
 30
0.25
  0
VERTEX
  5
4AD
  8
1HS
 10
471523.58718501113
 20
4728476.0599562787
 30
0.25
  0
VERTEX
  5
4AE
  8
1HS
 10
471522.7263579233
 20
4728536.2686106367
 30
0.25
  0
VERTEX
  5
4AF
  8
1HS
 10
471463.33884968568
 20
4728536.2686106367
 30
0.25
  0
SEQEND
  5
4B0
  8
1HS
  0
POLYLINE
  5
D8
  8
1HS
 66
     1
 10
0.0
 20
0.0
 30
0.25
 70
     1
1001
DCO15
1071
        2
1071
        2
1000
Jan27
1004
074235363800
  0
VERTEX
  5
4B1
  8
1HS
 10
471458.1186469188
 20
4728328.2153565763
 30
0.25
  0
VERTEX
  5
4B2
  8
1HS
 10
471518.29403679771
 20
4728315.4845934929
 30
0.25
  0
VERTEX
  5
4B3
  8
1HS
 10
471507.73040303431
 20
4728269.614069039
 30
0.25
  0
VERTEX
  5
4B4
  8
1HS
 10
471446.8347653987
 20
4728282.6202601809
 30
0.25
  0
VERTEX
  5
4B5
  8
1HS
 10
471455.13036234753
 20
4728325.7720625782
 30
0.25
  0
SEQEND
  5
4B6
  8
1HS
  0
POLYLINE
  5
D9
  8
1HS
 66
     1
 10
0.0
 20
0.0
 30
0.25
 70
     1
1001
DCO15
1071
        2
1071
        2
1000
Jan27
1004
074235373800
  0
VERTEX
  5
4B7
  8
1HS
 10
471146.41673492879
 20
4728191.0557986293
 30
0.25
  0
VERTEX
  5
4B8
  8
1HS
 10
471214.18978255882
 20
4728176.2011657758
 30
0.25
  0
VERTEX
  5
4B9
  8
1HS
 10
471202.60101740138
 20
4728115.1366955638
 30
0.25
  0
VERTEX
  5
4BA
  8
1HS
 10
471129.9080472886
 20
4728132.3446211219
 30
0.25
  0
VERTEX
  5
4BB
  8
1HS
 10
471143.42845035758
 20
4728188.6125046313
 30
0.25
  0
SEQEND
  5
4BC
  8
1HS
  0
POLYLINE
  5
DA
  8
1HS
 66
     1
 10
0.0
 20
0.0
 30
0.25
 70
     1
1001
DCO15
1071
        2
1071
        2
1000
Jan27
1004
074235373900
  0
VERTEX
  5
4BD
  8
1HS
 10
471126.39958378189
 20
4728126.8330464782
 30
0.25
  0
VERTEX
  5
4BE
  8
1HS
 10
471186.57497366081
 20
4728114.1022833949
 30
0.25
  0
VERTEX
  5
4BF
  8
1HS
 10
471171.23801651527
 20
4728054.0724262455
 30
0.25
  0
VERTEX
  5
4C0
  8
1HS
 10
471109.89089614159
 20
4728068.1218689708
 30
0.25
  0
VERTEX
  5
4C1
  8
1HS
 10
471123.41129921062
 20
4728124.3897524802
 30
0.25
  0
SEQEND
  5
4C2
  8
1HS
  0
POLYLINE
  5
DB
  8
1HS
 66
     1
 10
0.0
 20
0.0
 30
2.6000000000000001
 70
     1
1001
DCO15
1071
        2
1071
        2
1000
Jan27
1004
074235383100
  0
VERTEX
  5
4C3
  8
1HS
 10
471519.36378530931
 20
4728036.2893361822
 30
2.6000000000000001
  0
VERTEX
  5
4C4
  8
1HS
 10
471579.53917518811
 20
4728023.5585730998
 30
2.6000000000000001
  0
VERTEX
  5
4C5
  8
1HS
 10
471564.20221804269
 20
4727963.5287159514
 30
2.6000000000000001
  0
VERTEX
  5
4C6
  8
1HS
 10
471502.85509766889
 20
4727977.5781586757
 30
2.6000000000000001
  0
VERTEX
  5
4C7
  8
1HS
 10
471516.37550073798
 20
4728033.8460421851
 30
2.6000000000000001
  0
SEQEND
  5
4C8
  8
1HS
  0
POLYLINE
  5
DC
  8
1HS
 66
     1
 10
0.0
 20
0.0
 30
0.4
 70
     1
1001
DCO15
1071
        2
1071
        2
1000
Jan27
1004
074235383500
  0
VERTEX
  5
4C9
  8
1HS
 10
471210.04676449002
 20
4727966.320363163
 30
0.4
  0
VERTEX
  5
4CA
  8
1HS
 10
471210.04676449002
 20
4727919.1641059676
 30
0.4
  0
VERTEX
  5
4CB
  8
1HS
 10
471268.05539132922
 20
4727922.4368984792
 30
0.4
  0
VERTEX
  5
4CC
  8
1HS
 10
471266.79442659899
 20
4727968.6362892613
 30
0.4
  0
SEQEND
  5
4CD
  8
1HS
  0
POLYLINE
  5
DD
  8
1HS
 66
     1
 10
0.0
 20
0.0
 30
0.1
 70
     1
1001
DCO15
1071
        2
1071
        2
1000
Jan27
1004
074235393100
  0
VERTEX
  5
4CE
  8
1HS
 10
471322.25846131478
 20
4727920.0042519551
 30
0.1
  0
VERTEX
  5
4CF
  8
1HS
 10
471314.27341366909
 20
4727852.3851564126
 30
0.1
  0
VERTEX
  5
4D0
  8
1HS
 10
471370.16910129308
 20
4727841.0453954386
 30
0.1
  0
VERTEX
  5
4D1
  8
1HS
 10
471376.89318420849
 20
4727921.2640691437
 30
0.1
  0
SEQEND
  5
4D2
  8
1HS
  0
POLYLINE
  5
DE
  8
1HS
 66
     1
 10
0.0
 20
0.0
 30
0.25
 70
     1
1001
DCO15
1071
        2
1071
        2
1000
Jan27
1004
074236303000
  0
VERTEX
  5
4D3
  8
1HS
 10
471146.165675116
 20
4727802.4059122717
 30
0.25
  0
VERTEX
  5
4D4
  8
1HS
 10
471165.49834302132
 20
4727862.8849722967
 30
0.25
  0
VERTEX
  5
4D5
  8
1HS
 10
471204.14207848138
 20
4727858.4007784706
 30
0.25
  0
VERTEX
  5
4D6
  8
1HS
 10
471209.20612133638
 20
4727857.8451008508
 30
0.25
  0
VERTEX
  5
4D7
  8
1HS
 10
471196.59789045068
 20
4727796.9459678326
 30
0.25
  0
SEQEND
  5
4D8
  8
1HS
  0
POLYLINE
  5
DF
  8
1HS
 66
     1
 10
0.0
 20
0.0
 30
0.25
 70
     1
1001
DCO15
1071
        2
1071
        2
1000
Jan27
1004
074430373200
  0
VERTEX
  5
4D9
  8
1HS
 10
480566.13864522718
 20
4710671.7742021913
 30
0.25
  0
VERTEX
  5
4DA
  8
1HS
 10
480558.131322884
 20
4710680.7518889531
 30
0.25
  0
VERTEX
  5
4DB
  8
1HS
 10
480587.82862344489
 20
4710705.5490700519
 30
0.25
  0
VERTEX
  5
4DC
  8
1HS
 10
480596.85065610969
 20
4710718.5112228366
 30
0.25
  0
VERTEX
  5
4DD
  8
1HS
 10
480629.55200238479
 20
4710677.9979549441
 30
0.25
  0
VERTEX
  5
4DE
  8
1HS
 10
480617.02477451129
 20
4710662.3471175954
 30
0.25
  0
VERTEX
  5
4DF
  8
1HS
 10
480601.3906881258
 20
4710649.5623866478
 30
0.25
  0
VERTEX
  5
4E0
  8
1HS
 10
480589.18263277161
 20
4710643.1025141142
 30
0.25
  0
SEQEND
  5
4E1
  8
1HS
  0
POLYLINE
  5
E0
  8
1HS
 66
     1
 10
0.0
 20
0.0
 30
0.25
 70
     1
1001
DCO15
1071
        2
1071
        2
1000
Jan27
1004
074237323600
  0
VERTEX
  5
4E2
  8
1HS
 10
476357.65924040042
 20
4717221.7472551698
 30
0.25
  0
VERTEX
  5
4E3
  8
1HS
 10
476398.06957405072
 20
4717221.0140580526
 30
0.25
  0
VERTEX
  5
4E4
  8
1HS
 10
476407.47797492461
 20
4717179.434827188
 30
0.25
  0
VERTEX
  5
4E5
  8
1HS
 10
476409.25882663642
 20
4717173.2146588806
 30
0.25
  0
VERTEX
  5
4E6
  8
1HS
 10
476361.30150347791
 20
4717153.1948870299
 30
0.25
  0
VERTEX
  5
4E7
  8
1HS
 10
476358.87327438651
 20
4717159.2615062026
 30
0.25
  0
SEQEND
  5
4E8
  8
1HS
  0
POLYLINE
  5
E1
  8
1HS
 66
     1
 10
0.0
 20
0.0
 30
0.25
 70
     1
1001
DCO15
1071
        2
1071
        2
1000
Jan27
1004
074233393200
  0
VERTEX
  5
4E9
  8
1HS
 10
465999.40687623509
 20
4729052.2799079241
 30
0.25
  0
VERTEX
  5
4EA
  8
1HS
 10
465994.70734825812
 20
4729011.5037747407
 30
0.25
  0
VERTEX
  5
4EB
  8
1HS
 10
465991.83910233638
 20
4729006.9030141653
 30
0.25
  0
VERTEX
  5
4EC
  8
1HS
 10
465943.81378682988
 20
4729009.0106545808
 30
0.25
  0
VERTEX
  5
4ED
  8
1HS
 10
465934.20769256511
 20
4729012.1387718301
 30
0.25
  0
VERTEX
  5
4EE
  8
1HS
 10
465929.63383764838
 20
4729017.5130808055
 30
0.25
  0
VERTEX
  5
4EF
  8
1HS
 10
465928.96197013382
 20
4729025.1496506054
 30
0.25
  0
VERTEX
  5
4F0
  8
1HS
 10
465938.3782658538
 20
4729068.0205689268
 30
0.25
  0
VERTEX
  5
4F1
  8
1HS
 10
465987.18194873742
 20
4729067.405568935
 30
0.25
  0
VERTEX
  5
4F2
  8
1HS
 10
465993.1900877342
 20
4729066.5926512508
 30
0.25
  0
VERTEX
  5
4F3
  8
1HS
 10
465997.74170818651
 20
4729062.0440259622
 30
0.25
  0
SEQEND
  5
4F4
  8
1HS
  0
POLYLINE
  5
E2
  8
1HS
 66
     1
 10
0.0
 20
0.0
 30
0.25
 70
     1
1001
DCO15
1071
        2
1071
        2
1000
Jan27
1004
074133363400
  0
VERTEX
  5
4F5
  8
1HS
 10
465292.00707621471
 20
4729008.9527165629
 30
0.25
  0
VERTEX
  5
4F6
  8
1HS
 10
465289.6785799748
 20
4728964.7393145896
 30
0.25
  0
VERTEX
  5
4F7
  8
1HS
 10
465284.43930231588
 20
4728963.5758228051
 30
0.25
  0
VERTEX
  5
4F8
  8
1HS
 10
465231.46488502441
 20
4728967.066298157
 30
0.25
  0
VERTEX
  5
4F9
  8
1HS
 10
465226.8078925446
 20
4728968.8115804698
 30
0.25
  0
VERTEX
  5
4FA
  8
1HS
 10
465224.47923518548
 20
4728971.7203545664
 30
0.25
  0
VERTEX
  5
4FB
  8
1HS
 10
465223.89711112552
 20
4728976.9562015031
 30
0.25
  0
VERTEX
  5
4FC
  8
1HS
 10
465235.53991456341
 20
4729024.6600788301
 30
0.25
  0
VERTEX
  5
4FD
  8
1HS
 10
465279.78214871697
 20
4729024.0783775747
 30
0.25
  0
VERTEX
  5
4FE
  8
1HS
 10
465285.02142637578
 20
4729020.0060224207
 30
0.25
  0
VERTEX
  5
4FF
  8
1HS
 10
465290.26070403482
 20
4729014.1884742277
 30
0.25
  0
SEQEND
  5
500
  8
1HS
  0
POLYLINE
  5
E3
  8
1HS
 66
     1
 10
0.0
 20
0.0
 30
0.1
 70
     1
1001
DCO15
1071
        2
1071
        2
1000
Jan27
1004
074233353100
  0
VERTEX
  5
501
  8
1HS
 10
464020.50786267809
 20
4728259.091002305
 30
0.1
  0
VERTEX
  5
502
  8
1HS
 10
464026.90088609781
 20
4728278.9527778095
 30
0.1
  0
VERTEX
  5
503
  8
1HS
 10
464037.91985659982
 20
4728305.2068642722
 30
0.1
  0
VERTEX
  5
504
  8
1HS
 10
464086.49004518939
 20
4728284.9221843798
 30
0.1
  0
VERTEX
  5
505
  8
1HS
 10
464084.8997248236
 20
4728281.5821592761
 30
0.1
  0
VERTEX
  5
506
  8
1HS
 10
464069.68743238458
 20
4728241.3896370288
 30
0.1
  0
SEQEND
  5
507
  8
1HS
  0
POLYLINE
  5
E4
  8
1HS
 66
     1
 10
0.0
 20
0.0
 30
0.1
 70
     1
1001
DCO15
1071
        2
1071
        2
1000
Jan27
1004
074135363500
  0
VERTEX
  5
508
  8
1HS
 10
474878.56500823243
 20
4726060.6216948451
 30
0.1
  0
VERTEX
  5
509
  8
1HS
 10
474878.56500823243
 20
4726080.2164558312
 30
0.1
  0
VERTEX
  5
50A
  8
1HS
 10
474885.6138310213
 20
4726080.2611491196
 30
0.1
  0
VERTEX
  5
50B
  8
1HS
 10
474915.30309963098
 20
4726078.1106187562
 30
0.1
  0
VERTEX
  5
50C
  8
1HS
 10
474927.72251972777
 20
4726075.6981360475
 30
0.1
  0
VERTEX
  5
50D
  8
1HS
 10
474926.20044832781
 20
4726045.2780488841
 30
0.1
  0
VERTEX
  5
50E
  8
1HS
 10
474880.48677203152
 20
4726045.6592788324
 30
0.1
  0
SEQEND
  5
50F
  8
1HS
  0
POLYLINE
  5
E5
  8
1HS
 66
     1
 10
0.0
 20
0.0
 30
0.25
 70
     1
1001
DCO15
1071
        2
1071
        2
1000
Jan27
1004
074135363700
  0
VERTEX
  5
510
  8
1HS
 10
474878.31767809321
 20
4726096.75593381
 30
0.25
  0
VERTEX
  5
511
  8
1HS
 10
474879.83957713773
 20
4726109.8043692019
 30
0.25
  0
VERTEX
  5
512
  8
1HS
 10
474888.46424624202
 20
4726111.3253735593
 30
0.25
  0
VERTEX
  5
513
  8
1HS
 10
474906.72824126558
 20
4726110.3113706531
 30
0.25
  0
VERTEX
  5
514
  8
1HS
 10
474919.41170998488
 20
4726102.7063488634
 30
0.25
  0
VERTEX
  5
515
  8
1HS
 10
474925.95311818871
 20
4726081.4122878499
 30
0.25
  0
VERTEX
  5
516
  8
1HS
 10
474880.23944189242
 20
4726081.7935177982
 30
0.25
  0
SEQEND
  5
517
  8
1HS
  0
POLYLINE
  5
E6
  8
1HS
 66
     1
 10
0.0
 20
0.0
 30
0.25
 70
     1
1001
DCO15
1071
        2
1071
        2
1000
Jan27
1004
074135373800
  0
VERTEX
  5
518
  8
1HS
 10
474554.22884566081
 20
4726763.4334305897
 30
0.25
  0
VERTEX
  5
519
  8
1HS
 10
474566.47866794787
 20
4726761.6845668489
 30
0.25
  0
VERTEX
  5
51A
  8
1HS
 10
474585.72853641817
 20
4726769.5543104373
 30
0.25
  0
VERTEX
  5
51B
  8
1HS
 10
474599.7282840733
 20
4726780.9217815092
 30
0.25
  0
VERTEX
  5
51C
  8
1HS
 10
474597.9783587053
 20
4726794.912404947
 30
0.25
  0
VERTEX
  5
51D
  8
1HS
 10
474582.22851332661
 20
4726805.4053963972
 30
0.25
  0
VERTEX
  5
51E
  8
1HS
 10
474556.85381989047
 20
4726787.0426613558
 30
0.25
  0
VERTEX
  5
51F
  8
1HS
 10
474552.47892029281
 20
4726780.0473018894
 30
0.25
  0
SEQEND
  5
520
  8
1HS
  0
POLYLINE
  5
E7
  8
1HS
 66
     1
 10
0.0
 20
0.0
 30
0.25
 70
     1
1001
DCO15
1071
        2
1071
        2
1000
Jan27
1004
074135323200
  0
VERTEX
  5
521
  8
1HS
 10
474252.63636985299
 20
4727050.1692529274
 30
0.25
  0
VERTEX
  5
522
  8
1HS
 10
474254.86165168369
 20
4727054.686808723
 30
0.25
  0
VERTEX
  5
523
  8
1HS
 10
474260.22001175123
 20
4727074.6394025292
 30
0.25
  0
VERTEX
  5
524
  8
1HS
 10
474257.00471994188
 20
4727097.2372088479
 30
0.25
  0
VERTEX
  5
525
  8
1HS
 10
474236.0319859169
 20
4727097.967676755
 30
0.25
  0
VERTEX
  5
526
  8
1HS
 10
474229.50608970778
 20
4727079.2130159372
 30
0.25
  0
VERTEX
  5
527
  8
1HS
 10
474231.09313913062
 20
4727064.9762929035
 30
0.25
  0
VERTEX
  5
528
  8
1HS
 10
474240.62818997371
 20
4727051.7767789112
 30
0.25
  0
SEQEND
  5
529
  8
1HS
  0
POLYLINE
  5
E8
  8
1HS
 66
     1
 10
0.0
 20
0.0
 30
0.25
 70
     1
1001
DCO15
1071
        2
1071
        2
1000
Jan27
1004
074135323400
  0
VERTEX
  5
52A
  8
1HS
 10
474200.12757806049
 20
4726980.8094678279
 30
0.25
  0
VERTEX
  5
52B
  8
1HS
 10
474202.35285989119
 20
4726985.3270236254
 30
0.25
  0
VERTEX
  5
52C
  8
1HS
 10
474207.71121995879
 20
4727005.2796174297
 30
0.25
  0
VERTEX
  5
52D
  8
1HS
 10
474204.49592814938
 20
4727027.8774237502
 30
0.25
  0
VERTEX
  5
52E
  8
1HS
 10
474182.66055485839
 20
4727030.9947807696
 30
0.25
  0
VERTEX
  5
52F
  8
1HS
 10
474175.20497309492
 20
4727017.6974763302
 30
0.25
  0
VERTEX
  5
530
  8
1HS
 10
474175.98488172202
 20
4726990.6278579887
 30
0.25
  0
VERTEX
  5
531
  8
1HS
 10
474188.11939818121
 20
4726982.4169938127
 30
0.25
  0
SEQEND
  5
532
  8
1HS
  0
POLYLINE
  5
E9
  8
1HS
 66
     1
 10
0.0
 20
0.0
 30
0.25
 70
     1
1001
DCO15
1071
        2
1071
        2
1000
Jan27
1004
074135323700
  0
VERTEX
  5
533
  8
1HS
 10
474172.7065078005
 20
4727021.8598732622
 30
0.25
  0
VERTEX
  5
534
  8
1HS
 10
474174.93178963108
 20
4727026.3774290578
 30
0.25
  0
VERTEX
  5
535
  8
1HS
 10
474180.29014969867
 20
4727046.330022864
 30
0.25
  0
VERTEX
  5
536
  8
1HS
 10
474174.68514891382
 20
4727060.560156499
 30
0.25
  0
VERTEX
  5
537
  8
1HS
 10
474152.58986353228
 20
4727062.6383945122
 30
0.25
  0
VERTEX
  5
538
  8
1HS
 10
474149.57622765523
 20
4727050.9036362711
 30
0.25
  0
VERTEX
  5
539
  8
1HS
 10
474148.56381146179
 20
4727031.6782634221
 30
0.25
  0
VERTEX
  5
53A
  8
1HS
 10
474165.7767826604
 20
4727020.5478195883
 30
0.25
  0
SEQEND
  5
53B
  8
1HS
  0
POLYLINE
  5
EA
  8
1HS
 66
     1
 10
0.0
 20
0.0
 30
0.25
 70
     1
1001
DCO15
1071
        2
1071
        2
1000
Jan27
1004
074135323300
  0
VERTEX
  5
53C
  8
1HS
 10
474248.70390681783
 20
4726995.4523459114
 30
0.25
  0
VERTEX
  5
53D
  8
1HS
 10
474250.92918864841
 20
4726999.969901707
 30
0.25
  0
VERTEX
  5
53E
  8
1HS
 10
474256.28754871612
 20
4727019.9224955132
 30
0.25
  0
VERTEX
  5
53F
  8
1HS
 10
474251.31526496343
 20
4727031.5167754851
 30
0.25
  0
VERTEX
  5
540
  8
1HS
 10
474233.52800524642
 20
4727032.0297933416
 30
0.25
  0
VERTEX
  5
541
  8
1HS
 10
474225.57362667262
 20
4727024.4961089212
 30
0.25
  0
VERTEX
  5
542
  8
1HS
 10
474224.5612104793
 20
4727005.2707360713
 30
0.25
  0
VERTEX
  5
543
  8
1HS
 10
474241.77418167773
 20
4726994.1402922366
 30
0.25
  0
SEQEND
  5
544
  8
1HS
  0
POLYLINE
  5
EB
  8
1HS
 66
     1
 10
0.0
 20
0.0
 30
0.25
 70
     1
1001
DCO15
1071
        2
1071
        2
1000
Jan27
1004
074236323600
  0
VERTEX
  5
545
  8
1HS
 10
473989.72766096558
 20
4726872.7472332036
 30
0.25
  0
VERTEX
  5
546
  8
1HS
 10
473995.26050569618
 20
4726917.484156468
 30
0.25
  0
VERTEX
  5
547
  8
1HS
 10
474046.06265129911
 20
4726910.9495486971
 30
0.25
  0
VERTEX
  5
548
  8
1HS
 10
474042.03873492702
 20
4726854.65136196
 30
0.25
  0
VERTEX
  5
549
  8
1HS
 10
473988.72160131048
 20
4726860.6833488001
 30
0.25
  0
SEQEND
  5
54A
  8
1HS
  0
POLYLINE
  5
EC
  8
1HS
 66
     1
 10
0.0
 20
0.0
 30
0.25
 70
     1
1001
DCO15
1071
        2
1071
        2
1000
Jan27
1004
074135313900
  0
VERTEX
  5
54B
  8
1HS
 10
474360.65483500832
 20
4727318.5863650236
 30
0.25
  0
VERTEX
  5
54C
  8
1HS
 10
474366.5811064408
 20
4727320.6959265396
 30
0.25
  0
VERTEX
  5
54D
  8
1HS
 10
474368.23847690661
 20
4727343.0565146264
 30
0.25
  0
VERTEX
  5
54E
  8
1HS
 10
474363.26619315369
 20
4727354.6507945973
 30
0.25
  0
VERTEX
  5
54F
  8
1HS
 10
474344.6123299945
 20
4727359.7724738047
 30
0.25
  0
VERTEX
  5
550
  8
1HS
 10
474337.52455486311
 20
4727347.6301280335
 30
0.25
  0
VERTEX
  5
551
  8
1HS
 10
474336.51213866973
 20
4727328.4047551826
 30
0.25
  0
VERTEX
  5
552
  8
1HS
 10
474353.72510986822
 20
4727317.2743113488
 30
0.25
  0
SEQEND
  5
553
  8
1HS
  0
POLYLINE
  5
ED
  8
1HS
 66
     1
 10
0.0
 20
0.0
 30
0.25
 70
     1
1001
DCO15
1071
        2
1071
        2
1000
Jan27
1004
074135313100
  0
VERTEX
  5
554
  8
1HS
 10
474313.6474583465
 20
4727660.1667758487
 30
0.25
  0
VERTEX
  5
555
  8
1HS
 10
474327.9252154195
 20
4727669.8793536881
 30
0.25
  0
VERTEX
  5
556
  8
1HS
 10
474328.71563773177
 20
4727678.5691427598
 30
0.25
  0
VERTEX
  5
557
  8
1HS
 10
474311.98095303931
 20
4727694.4299130132
 30
0.25
  0
VERTEX
  5
558
  8
1HS
 10
474292.1438693885
 20
4727700.3028787961
 30
0.25
  0
VERTEX
  5
559
  8
1HS
 10
474295.26471038512
 20
4727678.2371900296
 30
0.25
  0
VERTEX
  5
55A
  8
1HS
 10
474292.51546784159
 20
4727673.3777496601
 30
0.25
  0
VERTEX
  5
55B
  8
1HS
 10
474296.15113470971
 20
4727665.0656570923
 30
0.25
  0
SEQEND
  5
55C
  8
1HS
  0
POLYLINE
  5
EE
  8
1HS
 66
     1
 10
0.0
 20
0.0
 30
0.25
 70
     1
1001
DCO15
1071
        2
1071
        2
1000
Jan27
1004
074135303900
  0
VERTEX
  5
55D
  8
1HS
 10
474168.29437941511
 20
4727822.5847723987
 30
0.25
  0
VERTEX
  5
55E
  8
1HS
 10
474179.4321640312
 20
4727835.739020111
 30
0.25
  0
VERTEX
  5
55F
  8
1HS
 10
474177.02315124002
 20
4727850.9079993432
 30
0.25
  0
VERTEX
  5
560
  8
1HS
 10
474158.9801159646
 20
4727861.3967888616
 30
0.25
  0
VERTEX
  5
561
  8
1HS
 10
474152.46628464048
 20
4727854.3864361309
 30
0.25
  0
VERTEX
  5
562
  8
1HS
 10
474148.95885026263
 20
4727848.3776715053
 30
0.25
  0
VERTEX
  5
563
  8
1HS
 10
474146.95452817989
 20
4727837.8621424101
 30
0.25
  0
VERTEX
  5
564
  8
1HS
 10
474154.97147179942
 20
4727826.8460102621
 30
0.25
  0
SEQEND
  5
565
  8
1HS
  0
POLYLINE
  5
EF
  8
1HS
 66
     1
 10
0.0
 20
0.0
 30
0.25
 70
     1
1001
DCO15
1071
        2
1071
        2
1000
Jan27
1004
074236393300
  0
VERTEX
  5
566
  8
1HS
 10
475535.54021476558
 20
4719190.8172360966
 30
0.25
  0
VERTEX
  5
567
  8
1HS
 10
475549.13337580173
 20
4719194.2133531934
 30
0.25
  0
VERTEX
  5
568
  8
1HS
 10
475566.97458278929
 20
4719209.4957846263
 30
0.25
  0
VERTEX
  5
569
  8
1HS
 10
475563.57624944142
 20
4719224.7781205596
 30
0.25
  0
VERTEX
  5
56A
  8
1HS
 10
475546.58475505741
 20
4719232.4193362761
 30
0.25
  0
VERTEX
  5
56B
  8
1HS
 10
475527.89400782163
 20
4719230.7212777268
 30
0.25
  0
VERTEX
  5
56C
  8
1HS
 10
475515.1503870337
 20
4719217.1369048441
 30
0.25
  0
VERTEX
  5
56D
  8
1HS
 10
475517.69900777802
 20
4719199.3074333379
 30
0.25
  0
SEQEND
  5
56E
  8
1HS
  0
POLYLINE
  5
F0
  8
1HS
 66
     1
 10
0.0
 20
0.0
 30
0.5
 70
     1
1001
DCO15
1071
        2
1071
        2
1000
Jan27
1004
074331353000
  0
VERTEX
  5
56F
  8
1HS
 10
474672.82166531018
 20
4722248.5643890481
 30
0.5
  0
VERTEX
  5
570
  8
1HS
 10
474686.91793204402
 20
4722291.0444067921
 30
0.5
  0
VERTEX
  5
571
  8
1HS
 10
474733.74192245631
 20
4722273.6115404917
 30
0.5
  0
VERTEX
  5
572
  8
1HS
 10
474720.88833886082
 20
4722230.4882449592
 30
0.5
  0
SEQEND
  5
573
  8
1HS
  0
POLYLINE
  5
F1
  8
1HS
 66
     1
 10
0.0
 20
0.0
 30
2.2999999999999989
 70
     1
1001
DCO15
1071
        2
1071
        2
1000
Jan27
1004
074331343200
  0
VERTEX
  5
574
  8
1HS
 10
474559.58294714132
 20
4722298.0309255579
 30
2.2999999999999989
  0
VERTEX
  5
575
  8
1HS
 10
474572.5785013666
 20
4722331.0369755169
 30
2.2999999999999989
  0
VERTEX
  5
576
  8
1HS
 10
474619.40249177889
 20
4722313.6041092156
 30
2.2999999999999989
  0
VERTEX
  5
577
  8
1HS
 10
474608.90803092992
 20
4722281.0915665226
 30
2.2999999999999989
  0
SEQEND
  5
578
  8
1HS
  0
POLYLINE
  5
F2
  8
1HS
 66
     1
 10
0.0
 20
0.0
 30
1.3
 70
     1
1001
DCO15
1071
        2
1071
        2
1000
Jan27
1004
074331343100
  0
VERTEX
  5
579
  8
1HS
 10
474572.77464192302
 20
4722332.8345434852
 30
1.3
  0
VERTEX
  5
57A
  8
1HS
 10
474586.8709086568
 20
4722375.3145612292
 30
1.3
  0
VERTEX
  5
57B
  8
1HS
 10
474633.69489906909
 20
4722357.8816949287
 30
1.3
  0
VERTEX
  5
57C
  8
1HS
 10
474620.8413154736
 20
4722314.7583993962
 30
1.3
  0
SEQEND
  5
57D
  8
1HS
  0
POLYLINE
  5
F3
  8
1HS
 66
     1
 10
0.0
 20
0.0
 30
1.399999999999999
 70
     1
1001
DCO15
1071
        2
1071
        2
1000
Jan27
1004
074331353400
  0
VERTEX
  5
57E
  8
1HS
 10
474806.54695294559
 20
4722436.0661129598
 30
1.399999999999999
  0
VERTEX
  5
57F
  8
1HS
 10
474820.64321967942
 20
4722478.5461307028
 30
1.399999999999999
  0
VERTEX
  5
580
  8
1HS
 10
474867.46721009171
 20
4722461.1132644042
 30
1.399999999999999
  0
VERTEX
  5
581
  8
1HS
 10
474854.61362649623
 20
4722417.9899688708
 30
1.399999999999999
  0
SEQEND
  5
582
  8
1HS
  0
POLYLINE
  5
F4
  8
1HS
 66
     1
 10
0.0
 20
0.0
 30
0.25
 70
     1
1001
DCO15
1071
        2
1071
        2
1000
Jan27
1004
074430303100
  0
VERTEX
  5
583
  8
1HS
 10
474749.56398478861
 20
4724968.3232111577
 30
0.25
  0
VERTEX
  5
584
  8
1HS
 10
474734.03320324741
 20
4724945.5596194686
 30
0.25
  0
VERTEX
  5
585
  8
1HS
 10
474745.42245453468
 20
4724929.0041932426
 30
0.25
  0
VERTEX
  5
586
  8
1HS
 10
474767.16561763443
 20
4724919.6918495512
 30
0.25
  0
VERTEX
  5
587
  8
1HS
 10
474775.44867814227
 20
4724923.8306583595
 30
0.25
  0
VERTEX
  5
588
  8
1HS
 10
474795.1211622929
 20
4724947.6290716231
 30
0.25
  0
VERTEX
  5
589
  8
1HS
 10
474795.1211622929
 20
4724952.8026065072
 30
0.25
  0
VERTEX
  5
58A
  8
1HS
 10
474758.26845448831
 20
4724974.6423458597
 30
0.25
  0
SEQEND
  5
58B
  8
1HS
  0
POLYLINE
  5
F5
  8
1HS
 66
     1
 10
0.0
 20
0.0
 30
0.25
 70
     1
1001
DCO15
1071
        2
1071
        2
1000
Jan27
1004
074236313300
  0
VERTEX
  5
58C
  8
1HS
 10
474272.21061136993
 20
4726097.7098681694
 30
0.25
  0
VERTEX
  5
58D
  8
1HS
 10
474258.67225938209
 20
4726094.6667134706
 30
0.25
  0
VERTEX
  5
58E
  8
1HS
 10
474252.82182436861
 20
4726040.2927415129
 30
0.25
  0
VERTEX
  5
58F
  8
1HS
 10
474321.44499341742
 20
4726034.7445660736
 30
0.25
  0
VERTEX
  5
590
  8
1HS
 10
474325.75974094658
 20
4726094.4355116412
 30
0.25
  0
VERTEX
  5
591
  8
1HS
 10
474280.17808896158
 20
4726097.7098681694
 30
0.25
  0
SEQEND
  5
592
  8
1HS
  0
POLYLINE
  5
F6
  8
1HS
 66
     1
 10
0.0
 20
0.0
 30
0.25
 70
     1
1001
DCO15
1071
        2
1071
        2
1000
Jan27
1004
074231373500
  0
VERTEX
  5
593
  8
1HS
 10
479370.7831538684
 20
4712940.0698177423
 30
0.25
  0
VERTEX
  5
594
  8
1HS
 10
479376.46401671198
 20
4712906.8802462481
 30
0.25
  0
VERTEX
  5
595
  8
1HS
 10
479409.627444132
 20
4712911.2325943103
 30
0.25
  0
VERTEX
  5
596
  8
1HS
 10
479406.17935301381
 20
4712945.3102621706
 30
0.25
  0
VERTEX
  5
597
  8
1HS
 10
479380.39690832369
 20
4712945.3102621706
 30
0.25
  0
SEQEND
  5
598
  8
1HS
  0
POLYLINE
  5
F7
  8
1HS
 66
     1
 10
0.0
 20
0.0
 30
0.25
 70
     1
1001
DCO15
1071
        2
1071
        2
1000
Jan27
1004
074231333600
  0
VERTEX
  5
599
  8
1HS
 10
479849.58249488461
 20
4713200.6678407807
 30
0.25
  0
VERTEX
  5
59A
  8
1HS
 10
479895.2157384571
 20
4713200.4850848773
 30
0.25
  0
VERTEX
  5
59B
  8
1HS
 10
479894.44854516879
 20
4713243.7629084084
 30
0.25
  0
VERTEX
  5
59C
  8
1HS
 10
479849.58249488461
 20
4713243.7874200484
 30
0.25
  0
SEQEND
  5
59D
  8
1HS
  0
POLYLINE
  5
F8
  8
1HS
 66
     1
 10
0.0
 20
0.0
 30
0.1
 70
     1
1001
DCO15
1071
        2
1071
        2
1000
Jan27
1004
074132363500
  0
VERTEX
  5
59E
  8
1HS
 10
461613.30566469382
 20
4728964.375085176
 30
0.1
  0
VERTEX
  5
59F
  8
1HS
 10
461637.54153478681
 20
4728952.7495444631
 30
0.1
  0
VERTEX
  5
5A0
  8
1HS
 10
461648.68989001558
 20
4728958.5623594578
 30
0.1
  0
VERTEX
  5
5A1
  8
1HS
 10
461657.71750278189
 20
4728970.9088937724
 30
0.1
  0
VERTEX
  5
5A2
  8
1HS
 10
461660.47035227017
 20
4728978.6635836177
 30
0.1
  0
VERTEX
  5
5A3
  8
1HS
 10
461627.02889805409
 20
4728993.1152680255
 30
0.1
  0
VERTEX
  5
5A4
  8
1HS
 10
461615.91027117352
 20
4728977.3748300802
 30
0.1
  0
SEQEND
  5
5A5
  8
1HS
  0
POLYLINE
  5
F9
  8
1HS
 66
     1
 10
0.0
 20
0.0
 30
0.1
 70
     1
1001
DCO15
1071
        2
1071
        2
1000
Jan27
1004
074132363400
  0
VERTEX
  5
5A6
  8
1HS
 10
461608.8279190223
 20
4729013.4860834833
 30
0.1
  0
VERTEX
  5
5A7
  8
1HS
 10
461636.2016829116
 20
4729000.0568588804
 30
0.1
  0
VERTEX
  5
5A8
  8
1HS
 10
461643.6673660159
 20
4729002.0463569472
 30
0.1
  0
VERTEX
  5
5A9
  8
1HS
 10
461656.6076621862
 20
4729027.9101021793
 30
0.1
  0
VERTEX
  5
5AA
  8
1HS
 10
461655.72274749528
 20
4729035.5216730814
 30
0.1
  0
VERTEX
  5
5AB
  8
1HS
 10
461625.30444655789
 20
4729046.9209862826
 30
0.1
  0
VERTEX
  5
5AC
  8
1HS
 10
461614.80043057777
 20
4729034.3760384861
 30
0.1
  0
SEQEND
  5
5AD
  8
1HS
  0
POLYLINE
  5
FA
  8
1HS
 66
     1
 10
0.0
 20
0.0
 30
0.25
 70
     1
1001
DCO15
1071
        2
1071
        2
1000
Jan27
1004
074233343400
  0
VERTEX
  5
5AE
  8
1HS
 10
463986.37607506698
 20
4727721.170192265
 30
0.25
  0
VERTEX
  5
5AF
  8
1HS
 10
463952.21077310562
 20
4727742.1811392428
 30
0.25
  0
VERTEX
  5
5B0
  8
1HS
 10
463967.1033902046
 20
4727793.8330580043
 30
0.25
  0
VERTEX
  5
5B1
  8
1HS
 10
463989.8800970522
 20
4727789.4558145823
 30
0.25
  0
VERTEX
  5
5B2
  8
1HS
 10
464019.23077258503
 20
4727765.7399579324
 30
0.25
  0
VERTEX
  5
5B3
  8
1HS
 10
464004.0184801459
 20
4727725.547435686
 30
0.25
  0
SEQEND
  5
5B4
  8
1HS
  0
POLYLINE
  5
FB
  8
1HS
 66
     1
 10
0.0
 20
0.0
 30
0.25
 70
     1
1001
DCO15
1071
        2
1071
        2
1000
Jan27
1004
074233373000
  0
VERTEX
  5
5B5
  8
1HS
 10
463941.19260823698
 20
4728993.4080918087
 30
0.25
  0
VERTEX
  5
5B6
  8
1HS
 10
463948.56286499213
 20
4729019.251594088
 30
0.25
  0
VERTEX
  5
5B7
  8
1HS
 10
463959.58183549403
 20
4729045.5056805508
 30
0.25
  0
VERTEX
  5
5B8
  8
1HS
 10
464008.15202408348
 20
4729025.2210006593
 30
0.25
  0
VERTEX
  5
5B9
  8
1HS
 10
464006.56170371769
 20
4729021.8809755547
 30
0.25
  0
VERTEX
  5
5BA
  8
1HS
 10
463991.52230021008
 20
4728976.8052780395
 30
0.25
  0
SEQEND
  5
5BB
  8
1HS
  0
POLYLINE
  5
FC
  8
1HS
 66
     1
 10
0.0
 20
0.0
 30
0.25
 70
     1
1001
DCO15
1071
        2
1071
        2
1000
Jan27
1004
074233363900
  0
VERTEX
  5
5BC
  8
1HS
 10
463956.82898610691
 20
4728921.2589250021
 30
0.25
  0
VERTEX
  5
5BD
  8
1HS
 10
463963.22200952668
 20
4728941.1207005056
 30
0.25
  0
VERTEX
  5
5BE
  8
1HS
 10
463974.2409800287
 20
4728967.3747869693
 30
0.25
  0
VERTEX
  5
5BF
  8
1HS
 10
464022.81116861833
 20
4728947.0901070777
 30
0.25
  0
VERTEX
  5
5C0
  8
1HS
 10
464021.22084825247
 20
4728943.7500819732
 30
0.25
  0
VERTEX
  5
5C1
  8
1HS
 10
464006.0085558134
 20
4728903.5575597268
 30
0.25
  0
SEQEND
  5
5C2
  8
1HS
  0
POLYLINE
  5
FD
  8
1HS
 66
     1
 10
0.0
 20
0.0
 30
0.25
 70
     1
1001
DCO15
1071
        2
1071
        2
1000
Jan27
1004
074233353800
  0
VERTEX
  5
5C3
  8
1HS
 10
463732.57754073793
 20
4728340.8343939045
 30
0.25
  0
VERTEX
  5
5C4
  8
1HS
 10
463738.97056415759
 20
4728360.696169409
 30
0.25
  0
VERTEX
  5
5C5
  8
1HS
 10
463749.9895346596
 20
4728386.9502558708
 30
0.25
  0
VERTEX
  5
5C6
  8
1HS
 10
463798.55972324917
 20
4728366.6655759802
 30
0.25
  0
VERTEX
  5
5C7
  8
1HS
 10
463796.96940288338
 20
4728363.3255508747
 30
0.25
  0
VERTEX
  5
5C8
  8
1HS
 10
463781.75711044442
 20
4728323.1330286292
 30
0.25
  0
SEQEND
  5
5C9
  8
1HS
  0
POLYLINE
  5
FE
  8
1HS
 66
     1
 10
0.0
 20
0.0
 30
0.9
 70
     1
1001
DCO15
1071
        2
1071
        2
1000
Jan27
1004
074233353700
  0
VERTEX
  5
5CA
  8
1HS
 10
463683.70443398342
 20
4728361.4602005994
 30
0.9
  0
VERTEX
  5
5CB
  8
1HS
 10
463692.8851101537
 20
4728381.7933578137
 30
0.9
  0
VERTEX
  5
5CC
  8
1HS
 10
463704.79527234199
 20
4728405.5979556423
 30
0.9
  0
VERTEX
  5
5CD
  8
1HS
 10
463747.17062333232
 20
4728388.2348603103
 30
0.9
  0
VERTEX
  5
5CE
  8
1HS
 10
463745.58030296653
 20
4728384.8948352057
 30
0.9
  0
VERTEX
  5
5CF
  8
1HS
 10
463730.36801052763
 20
4728344.7023129594
 30
0.9
  0
SEQEND
  5
5D0
  8
1HS
  0
POLYLINE
  5
FF
  8
1HS
 66
     1
 10
0.0
 20
0.0
 30
0.25
 70
     1
1001
DCO15
1071
        2
1071
        2
1000
Jan27
1004
074233353600
  0
VERTEX
  5
5D1
  8
1HS
 10
463636.99380844767
 20
4728381.9187917728
 30
0.25
  0
VERTEX
  5
5D2
  8
1HS
 10
463643.38683186739
 20
4728401.7805672782
 30
0.25
  0
VERTEX
  5
5D3
  8
1HS
 10
463654.40580236941
 20
4728428.0346537409
 30
0.25
  0
VERTEX
  5
5D4
  8
1HS
 10
463702.97599095898
 20
4728407.7499738494
 30
0.25
  0
VERTEX
  5
5D5
  8
1HS
 10
463700.08086671057
 20
4728401.3825711301
 30
0.25
  0
VERTEX
  5
5D6
  8
1HS
 10
463682.71189361339
 20
4728364.4357976457
 30
0.25
  0
SEQEND
  5
5D7
  8
1HS
  0
POLYLINE
  5
100
  8
1HS
 66
     1
 10
0.0
 20
0.0
 30
0.9
 70
     1
1001
DCO15
1071
        2
1071
        2
1000
Jan27
1004
074233343900
  0
VERTEX
  5
5D8
  8
1HS
 10
463344.49103348423
 20
4728434.2546603996
 30
0.9
  0
VERTEX
  5
5D9
  8
1HS
 10
463348.33213249122
 20
4728459.2058406724
 30
0.9
  0
VERTEX
  5
5DA
  8
1HS
 10
463355.69433291198
 20
4728480.9580532461
 30
0.9
  0
VERTEX
  5
5DB
  8
1HS
 10
463396.88765855262
 20
4728466.1698805066
 30
0.9
  0
VERTEX
  5
5DC
  8
1HS
 10
463395.29733818688
 20
4728462.8298554029
 30
0.9
  0
VERTEX
  5
5DD
  8
1HS
 10
463380.08504574781
 20
4728422.6373331565
 30
0.9
  0
SEQEND
  5
5DE
  8
1HS
  0
POLYLINE
  5
101
  8
1HS
 66
     1
 10
0.0
 20
0.0
 30
0.25
 70
     1
1001
DCO15
1071
        2
1071
        2
1000
Jan27
1004
074233343700
  0
VERTEX
  5
5DF
  8
1HS
 10
463337.41112701281
 20
4728381.8251403691
 30
0.25
  0
VERTEX
  5
5E0
  8
1HS
 10
463343.80415043258
 20
4728401.6869158735
 30
0.25
  0
VERTEX
  5
5E1
  8
1HS
 10
463354.82312093448
 20
4728427.9410023363
 30
0.25
  0
VERTEX
  5
5E2
  8
1HS
 10
463403.39330952411
 20
4728407.6563224448
 30
0.25
  0
VERTEX
  5
5E3
  8
1HS
 10
463401.8029891582
 20
4728404.3162973402
 30
0.25
  0
VERTEX
  5
5E4
  8
1HS
 10
463386.5906967193
 20
4728364.1237750938
 30
0.25
  0
SEQEND
  5
5E5
  8
1HS
  0
POLYLINE
  5
102
  8
1HS
 66
     1
 10
0.0
 20
0.0
 30
0.25
 70
     1
1001
DCO15
1071
        2
1071
        2
1000
Jan27
1004
074233363000
  0
VERTEX
  5
5E6
  8
1HS
 10
463427.56247317011
 20
4728509.9975770889
 30
0.25
  0
VERTEX
  5
5E7
  8
1HS
 10
463433.95549658983
 20
4728529.8593525933
 30
0.25
  0
VERTEX
  5
5E8
  8
1HS
 10
463444.97446709179
 20
4728556.1134390561
 30
0.25
  0
VERTEX
  5
5E9
  8
1HS
 10
463493.54465568141
 20
4728535.8287591636
 30
0.25
  0
VERTEX
  5
5EA
  8
1HS
 10
463491.9543353155
 20
4728532.488734059
 30
0.25
  0
VERTEX
  5
5EB
  8
1HS
 10
463476.74204287649
 20
4728492.2962118136
 30
0.25
  0
SEQEND
  5
5EC
  8
1HS
  0
POLYLINE
  5
103
  8
1HS
 66
     1
 10
0.0
 20
0.0
 30
0.6
 70
     1
1001
DCO15
1071
        2
1071
        2
1000
Jan27
1004
074233363400
  0
VERTEX
  5
5ED
  8
1HS
 10
463912.81578237913
 20
4728795.7642577952
 30
0.6
  0
VERTEX
  5
5EE
  8
1HS
 10
463919.20880579879
 20
4728815.6260332987
 30
0.6
  0
VERTEX
  5
5EF
  8
1HS
 10
463930.22777630069
 20
4728841.8801197624
 30
0.6
  0
VERTEX
  5
5F0
  8
1HS
 10
463978.79796489031
 20
4728821.5954398699
 30
0.6
  0
VERTEX
  5
5F1
  8
1HS
 10
463977.20764452458
 20
4728818.2554147663
 30
0.6
  0
VERTEX
  5
5F2
  8
1HS
 10
463961.99535208551
 20
4728778.0628925199
 30
0.6
  0
SEQEND
  5
5F3
  8
1HS
  0
POLYLINE
  5
104
  8
1HS
 66
     1
 10
0.0
 20
0.0
 30
1.1000000000000001
 70
     1
1001
DCO15
1071
        2
1071
        2
1000
Jan27
1004
074233363300
  0
VERTEX
  5
5F4
  8
1HS
 10
463782.31251412223
 20
4728851.775564611
 30
1.1000000000000001
  0
VERTEX
  5
5F5
  8
1HS
 10
463789.81441137748
 20
4728874.0584387165
 30
1.1000000000000001
  0
VERTEX
  5
5F6
  8
1HS
 10
463798.35831489478
 20
4728897.3825485958
 30
1.1000000000000001
  0
VERTEX
  5
5F7
  8
1HS
 10
463842.1815502629
 20
4728879.8354536993
 30
1.1000000000000001
  0
VERTEX
  5
5F8
  8
1HS
 10
463844.46713226789
 20
4728871.7402763106
 30
1.1000000000000001
  0
VERTEX
  5
5F9
  8
1HS
 10
463828.99139770132
 20
4728832.4081149641
 30
1.1000000000000001
  0
SEQEND
  5
5FA
  8
1HS
  0
POLYLINE
  5
105
  8
1HS
 66
     1
 10
0.0
 20
0.0
 30
0.8
 70
     1
1001
DCO15
1071
        2
1071
        2
1000
Jan27
1004
074233363800
  0
VERTEX
  5
5FB
  8
1HS
 10
463800.3901223733
 20
4728898.1239034683
 30
0.8
  0
VERTEX
  5
5FC
  8
1HS
 10
463807.71284675668
 20
4728925.9324782528
 30
0.8
  0
VERTEX
  5
5FD
  8
1HS
 10
463818.73181725858
 20
4728952.1865647156
 30
0.8
  0
VERTEX
  5
5FE
  8
1HS
 10
463867.30200584809
 20
4728931.901884824
 30
0.8
  0
VERTEX
  5
5FF
  8
1HS
 10
463869.58758785308
 20
4728923.8067074362
 30
0.8
  0
VERTEX
  5
600
  8
1HS
 10
463851.64983756322
 20
4728877.1455425359
 30
0.8
  0
SEQEND
  5
601
  8
1HS
  0
POLYLINE
  5
106
  8
1HS
 66
     1
 10
0.0
 20
0.0
 30
0.25
 70
     1
1001
DCO15
1071
        2
1071
        2
1000
Jan27
1004
074233363700
  0
VERTEX
  5
602
  8
1HS
 10
463751.64930062578
 20
4728918.123522413
 30
0.25
  0
VERTEX
  5
603
  8
1HS
 10
463760.90812323772
 20
4728948.1026849877
 30
0.25
  0
VERTEX
  5
604
  8
1HS
 10
463770.72251065407
 20
4728976.601280462
 30
0.25
  0
VERTEX
  5
605
  8
1HS
 10
463816.28011364298
 20
4728953.7705143951
 30
0.25
  0
VERTEX
  5
606
  8
1HS
 10
463803.8072970761
 20
4728924.9567716783
 30
0.25
  0
VERTEX
  5
607
  8
1HS
 10
463797.35868495068
 20
4728899.3125353027
 30
0.25
  0
SEQEND
  5
608
  8
1HS
  0
POLYLINE
  5
107
  8
1HS
 66
     1
 10
0.0
 20
0.0
 30
0.25
 70
     1
1001
DCO15
1071
        2
1071
        2
1000
Jan27
1004
074233363600
  0
VERTEX
  5
609
  8
1HS
 10
463699.63116213691
 20
4728945.3455483653
 30
0.25
  0
VERTEX
  5
60A
  8
1HS
 10
463709.9564822666
 20
4728972.2242155941
 30
0.25
  0
VERTEX
  5
60B
  8
1HS
 10
463725.18005357351
 20
4728994.6822508574
 30
0.25
  0
VERTEX
  5
60C
  8
1HS
 10
463767.38944408001
 20
4728977.0639130417
 30
0.25
  0
VERTEX
  5
60D
  8
1HS
 10
463765.63026295003
 20
4728970.309405949
 30
0.25
  0
VERTEX
  5
60E
  8
1HS
 10
463750.08379376942
 20
4728918.5607110942
 30
0.25
  0
SEQEND
  5
60F
  8
1HS
  0
ENDSEC
  0
EOF
