  0
SECTION
  2
HEADER
  9
$ACADVER
  1
AC1009
  9
$INSBASE
 10
0.0
 20
0.0
 30
0.0
  9
$EXTMIN
 10
461603.67349953909
 20
4709670.4014436491
 30
0.05
  9
$EXTMAX
 10
488894.4973142668
 20
4730234.842643545
 30
24.300000000000001
  9
$LIMMIN
 10
0.0
 20
0.0
  9
$LIMMAX
 10
12.0
 20
9.0
  9
$ORTHOMODE
 70
     0
  9
$REGENMODE
 70
     1
  9
$FILLMODE
 70
     1
  9
$QTEXTMODE
 70
     0
  9
$MIRRTEXT
 70
     1
  9
$DRAGMODE
 70
     2
  9
$LTSCALE
 40
1.0
  9
$OSMODE
 70
    37
  9
$ATTMODE
 70
     1
  9
$TEXTSIZE
 40
0.2
  9
$TRACEWID
 40
0.05
  9
$TEXTSTYLE
  7
STANDARD
  9
$CLAYER
  8
0
  9
$CELTYPE
  6
BYLAYER
  9
$CECOLOR
 62
   256
  9
$DIMSCALE
 40
1.0
  9
$DIMASZ
 40
0.18
  9
$DIMEXO
 40
0.0625
  9
$DIMDLI
 40
0.38
  9
$DIMRND
 40
0.0
  9
$DIMDLE
 40
0.0
  9
$DIMEXE
 40
0.18
  9
$DIMTP
 40
0.0
  9
$DIMTM
 40
0.0
  9
$DIMTXT
 40
0.18
  9
$DIMCEN
 40
0.09
  9
$DIMTSZ
 40
0.0
  9
$DIMTOL
 70
     0
  9
$DIMLIM
 70
     0
  9
$DIMTIH
 70
     1
  9
$DIMTOH
 70
     1
  9
$DIMSE1
 70
     0
  9
$DIMSE2
 70
     0
  9
$DIMTAD
 70
     0
  9
$DIMZIN
 70
     0
  9
$DIMBLK
  1

  9
$DIMASO
 70
     1
  9
$DIMSHO
 70
     1
  9
$DIMPOST
  1

  9
$DIMAPOST
  1

  9
$DIMALT
 70
     0
  9
$DIMALTD
 70
     2
  9
$DIMALTF
 40
25.399999999999999
  9
$DIMLFAC
 40
1.0
  9
$DIMTOFL
 70
     0
  9
$DIMTVP
 40
0.0
  9
$DIMTIX
 70
     0
  9
$DIMSOXD
 70
     0
  9
$DIMSAH
 70
     0
  9
$DIMBLK1
  1

  9
$DIMBLK2
  1

  9
$DIMSTYLE
  2
STANDARD
  9
$DIMCLRD
 70
     0
  9
$DIMCLRE
 70
     0
  9
$DIMCLRT
 70
     0
  9
$DIMTFAC
 40
1.0
  9
$DIMGAP
 40
0.09
  9
$LUNITS
 70
     2
  9
$LUPREC
 70
     4
  9
$SKETCHINC
 40
0.1
  9
$FILLETRAD
 40
0.5
  9
$AUNITS
 70
     0
  9
$AUPREC
 70
     0
  9
$MENU
  1
.
  9
$ELEVATION
 40
0.0
  9
$PELEVATION
 40
0.0
  9
$THICKNESS
 40
0.0
  9
$LIMCHECK
 70
     0
  9
$BLIPMODE
 70
     0
  9
$CHAMFERA
 40
0.5
  9
$CHAMFERB
 40
0.5
  9
$SKPOLY
 70
     0
  9
$TDCREATE
 40
2456320.7140726279
  9
$TDUPDATE
 40
2456320.718710023
  9
$TDINDWG
 40
0.1082280556
  9
$TDUSRTIMER
 40
0.1082049074
  9
$USRTIMER
 70
     1
  9
$ANGBASE
 50
0.0
  9
$ANGDIR
 70
     1
  9
$PDMODE
 70
    66
  9
$PDSIZE
 40
0.0
  9
$PLINEWID
 40
0.0
  9
$COORDS
 70
     1
  9
$SPLFRAME
 70
     0
  9
$SPLINETYPE
 70
     6
  9
$SPLINESEGS
 70
     8
  9
$ATTDIA
 70
     0
  9
$ATTREQ
 70
     1
  9
$HANDLING
 70
     1
  9
$HANDSEED
  5
287
  9
$SURFTAB1
 70
     6
  9
$SURFTAB2
 70
     6
  9
$SURFTYPE
 70
     6
  9
$SURFU
 70
     6
  9
$SURFV
 70
     6
  9
$UCSNAME
  2

  9
$UCSORG
 10
0.0
 20
0.0
 30
0.0
  9
$UCSXDIR
 10
1.0
 20
0.0
 30
0.0
  9
$UCSYDIR
 10
0.0
 20
1.0
 30
0.0
  9
$PUCSNAME
  2

  9
$PUCSORG
 10
0.0
 20
0.0
 30
0.0
  9
$PUCSXDIR
 10
1.0
 20
0.0
 30
0.0
  9
$PUCSYDIR
 10
0.0
 20
1.0
 30
0.0
  9
$USERI1
 70
     0
  9
$USERI2
 70
     0
  9
$USERI3
 70
     0
  9
$USERI4
 70
     0
  9
$USERI5
 70
     0
  9
$USERR1
 40
0.0
  9
$USERR2
 40
0.0
  9
$USERR3
 40
0.0
  9
$USERR4
 40
0.0
  9
$USERR5
 40
0.0
  9
$WORLDVIEW
 70
     1
  9
$SHADEDGE
 70
     3
  9
$SHADEDIF
 70
    70
  9
$TILEMODE
 70
     1
  9
$MAXACTVP
 70
    64
  9
$PLIMCHECK
 70
     0
  9
$PEXTMIN
 10
0.0
 20
0.0
 30
0.0
  9
$PEXTMAX
 10
0.0
 20
0.0
 30
0.0
  9
$PLIMMIN
 10
0.0
 20
0.0
  9
$PLIMMAX
 10
12.0
 20
9.0
  9
$UNITMODE
 70
     0
  9
$VISRETAIN
 70
     1
  9
$PLINEGEN
 70
     0
  9
$PSLTSCALE
 70
     1
  0
ENDSEC
  0
SECTION
  2
TABLES
  0
TABLE
  2
VPORT
 70
     1
  0
VPORT
  2
*ACTIVE
 70
     0
 10
0.0
 20
0.0
 11
1.0
 21
1.0
 12
472133.83989561477
 22
4733230.1508560227
 13
0.0
 23
0.0
 14
0.5
 24
0.5
 15
0.5
 25
0.5
 16
0.0
 26
0.0
 36
1.0
 17
0.0
 27
0.0
 37
0.0
 40
54592.8774297208
 41
1.7470817120622559
 42
50.0
 43
0.0
 44
0.0
 50
0.0
 51
0.0
 71
     0
 72
   100
 73
     1
 74
     2
 75
     0
 76
     0
 77
     0
 78
     0
  0
ENDTAB
  0
TABLE
  2
LTYPE
 70
     1
  0
LTYPE
  2
CONTINUOUS
 70
     0
  3
Solid line
 72
    65
 73
     0
 40
0.0
  0
ENDTAB
  0
TABLE
  2
LAYER
 70
     2
  0
LAYER
  2
0
 70
     0
 62
     7
  6
CONTINUOUS
  0
LAYER
  2
4EIA
 70
     0
 62
     4
  6
CONTINUOUS
  0
ENDTAB
  0
TABLE
  2
STYLE
 70
     1
  0
STYLE
  2
STANDARD
 70
     0
 40
0.0
 41
1.0
 50
0.0
 71
     0
 42
0.2
  3
txt
  4

  0
ENDTAB
  0
TABLE
  2
VIEW
 70
     0
  0
ENDTAB
  0
TABLE
  2
UCS
 70
     0
  0
ENDTAB
  0
TABLE
  2
APPID
 70
     4
  0
APPID
  2
ACAD
 70
     0
  0
APPID
  2
DCO15
 70
     0
  0
APPID
  2
ADE
 70
     0
  0
APPID
  2
ACAECLAYERSTANDARD
 70
     0
  0
ENDTAB
  0
TABLE
  2
DIMSTYLE
 70
     1
  0
DIMSTYLE
  2
STANDARD
 70
     0
  3

  4

  5

  6

  7

 40
1.0
 41
0.18
 42
0.0625
 43
0.38
 44
0.18
 45
0.0
 46
0.0
 47
0.0
 48
0.0
140
0.18
141
0.09
142
0.0
143
25.399999999999999
144
1.0
145
0.0
146
1.0
147
0.09
 71
     0
 72
     0
 73
     1
 74
     1
 75
     0
 76
     0
 77
     0
 78
     0
170
     0
171
     2
172
     0
173
     0
174
     0
175
     0
176
     0
177
     0
178
     0
  0
ENDTAB
  0
ENDSEC
  0
SECTION
  2
BLOCKS
  0
BLOCK
  8
0
  2
$MODEL_SPACE
 70
     0
 10
0.0
 20
0.0
 30
0.0
  3
$MODEL_SPACE
  1

  0
ENDBLK
  5
17
  8
0
  0
BLOCK
 67
     1
  8
0
  2
$PAPER_SPACE
 70
     0
 10
0.0
 20
0.0
 30
0.0
  3
$PAPER_SPACE
  1

  0
ENDBLK
  5
1C
 67
     1
  8
0
  0
ENDSEC
  0
SECTION
  2
ENTITIES
  0
POLYLINE
  5
6C
  8
4EIA
 66
     1
 10
0.0
 20
0.0
 30
0.25
 70
     1
1001
DCO15
1071
        2
1071
        2
1000
Jan27
1004
074138373100
  0
VERTEX
  5
C7
  8
4EIA
 10
488575.0
 20
4716084.0
 30
0.25
  0
VERTEX
  5
C8
  8
4EIA
 10
488575.0
 20
4716084.0
 30
0.25
  0
VERTEX
  5
C9
  8
4EIA
 10
488562.49993578048
 20
4716064.4999808874
 30
0.25
  0
VERTEX
  5
CA
  8
4EIA
 10
488562.49993578048
 20
4716064.4999808874
 30
0.25
  0
VERTEX
  5
CB
  8
4EIA
 10
488535.0
 20
4716074.0
 30
0.25
  0
VERTEX
  5
CC
  8
4EIA
 10
488535.0
 20
4716074.0
 30
0.25
  0
VERTEX
  5
CD
  8
4EIA
 10
488535.0
 20
4716074.0
 30
0.25
  0
VERTEX
  5
CE
  8
4EIA
 10
488542.0
 20
4716094.5
 30
0.25
  0
VERTEX
  5
CF
  8
4EIA
 10
488557.5
 20
4716116.0
 30
0.25
  0
VERTEX
  5
D0
  8
4EIA
 10
488557.5
 20
4716116.0
 30
0.25
  0
VERTEX
  5
D1
  8
4EIA
 10
488580.0
 20
4716107.4999999991
 30
0.25
  0
SEQEND
  5
D2
  8
4EIA
  0
POLYLINE
  5
71
  8
4EIA
 66
     1
 10
0.0
 20
0.0
 30
0.25
 70
     1
1001
DCO15
1071
        2
1071
        2
1000
Jan27
1004
074138343400
  0
VERTEX
  5
D3
  8
4EIA
 10
486843.0
 20
4716093.5
 30
0.25
  0
VERTEX
  5
D4
  8
4EIA
 10
486868.61428119388
 20
4716114.0000170656
 30
0.25
  0
VERTEX
  5
D5
  8
4EIA
 10
486864.5
 20
4716127.4999999991
 30
0.25
  0
VERTEX
  5
D6
  8
4EIA
 10
486851.11428119388
 20
4716141.5000170656
 30
0.25
  0
VERTEX
  5
D7
  8
4EIA
 10
486851.11428119388
 20
4716141.5000170656
 30
0.25
  0
VERTEX
  5
D8
  8
4EIA
 10
486851.11428119388
 20
4716141.5000170656
 30
0.25
  0
VERTEX
  5
D9
  8
4EIA
 10
486826.5
 20
4716142.5
 30
0.25
  0
VERTEX
  5
DA
  8
4EIA
 10
486820.5
 20
4716106.0
 30
0.25
  0
VERTEX
  5
DB
  8
4EIA
 10
486820.5
 20
4716106.0
 30
0.25
  0
SEQEND
  5
DC
  8
4EIA
  0
POLYLINE
  5
72
  8
4EIA
 66
     1
 10
0.0
 20
0.0
 30
0.25
 70
     1
1001
DCO15
1071
        2
1071
        2
1000
Jan27
1004
074137383500
  0
VERTEX
  5
DD
  8
4EIA
 10
485322.49993519869
 20
4716077.0000197794
 30
0.25
  0
VERTEX
  5
DE
  8
4EIA
 10
485325.99993519881
 20
4716067.5000197794
 30
0.25
  0
VERTEX
  5
DF
  8
4EIA
 10
485360.49993519869
 20
4716066.5000197794
 30
0.25
  0
VERTEX
  5
E0
  8
4EIA
 10
485372.49993519881
 20
4716078.0000197776
 30
0.25
  0
VERTEX
  5
E1
  8
4EIA
 10
485363.0
 20
4716112.0
 30
0.25
  0
VERTEX
  5
E2
  8
4EIA
 10
485324.4998898721
 20
4716113.000054623
 30
0.25
  0
SEQEND
  5
E3
  8
4EIA
  0
POLYLINE
  5
73
  8
4EIA
 66
     1
 10
0.0
 20
0.0
 30
0.25
 70
     1
1001
DCO15
1071
        2
1071
        2
1000
Jan27
1004
074137323400
  0
VERTEX
  5
E4
  8
4EIA
 10
485142.0
 20
4717180.0
 30
0.25
  0
VERTEX
  5
E5
  8
4EIA
 10
485148.0
 20
4717163.0
 30
0.25
  0
VERTEX
  5
E6
  8
4EIA
 10
485149.49999999988
 20
4717147.5
 30
0.25
  0
VERTEX
  5
E7
  8
4EIA
 10
485145.0
 20
4717131.5
 30
0.25
  0
VERTEX
  5
E8
  8
4EIA
 10
485114.16126664751
 20
4717132.5000405712
 30
0.25
  0
VERTEX
  5
E9
  8
4EIA
 10
485104.6109279925
 20
4717139.6589146303
 30
0.25
  0
VERTEX
  5
EA
  8
4EIA
 10
485104.6109279925
 20
4717139.6589146303
 30
0.25
  0
VERTEX
  5
EB
  8
4EIA
 10
485104.6109279925
 20
4717139.6589146303
 30
0.25
  0
VERTEX
  5
EC
  8
4EIA
 10
485099.0
 20
4717160.0
 30
0.25
  0
VERTEX
  5
ED
  8
4EIA
 10
485103.0
 20
4717179.0
 30
0.25
  0
SEQEND
  5
EE
  8
4EIA
  0
POLYLINE
  5
74
  8
4EIA
 66
     1
 10
0.0
 20
0.0
 30
0.25
 70
     1
1001
DCO15
1071
        2
1071
        2
1000
Jan27
1004
074238333500
  0
VERTEX
  5
EF
  8
4EIA
 10
484062.55727067823
 20
4713995.5000035698
 30
0.25
  0
VERTEX
  5
F0
  8
4EIA
 10
484092.5
 20
4713988.5
 30
0.25
  0
VERTEX
  5
F1
  8
4EIA
 10
484108.5
 20
4713995.5
 30
0.25
  0
VERTEX
  5
F2
  8
4EIA
 10
484094.5
 20
4714037.4999999991
 30
0.25
  0
VERTEX
  5
F3
  8
4EIA
 10
484094.5
 20
4714037.4999999991
 30
0.25
  0
VERTEX
  5
F4
  8
4EIA
 10
484059.5
 20
4714046.0
 30
0.25
  0
VERTEX
  5
F5
  8
4EIA
 10
484049.00005828502
 20
4714024.497134841
 30
0.25
  0
VERTEX
  5
F6
  8
4EIA
 10
484042.5
 20
4714005.4999999991
 30
0.25
  0
VERTEX
  5
F7
  8
4EIA
 10
484042.5
 20
4714005.4999999991
 30
0.25
  0
SEQEND
  5
F8
  8
4EIA
  0
POLYLINE
  5
75
  8
4EIA
 66
     1
 10
0.0
 20
0.0
 30
0.25
 70
     1
1001
DCO15
1071
        2
1071
        2
1000
Jan27
1004
074238353500
  0
VERTEX
  5
F9
  8
4EIA
 10
484044.5000783875
 20
4716027.9999624509
 30
0.25
  0
VERTEX
  5
FA
  8
4EIA
 10
484060.0000783875
 20
4716035.9999624509
 30
0.25
  0
VERTEX
  5
FB
  8
4EIA
 10
484068.00008241431
 20
4716050.4999275208
 30
0.25
  0
VERTEX
  5
FC
  8
4EIA
 10
484064.5000783875
 20
4716067.9999624509
 30
0.25
  0
VERTEX
  5
FD
  8
4EIA
 10
484050.50008241419
 20
4716080.4999275208
 30
0.25
  0
VERTEX
  5
FE
  8
4EIA
 10
484046.50008241419
 20
4716084.4999275208
 30
0.25
  0
VERTEX
  5
FF
  8
4EIA
 10
484034.05006708141
 20
4716083.6158661833
 30
0.25
  0
VERTEX
  5
100
  8
4EIA
 10
484020.5
 20
4716084.5
 30
0.25
  0
VERTEX
  5
101
  8
4EIA
 10
484015.00008241419
 20
4716053.4999275217
 30
0.25
  0
VERTEX
  5
102
  8
4EIA
 10
484013.0
 20
4716035.5
 30
0.25
  0
VERTEX
  5
103
  8
4EIA
 10
484027.00008241419
 20
4716030.4999275208
 30
0.25
  0
SEQEND
  5
104
  8
4EIA
  0
POLYLINE
  5
76
  8
4EIA
 66
     1
 10
0.0
 20
0.0
 30
0.25
 70
     1
1001
DCO15
1071
        2
1071
        2
1000
Jan27
1004
074238303900
  0
VERTEX
  5
105
  8
4EIA
 10
483197.00556387822
 20
4714644.6459707581
 30
0.25
  0
VERTEX
  5
106
  8
4EIA
 10
483249.7810275185
 20
4714644.1647131657
 30
0.25
  0
VERTEX
  5
107
  8
4EIA
 10
483247.45060418179
 20
4714662.7448627334
 30
0.25
  0
VERTEX
  5
108
  8
4EIA
 10
483246.3217525293
 20
4714676.1470519798
 30
0.25
  0
VERTEX
  5
109
  8
4EIA
 10
483246.3217525293
 20
4714676.1470519798
 30
0.25
  0
VERTEX
  5
10A
  8
4EIA
 10
483206.5386526651
 20
4714683.0622174079
 30
0.25
  0
VERTEX
  5
10B
  8
4EIA
 10
483194.43076741218
 20
4714668.3675689856
 30
0.25
  0
VERTEX
  5
10C
  8
4EIA
 10
483197.00556387822
 20
4714644.6459707581
 30
0.25
  0
VERTEX
  5
10D
  8
4EIA
 10
483197.00556387822
 20
4714644.6459707581
 30
0.25
  0
SEQEND
  5
10E
  8
4EIA
  0
POLYLINE
  5
77
  8
4EIA
 66
     1
 10
0.0
 20
0.0
 30
0.25
 70
     1
1001
DCO15
1071
        2
1071
        2
1000
Jan27
1004
074130393900
  0
VERTEX
  5
10F
  8
4EIA
 10
482885.03736554441
 20
4714430.2638802519
 30
0.25
  0
VERTEX
  5
110
  8
4EIA
 10
482885.03736554441
 20
4714430.2638802519
 30
0.25
  0
VERTEX
  5
111
  8
4EIA
 10
482885.03736554441
 20
4714430.2638802519
 30
0.25
  0
VERTEX
  5
112
  8
4EIA
 10
482894.35643860872
 20
4714432.4811824337
 30
0.25
  0
VERTEX
  5
113
  8
4EIA
 10
482900.05388826597
 20
4714441.1957325153
 30
0.25
  0
VERTEX
  5
114
  8
4EIA
 10
482900.05388826597
 20
4714441.1957325153
 30
0.25
  0
VERTEX
  5
115
  8
4EIA
 10
482897.42697498383
 20
4714454.4984271219
 30
0.25
  0
VERTEX
  5
116
  8
4EIA
 10
482877.68712207919
 20
4714457.4208774623
 30
0.25
  0
VERTEX
  5
117
  8
4EIA
 10
482853.08625789511
 20
4714451.1068599867
 30
0.25
  0
VERTEX
  5
118
  8
4EIA
 10
482862.40533095947
 20
4714438.2462752312
 30
0.25
  0
SEQEND
  5
119
  8
4EIA
  0
POLYLINE
  5
78
  8
4EIA
 66
     1
 10
0.0
 20
0.0
 30
0.25
 70
     1
1001
DCO15
1071
        2
1071
        2
1000
Jan27
1004
074133393800
  0
VERTEX
  5
11A
  8
4EIA
 10
468409.87975813058
 20
4729587.8043870097
 30
0.25
  0
VERTEX
  5
11B
  8
4EIA
 10
468392.87985285022
 20
4729565.7827146072
 30
0.25
  0
VERTEX
  5
11C
  8
4EIA
 10
468432.73692614923
 20
4729550.3972352818
 30
0.25
  0
VERTEX
  5
11D
  8
4EIA
 10
468445.80019855947
 20
4729548.9468997912
 30
0.25
  0
VERTEX
  5
11E
  8
4EIA
 10
468446.39734825707
 20
4729577.7372702332
 30
0.25
  0
VERTEX
  5
11F
  8
4EIA
 10
468423.1017485176
 20
4729586.545939195
 30
0.25
  0
VERTEX
  5
120
  8
4EIA
 10
468416.17580845981
 20
4729585.2877242528
 30
0.25
  0
SEQEND
  5
121
  8
4EIA
  0
POLYLINE
  5
79
  8
4EIA
 66
     1
 10
0.0
 20
0.0
 30
0.25
 70
     1
1001
DCO15
1071
        2
1071
        2
1000
Jan27
1004
074133393900
  0
VERTEX
  5
122
  8
4EIA
 10
468291.46084498032
 20
4729635.6992248632
 30
0.25
  0
VERTEX
  5
123
  8
4EIA
 10
468271.40223788109
 20
4729611.2191080507
 30
0.25
  0
VERTEX
  5
124
  8
4EIA
 10
468318.89521169511
 20
4729592.3195692273
 30
0.25
  0
VERTEX
  5
125
  8
4EIA
 10
468331.9584841053
 20
4729590.869233734
 30
0.25
  0
VERTEX
  5
126
  8
4EIA
 10
468339.27766040631
 20
4729621.7084242869
 30
0.25
  0
VERTEX
  5
127
  8
4EIA
 10
468311.63795675721
 20
4729634.3834901918
 30
0.25
  0
VERTEX
  5
128
  8
4EIA
 10
468294.56865684577
 20
4729637.1896145772
 30
0.25
  0
SEQEND
  5
129
  8
4EIA
  0
POLYLINE
  5
7A
  8
4EIA
 66
     1
 10
0.0
 20
0.0
 30
0.25
 70
     1
1001
DCO15
1071
        2
1071
        2
1000
Jan27
1004
074133393000
  0
VERTEX
  5
12A
  8
4EIA
 10
468378.06534464599
 20
4729710.9757820033
 30
0.25
  0
VERTEX
  5
12B
  8
4EIA
 10
468357.74481729808
 20
4729676.1642371127
 30
0.25
  0
VERTEX
  5
12C
  8
4EIA
 10
468405.6431269318
 20
4729664.5603888156
 30
0.25
  0
VERTEX
  5
12D
  8
4EIA
 10
468418.70639934199
 20
4729663.1100533251
 30
0.25
  0
VERTEX
  5
12E
  8
4EIA
 10
468426.025575643
 20
4729693.949243878
 30
0.25
  0
VERTEX
  5
12F
  8
4EIA
 10
468398.38587199402
 20
4729706.6243097829
 30
0.25
  0
VERTEX
  5
130
  8
4EIA
 10
468381.31657208252
 20
4729709.4304341683
 30
0.25
  0
SEQEND
  5
131
  8
4EIA
  0
POLYLINE
  5
7B
  8
4EIA
 66
     1
 10
0.0
 20
0.0
 30
0.25
 70
     1
1001
DCO15
1071
        2
1071
        2
1000
Jan27
1004
074133383900
  0
VERTEX
  5
132
  8
4EIA
 10
468249.38919327309
 20
4729748.5410547657
 30
0.25
  0
VERTEX
  5
133
  8
4EIA
 10
468229.06866592512
 20
4729713.7295098752
 30
0.25
  0
VERTEX
  5
134
  8
4EIA
 10
468276.9669755589
 20
4729702.125661579
 30
0.25
  0
VERTEX
  5
135
  8
4EIA
 10
468290.03024796909
 20
4729700.6753260866
 30
0.25
  0
VERTEX
  5
136
  8
4EIA
 10
468297.3494242701
 20
4729731.5145166405
 30
0.25
  0
VERTEX
  5
137
  8
4EIA
 10
468269.709720621
 20
4729744.1895825453
 30
0.25
  0
VERTEX
  5
138
  8
4EIA
 10
468252.6404207095
 20
4729746.9957069298
 30
0.25
  0
SEQEND
  5
139
  8
4EIA
  0
POLYLINE
  5
7C
  8
4EIA
 66
     1
 10
0.0
 20
0.0
 30
0.1
 70
     1
1001
DCO15
1071
        2
1071
        2
1000
Jan27
1004
074235333300
  0
VERTEX
  5
13A
  8
4EIA
 10
469323.65651730681
 20
4729635.0527683236
 30
0.1
  0
VERTEX
  5
13B
  8
4EIA
 10
469329.99456028442
 20
4729630.1512491498
 30
0.1
  0
VERTEX
  5
13C
  8
4EIA
 10
469373.49965596222
 20
4729630.1512491498
 30
0.1
  0
VERTEX
  5
13D
  8
4EIA
 10
469375.47722501482
 20
4729639.0414237985
 30
0.1
  0
VERTEX
  5
13E
  8
4EIA
 10
469377.45479406742
 20
4729672.6259587817
 30
0.1
  0
VERTEX
  5
13F
  8
4EIA
 10
469373.00606440631
 20
4729680.5052300319
 30
0.1
  0
VERTEX
  5
140
  8
4EIA
 10
469322.06471122941
 20
4729679.2486452032
 30
0.1
  0
VERTEX
  5
141
  8
4EIA
 10
469321.49389590451
 20
4729644.6217689142
 30
0.1
  0
SEQEND
  5
142
  8
4EIA
  0
POLYLINE
  5
7D
  8
4EIA
 66
     1
 10
0.0
 20
0.0
 30
0.1
 70
     1
1001
DCO15
1071
        2
1071
        2
1000
Jan27
1004
074235353100
  0
VERTEX
  5
143
  8
4EIA
 10
469623.28936739318
 20
4730111.8882865543
 30
0.1
  0
VERTEX
  5
144
  8
4EIA
 10
469629.6274103708
 20
4730106.9867673786
 30
0.1
  0
VERTEX
  5
145
  8
4EIA
 10
469673.1325060486
 20
4730106.9867673786
 30
0.1
  0
VERTEX
  5
146
  8
4EIA
 10
469675.1100751012
 20
4730115.8769420283
 30
0.1
  0
VERTEX
  5
147
  8
4EIA
 10
469677.08764415391
 20
4730149.4614770114
 30
0.1
  0
VERTEX
  5
148
  8
4EIA
 10
469672.6389144928
 20
4730157.3407482607
 30
0.1
  0
VERTEX
  5
149
  8
4EIA
 10
469621.69756131578
 20
4730156.084163432
 30
0.1
  0
VERTEX
  5
14A
  8
4EIA
 10
469621.126745991
 20
4730121.4572871439
 30
0.1
  0
SEQEND
  5
14B
  8
4EIA
  0
POLYLINE
  5
7E
  8
4EIA
 66
     1
 10
0.0
 20
0.0
 30
0.25
 70
     1
1001
DCO15
1071
        2
1071
        2
1000
Jan27
1004
074234393000
  0
VERTEX
  5
14C
  8
4EIA
 10
468758.00023841078
 20
4729894.2347999569
 30
0.25
  0
VERTEX
  5
14D
  8
4EIA
 10
468765.16745826311
 20
4729888.9839706942
 30
0.25
  0
VERTEX
  5
14E
  8
4EIA
 10
468798.61495873408
 20
4729890.4161420586
 30
0.25
  0
VERTEX
  5
14F
  8
4EIA
 10
468804.08539088751
 20
4729897.9770753803
 30
0.25
  0
VERTEX
  5
150
  8
4EIA
 10
468806.06295994011
 20
4729931.5616103644
 30
0.25
  0
VERTEX
  5
151
  8
4EIA
 10
468801.614230279
 20
4729939.4408816136
 30
0.25
  0
VERTEX
  5
152
  8
4EIA
 10
468756.49526458979
 20
4729935.8867678912
 30
0.25
  0
VERTEX
  5
153
  8
4EIA
 10
468756.56679444032
 20
4729904.7366913576
 30
0.25
  0
SEQEND
  5
154
  8
4EIA
  0
POLYLINE
  5
7F
  8
4EIA
 66
     1
 10
0.0
 20
0.0
 30
0.25
 70
     1
1001
DCO15
1071
        2
1071
        2
1000
Jan27
1004
074234373900
  0
VERTEX
  5
155
  8
4EIA
 10
468869.5252397944
 20
4729787.2760505788
 30
0.25
  0
VERTEX
  5
156
  8
4EIA
 10
468876.69245964673
 20
4729782.0252213161
 30
0.25
  0
VERTEX
  5
157
  8
4EIA
 10
468910.1399601177
 20
4729783.4573926833
 30
0.25
  0
VERTEX
  5
158
  8
4EIA
 10
468915.61039227102
 20
4729791.018326004
 30
0.25
  0
VERTEX
  5
159
  8
4EIA
 10
468917.58796132368
 20
4729824.6028609872
 30
0.25
  0
VERTEX
  5
15A
  8
4EIA
 10
468913.13923166262
 20
4729832.4821322374
 30
0.25
  0
VERTEX
  5
15B
  8
4EIA
 10
468868.02026597341
 20
4729828.9280185141
 30
0.25
  0
VERTEX
  5
15C
  8
4EIA
 10
468868.09179582389
 20
4729797.7779419813
 30
0.25
  0
SEQEND
  5
15D
  8
4EIA
  0
POLYLINE
  5
80
  8
4EIA
 66
     1
 10
0.0
 20
0.0
 30
0.25
 70
     1
1001
DCO15
1071
        2
1071
        2
1000
Jan27
1004
074235333000
  0
VERTEX
  5
15E
  8
4EIA
 10
470660.57679633982
 20
4728374.5714460351
 30
0.25
  0
VERTEX
  5
15F
  8
4EIA
 10
470670.72783882538
 20
4728418.2656669319
 30
0.25
  0
VERTEX
  5
160
  8
4EIA
 10
470617.62958220392
 20
4728429.1893728282
 30
0.25
  0
VERTEX
  5
161
  8
4EIA
 10
470604.35509479919
 20
4728373.7911669789
 30
0.25
  0
VERTEX
  5
162
  8
4EIA
 10
470656.85838029301
 20
4728363.3478027992
 30
0.25
  0
SEQEND
  5
163
  8
4EIA
  0
POLYLINE
  5
81
  8
4EIA
 66
     1
 10
0.0
 20
0.0
 30
0.25
 70
     1
1001
DCO15
1071
        2
1071
        2
1000
Jan27
1004
074136333900
  0
VERTEX
  5
164
  8
4EIA
 10
469314.56237786129
 20
4726593.4846542841
 30
0.25
  0
VERTEX
  5
165
  8
4EIA
 10
469364.76805555349
 20
4726586.9053187789
 30
0.25
  0
VERTEX
  5
166
  8
4EIA
 10
469371.35234129953
 20
4726577.0365164168
 30
0.25
  0
VERTEX
  5
167
  8
4EIA
 10
469366.4142037406
 20
4726558.1207761671
 30
0.25
  0
VERTEX
  5
168
  8
4EIA
 10
469309.62393329991
 20
4726564.7001116723
 30
0.25
  0
SEQEND
  5
169
  8
4EIA
  0
POLYLINE
  5
82
  8
4EIA
 66
     1
 10
0.0
 20
0.0
 30
0.25
 70
     1
1001
DCO15
1071
        2
1071
        2
1000
Jan27
1004
074234373700
  0
VERTEX
  5
16A
  8
4EIA
 10
468655.87874335173
 20
4729778.8835263709
 30
0.25
  0
VERTEX
  5
16B
  8
4EIA
 10
468663.045963204
 20
4729773.6326971082
 30
0.25
  0
VERTEX
  5
16C
  8
4EIA
 10
468696.49346367491
 20
4729775.0648684753
 30
0.25
  0
VERTEX
  5
16D
  8
4EIA
 10
468701.96389582829
 20
4729782.6258017961
 30
0.25
  0
VERTEX
  5
16E
  8
4EIA
 10
468703.94146488089
 20
4729816.2103367792
 30
0.25
  0
VERTEX
  5
16F
  8
4EIA
 10
468699.49273521983
 20
4729824.0896080295
 30
0.25
  0
VERTEX
  5
170
  8
4EIA
 10
468654.37376953062
 20
4729820.5354943061
 30
0.25
  0
VERTEX
  5
171
  8
4EIA
 10
468654.44529938127
 20
4729789.3854177734
 30
0.25
  0
SEQEND
  5
172
  8
4EIA
  0
POLYLINE
  5
83
  8
4EIA
 66
     1
 10
0.0
 20
0.0
 30
0.25
 70
     1
1001
DCO15
1071
        2
1071
        2
1000
Jan27
1004
074234373800
  0
VERTEX
  5
173
  8
4EIA
 10
468709.78235760372
 20
4729782.5973912422
 30
0.25
  0
VERTEX
  5
174
  8
4EIA
 10
468716.94957745599
 20
4729777.3465619776
 30
0.25
  0
VERTEX
  5
175
  8
4EIA
 10
468750.3970779269
 20
4729778.7787333438
 30
0.25
  0
VERTEX
  5
176
  8
4EIA
 10
468755.86751008028
 20
4729786.3396666674
 30
0.25
  0
VERTEX
  5
177
  8
4EIA
 10
468757.84507913288
 20
4729819.9242016496
 30
0.25
  0
VERTEX
  5
178
  8
4EIA
 10
468753.39634947182
 20
4729827.8034728989
 30
0.25
  0
VERTEX
  5
179
  8
4EIA
 10
468708.27738378261
 20
4729824.2493591756
 30
0.25
  0
VERTEX
  5
17A
  8
4EIA
 10
468708.34891363332
 20
4729793.0992826438
 30
0.25
  0
SEQEND
  5
17B
  8
4EIA
  0
POLYLINE
  5
84
  8
4EIA
 66
     1
 10
0.0
 20
0.0
 30
0.4
 70
     1
1001
DCO15
1071
        2
1071
        2
1000
Jan27
1004
074234383700
  0
VERTEX
  5
17C
  8
4EIA
 10
468481.8142327728
 20
4729891.8063962152
 30
0.4
  0
VERTEX
  5
17D
  8
4EIA
 10
468488.15227575041
 20
4729886.9048770396
 30
0.4
  0
VERTEX
  5
17E
  8
4EIA
 10
468531.65737142821
 20
4729886.9048770396
 30
0.4
  0
VERTEX
  5
17F
  8
4EIA
 10
468533.63494048081
 20
4729895.7950516893
 30
0.4
  0
VERTEX
  5
180
  8
4EIA
 10
468535.61250953341
 20
4729929.3795866724
 30
0.4
  0
VERTEX
  5
181
  8
4EIA
 10
468531.16377987229
 20
4729937.2588579226
 30
0.4
  0
VERTEX
  5
182
  8
4EIA
 10
468480.2224266954
 20
4729936.0022730939
 30
0.4
  0
VERTEX
  5
183
  8
4EIA
 10
468479.6516113705
 20
4729901.3753968049
 30
0.4
  0
SEQEND
  5
184
  8
4EIA
  0
POLYLINE
  5
85
  8
4EIA
 66
     1
 10
0.0
 20
0.0
 30
0.25
 70
     1
1001
DCO15
1071
        2
1071
        2
1000
Jan27
1004
074234383900
  0
VERTEX
  5
185
  8
4EIA
 10
468690.92303207872
 20
4729887.1640651273
 30
0.25
  0
VERTEX
  5
186
  8
4EIA
 10
468697.26107505622
 20
4729882.2625459516
 30
0.25
  0
VERTEX
  5
187
  8
4EIA
 10
468740.76617073402
 20
4729882.2625459516
 30
0.25
  0
VERTEX
  5
188
  8
4EIA
 10
468742.74373978667
 20
4729891.1527206013
 30
0.25
  0
VERTEX
  5
189
  8
4EIA
 10
468744.72130883922
 20
4729924.7372555854
 30
0.25
  0
VERTEX
  5
18A
  8
4EIA
 10
468740.27257917821
 20
4729932.6165268337
 30
0.25
  0
VERTEX
  5
18B
  8
4EIA
 10
468689.3312260012
 20
4729931.3599420059
 30
0.25
  0
VERTEX
  5
18C
  8
4EIA
 10
468688.76041067642
 20
4729896.7330657169
 30
0.25
  0
SEQEND
  5
18D
  8
4EIA
  0
POLYLINE
  5
86
  8
4EIA
 66
     1
 10
0.0
 20
0.0
 30
0.25
 70
     1
1001
DCO15
1071
        2
1071
        2
1000
Jan27
1004
074235303000
  0
VERTEX
  5
18E
  8
4EIA
 10
468418.40390992421
 20
4730189.6365618873
 30
0.25
  0
VERTEX
  5
18F
  8
4EIA
 10
468425.57112977648
 20
4730184.3857326237
 30
0.25
  0
VERTEX
  5
190
  8
4EIA
 10
468459.01863024739
 20
4730185.8179039899
 30
0.25
  0
VERTEX
  5
191
  8
4EIA
 10
468464.48906240088
 20
4730193.3788373107
 30
0.25
  0
VERTEX
  5
192
  8
4EIA
 10
468466.46663145343
 20
4730226.9633722939
 30
0.25
  0
VERTEX
  5
193
  8
4EIA
 10
468462.01790179242
 20
4730234.842643545
 30
0.25
  0
VERTEX
  5
194
  8
4EIA
 10
468416.89893610321
 20
4730231.2885298217
 30
0.25
  0
VERTEX
  5
195
  8
4EIA
 10
468416.97046595381
 20
4730200.138453288
 30
0.25
  0
SEQEND
  5
196
  8
4EIA
  0
POLYLINE
  5
87
  8
4EIA
 66
     1
 10
0.0
 20
0.0
 30
0.25
 70
     1
1001
DCO15
1071
        2
1071
        2
1000
Jan27
1004
074235313100
  0
VERTEX
  5
197
  8
4EIA
 10
468565.22480005643
 20
4729997.5176428258
 30
0.25
  0
VERTEX
  5
198
  8
4EIA
 10
468572.3920199087
 20
4729992.2668135623
 30
0.25
  0
VERTEX
  5
199
  8
4EIA
 10
468605.83952037961
 20
4729993.6989849284
 30
0.25
  0
VERTEX
  5
19A
  8
4EIA
 10
468611.30995253311
 20
4730001.2599182501
 30
0.25
  0
VERTEX
  5
19B
  8
4EIA
 10
468613.28752158559
 20
4730034.8444532333
 30
0.25
  0
VERTEX
  5
19C
  8
4EIA
 10
468608.83879192459
 20
4730042.7237244826
 30
0.25
  0
VERTEX
  5
19D
  8
4EIA
 10
468563.71982623538
 20
4730039.1696107602
 30
0.25
  0
VERTEX
  5
19E
  8
4EIA
 10
468563.79135608597
 20
4730008.0195342274
 30
0.25
  0
SEQEND
  5
19F
  8
4EIA
  0
POLYLINE
  5
88
  8
4EIA
 66
     1
 10
0.0
 20
0.0
 30
0.2
 70
     1
1001
DCO15
1071
        2
1071
        2
1000
Jan27
1004
074135393800
  0
VERTEX
  5
1A0
  8
4EIA
 10
467999.39450077771
 20
4725560.0632096054
 30
0.2
  0
VERTEX
  5
1A1
  8
4EIA
 10
467981.78427861311
 20
4725525.5415920876
 30
0.2
  0
VERTEX
  5
1A2
  8
4EIA
 10
468019.85844369681
 20
4725517.1129725045
 30
0.2
  0
VERTEX
  5
1A3
  8
4EIA
 10
468028.07298867451
 20
4725549.3193627484
 30
0.2
  0
VERTEX
  5
1A4
  8
4EIA
 10
468002.97917831369
 20
4725560.0632096054
 30
0.2
  0
SEQEND
  5
1A5
  8
4EIA
  0
POLYLINE
  5
89
  8
4EIA
 66
     1
 10
0.0
 20
0.0
 30
0.25
 70
     1
1001
DCO15
1071
        2
1071
        2
1000
Jan27
1004
074134373100
  0
VERTEX
  5
1A6
  8
4EIA
 10
467962.16766193399
 20
4727343.6773201218
 30
0.25
  0
VERTEX
  5
1A7
  8
4EIA
 10
467978.55262402142
 20
4727382.5562316934
 30
0.25
  0
VERTEX
  5
1A8
  8
4EIA
 10
468009.27416103292
 20
4727383.5792445084
 30
0.25
  0
VERTEX
  5
1A9
  8
4EIA
 10
468004.15390486439
 20
4727361.0706338398
 30
0.25
  0
VERTEX
  5
1AA
  8
4EIA
 10
467992.88919894549
 20
4727337.5385446101
 30
0.25
  0
VERTEX
  5
1AB
  8
4EIA
 10
467968.31175581441
 20
4727319.1224509487
 30
0.25
  0
VERTEX
  5
1AC
  8
4EIA
 10
467959.09543705877
 20
4727324.2379807727
 30
0.25
  0
SEQEND
  5
1AD
  8
4EIA
  0
POLYLINE
  5
8A
  8
4EIA
 66
     1
 10
0.0
 20
0.0
 30
0.25
 70
     1
1001
DCO15
1071
        2
1071
        2
1000
Jan27
1004
074133363800
  0
VERTEX
  5
1AE
  8
4EIA
 10
467709.07441019057
 20
4726823.2038896624
 30
0.25
  0
VERTEX
  5
1AF
  8
4EIA
 10
467719.18289479369
 20
4726832.2948011756
 30
0.25
  0
VERTEX
  5
1B0
  8
4EIA
 10
467729.29173526668
 20
4726832.2948011756
 30
0.25
  0
VERTEX
  5
1B1
  8
4EIA
 10
467741.42191679042
 20
4726824.2140944414
 30
0.25
  0
VERTEX
  5
1B2
  8
4EIA
 10
467739.4002198698
 20
4726804.0123276031
 30
0.25
  0
VERTEX
  5
1B3
  8
4EIA
 10
467727.26968247612
 20
4726795.9313879954
 30
0.25
  0
VERTEX
  5
1B4
  8
4EIA
 10
467712.10677763663
 20
4726800.9819461396
 30
0.25
  0
VERTEX
  5
1B5
  8
4EIA
 10
467708.06338379532
 20
4726819.1635362944
 30
0.25
  0
SEQEND
  5
1B6
  8
4EIA
  0
POLYLINE
  5
8B
  8
4EIA
 66
     1
 10
0.0
 20
0.0
 30
0.1
 70
     1
1001
DCO15
1071
        2
1071
        2
1000
Jan27
1004
074133313000
  0
VERTEX
  5
1B7
  8
4EIA
 10
466308.7829240422
 20
4726352.4922430459
 30
0.1
  0
VERTEX
  5
1B8
  8
4EIA
 10
466323.16362683428
 20
4726374.6999812908
 30
0.1
  0
VERTEX
  5
1B9
  8
4EIA
 10
466342.77383785538
 20
4726370.7809549607
 30
0.1
  0
VERTEX
  5
1BA
  8
4EIA
 10
466368.92031139019
 20
4726362.9429023014
 30
0.1
  0
VERTEX
  5
1BB
  8
4EIA
 10
466363.69115903118
 20
4726327.6716653332
 30
0.1
  0
VERTEX
  5
1BC
  8
4EIA
 10
466311.39750022162
 20
4726344.6541903866
 30
0.1
  0
SEQEND
  5
1BD
  8
4EIA
  0
POLYLINE
  5
8C
  8
4EIA
 66
     1
 10
0.0
 20
0.0
 30
0.25
 70
     1
1001
DCO15
1071
        2
1071
        2
1000
Jan27
1004
074134383800
  0
VERTEX
  5
1BE
  8
4EIA
 10
468192.10837363882
 20
4726265.2723082006
 30
0.25
  0
VERTEX
  5
1BF
  8
4EIA
 10
468189.6660384924
 20
4726276.2541516665
 30
0.25
  0
VERTEX
  5
1C0
  8
4EIA
 10
468195.77134255349
 20
4726304.3188886149
 30
0.25
  0
VERTEX
  5
1C1
  8
4EIA
 10
468207.98159480531
 20
4726305.5391451949
 30
0.25
  0
VERTEX
  5
1C2
  8
4EIA
 10
468253.1599907683
 20
4726281.1349451086
 30
0.25
  0
VERTEX
  5
1C3
  8
4EIA
 10
468254.38098040648
 20
4726271.3733582236
 30
0.25
  0
VERTEX
  5
1C4
  8
4EIA
 10
468239.72839300829
 20
4726244.529110726
 30
0.25
  0
VERTEX
  5
1C5
  8
4EIA
 10
468211.6449195898
 20
4726245.7491344307
 30
0.25
  0
SEQEND
  5
1C6
  8
4EIA
  0
POLYLINE
  5
8D
  8
4EIA
 66
     1
 10
0.0
 20
0.0
 30
0.25
 70
     1
1001
DCO15
1071
        2
1071
        2
1000
Jan27
1004
074135303500
  0
VERTEX
  5
1C7
  8
4EIA
 10
468445.21657191787
 20
4726407.5772797791
 30
0.25
  0
VERTEX
  5
1C8
  8
4EIA
 10
468448.1179792395
 20
4726411.4434438488
 30
0.25
  0
VERTEX
  5
1C9
  8
4EIA
 10
468471.33101716149
 20
4726412.410101302
 30
0.25
  0
VERTEX
  5
1CA
  8
4EIA
 10
468479.06834059901
 20
4726409.5103618139
 30
0.25
  0
VERTEX
  5
1CB
  8
4EIA
 10
468481.97010379052
 20
4726405.6441977443
 30
0.25
  0
VERTEX
  5
1CC
  8
4EIA
 10
468481.00284939341
 20
4726382.4472133266
 30
0.25
  0
VERTEX
  5
1CD
  8
4EIA
 10
468476.16693327739
 20
4726378.5810492579
 30
0.25
  0
VERTEX
  5
1CE
  8
4EIA
 10
468446.18382631522
 20
4726383.4136379091
 30
0.25
  0
SEQEND
  5
1CF
  8
4EIA
  0
POLYLINE
  5
8E
  8
4EIA
 66
     1
 10
0.0
 20
0.0
 30
0.25
 70
     1
1001
DCO15
1071
        2
1071
        2
1000
Jan27
1004
074134323200
  0
VERTEX
  5
1D0
  8
4EIA
 10
468490.97717104288
 20
4728473.3908609608
 30
0.25
  0
VERTEX
  5
1D1
  8
4EIA
 10
468514.18060047738
 20
4728461.046708148
 30
0.25
  0
VERTEX
  5
1D2
  8
4EIA
 10
468523.50866238249
 20
4728462.9108596584
 30
0.25
  0
VERTEX
  5
1D3
  8
4EIA
 10
468540.29896028992
 20
4728515.1112936717
 30
0.25
  0
VERTEX
  5
1D4
  8
4EIA
 10
468544.02990035608
 20
4728524.4329827186
 30
0.25
  0
VERTEX
  5
1D5
  8
4EIA
 10
468519.77736644651
 20
4728530.0259029968
 30
0.25
  0
VERTEX
  5
1D6
  8
4EIA
 10
468504.8528944421
 20
4728526.297134229
 30
0.25
  0
VERTEX
  5
1D7
  8
4EIA
 10
468488.06259653479
 20
4728479.689620493
 30
0.25
  0
SEQEND
  5
1D8
  8
4EIA
  0
POLYLINE
  5
8F
  8
4EIA
 66
     1
 10
0.0
 20
0.0
 30
0.25
 70
     1
1001
DCO15
1071
        2
1071
        2
1000
Jan27
1004
074134323800
  0
VERTEX
  5
1D9
  8
4EIA
 10
468679.65725855023
 20
4729222.2099269796
 30
0.25
  0
VERTEX
  5
1DA
  8
4EIA
 10
468697.35573645058
 20
4729228.1053497968
 30
0.25
  0
VERTEX
  5
1DB
  8
4EIA
 10
468714.07094580837
 20
4729243.8263996802
 30
0.25
  0
VERTEX
  5
1DC
  8
4EIA
 10
468696.37246790779
 20
4729271.3385280687
 30
0.25
  0
VERTEX
  5
1DD
  8
4EIA
 10
468662.9424050622
 20
4729251.6870410591
 30
0.25
  0
VERTEX
  5
1DE
  8
4EIA
 10
468669.82492899202
 20
4729234.9832654567
 30
0.25
  0
SEQEND
  5
1DF
  8
4EIA
  0
POLYLINE
  5
90
  8
4EIA
 66
     1
 10
0.0
 20
0.0
 30
0.25
 70
     1
1001
DCO15
1071
        2
1071
        2
1000
Jan27
1004
074136383200
  0
VERTEX
  5
1E0
  8
4EIA
 10
479251.5
 20
4719261.4999999991
 30
0.25
  0
VERTEX
  5
1E1
  8
4EIA
 10
479267.0
 20
4719255.0
 30
0.25
  0
VERTEX
  5
1E2
  8
4EIA
 10
479277.0
 20
4719256.5
 30
0.25
  0
VERTEX
  5
1E3
  8
4EIA
 10
479278.5
 20
4719276.5
 30
0.25
  0
VERTEX
  5
1E4
  8
4EIA
 10
479272.0
 20
4719290.5
 30
0.25
  0
VERTEX
  5
1E5
  8
4EIA
 10
479262.0
 20
4719297.0
 30
0.25
  0
VERTEX
  5
1E6
  8
4EIA
 10
479253.0
 20
4719295.5
 30
0.25
  0
VERTEX
  5
1E7
  8
4EIA
 10
479245.0
 20
4719269.0
 30
0.25
  0
SEQEND
  5
1E8
  8
4EIA
  0
POLYLINE
  5
91
  8
4EIA
 66
     1
 10
0.0
 20
0.0
 30
0.25
 70
     1
1001
DCO15
1071
        2
1071
        2
1000
Jan27
1004
074130363000
  0
VERTEX
  5
1E9
  8
4EIA
 10
481891.36592333083
 20
4714382.1754528452
 30
0.25
  0
VERTEX
  5
1EA
  8
4EIA
 10
481912.81052614341
 20
4714381.4992312798
 30
0.25
  0
VERTEX
  5
1EB
  8
4EIA
 10
481928.53065325529
 20
4714381.2946295468
 30
0.25
  0
VERTEX
  5
1EC
  8
4EIA
 10
481934.5654122773
 20
4714384.3103581592
 30
0.25
  0
VERTEX
  5
1ED
  8
4EIA
 10
481936.82846787572
 20
4714398.6352239996
 30
0.25
  0
VERTEX
  5
1EE
  8
4EIA
 10
481932.92074295291
 20
4714423.7080109818
 30
0.25
  0
VERTEX
  5
1EF
  8
4EIA
 10
481919.5138199327
 20
4714437.1076980652
 30
0.25
  0
VERTEX
  5
1F0
  8
4EIA
 10
481889.34874629969
 20
4714436.4376738723
 30
0.25
  0
VERTEX
  5
1F1
  8
4EIA
 10
481889.92822136747
 20
4714411.8741336092
 30
0.25
  0
VERTEX
  5
1F2
  8
4EIA
 10
481884.65625615418
 20
4714394.6297754543
 30
0.25
  0
SEQEND
  5
1F3
  8
4EIA
  0
POLYLINE
  5
92
  8
4EIA
 66
     1
 10
0.0
 20
0.0
 30
0.25
 70
     1
1001
DCO15
1071
        2
1071
        2
1000
Jan27
1004
074230333600
  0
VERTEX
  5
1F4
  8
4EIA
 10
481089.10967285099
 20
4713118.3332786011
 30
0.25
  0
VERTEX
  5
1F5
  8
4EIA
 10
481071.50910958787
 20
4713137.9518233277
 30
0.25
  0
VERTEX
  5
1F6
  8
4EIA
 10
481045.69609920238
 20
4713121.6851006383
 30
0.25
  0
VERTEX
  5
1F7
  8
4EIA
 10
481057.33659766539
 20
4713095.051873507
 30
0.25
  0
VERTEX
  5
1F8
  8
4EIA
 10
481065.41653255897
 20
4713095.3322723368
 30
0.25
  0
VERTEX
  5
1F9
  8
4EIA
 10
481087.75582054968
 20
4713105.4797462188
 30
0.25
  0
SEQEND
  5
1FA
  8
4EIA
  0
POLYLINE
  5
93
  8
4EIA
 66
     1
 10
0.0
 20
0.0
 30
0.15
 70
     1
1001
DCO15
1071
        2
1071
        2
1000
Jan27
1004
074135333400
  0
VERTEX
  5
1FB
  8
4EIA
 10
474385.69446935679
 20
4726777.460056955
 30
0.15
  0
VERTEX
  5
1FC
  8
4EIA
 10
474396.83225397288
 20
4726790.6143046673
 30
0.15
  0
VERTEX
  5
1FD
  8
4EIA
 10
474398.8572587152
 20
4726807.8159691356
 30
0.15
  0
VERTEX
  5
1FE
  8
4EIA
 10
474377.5942780319
 20
4726820.970216848
 30
0.15
  0
VERTEX
  5
1FF
  8
4EIA
 10
474350.25611076632
 20
4726827.0413419846
 30
0.15
  0
VERTEX
  5
200
  8
4EIA
 10
474343.16833563492
 20
4726814.8989962116
 30
0.15
  0
VERTEX
  5
201
  8
4EIA
 10
474342.15591944149
 20
4726795.6736233644
 30
0.15
  0
VERTEX
  5
202
  8
4EIA
 10
474359.36889063998
 20
4726784.5431795297
 30
0.15
  0
SEQEND
  5
203
  8
4EIA
  0
POLYLINE
  5
94
  8
4EIA
 66
     1
 10
0.0
 20
0.0
 30
0.25
 70
     1
1001
DCO15
1071
        2
1071
        2
1000
Jan27
1004
074430313800
  0
VERTEX
  5
204
  8
4EIA
 10
473805.2032214111
 20
4723212.2727312595
 30
0.25
  0
VERTEX
  5
205
  8
4EIA
 10
473826.37123421498
 20
4723259.7921085162
 30
0.25
  0
VERTEX
  5
206
  8
4EIA
 10
473857.00897512841
 20
4723255.3386322027
 30
0.25
  0
VERTEX
  5
207
  8
4EIA
 10
473862.02245184517
 20
4723248.6584177334
 30
0.25
  0
VERTEX
  5
208
  8
4EIA
 10
473863.69361075078
 20
4723239.7514651073
 30
0.25
  0
VERTEX
  5
209
  8
4EIA
 10
473855.8948691914
 20
4723215.8139105523
 30
0.25
  0
VERTEX
  5
20A
  8
4EIA
 10
473846.982021695
 20
4723200.2267434569
 30
0.25
  0
SEQEND
  5
20B
  8
4EIA
  0
POLYLINE
  5
95
  8
4EIA
 66
     1
 10
0.0
 20
0.0
 30
0.25
 70
     1
1001
DCO15
1071
        2
1071
        2
1000
Jan27
1004
074236353200
  0
VERTEX
  5
20C
  8
4EIA
 10
473050.52347505972
 20
4726427.0076459479
 30
0.25
  0
VERTEX
  5
20D
  8
4EIA
 10
473104.1651595385
 20
4726436.4250379726
 30
0.25
  0
VERTEX
  5
20E
  8
4EIA
 10
473113.5886963745
 20
4726395.857950367
 30
0.25
  0
VERTEX
  5
20F
  8
4EIA
 10
473108.51437816722
 20
4726388.6138173481
 30
0.25
  0
VERTEX
  5
210
  8
4EIA
 10
473051.24840228283
 20
4726382.818587332
 30
0.25
  0
SEQEND
  5
211
  8
4EIA
  0
POLYLINE
  5
96
  8
4EIA
 66
     1
 10
0.0
 20
0.0
 30
0.2
 70
     1
1001
DCO15
1071
        2
1071
        2
1000
Jan27
1004
074235393500
  0
VERTEX
  5
212
  8
4EIA
 10
471426.24927715759
 20
4727824.8035774967
 30
0.2
  0
VERTEX
  5
213
  8
4EIA
 10
471486.42466703651
 20
4727812.0728144143
 30
0.2
  0
VERTEX
  5
214
  8
4EIA
 10
471471.08770989109
 20
4727752.0429572649
 30
0.2
  0
VERTEX
  5
215
  8
4EIA
 10
471409.74058951729
 20
4727766.0923999902
 30
0.2
  0
VERTEX
  5
216
  8
4EIA
 10
471423.26099258638
 20
4727822.3602834987
 30
0.2
  0
SEQEND
  5
217
  8
4EIA
  0
POLYLINE
  5
97
  8
4EIA
 66
     1
 10
0.0
 20
0.0
 30
0.2
 70
     1
1001
DCO15
1071
        2
1071
        2
1000
Jan27
1004
074235393200
  0
VERTEX
  5
218
  8
4EIA
 10
471620.60250402131
 20
4727828.410258729
 30
0.2
  0
VERTEX
  5
219
  8
4EIA
 10
471669.25463800272
 20
4727816.0840996671
 30
0.2
  0
VERTEX
  5
21A
  8
4EIA
 10
471661.31668620353
 20
4727767.304604888
 30
0.2
  0
VERTEX
  5
21B
  8
4EIA
 10
471599.96956582973
 20
4727781.3540476132
 30
0.2
  0
VERTEX
  5
21C
  8
4EIA
 10
471611.69430696493
 20
4727825.6710453052
 30
0.2
  0
SEQEND
  5
21D
  8
4EIA
  0
POLYLINE
  5
98
  8
4EIA
 66
     1
 10
0.0
 20
0.0
 30
0.25
 70
     1
1001
DCO15
1071
        2
1071
        2
1000
Jan27
1004
074136323300
  0
VERTEX
  5
21E
  8
4EIA
 10
470751.25531740859
 20
4725003.2749325624
 30
0.25
  0
VERTEX
  5
21F
  8
4EIA
 10
470749.04712418822
 20
4725016.5157699296
 30
0.25
  0
VERTEX
  5
220
  8
4EIA
 10
470760.82462683559
 20
4725025.3431287725
 30
0.25
  0
VERTEX
  5
221
  8
4EIA
 10
470782.17108480562
 20
4725027.5499684829
 30
0.25
  0
VERTEX
  5
222
  8
4EIA
 10
470784.37927802588
 20
4725016.5157699296
 30
0.25
  0
VERTEX
  5
223
  8
4EIA
 10
470771.1297645999
 20
4724992.976414212
 30
0.25
  0
VERTEX
  5
224
  8
4EIA
 10
470768.18538893812
 20
4724990.0338942977
 30
0.25
  0
SEQEND
  5
225
  8
4EIA
  0
POLYLINE
  5
99
  8
4EIA
 66
     1
 10
0.0
 20
0.0
 30
0.25
 70
     1
1001
DCO15
1071
        2
1071
        2
1000
Jan27
1004
074136353800
  0
VERTEX
  5
226
  8
4EIA
 10
471074.31830561411
 20
4725002.1888901871
 30
0.25
  0
VERTEX
  5
227
  8
4EIA
 10
471079.0834846017
 20
4725003.3793983469
 30
0.25
  0
VERTEX
  5
228
  8
4EIA
 10
471086.23178423918
 20
4725012.9040663047
 30
0.25
  0
VERTEX
  5
229
  8
4EIA
 10
471083.84901769331
 20
4725023.6192424214
 30
0.25
  0
VERTEX
  5
22A
  8
4EIA
 10
471074.31830561411
 20
4725036.7156357532
 30
0.25
  0
VERTEX
  5
22B
  8
4EIA
 10
471055.2565273518
 20
4725043.8590864977
 30
0.25
  0
VERTEX
  5
22C
  8
4EIA
 10
471044.53425494779
 20
4725041.478070179
 30
0.25
  0
VERTEX
  5
22D
  8
4EIA
 10
471043.69396589842
 20
4725033.7855713759
 30
0.25
  0
VERTEX
  5
22E
  8
4EIA
 10
471054.36241447792
 20
4725022.3041789047
 30
0.25
  0
VERTEX
  5
22F
  8
4EIA
 10
471073.23722577112
 20
4725001.3915349944
 30
0.25
  0
SEQEND
  5
230
  8
4EIA
  0
POLYLINE
  5
9A
  8
4EIA
 66
     1
 10
0.0
 20
0.0
 30
0.25
 70
     1
1001
DCO15
1071
        2
1071
        2
1000
Jan27
1004
074235353500
  0
VERTEX
  5
231
  8
4EIA
 10
471357.87850179279
 20
4728552.9493857706
 30
0.25
  0
VERTEX
  5
232
  8
4EIA
 10
471357.52156485128
 20
4728495.1303862482
 30
0.25
  0
VERTEX
  5
233
  8
4EIA
 10
471418.6303731603
 20
4728495.1303862482
 30
0.25
  0
VERTEX
  5
234
  8
4EIA
 10
471417.76954607252
 20
4728555.3390406072
 30
0.25
  0
VERTEX
  5
235
  8
4EIA
 10
471358.3820378349
 20
4728555.3390406072
 30
0.25
  0
SEQEND
  5
236
  8
4EIA
  0
POLYLINE
  5
9B
  8
4EIA
 66
     1
 10
0.0
 20
0.0
 30
0.25
 70
     1
1001
DCO15
1071
        2
1071
        2
1000
Jan27
1004
074235363900
  0
VERTEX
  5
237
  8
4EIA
 10
471390.55841585802
 20
4728344.7440536348
 30
0.25
  0
VERTEX
  5
238
  8
4EIA
 10
471450.73380573682
 20
4728332.0132905506
 30
0.25
  0
VERTEX
  5
239
  8
4EIA
 10
471440.17017197341
 20
4728286.1427660966
 30
0.25
  0
VERTEX
  5
23A
  8
4EIA
 10
471379.27453433792
 20
4728299.1489572413
 30
0.25
  0
VERTEX
  5
23B
  8
4EIA
 10
471387.5701312868
 20
4728342.3007596368
 30
0.25
  0
SEQEND
  5
23C
  8
4EIA
  0
POLYLINE
  5
9C
  8
4EIA
 66
     1
 10
0.0
 20
0.0
 30
0.3
 70
     1
1001
DCO15
1071
        2
1071
        2
1000
Jan27
1004
074330333900
  0
VERTEX
  5
23D
  8
4EIA
 10
473396.84129242279
 20
4728002.0493445052
 30
0.3
  0
VERTEX
  5
23E
  8
4EIA
 10
473403.01218908082
 20
4728000.8160037976
 30
0.3
  0
VERTEX
  5
23F
  8
4EIA
 10
473428.9299872687
 20
4728053.8509040456
 30
0.3
  0
VERTEX
  5
240
  8
4EIA
 10
473383.26544867479
 20
4728083.4517952129
 30
0.3
  0
VERTEX
  5
241
  8
4EIA
 10
473355.97648333991
 20
4728029.6419838294
 30
0.3
  0
SEQEND
  5
242
  8
4EIA
  0
POLYLINE
  5
9D
  8
4EIA
 66
     1
 10
0.0
 20
0.0
 30
0.25
 70
     1
1001
DCO15
1071
        2
1071
        2
1000
Jan27
1004
074330323200
  0
VERTEX
  5
243
  8
4EIA
 10
473890.07927864412
 20
4728630.4439783813
 30
0.25
  0
VERTEX
  5
244
  8
4EIA
 10
473879.74638215412
 20
4728680.1043548957
 30
0.25
  0
VERTEX
  5
245
  8
4EIA
 10
473828.63117218378
 20
4728665.5582551444
 30
0.25
  0
VERTEX
  5
246
  8
4EIA
 10
473840.60270203272
 20
4728614.4823266752
 30
0.25
  0
SEQEND
  5
247
  8
4EIA
  0
POLYLINE
  5
9E
  8
4EIA
 66
     1
 10
0.0
 20
0.0
 30
0.25
 70
     1
1001
DCO15
1071
        2
1071
        2
1000
Jan27
1004
074330303700
  0
VERTEX
  5
248
  8
4EIA
 10
473363.2372242494
 20
4728277.6751472177
 30
0.25
  0
VERTEX
  5
249
  8
4EIA
 10
473385.12079411501
 20
4728321.4508414287
 30
0.25
  0
VERTEX
  5
24A
  8
4EIA
 10
473345.39013844542
 20
4728345.5142426183
 30
0.25
  0
VERTEX
  5
24B
  8
4EIA
 10
473324.09418862499
 20
4728309.1371642407
 30
0.25
  0
SEQEND
  5
24C
  8
4EIA
  0
POLYLINE
  5
9F
  8
4EIA
 66
     1
 10
0.0
 20
0.0
 30
0.25
 70
     1
1001
DCO15
1071
        2
1071
        2
1000
Jan27
1004
074233373600
  0
VERTEX
  5
24D
  8
4EIA
 10
464859.65063522279
 20
4729753.41798429
 30
0.25
  0
VERTEX
  5
24E
  8
4EIA
 10
464869.4229685748
 20
4729709.4711924046
 30
0.25
  0
VERTEX
  5
24F
  8
4EIA
 10
464824.632973106
 20
4729699.7051989743
 30
0.25
  0
VERTEX
  5
250
  8
4EIA
 10
464816.48946939711
 20
4729742.0243848059
 30
0.25
  0
SEQEND
  5
251
  8
4EIA
  0
POLYLINE
  5
A0
  8
4EIA
 66
     1
 10
0.0
 20
0.0
 30
0.25
 70
     1
1001
DCO15
1071
        2
1071
        2
1000
Jan27
1004
074135363200
  0
VERTEX
  5
252
  8
4EIA
 10
474723.63499607192
 20
4726054.1366792778
 30
0.25
  0
VERTEX
  5
253
  8
4EIA
 10
474723.63499607192
 20
4726073.7314402638
 30
0.25
  0
VERTEX
  5
254
  8
4EIA
 10
474730.68381886091
 20
4726073.7761335531
 30
0.25
  0
VERTEX
  5
255
  8
4EIA
 10
474760.37308747048
 20
4726071.6256031878
 30
0.25
  0
VERTEX
  5
256
  8
4EIA
 10
474772.79250756738
 20
4726069.2131204791
 30
0.25
  0
VERTEX
  5
257
  8
4EIA
 10
474771.27043616731
 20
4726038.7930333167
 30
0.25
  0
VERTEX
  5
258
  8
4EIA
 10
474725.55675987119
 20
4726039.174263265
 30
0.25
  0
SEQEND
  5
259
  8
4EIA
  0
POLYLINE
  5
A1
  8
4EIA
 66
     1
 10
0.0
 20
0.0
 30
0.25
 70
     1
1001
DCO15
1071
        2
1071
        2
1000
Jan27
1004
074236323800
  0
VERTEX
  5
25A
  8
4EIA
 10
473982.0171654211
 20
4726813.2039282937
 30
0.25
  0
VERTEX
  5
25B
  8
4EIA
 10
473987.55001015181
 20
4726857.9408515599
 30
0.25
  0
VERTEX
  5
25C
  8
4EIA
 10
474038.35215575458
 20
4726851.4062437881
 30
0.25
  0
VERTEX
  5
25D
  8
4EIA
 10
474034.32823938248
 20
4726795.108057051
 30
0.25
  0
VERTEX
  5
25E
  8
4EIA
 10
473981.011105766
 20
4726801.1400438901
 30
0.25
  0
SEQEND
  5
25F
  8
4EIA
  0
POLYLINE
  5
A2
  8
4EIA
 66
     1
 10
0.0
 20
0.0
 30
0.25
 70
     1
1001
DCO15
1071
        2
1071
        2
1000
Jan27
1004
074135353500
  0
VERTEX
  5
260
  8
4EIA
 10
474697.23651097971
 20
4725621.8374833697
 30
0.25
  0
VERTEX
  5
261
  8
4EIA
 10
474710.51495087688
 20
4725622.2236792389
 30
0.25
  0
VERTEX
  5
262
  8
4EIA
 10
474710.23418377119
 20
4725640.4947357345
 30
0.25
  0
VERTEX
  5
263
  8
4EIA
 10
474703.07970706222
 20
4725657.1215948276
 30
0.25
  0
VERTEX
  5
264
  8
4EIA
 10
474681.1890076563
 20
4725664.4790845476
 30
0.25
  0
VERTEX
  5
265
  8
4EIA
 10
474669.9298847699
 20
4725656.8751132414
 30
0.25
  0
VERTEX
  5
266
  8
4EIA
 10
474671.28011773882
 20
4725628.5592396781
 30
0.25
  0
VERTEX
  5
267
  8
4EIA
 10
474684.76314361201
 20
4725624.1958184373
 30
0.25
  0
SEQEND
  5
268
  8
4EIA
  0
POLYLINE
  5
A3
  8
4EIA
 66
     1
 10
0.0
 20
0.0
 30
0.25
 70
     1
1001
DCO15
1071
        2
1071
        2
1000
Jan27
1004
074132373300
  0
VERTEX
  5
269
  8
4EIA
 10
461753.3146016415
 20
4728967.1254367586
 30
0.25
  0
VERTEX
  5
26A
  8
4EIA
 10
461773.7564217191
 20
4728955.4749878077
 30
0.25
  0
VERTEX
  5
26B
  8
4EIA
 10
461796.41099454061
 20
4728951.035786259
 30
0.25
  0
VERTEX
  5
26C
  8
4EIA
 10
461811.6161974055
 20
4728972.1918081008
 30
0.25
  0
VERTEX
  5
26D
  8
4EIA
 10
461797.0408387463
 20
4728982.324550787
 30
0.25
  0
VERTEX
  5
26E
  8
4EIA
 10
461771.69222777721
 20
4728992.4573827498
 30
0.25
  0
VERTEX
  5
26F
  8
4EIA
 10
461759.28707805887
 20
4728983.7122357814
 30
0.25
  0
SEQEND
  5
270
  8
4EIA
  0
POLYLINE
  5
A4
  8
4EIA
 66
     1
 10
0.0
 20
0.0
 30
0.1
 70
     1
1001
DCO15
1071
        2
1071
        2
1000
Jan27
1004
074132363400
  0
VERTEX
  5
271
  8
4EIA
 10
461608.8279190223
 20
4729013.4860834833
 30
0.1
  0
VERTEX
  5
272
  8
4EIA
 10
461636.2016829116
 20
4729000.0568588804
 30
0.1
  0
VERTEX
  5
273
  8
4EIA
 10
461643.6673660159
 20
4729002.0463569472
 30
0.1
  0
VERTEX
  5
274
  8
4EIA
 10
461656.6076621862
 20
4729027.9101021793
 30
0.1
  0
VERTEX
  5
275
  8
4EIA
 10
461655.72274749528
 20
4729035.5216730814
 30
0.1
  0
VERTEX
  5
276
  8
4EIA
 10
461625.30444655789
 20
4729046.9209862826
 30
0.1
  0
VERTEX
  5
277
  8
4EIA
 10
461614.80043057777
 20
4729034.3760384861
 30
0.1
  0
SEQEND
  5
278
  8
4EIA
  0
POLYLINE
  5
A5
  8
4EIA
 66
     1
 10
0.0
 20
0.0
 30
0.25
 70
     1
1001
DCO15
1071
        2
1071
        2
1000
Jan27
1004
074233363900
  0
VERTEX
  5
279
  8
4EIA
 10
463956.82898610691
 20
4728921.2589250021
 30
0.25
  0
VERTEX
  5
27A
  8
4EIA
 10
463963.22200952668
 20
4728941.1207005056
 30
0.25
  0
VERTEX
  5
27B
  8
4EIA
 10
463974.2409800287
 20
4728967.3747869693
 30
0.25
  0
VERTEX
  5
27C
  8
4EIA
 10
464022.81116861833
 20
4728947.0901070777
 30
0.25
  0
VERTEX
  5
27D
  8
4EIA
 10
464021.22084825247
 20
4728943.7500819732
 30
0.25
  0
VERTEX
  5
27E
  8
4EIA
 10
464006.0085558134
 20
4728903.5575597268
 30
0.25
  0
SEQEND
  5
27F
  8
4EIA
  0
POLYLINE
  5
A6
  8
4EIA
 66
     1
 10
0.0
 20
0.0
 30
0.25
 70
     1
1001
DCO15
1071
        2
1071
        2
1000
Jan27
1004
074233363600
  0
VERTEX
  5
280
  8
4EIA
 10
463699.63116213691
 20
4728945.3455483653
 30
0.25
  0
VERTEX
  5
281
  8
4EIA
 10
463709.9564822666
 20
4728972.2242155941
 30
0.25
  0
VERTEX
  5
282
  8
4EIA
 10
463725.18005357351
 20
4728994.6822508574
 30
0.25
  0
VERTEX
  5
283
  8
4EIA
 10
463767.38944408001
 20
4728977.0639130417
 30
0.25
  0
VERTEX
  5
284
  8
4EIA
 10
463765.63026295003
 20
4728970.309405949
 30
0.25
  0
VERTEX
  5
285
  8
4EIA
 10
463750.08379376942
 20
4728918.5607110942
 30
0.25
  0
SEQEND
  5
286
  8
4EIA
  0
ENDSEC
  0
EOF
