  0
SECTION
  2
HEADER
  9
$ACADVER
  1
AC1009
  9
$INSBASE
 10
0.0
 20
0.0
 30
0.0
  9
$EXTMIN
 10
81051.0
 20
478161.0
 30
0.01
  9
$EXTMAX
 10
109649.0
 20
500764.0
 30
3.2000000000000002
  9
$LIMMIN
 10
0.0
 20
0.0
  9
$LIMMAX
 10
12.0
 20
9.0
  9
$ORTHOMODE
 70
     0
  9
$REGENMODE
 70
     1
  9
$FILLMODE
 70
     1
  9
$QTEXTMODE
 70
     0
  9
$MIRRTEXT
 70
     0
  9
$DRAGMODE
 70
     2
  9
$LTSCALE
 40
1.0
  9
$OSMODE
 70
    37
  9
$ATTMODE
 70
     1
  9
$TEXTSIZE
 40
0.2
  9
$TRACEWID
 40
0.05
  9
$TEXTSTYLE
  7
STANDARD
  9
$CLAYER
  8
0
  9
$CELTYPE
  6
BYLAYER
  9
$CECOLOR
 62
   256
  9
$DIMSCALE
 40
1.0
  9
$DIMASZ
 40
0.18
  9
$DIMEXO
 40
0.0625
  9
$DIMDLI
 40
0.38
  9
$DIMRND
 40
0.0
  9
$DIMDLE
 40
0.0
  9
$DIMEXE
 40
0.18
  9
$DIMTP
 40
0.0
  9
$DIMTM
 40
0.0
  9
$DIMTXT
 40
0.18
  9
$DIMCEN
 40
0.09
  9
$DIMTSZ
 40
0.0
  9
$DIMTOL
 70
     0
  9
$DIMLIM
 70
     0
  9
$DIMTIH
 70
     1
  9
$DIMTOH
 70
     1
  9
$DIMSE1
 70
     0
  9
$DIMSE2
 70
     0
  9
$DIMTAD
 70
     0
  9
$DIMZIN
 70
     0
  9
$DIMBLK
  1

  9
$DIMASO
 70
     1
  9
$DIMSHO
 70
     1
  9
$DIMPOST
  1

  9
$DIMAPOST
  1

  9
$DIMALT
 70
     0
  9
$DIMALTD
 70
     2
  9
$DIMALTF
 40
25.399999999999999
  9
$DIMLFAC
 40
1.0
  9
$DIMTOFL
 70
     0
  9
$DIMTVP
 40
0.0
  9
$DIMTIX
 70
     0
  9
$DIMSOXD
 70
     0
  9
$DIMSAH
 70
     0
  9
$DIMBLK1
  1

  9
$DIMBLK2
  1

  9
$DIMSTYLE
  2
STANDARD
  9
$DIMCLRD
 70
     0
  9
$DIMCLRE
 70
     0
  9
$DIMCLRT
 70
     0
  9
$DIMTFAC
 40
1.0
  9
$DIMGAP
 40
0.09
  9
$LUNITS
 70
     2
  9
$LUPREC
 70
     4
  9
$SKETCHINC
 40
0.1
  9
$FILLETRAD
 40
0.0
  9
$AUNITS
 70
     0
  9
$AUPREC
 70
     0
  9
$MENU
  1
.
  9
$ELEVATION
 40
0.0
  9
$PELEVATION
 40
0.0
  9
$THICKNESS
 40
0.0
  9
$LIMCHECK
 70
     0
  9
$BLIPMODE
 70
     0
  9
$CHAMFERA
 40
0.0
  9
$CHAMFERB
 40
0.0
  9
$SKPOLY
 70
     0
  9
$TDCREATE
 40
2457443.8741903012
  9
$TDUPDATE
 40
2458148.446413415
  9
$TDINDWG
 40
0.0335828704
  9
$TDUSRTIMER
 40
0.0335655324
  9
$USRTIMER
 70
     1
  9
$ANGBASE
 50
0.0
  9
$ANGDIR
 70
     0
  9
$PDMODE
 70
     0
  9
$PDSIZE
 40
0.0
  9
$PLINEWID
 40
0.0
  9
$COORDS
 70
     1
  9
$SPLFRAME
 70
     0
  9
$SPLINETYPE
 70
     6
  9
$SPLINESEGS
 70
     8
  9
$ATTDIA
 70
     1
  9
$ATTREQ
 70
     1
  9
$HANDLING
 70
     1
  9
$HANDSEED
  5
2BB
  9
$SURFTAB1
 70
     6
  9
$SURFTAB2
 70
     6
  9
$SURFTYPE
 70
     6
  9
$SURFU
 70
     6
  9
$SURFV
 70
     6
  9
$UCSNAME
  2

  9
$UCSORG
 10
0.0
 20
0.0
 30
0.0
  9
$UCSXDIR
 10
1.0
 20
0.0
 30
0.0
  9
$UCSYDIR
 10
0.0
 20
1.0
 30
0.0
  9
$PUCSNAME
  2

  9
$PUCSORG
 10
0.0
 20
0.0
 30
0.0
  9
$PUCSXDIR
 10
1.0
 20
0.0
 30
0.0
  9
$PUCSYDIR
 10
0.0
 20
1.0
 30
0.0
  9
$USERI1
 70
     0
  9
$USERI2
 70
     0
  9
$USERI3
 70
     0
  9
$USERI4
 70
     0
  9
$USERI5
 70
     0
  9
$USERR1
 40
0.0
  9
$USERR2
 40
0.0
  9
$USERR3
 40
0.0
  9
$USERR4
 40
0.0
  9
$USERR5
 40
0.0
  9
$WORLDVIEW
 70
     1
  9
$SHADEDGE
 70
     3
  9
$SHADEDIF
 70
    70
  9
$TILEMODE
 70
     1
  9
$MAXACTVP
 70
    64
  9
$PLIMCHECK
 70
     0
  9
$PEXTMIN
 10
0.0
 20
0.0
 30
0.0
  9
$PEXTMAX
 10
0.0
 20
0.0
 30
0.0
  9
$PLIMMIN
 10
0.0
 20
0.0
  9
$PLIMMAX
 10
12.0
 20
9.0
  9
$UNITMODE
 70
     0
  9
$VISRETAIN
 70
     1
  9
$PLINEGEN
 70
     0
  9
$PSLTSCALE
 70
     1
  0
ENDSEC
  0
SECTION
  2
TABLES
  0
TABLE
  2
VPORT
 70
     1
  0
VPORT
  2
*ACTIVE
 70
     0
 10
0.0
 20
0.0
 11
1.0
 21
1.0
 12
100341.4908167645
 22
486873.52191143337
 13
0.0
 23
0.0
 14
0.5
 24
0.5
 15
0.5
 25
0.5
 16
0.0
 26
0.0
 36
1.0
 17
0.0
 27
0.0
 37
0.0
 40
322.2102666093831
 41
2.0426179604261789
 42
50.0
 43
0.0
 44
0.0
 50
0.0
 51
0.0
 71
     0
 72
  1000
 73
     1
 74
     3
 75
     0
 76
     0
 77
     0
 78
     0
  0
ENDTAB
  0
TABLE
  2
LTYPE
 70
     1
  0
LTYPE
  2
CONTINUOUS
 70
     0
  3
Solid line
 72
    65
 73
     0
 40
0.0
  0
ENDTAB
  0
TABLE
  2
LAYER
 70
     5
  0
LAYER
  2
0
 70
     0
 62
     7
  6
CONTINUOUS
  0
LAYER
  2
1BY1
 70
     0
 62
     4
  6
CONTINUOUS
  0
LAYER
  2
2BY2
 70
     0
 62
     2
  6
CONTINUOUS
  0
LAYER
  2
10BY10
 70
     0
 62
     6
  6
CONTINUOUS
  0
LAYER
  2
R10BY10
 70
     0
 62
     3
  6
CONTINUOUS
  0
ENDTAB
  0
TABLE
  2
STYLE
 70
     2
  0
STYLE
  2
STANDARD
 70
     0
 40
0.0
 41
1.0
 50
0.0
 71
     0
 42
0.2
  3
txt
  4

  0
STYLE
  2
LEGEND
 70
     0
 40
0.0
 41
1.0
 50
0.0
 71
     0
 42
0.2
  3
txt
  4

  0
ENDTAB
  0
TABLE
  2
VIEW
 70
     2
  0
ENDTAB
  0
TABLE
  2
UCS
 70
     0
  0
ENDTAB
  0
TABLE
  2
APPID
 70
    14
  0
APPID
  2
ACAD
 70
     0
  0
APPID
  2
ACADANNOTATIVE
 70
     0
  0
APPID
  2
ACAD_DSTYLE_DIMJAG
 70
     0
  0
APPID
  2
ACAD_DSTYLE_DIMTALN
 70
     0
  0
APPID
  2
ACAD_NAV_VCDISPLAY
 70
     0
  0
APPID
  2
ADE
 70
     0
  0
APPID
  2
DCO15
 70
     0
  0
APPID
  2
ACAECLAYERSTANDARD
 70
     0
  0
APPID
  2
ACCMTRANSPARENCY
 70
     0
  0
APPID
  2
ADE_PROJECTION
 70
     0
  0
APPID
  2
ACMAPDMDISPLAYSTYLEREGAPP
 70
     0
  0
APPID
  2
MAPGWS
 70
     0
  0
APPID
  2
ACAD_MLEADERVER
 70
     0
  0
APPID
  2
MapManagementAppName
 70
     0
  0
ENDTAB
  0
TABLE
  2
DIMSTYLE
 70
     2
  0
DIMSTYLE
  2
STANDARD
 70
     0
  3

  4

  5

  6

  7

 40
1.0
 41
0.18
 42
0.0625
 43
0.38
 44
0.18
 45
0.0
 46
0.0
 47
0.0
 48
0.0
140
0.18
141
0.09
142
0.0
143
25.399999999999999
144
1.0
145
0.0
146
1.0
147
0.09
 71
     0
 72
     0
 73
     1
 74
     1
 75
     0
 76
     0
 77
     0
 78
     0
170
     0
171
     2
172
     0
173
     0
174
     0
175
     0
176
     0
177
     0
178
     0
  0
DIMSTYLE
  2
ANNOTATIVE
 70
     0
  3

  4

  5

  6

  7

 40
0.0
 41
0.18
 42
0.0625
 43
0.38
 44
0.18
 45
0.0
 46
0.0
 47
0.0
 48
0.0
140
0.18
141
0.09
142
0.0
143
25.399999999999999
144
1.0
145
0.0
146
1.0
147
0.09
 71
     0
 72
     0
 73
     1
 74
     1
 75
     0
 76
     0
 77
     0
 78
     0
170
     0
171
     2
172
     0
173
     0
174
     0
175
     0
176
     0
177
     0
178
     0
  0
ENDTAB
  0
ENDSEC
  0
SECTION
  2
BLOCKS
  0
BLOCK
  8
0
  2
$MODEL_SPACE
 70
     0
 10
0.0
 20
0.0
 30
0.0
  3
$MODEL_SPACE
  1

  0
ENDBLK
  5
17
  8
0
  0
BLOCK
 67
     1
  8
0
  2
$PAPER_SPACE
 70
     0
 10
0.0
 20
0.0
 30
0.0
  3
$PAPER_SPACE
  1

  0
ENDBLK
  5
1D
 67
     1
  8
0
  0
ENDSEC
  0
SECTION
  2
ENTITIES
  0
POLYLINE
  5
6B
  8
1BY1
 66
     1
 10
0.0
 20
0.0
 30
2.0
 70
     1
1001
DCO15
1071
        2
1071
        2
1000
new-all-density-link
1004
0000000000405940
  0
VERTEX
  5
14F
  8
1BY1
 10
99747.0
 20
483703.0
 30
2.0
  0
VERTEX
  5
150
  8
1BY1
 10
99748.0
 20
483703.0
 30
2.0
  0
VERTEX
  5
151
  8
1BY1
 10
99748.0
 20
483704.0
 30
2.0
  0
VERTEX
  5
152
  8
1BY1
 10
99747.0
 20
483704.0
 30
2.0
  0
SEQEND
  5
153
  8
1BY1
  0
POLYLINE
  5
70
  8
1BY1
 66
     1
 10
0.0
 20
0.0
 30
3.2000000000000002
 70
     1
1001
DCO15
1071
        2
1071
        2
1000
new-all-density-link
1004
0000000000B08040
  0
VERTEX
  5
154
  8
1BY1
 10
100621.0
 20
481908.0
 30
3.2000000000000002
  0
VERTEX
  5
155
  8
1BY1
 10
100622.0
 20
481908.0
 30
3.2000000000000002
  0
VERTEX
  5
156
  8
1BY1
 10
100622.0
 20
481909.0
 30
3.2000000000000002
  0
VERTEX
  5
157
  8
1BY1
 10
100621.0
 20
481909.0
 30
3.2000000000000002
  0
SEQEND
  5
158
  8
1BY1
  0
POLYLINE
  5
71
  8
1BY1
 66
     1
 10
0.0
 20
0.0
 30
1.6000000000000001
 70
     1
1001
DCO15
1071
        2
1071
        2
1000
new-all-density-link
1004
0000000000B88040
  0
VERTEX
  5
159
  8
1BY1
 10
99090.0
 20
482818.0
 30
1.6000000000000001
  0
VERTEX
  5
15A
  8
1BY1
 10
99091.0
 20
482818.0
 30
1.6000000000000001
  0
VERTEX
  5
15B
  8
1BY1
 10
99091.0
 20
482819.0
 30
1.6000000000000001
  0
VERTEX
  5
15C
  8
1BY1
 10
99090.0
 20
482819.0
 30
1.6000000000000001
  0
SEQEND
  5
15D
  8
1BY1
  0
POLYLINE
  5
72
  8
1BY1
 66
     1
 10
0.0
 20
0.0
 30
0.5
 70
     1
1001
DCO15
1071
        2
1071
        2
1000
new-all-density-link
1004
0000000000F88040
  0
VERTEX
  5
15E
  8
1BY1
 10
99309.0
 20
482932.0
 30
0.5
  0
VERTEX
  5
15F
  8
1BY1
 10
99310.0
 20
482932.0
 30
0.5
  0
VERTEX
  5
160
  8
1BY1
 10
99310.0
 20
482933.0
 30
0.5
  0
VERTEX
  5
161
  8
1BY1
 10
99309.0
 20
482933.0
 30
0.5
  0
SEQEND
  5
162
  8
1BY1
  0
POLYLINE
  5
73
  8
1BY1
 66
     1
 10
0.0
 20
0.0
 30
3.2000000000000002
 70
     1
1001
DCO15
1071
        2
1071
        2
1000
new-all-density-link
1004
0000000000308140
  0
VERTEX
  5
163
  8
1BY1
 10
99911.0
 20
482204.0
 30
3.2000000000000002
  0
VERTEX
  5
164
  8
1BY1
 10
99912.0
 20
482204.0
 30
3.2000000000000002
  0
VERTEX
  5
165
  8
1BY1
 10
99912.0
 20
482205.0
 30
3.2000000000000002
  0
VERTEX
  5
166
  8
1BY1
 10
99911.0
 20
482205.0
 30
3.2000000000000002
  0
SEQEND
  5
167
  8
1BY1
  0
POLYLINE
  5
74
  8
2BY2
 66
     1
 10
0.0
 20
0.0
 30
1.0
 70
     1
1001
DCO15
1071
        2
1071
        2
1000
new-all-density-link
1004
0000000000707C40
  0
VERTEX
  5
168
  8
2BY2
 10
99298.0
 20
482920.0
 30
1.0
  0
VERTEX
  5
169
  8
2BY2
 10
99300.0
 20
482920.0
 30
1.0
  0
VERTEX
  5
16A
  8
2BY2
 10
99300.0
 20
482922.0
 30
1.0
  0
VERTEX
  5
16B
  8
2BY2
 10
99298.0
 20
482922.0
 30
1.0
  0
SEQEND
  5
16C
  8
2BY2
  0
POLYLINE
  5
76
  8
10BY10
 66
     1
 10
0.0
 20
0.0
 30
0.07
 70
     1
1001
DCO15
1071
        2
1071
        2
1000
new-all-density-link
1004
0000000000C88140
  0
VERTEX
  5
16D
  8
10BY10
 10
101171.0
 20
482598.0
 30
0.07
  0
VERTEX
  5
16E
  8
10BY10
 10
101181.0
 20
482598.0
 30
0.07
  0
VERTEX
  5
16F
  8
10BY10
 10
101181.0
 20
482608.0
 30
0.07
  0
VERTEX
  5
170
  8
10BY10
 10
101171.0
 20
482608.0
 30
0.07
  0
SEQEND
  5
171
  8
10BY10
  0
POLYLINE
  5
78
  8
10BY10
 66
     1
 10
0.0
 20
0.0
 30
0.23
 70
     1
1001
DCO15
1071
        2
1071
        2
1000
new-all-density-link
1004
0000000000E08240
  0
VERTEX
  5
172
  8
10BY10
 10
93493.0
 20
486117.0
 30
0.23
  0
VERTEX
  5
173
  8
10BY10
 10
93503.0
 20
486117.0
 30
0.23
  0
VERTEX
  5
174
  8
10BY10
 10
93503.0
 20
486127.0
 30
0.23
  0
VERTEX
  5
175
  8
10BY10
 10
93493.0
 20
486127.0
 30
0.23
  0
SEQEND
  5
176
  8
10BY10
  0
POLYLINE
  5
79
  8
10BY10
 66
     1
 10
0.0
 20
0.0
 30
0.01
 70
     1
1001
DCO15
1071
        2
1071
        2
1000
new-all-density-link
1004
0000000000988340
  0
VERTEX
  5
177
  8
10BY10
 10
102731.0
 20
478794.0
 30
0.01
  0
VERTEX
  5
178
  8
10BY10
 10
102741.0
 20
478794.0
 30
0.01
  0
VERTEX
  5
179
  8
10BY10
 10
102741.0
 20
478804.0
 30
0.01
  0
VERTEX
  5
17A
  8
10BY10
 10
102731.0
 20
478804.0
 30
0.01
  0
SEQEND
  5
17B
  8
10BY10
  0
POLYLINE
  5
7A
  8
10BY10
 66
     1
 10
0.0
 20
0.0
 30
0.02
 70
     1
1001
DCO15
1071
        2
1071
        2
1000
new-all-density-link
1004
0000000000B08540
  0
VERTEX
  5
17C
  8
10BY10
 10
103125.0
 20
478966.0
 30
0.02
  0
VERTEX
  5
17D
  8
10BY10
 10
103135.0
 20
478966.0
 30
0.02
  0
VERTEX
  5
17E
  8
10BY10
 10
103135.0
 20
478976.0
 30
0.02
  0
VERTEX
  5
17F
  8
10BY10
 10
103125.0
 20
478976.0
 30
0.02
  0
SEQEND
  5
180
  8
10BY10
  0
POLYLINE
  5
7B
  8
10BY10
 66
     1
 10
0.0
 20
0.0
 30
0.016
 70
     1
1001
DCO15
1071
        2
1071
        2
1000
new-all-density-link
1004
0000000000B88540
  0
VERTEX
  5
181
  8
10BY10
 10
103108.0
 20
478892.0
 30
0.016
  0
VERTEX
  5
182
  8
10BY10
 10
103118.0
 20
478892.0
 30
0.016
  0
VERTEX
  5
183
  8
10BY10
 10
103118.0
 20
478902.0
 30
0.016
  0
VERTEX
  5
184
  8
10BY10
 10
103108.0
 20
478902.0
 30
0.016
  0
SEQEND
  5
185
  8
10BY10
  0
POLYLINE
  5
7C
  8
10BY10
 66
     1
 10
0.0
 20
0.0
 30
0.01
 70
     1
1001
DCO15
1071
        2
1071
        2
1000
new-all-density-link
1004
0000000000288640
  0
VERTEX
  5
186
  8
10BY10
 10
103126.0
 20
478903.0
 30
0.01
  0
VERTEX
  5
187
  8
10BY10
 10
103136.0
 20
478903.0
 30
0.01
  0
VERTEX
  5
188
  8
10BY10
 10
103136.0
 20
478913.0
 30
0.01
  0
VERTEX
  5
189
  8
10BY10
 10
103126.0
 20
478913.0
 30
0.01
  0
SEQEND
  5
18A
  8
10BY10
  0
POLYLINE
  5
7D
  8
10BY10
 66
     1
 10
0.0
 20
0.0
 30
0.03
 70
     1
1001
DCO15
1071
        2
1071
        2
1000
new-all-density-link
1004
0000000000508740
  0
VERTEX
  5
18B
  8
10BY10
 10
95778.0
 20
484378.0
 30
0.03
  0
VERTEX
  5
18C
  8
10BY10
 10
95788.0
 20
484378.0
 30
0.03
  0
VERTEX
  5
18D
  8
10BY10
 10
95788.0
 20
484388.0
 30
0.03
  0
VERTEX
  5
18E
  8
10BY10
 10
95778.0
 20
484388.0
 30
0.03
  0
SEQEND
  5
18F
  8
10BY10
  0
POLYLINE
  5
7E
  8
10BY10
 66
     1
 10
0.0
 20
0.0
 30
0.02
 70
     1
1001
DCO15
1071
        2
1071
        2
1000
new-all-density-link
1004
0000000000588740
  0
VERTEX
  5
190
  8
10BY10
 10
93353.0
 20
485989.0
 30
0.02
  0
VERTEX
  5
191
  8
10BY10
 10
93363.0
 20
485989.0
 30
0.02
  0
VERTEX
  5
192
  8
10BY10
 10
93363.0
 20
485999.0
 30
0.02
  0
VERTEX
  5
193
  8
10BY10
 10
93353.0
 20
485999.0
 30
0.02
  0
SEQEND
  5
194
  8
10BY10
  0
POLYLINE
  5
7F
  8
10BY10
 66
     1
 10
0.0
 20
0.0
 30
0.03
 70
     1
1001
DCO15
1071
        2
1071
        2
1000
new-all-density-link
1004
0000000000608740
  0
VERTEX
  5
195
  8
10BY10
 10
93306.0
 20
486000.0
 30
0.03
  0
VERTEX
  5
196
  8
10BY10
 10
93316.0
 20
486000.0
 30
0.03
  0
VERTEX
  5
197
  8
10BY10
 10
93316.0
 20
486010.0
 30
0.03
  0
VERTEX
  5
198
  8
10BY10
 10
93306.0
 20
486010.0
 30
0.03
  0
SEQEND
  5
199
  8
10BY10
  0
POLYLINE
  5
80
  8
10BY10
 66
     1
 10
0.0
 20
0.0
 30
0.24
 70
     1
1001
DCO15
1071
        2
1071
        2
1000
new-all-density-link
1004
0000000000A08740
  0
VERTEX
  5
19A
  8
10BY10
 10
100421.0
 20
486856.0
 30
0.24
  0
VERTEX
  5
19B
  8
10BY10
 10
100431.0
 20
486856.0
 30
0.24
  0
VERTEX
  5
19C
  8
10BY10
 10
100431.0
 20
486866.0
 30
0.24
  0
VERTEX
  5
19D
  8
10BY10
 10
100421.0
 20
486866.0
 30
0.24
  0
SEQEND
  5
19E
  8
10BY10
  0
POLYLINE
  5
81
  8
10BY10
 66
     1
 10
0.0
 20
0.0
 30
0.07
 70
     1
1001
DCO15
1071
        2
1071
        2
1000
new-all-density-link
1004
0000000000A88740
  0
VERTEX
  5
19F
  8
10BY10
 10
93300.0
 20
485915.0
 30
0.07
  0
VERTEX
  5
1A0
  8
10BY10
 10
93310.0
 20
485915.0
 30
0.07
  0
VERTEX
  5
1A1
  8
10BY10
 10
93310.0
 20
485925.0
 30
0.07
  0
VERTEX
  5
1A2
  8
10BY10
 10
93300.0
 20
485925.0
 30
0.07
  0
SEQEND
  5
1A3
  8
10BY10
  0
POLYLINE
  5
82
  8
10BY10
 66
     1
 10
0.0
 20
0.0
 30
0.05
 70
     1
1001
DCO15
1071
        2
1071
        2
1000
new-all-density-link
1004
0000000000B08740
  0
VERTEX
  5
1A4
  8
10BY10
 10
93335.0
 20
486075.0
 30
0.05
  0
VERTEX
  5
1A5
  8
10BY10
 10
93345.0
 20
486075.0
 30
0.05
  0
VERTEX
  5
1A6
  8
10BY10
 10
93345.0
 20
486085.0
 30
0.05
  0
VERTEX
  5
1A7
  8
10BY10
 10
93335.0
 20
486085.0
 30
0.05
  0
SEQEND
  5
1A8
  8
10BY10
  0
POLYLINE
  5
83
  8
10BY10
 66
     1
 10
0.0
 20
0.0
 30
0.05
 70
     1
1001
DCO15
1071
        2
1071
        2
1000
new-all-density-link
1004
0000000000A88840
  0
VERTEX
  5
1A9
  8
10BY10
 10
92505.0
 20
490255.0
 30
0.05
  0
VERTEX
  5
1AA
  8
10BY10
 10
92515.0
 20
490255.0
 30
0.05
  0
VERTEX
  5
1AB
  8
10BY10
 10
92515.0
 20
490265.0
 30
0.05
  0
VERTEX
  5
1AC
  8
10BY10
 10
92505.0
 20
490265.0
 30
0.05
  0
SEQEND
  5
1AD
  8
10BY10
  0
POLYLINE
  5
84
  8
10BY10
 66
     1
 10
0.0
 20
0.0
 30
0.01
 70
     1
1001
DCO15
1071
        2
1071
        2
1000
new-all-density-link
1004
0000000000B08840
  0
VERTEX
  5
1AE
  8
10BY10
 10
92585.0
 20
490278.0
 30
0.01
  0
VERTEX
  5
1AF
  8
10BY10
 10
92595.0
 20
490278.0
 30
0.01
  0
VERTEX
  5
1B0
  8
10BY10
 10
92595.0
 20
490288.0
 30
0.01
  0
VERTEX
  5
1B1
  8
10BY10
 10
92585.0
 20
490288.0
 30
0.01
  0
SEQEND
  5
1B2
  8
10BY10
  0
POLYLINE
  5
85
  8
10BY10
 66
     1
 10
0.0
 20
0.0
 30
0.02
 70
     1
1001
DCO15
1071
        2
1071
        2
1000
new-all-density-link
1004
0000000000B88840
  0
VERTEX
  5
1B3
  8
10BY10
 10
92521.0
 20
490348.0
 30
0.02
  0
VERTEX
  5
1B4
  8
10BY10
 10
92531.0
 20
490348.0
 30
0.02
  0
VERTEX
  5
1B5
  8
10BY10
 10
92531.0
 20
490358.0
 30
0.02
  0
VERTEX
  5
1B6
  8
10BY10
 10
92521.0
 20
490358.0
 30
0.02
  0
SEQEND
  5
1B7
  8
10BY10
  0
POLYLINE
  5
86
  8
10BY10
 66
     1
 10
0.0
 20
0.0
 30
0.03
 70
     1
1001
DCO15
1071
        2
1071
        2
1000
new-all-density-link
1004
0000000000C88840
  0
VERTEX
  5
1B8
  8
10BY10
 10
92521.0
 20
490264.0
 30
0.03
  0
VERTEX
  5
1B9
  8
10BY10
 10
92531.0
 20
490264.0
 30
0.03
  0
VERTEX
  5
1BA
  8
10BY10
 10
92531.0
 20
490274.0
 30
0.03
  0
VERTEX
  5
1BB
  8
10BY10
 10
92521.0
 20
490274.0
 30
0.03
  0
SEQEND
  5
1BC
  8
10BY10
  0
POLYLINE
  5
87
  8
10BY10
 66
     1
 10
0.0
 20
0.0
 30
0.02
 70
     1
1001
DCO15
1071
        2
1071
        2
1000
new-all-density-link
1004
0000000000D08840
  0
VERTEX
  5
1BD
  8
10BY10
 10
92523.0
 20
490237.0
 30
0.02
  0
VERTEX
  5
1BE
  8
10BY10
 10
92533.0
 20
490237.0
 30
0.02
  0
VERTEX
  5
1BF
  8
10BY10
 10
92533.0
 20
490247.0
 30
0.02
  0
VERTEX
  5
1C0
  8
10BY10
 10
92523.0
 20
490247.0
 30
0.02
  0
SEQEND
  5
1C1
  8
10BY10
  0
POLYLINE
  5
88
  8
10BY10
 66
     1
 10
0.0
 20
0.0
 30
0.034
 70
     1
1001
DCO15
1071
        2
1071
        2
1000
new-all-density-link
1004
0000000000508940
  0
VERTEX
  5
1C2
  8
10BY10
 10
85487.0
 20
497039.0
 30
0.034
  0
VERTEX
  5
1C3
  8
10BY10
 10
85497.0
 20
497039.0
 30
0.034
  0
VERTEX
  5
1C4
  8
10BY10
 10
85497.0
 20
497049.0
 30
0.034
  0
VERTEX
  5
1C5
  8
10BY10
 10
85487.0
 20
497049.0
 30
0.034
  0
SEQEND
  5
1C6
  8
10BY10
  0
POLYLINE
  5
89
  8
10BY10
 66
     1
 10
0.0
 20
0.0
 30
0.085
 70
     1
1001
DCO15
1071
        2
1071
        2
1000
new-all-density-link
1004
0000000000A08940
  0
VERTEX
  5
1C7
  8
10BY10
 10
85472.0
 20
497083.0
 30
0.085
  0
VERTEX
  5
1C8
  8
10BY10
 10
85482.0
 20
497083.0
 30
0.085
  0
VERTEX
  5
1C9
  8
10BY10
 10
85482.0
 20
497093.0
 30
0.085
  0
VERTEX
  5
1CA
  8
10BY10
 10
85472.0
 20
497093.0
 30
0.085
  0
SEQEND
  5
1CB
  8
10BY10
  0
POLYLINE
  5
8A
  8
10BY10
 66
     1
 10
0.0
 20
0.0
 30
0.17
 70
     1
1001
DCO15
1071
        2
1071
        2
1000
new-all-density-link
1004
0000000000C08940
  0
VERTEX
  5
1CC
  8
10BY10
 10
85471.0
 20
497034.0
 30
0.17
  0
VERTEX
  5
1CD
  8
10BY10
 10
85481.0
 20
497034.0
 30
0.17
  0
VERTEX
  5
1CE
  8
10BY10
 10
85481.0
 20
497044.0
 30
0.17
  0
VERTEX
  5
1CF
  8
10BY10
 10
85471.0
 20
497044.0
 30
0.17
  0
SEQEND
  5
1D0
  8
10BY10
  0
POLYLINE
  5
8B
  8
10BY10
 66
     1
 10
0.0
 20
0.0
 30
0.068
 70
     1
1001
DCO15
1071
        2
1071
        2
1000
new-all-density-link
1004
0000000000C88940
  0
VERTEX
  5
1D1
  8
10BY10
 10
85453.0
 20
497045.0
 30
0.068
  0
VERTEX
  5
1D2
  8
10BY10
 10
85463.0
 20
497045.0
 30
0.068
  0
VERTEX
  5
1D3
  8
10BY10
 10
85463.0
 20
497055.0
 30
0.068
  0
VERTEX
  5
1D4
  8
10BY10
 10
85453.0
 20
497055.0
 30
0.068
  0
SEQEND
  5
1D5
  8
10BY10
  0
POLYLINE
  5
8C
  8
10BY10
 66
     1
 10
0.0
 20
0.0
 30
0.02
 70
     1
1001
DCO15
1071
        2
1071
        2
1000
new-all-density-link
1004
0000000000D88940
  0
VERTEX
  5
1D6
  8
10BY10
 10
85190.0
 20
497013.0
 30
0.02
  0
VERTEX
  5
1D7
  8
10BY10
 10
85200.0
 20
497013.0
 30
0.02
  0
VERTEX
  5
1D8
  8
10BY10
 10
85200.0
 20
497023.0
 30
0.02
  0
VERTEX
  5
1D9
  8
10BY10
 10
85190.0
 20
497023.0
 30
0.02
  0
SEQEND
  5
1DA
  8
10BY10
  0
POLYLINE
  5
8D
  8
10BY10
 66
     1
 10
0.0
 20
0.0
 30
0.02
 70
     1
1001
DCO15
1071
        2
1071
        2
1000
new-all-density-link
1004
0000000000E08940
  0
VERTEX
  5
1DB
  8
10BY10
 10
85486.0
 20
497062.0
 30
0.02
  0
VERTEX
  5
1DC
  8
10BY10
 10
85496.0
 20
497062.0
 30
0.02
  0
VERTEX
  5
1DD
  8
10BY10
 10
85496.0
 20
497072.0
 30
0.02
  0
VERTEX
  5
1DE
  8
10BY10
 10
85486.0
 20
497072.0
 30
0.02
  0
SEQEND
  5
1DF
  8
10BY10
  0
POLYLINE
  5
8E
  8
10BY10
 66
     1
 10
0.0
 20
0.0
 30
0.16
 70
     1
1001
DCO15
1071
        2
1071
        2
1000
new-all-density-link
1004
0000000000E88940
  0
VERTEX
  5
1E0
  8
10BY10
 10
85488.0
 20
497015.0
 30
0.16
  0
VERTEX
  5
1E1
  8
10BY10
 10
85498.0
 20
497015.0
 30
0.16
  0
VERTEX
  5
1E2
  8
10BY10
 10
85498.0
 20
497025.0
 30
0.16
  0
VERTEX
  5
1E3
  8
10BY10
 10
85488.0
 20
497025.0
 30
0.16
  0
SEQEND
  5
1E4
  8
10BY10
  0
POLYLINE
  5
8F
  8
10BY10
 66
     1
 10
0.0
 20
0.0
 30
0.01
 70
     1
1001
DCO15
1071
        2
1071
        2
1000
new-all-density-link
1004
0000000000588D40
  0
VERTEX
  5
1E5
  8
10BY10
 10
81051.0
 20
495278.0
 30
0.01
  0
VERTEX
  5
1E6
  8
10BY10
 10
81061.0
 20
495278.0
 30
0.01
  0
VERTEX
  5
1E7
  8
10BY10
 10
81061.0
 20
495288.0
 30
0.01
  0
VERTEX
  5
1E8
  8
10BY10
 10
81051.0
 20
495288.0
 30
0.01
  0
SEQEND
  5
1E9
  8
10BY10
  0
POLYLINE
  5
90
  8
10BY10
 66
     1
 10
0.0
 20
0.0
 30
0.051
 70
     1
1001
DCO15
1071
        2
1071
        2
1000
new-all-density-link
1004
0000000000F08D40
  0
VERTEX
  5
1EA
  8
10BY10
 10
85482.0
 20
497079.0
 30
0.051
  0
VERTEX
  5
1EB
  8
10BY10
 10
85492.0
 20
497079.0
 30
0.051
  0
VERTEX
  5
1EC
  8
10BY10
 10
85492.0
 20
497089.0
 30
0.051
  0
VERTEX
  5
1ED
  8
10BY10
 10
85482.0
 20
497089.0
 30
0.051
  0
SEQEND
  5
1EE
  8
10BY10
  0
POLYLINE
  5
91
  8
10BY10
 66
     1
 10
0.0
 20
0.0
 30
0.128
 70
     1
1001
DCO15
1071
        2
1071
        2
1000
new-all-density-link
1004
0000000000108E40
  0
VERTEX
  5
1EF
  8
10BY10
 10
86725.0
 20
490021.0
 30
0.128
  0
VERTEX
  5
1F0
  8
10BY10
 10
86735.0
 20
490021.0
 30
0.128
  0
VERTEX
  5
1F1
  8
10BY10
 10
86735.0
 20
490031.0
 30
0.128
  0
VERTEX
  5
1F2
  8
10BY10
 10
86725.0
 20
490031.0
 30
0.128
  0
SEQEND
  5
1F3
  8
10BY10
  0
POLYLINE
  5
92
  8
10BY10
 66
     1
 10
0.0
 20
0.0
 30
0.34
 70
     1
1001
DCO15
1071
        2
1071
        2
1000
new-all-density-link
1004
0000000000908E40
  0
VERTEX
  5
1F4
  8
10BY10
 10
89712.0
 20
487490.0
 30
0.34
  0
VERTEX
  5
1F5
  8
10BY10
 10
89722.0
 20
487490.0
 30
0.34
  0
VERTEX
  5
1F6
  8
10BY10
 10
89722.0
 20
487500.0
 30
0.34
  0
VERTEX
  5
1F7
  8
10BY10
 10
89712.0
 20
487500.0
 30
0.34
  0
SEQEND
  5
1F8
  8
10BY10
  0
POLYLINE
  5
93
  8
10BY10
 66
     1
 10
0.0
 20
0.0
 30
0.03
 70
     1
1001
DCO15
1071
        2
1071
        2
1000
new-all-density-link
1004
0000000000A88E40
  0
VERTEX
  5
1F9
  8
10BY10
 10
89804.0
 20
487347.0
 30
0.03
  0
VERTEX
  5
1FA
  8
10BY10
 10
89814.0
 20
487347.0
 30
0.03
  0
VERTEX
  5
1FB
  8
10BY10
 10
89814.0
 20
487357.0
 30
0.03
  0
VERTEX
  5
1FC
  8
10BY10
 10
89804.0
 20
487357.0
 30
0.03
  0
SEQEND
  5
1FD
  8
10BY10
  0
POLYLINE
  5
94
  8
10BY10
 66
     1
 10
0.0
 20
0.0
 30
0.02
 70
     1
1001
DCO15
1071
        2
1071
        2
1000
new-all-density-link
1004
0000000000B88E40
  0
VERTEX
  5
1FE
  8
10BY10
 10
89800.0
 20
487408.0
 30
0.02
  0
VERTEX
  5
1FF
  8
10BY10
 10
89810.0
 20
487408.0
 30
0.02
  0
VERTEX
  5
200
  8
10BY10
 10
89810.0
 20
487418.0
 30
0.02
  0
VERTEX
  5
201
  8
10BY10
 10
89800.0
 20
487418.0
 30
0.02
  0
SEQEND
  5
202
  8
10BY10
  0
POLYLINE
  5
95
  8
10BY10
 66
     1
 10
0.0
 20
0.0
 30
0.08
 70
     1
1001
DCO15
1071
        2
1071
        2
1000
new-all-density-link
1004
0000000000C08E40
  0
VERTEX
  5
203
  8
10BY10
 10
89816.0
 20
487404.0
 30
0.08
  0
VERTEX
  5
204
  8
10BY10
 10
89826.0
 20
487404.0
 30
0.08
  0
VERTEX
  5
205
  8
10BY10
 10
89826.0
 20
487414.0
 30
0.08
  0
VERTEX
  5
206
  8
10BY10
 10
89816.0
 20
487414.0
 30
0.08
  0
SEQEND
  5
207
  8
10BY10
  0
POLYLINE
  5
96
  8
10BY10
 66
     1
 10
0.0
 20
0.0
 30
0.01
 70
     1
1001
DCO15
1071
        2
1071
        2
1000
new-all-density-link
1004
0000000000049040
  0
VERTEX
  5
208
  8
10BY10
 10
90415.0
 20
483169.0
 30
0.01
  0
VERTEX
  5
209
  8
10BY10
 10
90425.0
 20
483169.0
 30
0.01
  0
VERTEX
  5
20A
  8
10BY10
 10
90425.0
 20
483179.0
 30
0.01
  0
VERTEX
  5
20B
  8
10BY10
 10
90415.0
 20
483179.0
 30
0.01
  0
SEQEND
  5
20C
  8
10BY10
  0
POLYLINE
  5
97
  8
10BY10
 66
     1
 10
0.0
 20
0.0
 30
0.03
 70
     1
1001
DCO15
1071
        2
1071
        2
1000
new-all-density-link
1004
0000000000589040
  0
VERTEX
  5
20D
  8
10BY10
 10
89985.0
 20
483376.0
 30
0.03
  0
VERTEX
  5
20E
  8
10BY10
 10
89995.0
 20
483376.0
 30
0.03
  0
VERTEX
  5
20F
  8
10BY10
 10
89995.0
 20
483386.0
 30
0.03
  0
VERTEX
  5
210
  8
10BY10
 10
89985.0
 20
483386.0
 30
0.03
  0
SEQEND
  5
211
  8
10BY10
  0
POLYLINE
  5
98
  8
10BY10
 66
     1
 10
0.0
 20
0.0
 30
0.05
 70
     1
1001
DCO15
1071
        2
1071
        2
1000
new-all-density-link
1004
00000000005C9040
  0
VERTEX
  5
212
  8
10BY10
 10
89975.0
 20
483371.0
 30
0.05
  0
VERTEX
  5
213
  8
10BY10
 10
89985.0
 20
483371.0
 30
0.05
  0
VERTEX
  5
214
  8
10BY10
 10
89985.0
 20
483381.0
 30
0.05
  0
VERTEX
  5
215
  8
10BY10
 10
89975.0
 20
483381.0
 30
0.05
  0
SEQEND
  5
216
  8
10BY10
  0
POLYLINE
  5
99
  8
10BY10
 66
     1
 10
0.0
 20
0.0
 30
0.017
 70
     1
1001
DCO15
1071
        2
1071
        2
1000
new-all-density-link
1004
0000000000709040
  0
VERTEX
  5
217
  8
10BY10
 10
89989.0
 20
483315.0
 30
0.017
  0
VERTEX
  5
218
  8
10BY10
 10
89999.0
 20
483315.0
 30
0.017
  0
VERTEX
  5
219
  8
10BY10
 10
89999.0
 20
483325.0
 30
0.017
  0
VERTEX
  5
21A
  8
10BY10
 10
89989.0
 20
483325.0
 30
0.017
  0
SEQEND
  5
21B
  8
10BY10
  0
POLYLINE
  5
9A
  8
10BY10
 66
     1
 10
0.0
 20
0.0
 30
0.01
 70
     1
1001
DCO15
1071
        2
1071
        2
1000
new-all-density-link
1004
0000000000289140
  0
VERTEX
  5
21C
  8
10BY10
 10
87547.0
 20
480878.0
 30
0.01
  0
VERTEX
  5
21D
  8
10BY10
 10
87557.0
 20
480878.0
 30
0.01
  0
VERTEX
  5
21E
  8
10BY10
 10
87557.0
 20
480888.0
 30
0.01
  0
VERTEX
  5
21F
  8
10BY10
 10
87547.0
 20
480888.0
 30
0.01
  0
SEQEND
  5
220
  8
10BY10
  0
POLYLINE
  5
9B
  8
10BY10
 66
     1
 10
0.0
 20
0.0
 30
0.25
 70
     1
1001
DCO15
1071
        2
1071
        2
1000
new-all-density-link
1004
0000000000389140
  0
VERTEX
  5
221
  8
10BY10
 10
87507.0
 20
480864.0
 30
0.25
  0
VERTEX
  5
222
  8
10BY10
 10
87517.0
 20
480864.0
 30
0.25
  0
VERTEX
  5
223
  8
10BY10
 10
87517.0
 20
480874.0
 30
0.25
  0
VERTEX
  5
224
  8
10BY10
 10
87507.0
 20
480874.0
 30
0.25
  0
SEQEND
  5
225
  8
10BY10
  0
POLYLINE
  5
9C
  8
10BY10
 66
     1
 10
0.0
 20
0.0
 30
0.02
 70
     1
1001
DCO15
1071
        2
1071
        2
1000
new-all-density-link
1004
0000000000409140
  0
VERTEX
  5
226
  8
10BY10
 10
87548.0
 20
480831.0
 30
0.02
  0
VERTEX
  5
227
  8
10BY10
 10
87558.0
 20
480831.0
 30
0.02
  0
VERTEX
  5
228
  8
10BY10
 10
87558.0
 20
480841.0
 30
0.02
  0
VERTEX
  5
229
  8
10BY10
 10
87548.0
 20
480841.0
 30
0.02
  0
SEQEND
  5
22A
  8
10BY10
  0
POLYLINE
  5
9D
  8
10BY10
 66
     1
 10
0.0
 20
0.0
 30
0.03
 70
     1
1001
DCO15
1071
        2
1071
        2
1000
new-all-density-link
1004
0000000000549140
  0
VERTEX
  5
22B
  8
10BY10
 10
86605.0
 20
481736.0
 30
0.03
  0
VERTEX
  5
22C
  8
10BY10
 10
86615.0
 20
481736.0
 30
0.03
  0
VERTEX
  5
22D
  8
10BY10
 10
86615.0
 20
481746.0
 30
0.03
  0
VERTEX
  5
22E
  8
10BY10
 10
86605.0
 20
481746.0
 30
0.03
  0
SEQEND
  5
22F
  8
10BY10
  0
POLYLINE
  5
9E
  8
10BY10
 66
     1
 10
0.0
 20
0.0
 30
0.02
 70
     1
1001
DCO15
1071
        2
1071
        2
1000
new-all-density-link
1004
0000000000689140
  0
VERTEX
  5
230
  8
10BY10
 10
87177.0
 20
481900.0
 30
0.02
  0
VERTEX
  5
231
  8
10BY10
 10
87187.0
 20
481900.0
 30
0.02
  0
VERTEX
  5
232
  8
10BY10
 10
87187.0
 20
481910.0
 30
0.02
  0
VERTEX
  5
233
  8
10BY10
 10
87177.0
 20
481910.0
 30
0.02
  0
SEQEND
  5
234
  8
10BY10
  0
POLYLINE
  5
9F
  8
10BY10
 66
     1
 10
0.0
 20
0.0
 30
0.017
 70
     1
1001
DCO15
1071
        2
1071
        2
1000
new-all-density-link
1004
0000000000249240
  0
VERTEX
  5
235
  8
10BY10
 10
87903.0
 20
480081.0
 30
0.017
  0
VERTEX
  5
236
  8
10BY10
 10
87913.0
 20
480081.0
 30
0.017
  0
VERTEX
  5
237
  8
10BY10
 10
87913.0
 20
480091.0
 30
0.017
  0
VERTEX
  5
238
  8
10BY10
 10
87903.0
 20
480091.0
 30
0.017
  0
SEQEND
  5
239
  8
10BY10
  0
POLYLINE
  5
A0
  8
10BY10
 66
     1
 10
0.0
 20
0.0
 30
0.03
 70
     1
1001
DCO15
1071
        2
1071
        2
1000
new-all-density-link
1004
0000000000349240
  0
VERTEX
  5
23A
  8
10BY10
 10
87859.0
 20
480197.0
 30
0.03
  0
VERTEX
  5
23B
  8
10BY10
 10
87869.0
 20
480197.0
 30
0.03
  0
VERTEX
  5
23C
  8
10BY10
 10
87869.0
 20
480207.0
 30
0.03
  0
VERTEX
  5
23D
  8
10BY10
 10
87859.0
 20
480207.0
 30
0.03
  0
SEQEND
  5
23E
  8
10BY10
  0
POLYLINE
  5
A1
  8
10BY10
 66
     1
 10
0.0
 20
0.0
 30
0.07
 70
     1
1001
DCO15
1071
        2
1071
        2
1000
new-all-density-link
1004
00000000005C9240
  0
VERTEX
  5
23F
  8
10BY10
 10
87863.0
 20
480139.0
 30
0.07
  0
VERTEX
  5
240
  8
10BY10
 10
87873.0
 20
480139.0
 30
0.07
  0
VERTEX
  5
241
  8
10BY10
 10
87873.0
 20
480149.0
 30
0.07
  0
VERTEX
  5
242
  8
10BY10
 10
87863.0
 20
480149.0
 30
0.07
  0
SEQEND
  5
243
  8
10BY10
  0
POLYLINE
  5
A2
  8
10BY10
 66
     1
 10
0.0
 20
0.0
 30
0.01
 70
     1
1001
DCO15
1071
        2
1071
        2
1000
new-all-density-link
1004
00000000008C9240
  0
VERTEX
  5
244
  8
10BY10
 10
86427.0
 20
478161.0
 30
0.01
  0
VERTEX
  5
245
  8
10BY10
 10
86437.0
 20
478161.0
 30
0.01
  0
VERTEX
  5
246
  8
10BY10
 10
86437.0
 20
478171.0
 30
0.01
  0
VERTEX
  5
247
  8
10BY10
 10
86427.0
 20
478171.0
 30
0.01
  0
SEQEND
  5
248
  8
10BY10
  0
POLYLINE
  5
A3
  8
10BY10
 66
     1
 10
0.0
 20
0.0
 30
0.017
 70
     1
1001
DCO15
1071
        2
1071
        2
1000
new-all-density-link
1004
0000000000E49240
  0
VERTEX
  5
249
  8
10BY10
 10
85921.0
 20
481679.0
 30
0.017
  0
VERTEX
  5
24A
  8
10BY10
 10
85931.0
 20
481679.0
 30
0.017
  0
VERTEX
  5
24B
  8
10BY10
 10
85931.0
 20
481689.0
 30
0.017
  0
VERTEX
  5
24C
  8
10BY10
 10
85921.0
 20
481689.0
 30
0.017
  0
SEQEND
  5
24D
  8
10BY10
  0
POLYLINE
  5
A4
  8
10BY10
 66
     1
 10
0.0
 20
0.0
 30
0.034
 70
     1
1001
DCO15
1071
        2
1071
        2
1000
new-all-density-link
1004
0000000000EC9240
  0
VERTEX
  5
24E
  8
10BY10
 10
85872.0
 20
481661.0
 30
0.034
  0
VERTEX
  5
24F
  8
10BY10
 10
85882.0
 20
481661.0
 30
0.034
  0
VERTEX
  5
250
  8
10BY10
 10
85882.0
 20
481671.0
 30
0.034
  0
VERTEX
  5
251
  8
10BY10
 10
85872.0
 20
481671.0
 30
0.034
  0
SEQEND
  5
252
  8
10BY10
  0
POLYLINE
  5
A5
  8
10BY10
 66
     1
 10
0.0
 20
0.0
 30
0.096
 70
     1
1001
DCO15
1071
        2
1071
        2
1000
new-all-density-link
1004
0000000000789340
  0
VERTEX
  5
253
  8
10BY10
 10
106790.0
 20
492895.0
 30
0.096
  0
VERTEX
  5
254
  8
10BY10
 10
106800.0
 20
492895.0
 30
0.096
  0
VERTEX
  5
255
  8
10BY10
 10
106800.0
 20
492905.0
 30
0.096
  0
VERTEX
  5
256
  8
10BY10
 10
106790.0
 20
492905.0
 30
0.096
  0
SEQEND
  5
257
  8
10BY10
  0
POLYLINE
  5
A6
  8
10BY10
 66
     1
 10
0.0
 20
0.0
 30
0.05
 70
     1
1001
DCO15
1071
        2
1071
        2
1000
new-all-density-link
1004
0000000000B49340
  0
VERTEX
  5
258
  8
10BY10
 10
106779.0
 20
492960.0
 30
0.05
  0
VERTEX
  5
259
  8
10BY10
 10
106789.0
 20
492960.0
 30
0.05
  0
VERTEX
  5
25A
  8
10BY10
 10
106789.0
 20
492970.0
 30
0.05
  0
VERTEX
  5
25B
  8
10BY10
 10
106779.0
 20
492970.0
 30
0.05
  0
SEQEND
  5
25C
  8
10BY10
  0
POLYLINE
  5
A7
  8
10BY10
 66
     1
 10
0.0
 20
0.0
 30
0.01
 70
     1
1001
DCO15
1071
        2
1071
        2
1000
new-all-density-link
1004
0000000000849840
  0
VERTEX
  5
25D
  8
10BY10
 10
109267.0
 20
490395.0
 30
0.01
  0
VERTEX
  5
25E
  8
10BY10
 10
109277.0
 20
490395.0
 30
0.01
  0
VERTEX
  5
25F
  8
10BY10
 10
109277.0
 20
490405.0
 30
0.01
  0
VERTEX
  5
260
  8
10BY10
 10
109267.0
 20
490405.0
 30
0.01
  0
SEQEND
  5
261
  8
10BY10
  0
POLYLINE
  5
A8
  8
10BY10
 66
     1
 10
0.0
 20
0.0
 30
0.136
 70
     1
1001
DCO15
1071
        2
1071
        2
1000
new-all-density-link
1004
0000000000009940
  0
VERTEX
  5
262
  8
10BY10
 10
94426.0
 20
483286.0
 30
0.136
  0
VERTEX
  5
263
  8
10BY10
 10
94436.0
 20
483286.0
 30
0.136
  0
VERTEX
  5
264
  8
10BY10
 10
94436.0
 20
483296.0
 30
0.136
  0
VERTEX
  5
265
  8
10BY10
 10
94426.0
 20
483296.0
 30
0.136
  0
SEQEND
  5
266
  8
10BY10
  0
POLYLINE
  5
A9
  8
R10BY10
 66
     1
 10
0.0
 20
0.0
 30
0.75
 70
     1
1001
DCO15
1071
        2
1071
        2
1000
new-all-density-link
1004
0000000000688740
  0
VERTEX
  5
267
  8
R10BY10
 10
93305.0
 20
486037.0
 30
0.75
  0
VERTEX
  5
268
  8
R10BY10
 10
93315.0
 20
486037.0
 30
0.75
  0
VERTEX
  5
269
  8
R10BY10
 10
93315.0
 20
486047.0
 30
0.75
  0
VERTEX
  5
26A
  8
R10BY10
 10
93305.0
 20
486047.0
 30
0.75
  0
SEQEND
  5
26B
  8
R10BY10
  0
POLYLINE
  5
AB
  8
R10BY10
 66
     1
 10
0.0
 20
0.0
 30
1.75
 70
     1
1001
DCO15
1071
        2
1071
        2
1000
new-all-density-link
1004
0000000000708740
  0
VERTEX
  5
26C
  8
R10BY10
 10
93342.0
 20
486041.0
 30
1.75
  0
VERTEX
  5
26D
  8
R10BY10
 10
93352.0
 20
486041.0
 30
1.75
  0
VERTEX
  5
26E
  8
R10BY10
 10
93352.0
 20
486051.0
 30
1.75
  0
VERTEX
  5
26F
  8
R10BY10
 10
93342.0
 20
486051.0
 30
1.75
  0
SEQEND
  5
270
  8
R10BY10
  0
POLYLINE
  5
AC
  8
R10BY10
 66
     1
 10
0.0
 20
0.0
 30
1.25
 70
     1
1001
DCO15
1071
        2
1071
        2
1000
new-all-density-link
1004
0000000000788740
  0
VERTEX
  5
271
  8
R10BY10
 10
93340.0
 20
485984.0
 30
1.25
  0
VERTEX
  5
272
  8
R10BY10
 10
93350.0
 20
485984.0
 30
1.25
  0
VERTEX
  5
273
  8
R10BY10
 10
93350.0
 20
485994.0
 30
1.25
  0
VERTEX
  5
274
  8
R10BY10
 10
93340.0
 20
485994.0
 30
1.25
  0
SEQEND
  5
275
  8
R10BY10
  0
POLYLINE
  5
AD
  8
R10BY10
 66
     1
 10
0.0
 20
0.0
 30
1.5
 70
     1
1001
DCO15
1071
        2
1071
        2
1000
new-all-density-link
1004
0000000000808740
  0
VERTEX
  5
276
  8
R10BY10
 10
93406.0
 20
486054.0
 30
1.5
  0
VERTEX
  5
277
  8
R10BY10
 10
93416.0
 20
486054.0
 30
1.5
  0
VERTEX
  5
278
  8
R10BY10
 10
93416.0
 20
486064.0
 30
1.5
  0
VERTEX
  5
279
  8
R10BY10
 10
93406.0
 20
486064.0
 30
1.5
  0
SEQEND
  5
27A
  8
R10BY10
  0
POLYLINE
  5
AE
  8
R10BY10
 66
     1
 10
0.0
 20
0.0
 30
1.5
 70
     1
1001
DCO15
1071
        2
1071
        2
1000
new-all-density-link
1004
0000000000888740
  0
VERTEX
  5
27B
  8
R10BY10
 10
93389.0
 20
486043.0
 30
1.5
  0
VERTEX
  5
27C
  8
R10BY10
 10
93399.0
 20
486043.0
 30
1.5
  0
VERTEX
  5
27D
  8
R10BY10
 10
93399.0
 20
486053.0
 30
1.5
  0
VERTEX
  5
27E
  8
R10BY10
 10
93389.0
 20
486053.0
 30
1.5
  0
SEQEND
  5
27F
  8
R10BY10
  0
POLYLINE
  5
AF
  8
R10BY10
 66
     1
 10
0.0
 20
0.0
 30
1.5
 70
     1
1001
DCO15
1071
        2
1071
        2
1000
new-all-density-link
1004
0000000000988740
  0
VERTEX
  5
280
  8
R10BY10
 10
93349.0
 20
486063.0
 30
1.5
  0
VERTEX
  5
281
  8
R10BY10
 10
93359.0
 20
486063.0
 30
1.5
  0
VERTEX
  5
282
  8
R10BY10
 10
93359.0
 20
486073.0
 30
1.5
  0
VERTEX
  5
283
  8
R10BY10
 10
93349.0
 20
486073.0
 30
1.5
  0
SEQEND
  5
284
  8
R10BY10
  0
POLYLINE
  5
B0
  8
R10BY10
 66
     1
 10
0.0
 20
0.0
 30
0.25
 70
     1
1001
DCO15
1071
        2
1071
        2
1000
new-all-density-link
1004
0000000000F09840
  0
VERTEX
  5
285
  8
R10BY10
 10
109639.0
 20
500754.0
 30
0.25
  0
VERTEX
  5
286
  8
R10BY10
 10
109649.0
 20
500754.0
 30
0.25
  0
VERTEX
  5
287
  8
R10BY10
 10
109649.0
 20
500764.0
 30
0.25
  0
VERTEX
  5
288
  8
R10BY10
 10
109639.0
 20
500764.0
 30
0.25
  0
SEQEND
  5
289
  8
R10BY10
  0
ENDSEC
  0
EOF
