  0
SECTION
  2
HEADER
  9
$ACADVER
  1
AC1009
  9
$INSBASE
 10
0.0
 20
0.0
 30
0.0
  9
$EXTMIN
 10
80956.0
 20
478725.0
 30
0.01
  9
$EXTMAX
 10
110637.0
 20
500778.0
 30
59.200000000000003
  9
$LIMMIN
 10
0.0
 20
0.0
  9
$LIMMAX
 10
12.0
 20
9.0
  9
$ORTHOMODE
 70
     0
  9
$REGENMODE
 70
     1
  9
$FILLMODE
 70
     1
  9
$QTEXTMODE
 70
     0
  9
$MIRRTEXT
 70
     0
  9
$DRAGMODE
 70
     2
  9
$LTSCALE
 40
1.0
  9
$OSMODE
 70
    37
  9
$ATTMODE
 70
     1
  9
$TEXTSIZE
 40
0.2
  9
$TRACEWID
 40
0.05
  9
$TEXTSTYLE
  7
STANDARD
  9
$CLAYER
  8
0
  9
$CELTYPE
  6
BYLAYER
  9
$CECOLOR
 62
   256
  9
$DIMSCALE
 40
1.0
  9
$DIMASZ
 40
0.18
  9
$DIMEXO
 40
0.0625
  9
$DIMDLI
 40
0.38
  9
$DIMRND
 40
0.0
  9
$DIMDLE
 40
0.0
  9
$DIMEXE
 40
0.18
  9
$DIMTP
 40
0.0
  9
$DIMTM
 40
0.0
  9
$DIMTXT
 40
0.18
  9
$DIMCEN
 40
0.09
  9
$DIMTSZ
 40
0.0
  9
$DIMTOL
 70
     0
  9
$DIMLIM
 70
     0
  9
$DIMTIH
 70
     1
  9
$DIMTOH
 70
     1
  9
$DIMSE1
 70
     0
  9
$DIMSE2
 70
     0
  9
$DIMTAD
 70
     0
  9
$DIMZIN
 70
     0
  9
$DIMBLK
  1

  9
$DIMASO
 70
     1
  9
$DIMSHO
 70
     1
  9
$DIMPOST
  1

  9
$DIMAPOST
  1

  9
$DIMALT
 70
     0
  9
$DIMALTD
 70
     2
  9
$DIMALTF
 40
25.399999999999999
  9
$DIMLFAC
 40
1.0
  9
$DIMTOFL
 70
     0
  9
$DIMTVP
 40
0.0
  9
$DIMTIX
 70
     0
  9
$DIMSOXD
 70
     0
  9
$DIMSAH
 70
     0
  9
$DIMBLK1
  1

  9
$DIMBLK2
  1

  9
$DIMSTYLE
  2
STANDARD
  9
$DIMCLRD
 70
     0
  9
$DIMCLRE
 70
     0
  9
$DIMCLRT
 70
     0
  9
$DIMTFAC
 40
1.0
  9
$DIMGAP
 40
0.09
  9
$LUNITS
 70
     2
  9
$LUPREC
 70
     4
  9
$SKETCHINC
 40
0.1
  9
$FILLETRAD
 40
0.0
  9
$AUNITS
 70
     0
  9
$AUPREC
 70
     0
  9
$MENU
  1
.
  9
$ELEVATION
 40
0.0
  9
$PELEVATION
 40
0.0
  9
$THICKNESS
 40
0.0
  9
$LIMCHECK
 70
     0
  9
$BLIPMODE
 70
     0
  9
$CHAMFERA
 40
0.0
  9
$CHAMFERB
 40
0.0
  9
$SKPOLY
 70
     0
  9
$TDCREATE
 40
2457685.6875817128
  9
$TDUPDATE
 40
2458148.4544605669
  9
$TDINDWG
 40
0.7730850347
  9
$TDUSRTIMER
 40
0.7730691435
  9
$USRTIMER
 70
     1
  9
$ANGBASE
 50
0.0
  9
$ANGDIR
 70
     0
  9
$PDMODE
 70
     0
  9
$PDSIZE
 40
0.0
  9
$PLINEWID
 40
0.0
  9
$COORDS
 70
     1
  9
$SPLFRAME
 70
     0
  9
$SPLINETYPE
 70
     6
  9
$SPLINESEGS
 70
     8
  9
$ATTDIA
 70
     1
  9
$ATTREQ
 70
     1
  9
$HANDLING
 70
     1
  9
$HANDSEED
  5
10FA
  9
$SURFTAB1
 70
     6
  9
$SURFTAB2
 70
     6
  9
$SURFTYPE
 70
     6
  9
$SURFU
 70
     6
  9
$SURFV
 70
     6
  9
$UCSNAME
  2

  9
$UCSORG
 10
0.0
 20
0.0
 30
0.0
  9
$UCSXDIR
 10
1.0
 20
0.0
 30
0.0
  9
$UCSYDIR
 10
0.0
 20
1.0
 30
0.0
  9
$PUCSNAME
  2

  9
$PUCSORG
 10
0.0
 20
0.0
 30
0.0
  9
$PUCSXDIR
 10
1.0
 20
0.0
 30
0.0
  9
$PUCSYDIR
 10
0.0
 20
1.0
 30
0.0
  9
$USERI1
 70
     0
  9
$USERI2
 70
     0
  9
$USERI3
 70
     0
  9
$USERI4
 70
     0
  9
$USERI5
 70
     0
  9
$USERR1
 40
0.0
  9
$USERR2
 40
0.0
  9
$USERR3
 40
0.0
  9
$USERR4
 40
0.0
  9
$USERR5
 40
0.0
  9
$WORLDVIEW
 70
     1
  9
$SHADEDGE
 70
     3
  9
$SHADEDIF
 70
    70
  9
$TILEMODE
 70
     1
  9
$MAXACTVP
 70
    64
  9
$PLIMCHECK
 70
     0
  9
$PEXTMIN
 10
0.0
 20
0.0
 30
0.0
  9
$PEXTMAX
 10
0.0
 20
0.0
 30
0.0
  9
$PLIMMIN
 10
0.0
 20
0.0
  9
$PLIMMAX
 10
12.0
 20
9.0
  9
$UNITMODE
 70
     0
  9
$VISRETAIN
 70
     1
  9
$PLINEGEN
 70
     0
  9
$PSLTSCALE
 70
     1
  0
ENDSEC
  0
SECTION
  2
TABLES
  0
TABLE
  2
VPORT
 70
     1
  0
VPORT
  2
*ACTIVE
 70
     0
 10
0.0
 20
0.0
 11
1.0
 21
1.0
 12
69533.52404869879
 22
489230.92035831371
 13
0.0
 23
0.0
 14
0.5
 24
0.5
 15
0.5
 25
0.5
 16
0.0
 26
0.0
 36
1.0
 17
0.0
 27
0.0
 37
0.0
 40
92050.28392122034
 41
2.0426179604261789
 42
50.0
 43
0.0
 44
0.0
 50
0.0
 51
0.0
 71
     0
 72
  1000
 73
     1
 74
     3
 75
     0
 76
     0
 77
     0
 78
     0
  0
ENDTAB
  0
TABLE
  2
LTYPE
 70
     1
  0
LTYPE
  2
CONTINUOUS
 70
     0
  3
Solid line
 72
    65
 73
     0
 40
0.0
  0
ENDTAB
  0
TABLE
  2
LAYER
 70
     5
  0
LAYER
  2
0
 70
     0
 62
     7
  6
CONTINUOUS
  0
LAYER
  2
1BY1
 70
     0
 62
     4
  6
CONTINUOUS
  0
LAYER
  2
2BY2
 70
     0
 62
     2
  6
CONTINUOUS
  0
LAYER
  2
10BY10
 70
     0
 62
     6
  6
CONTINUOUS
  0
LAYER
  2
R10BY10
 70
     0
 62
     3
  6
CONTINUOUS
  0
ENDTAB
  0
TABLE
  2
STYLE
 70
     2
  0
STYLE
  2
STANDARD
 70
     0
 40
0.0
 41
1.0
 50
0.0
 71
     0
 42
0.2
  3
txt
  4

  0
STYLE
  2
LEGEND
 70
     0
 40
0.0
 41
1.0
 50
0.0
 71
     0
 42
0.2
  3
txt
  4

  0
ENDTAB
  0
TABLE
  2
VIEW
 70
     2
  0
ENDTAB
  0
TABLE
  2
UCS
 70
     0
  0
ENDTAB
  0
TABLE
  2
APPID
 70
    14
  0
APPID
  2
ACAD
 70
     0
  0
APPID
  2
ACADANNOTATIVE
 70
     0
  0
APPID
  2
ACAD_DSTYLE_DIMJAG
 70
     0
  0
APPID
  2
ACAD_DSTYLE_DIMTALN
 70
     0
  0
APPID
  2
ACAD_NAV_VCDISPLAY
 70
     0
  0
APPID
  2
ADE
 70
     0
  0
APPID
  2
DCO15
 70
     0
  0
APPID
  2
ACAECLAYERSTANDARD
 70
     0
  0
APPID
  2
ACCMTRANSPARENCY
 70
     0
  0
APPID
  2
ADE_PROJECTION
 70
     0
  0
APPID
  2
ACMAPDMDISPLAYSTYLEREGAPP
 70
     0
  0
APPID
  2
MAPGWS
 70
     0
  0
APPID
  2
ACAD_MLEADERVER
 70
     0
  0
APPID
  2
MapManagementAppName
 70
     0
  0
ENDTAB
  0
TABLE
  2
DIMSTYLE
 70
     2
  0
DIMSTYLE
  2
STANDARD
 70
     0
  3

  4

  5

  6

  7

 40
1.0
 41
0.18
 42
0.0625
 43
0.38
 44
0.18
 45
0.0
 46
0.0
 47
0.0
 48
0.0
140
0.18
141
0.09
142
0.0
143
25.399999999999999
144
1.0
145
0.0
146
1.0
147
0.09
 71
     0
 72
     0
 73
     1
 74
     1
 75
     0
 76
     0
 77
     0
 78
     0
170
     0
171
     2
172
     0
173
     0
174
     0
175
     0
176
     0
177
     0
178
     0
  0
DIMSTYLE
  2
ANNOTATIVE
 70
     0
  3

  4

  5

  6

  7

 40
0.0
 41
0.18
 42
0.0625
 43
0.38
 44
0.18
 45
0.0
 46
0.0
 47
0.0
 48
0.0
140
0.18
141
0.09
142
0.0
143
25.399999999999999
144
1.0
145
0.0
146
1.0
147
0.09
 71
     0
 72
     0
 73
     1
 74
     1
 75
     0
 76
     0
 77
     0
 78
     0
170
     0
171
     2
172
     0
173
     0
174
     0
175
     0
176
     0
177
     0
178
     0
  0
ENDTAB
  0
ENDSEC
  0
SECTION
  2
BLOCKS
  0
BLOCK
  8
0
  2
$MODEL_SPACE
 70
     0
 10
0.0
 20
0.0
 30
0.0
  3
$MODEL_SPACE
  1

  0
ENDBLK
  5
17
  8
0
  0
BLOCK
 67
     1
  8
0
  2
$PAPER_SPACE
 70
     0
 10
0.0
 20
0.0
 30
0.0
  3
$PAPER_SPACE
  1

  0
ENDBLK
  5
1D
 67
     1
  8
0
  0
ENDSEC
  0
SECTION
  2
ENTITIES
  0
POLYLINE
  5
6B
  8
1BY1
 66
     1
 10
0.0
 20
0.0
 30
1.0
 70
     1
1001
DCO15
1071
        2
1071
        2
1000
variablelink
1004
000000000000F03F
  0
VERTEX
  5
3A9
  8
1BY1
 10
99766.0
 20
482407.0
 30
1.0
  0
VERTEX
  5
3AA
  8
1BY1
 10
99767.0
 20
482407.0
 30
1.0
  0
VERTEX
  5
3AB
  8
1BY1
 10
99767.0
 20
482408.0
 30
1.0
  0
VERTEX
  5
3AC
  8
1BY1
 10
99766.0
 20
482408.0
 30
1.0
  0
SEQEND
  5
3AD
  8
1BY1
  0
POLYLINE
  5
70
  8
1BY1
 66
     1
 10
0.0
 20
0.0
 30
1.0
 70
     1
1001
DCO15
1071
        2
1071
        2
1000
variablelink
1004
0000000000000040
  0
VERTEX
  5
3AE
  8
1BY1
 10
99783.0
 20
482414.0
 30
1.0
  0
VERTEX
  5
3AF
  8
1BY1
 10
99784.0
 20
482414.0
 30
1.0
  0
VERTEX
  5
3B0
  8
1BY1
 10
99784.0
 20
482415.0
 30
1.0
  0
VERTEX
  5
3B1
  8
1BY1
 10
99783.0
 20
482415.0
 30
1.0
  0
SEQEND
  5
3B2
  8
1BY1
  0
POLYLINE
  5
71
  8
1BY1
 66
     1
 10
0.0
 20
0.0
 30
1.6000000000000001
 70
     1
1001
DCO15
1071
        2
1071
        2
1000
variablelink
1004
0000000000001840
  0
VERTEX
  5
3B3
  8
1BY1
 10
99748.0
 20
482431.0
 30
1.6000000000000001
  0
VERTEX
  5
3B4
  8
1BY1
 10
99749.0
 20
482431.0
 30
1.6000000000000001
  0
VERTEX
  5
3B5
  8
1BY1
 10
99749.0
 20
482432.0
 30
1.6000000000000001
  0
VERTEX
  5
3B6
  8
1BY1
 10
99748.0
 20
482432.0
 30
1.6000000000000001
  0
SEQEND
  5
3B7
  8
1BY1
  0
POLYLINE
  5
72
  8
1BY1
 66
     1
 10
0.0
 20
0.0
 30
1.6000000000000001
 70
     1
1001
DCO15
1071
        2
1071
        2
1000
variablelink
1004
0000000000002040
  0
VERTEX
  5
3B8
  8
1BY1
 10
99748.0
 20
482433.0
 30
1.6000000000000001
  0
VERTEX
  5
3B9
  8
1BY1
 10
99749.0
 20
482433.0
 30
1.6000000000000001
  0
VERTEX
  5
3BA
  8
1BY1
 10
99749.0
 20
482434.0
 30
1.6000000000000001
  0
VERTEX
  5
3BB
  8
1BY1
 10
99748.0
 20
482434.0
 30
1.6000000000000001
  0
SEQEND
  5
3BC
  8
1BY1
  0
POLYLINE
  5
73
  8
1BY1
 66
     1
 10
0.0
 20
0.0
 30
1.0
 70
     1
1001
DCO15
1071
        2
1071
        2
1000
variablelink
1004
0000000000002E40
  0
VERTEX
  5
3BD
  8
1BY1
 10
99684.0
 20
482550.0
 30
1.0
  0
VERTEX
  5
3BE
  8
1BY1
 10
99685.0
 20
482550.0
 30
1.0
  0
VERTEX
  5
3BF
  8
1BY1
 10
99685.0
 20
482551.0
 30
1.0
  0
VERTEX
  5
3C0
  8
1BY1
 10
99684.0
 20
482551.0
 30
1.0
  0
SEQEND
  5
3C1
  8
1BY1
  0
POLYLINE
  5
74
  8
1BY1
 66
     1
 10
0.0
 20
0.0
 30
1.0
 70
     1
1001
DCO15
1071
        2
1071
        2
1000
variablelink
1004
0000000000003040
  0
VERTEX
  5
3C2
  8
1BY1
 10
99638.0
 20
482615.0
 30
1.0
  0
VERTEX
  5
3C3
  8
1BY1
 10
99639.0
 20
482615.0
 30
1.0
  0
VERTEX
  5
3C4
  8
1BY1
 10
99639.0
 20
482616.0
 30
1.0
  0
VERTEX
  5
3C5
  8
1BY1
 10
99638.0
 20
482616.0
 30
1.0
  0
SEQEND
  5
3C6
  8
1BY1
  0
POLYLINE
  5
75
  8
1BY1
 66
     1
 10
0.0
 20
0.0
 30
1.0
 70
     1
1001
DCO15
1071
        2
1071
        2
1000
variablelink
1004
0000000000003140
  0
VERTEX
  5
3C7
  8
1BY1
 10
99647.0
 20
482668.0
 30
1.0
  0
VERTEX
  5
3C8
  8
1BY1
 10
99648.0
 20
482668.0
 30
1.0
  0
VERTEX
  5
3C9
  8
1BY1
 10
99648.0
 20
482669.0
 30
1.0
  0
VERTEX
  5
3CA
  8
1BY1
 10
99647.0
 20
482669.0
 30
1.0
  0
SEQEND
  5
3CB
  8
1BY1
  0
POLYLINE
  5
76
  8
1BY1
 66
     1
 10
0.0
 20
0.0
 30
1.0
 70
     1
1001
DCO15
1071
        2
1071
        2
1000
variablelink
1004
0000000000003240
  0
VERTEX
  5
3CC
  8
1BY1
 10
99637.0
 20
482663.0
 30
1.0
  0
VERTEX
  5
3CD
  8
1BY1
 10
99638.0
 20
482663.0
 30
1.0
  0
VERTEX
  5
3CE
  8
1BY1
 10
99638.0
 20
482664.0
 30
1.0
  0
VERTEX
  5
3CF
  8
1BY1
 10
99637.0
 20
482664.0
 30
1.0
  0
SEQEND
  5
3D0
  8
1BY1
  0
POLYLINE
  5
77
  8
1BY1
 66
     1
 10
0.0
 20
0.0
 30
1.0
 70
     1
1001
DCO15
1071
        2
1071
        2
1000
variablelink
1004
0000000000003340
  0
VERTEX
  5
3D1
  8
1BY1
 10
99889.0
 20
482431.0
 30
1.0
  0
VERTEX
  5
3D2
  8
1BY1
 10
99890.0
 20
482431.0
 30
1.0
  0
VERTEX
  5
3D3
  8
1BY1
 10
99890.0
 20
482432.0
 30
1.0
  0
VERTEX
  5
3D4
  8
1BY1
 10
99889.0
 20
482432.0
 30
1.0
  0
SEQEND
  5
3D5
  8
1BY1
  0
POLYLINE
  5
78
  8
1BY1
 66
     1
 10
0.0
 20
0.0
 30
1.6000000000000001
 70
     1
1001
DCO15
1071
        2
1071
        2
1000
variablelink
1004
0000000000003540
  0
VERTEX
  5
3D6
  8
1BY1
 10
99733.0
 20
482530.0
 30
1.6000000000000001
  0
VERTEX
  5
3D7
  8
1BY1
 10
99734.0
 20
482530.0
 30
1.6000000000000001
  0
VERTEX
  5
3D8
  8
1BY1
 10
99734.0
 20
482531.0
 30
1.6000000000000001
  0
VERTEX
  5
3D9
  8
1BY1
 10
99733.0
 20
482531.0
 30
1.6000000000000001
  0
SEQEND
  5
3DA
  8
1BY1
  0
POLYLINE
  5
79
  8
1BY1
 66
     1
 10
0.0
 20
0.0
 30
1.6000000000000001
 70
     1
1001
DCO15
1071
        2
1071
        2
1000
variablelink
1004
0000000000003640
  0
VERTEX
  5
3DB
  8
1BY1
 10
99735.0
 20
482535.0
 30
1.6000000000000001
  0
VERTEX
  5
3DC
  8
1BY1
 10
99736.0
 20
482535.0
 30
1.6000000000000001
  0
VERTEX
  5
3DD
  8
1BY1
 10
99736.0
 20
482536.0
 30
1.6000000000000001
  0
VERTEX
  5
3DE
  8
1BY1
 10
99735.0
 20
482536.0
 30
1.6000000000000001
  0
SEQEND
  5
3DF
  8
1BY1
  0
POLYLINE
  5
7A
  8
1BY1
 66
     1
 10
0.0
 20
0.0
 30
1.0
 70
     1
1001
DCO15
1071
        2
1071
        2
1000
variablelink
1004
0000000000003A40
  0
VERTEX
  5
3E0
  8
1BY1
 10
99694.0
 20
482691.0
 30
1.0
  0
VERTEX
  5
3E1
  8
1BY1
 10
99695.0
 20
482691.0
 30
1.0
  0
VERTEX
  5
3E2
  8
1BY1
 10
99695.0
 20
482692.0
 30
1.0
  0
VERTEX
  5
3E3
  8
1BY1
 10
99694.0
 20
482692.0
 30
1.0
  0
SEQEND
  5
3E4
  8
1BY1
  0
POLYLINE
  5
7B
  8
1BY1
 66
     1
 10
0.0
 20
0.0
 30
1.0
 70
     1
1001
DCO15
1071
        2
1071
        2
1000
variablelink
1004
0000000000003B40
  0
VERTEX
  5
3E5
  8
1BY1
 10
99821.0
 20
482448.0
 30
1.0
  0
VERTEX
  5
3E6
  8
1BY1
 10
99822.0
 20
482448.0
 30
1.0
  0
VERTEX
  5
3E7
  8
1BY1
 10
99822.0
 20
482449.0
 30
1.0
  0
VERTEX
  5
3E8
  8
1BY1
 10
99821.0
 20
482449.0
 30
1.0
  0
SEQEND
  5
3E9
  8
1BY1
  0
POLYLINE
  5
7C
  8
1BY1
 66
     1
 10
0.0
 20
0.0
 30
1.0
 70
     1
1001
DCO15
1071
        2
1071
        2
1000
variablelink
1004
0000000000003C40
  0
VERTEX
  5
3EA
  8
1BY1
 10
100017.0
 20
482757.0
 30
1.0
  0
VERTEX
  5
3EB
  8
1BY1
 10
100018.0
 20
482757.0
 30
1.0
  0
VERTEX
  5
3EC
  8
1BY1
 10
100018.0
 20
482758.0
 30
1.0
  0
VERTEX
  5
3ED
  8
1BY1
 10
100017.0
 20
482758.0
 30
1.0
  0
SEQEND
  5
3EE
  8
1BY1
  0
POLYLINE
  5
7D
  8
1BY1
 66
     1
 10
0.0
 20
0.0
 30
1.6000000000000001
 70
     1
1001
DCO15
1071
        2
1071
        2
1000
variablelink
1004
0000000000003D40
  0
VERTEX
  5
3EF
  8
1BY1
 10
100006.0
 20
482762.0
 30
1.6000000000000001
  0
VERTEX
  5
3F0
  8
1BY1
 10
100007.0
 20
482762.0
 30
1.6000000000000001
  0
VERTEX
  5
3F1
  8
1BY1
 10
100007.0
 20
482763.0
 30
1.6000000000000001
  0
VERTEX
  5
3F2
  8
1BY1
 10
100006.0
 20
482763.0
 30
1.6000000000000001
  0
SEQEND
  5
3F3
  8
1BY1
  0
POLYLINE
  5
7E
  8
1BY1
 66
     1
 10
0.0
 20
0.0
 30
1.0
 70
     1
1001
DCO15
1071
        2
1071
        2
1000
variablelink
1004
0000000000003E40
  0
VERTEX
  5
3F4
  8
1BY1
 10
99824.0
 20
482339.0
 30
1.0
  0
VERTEX
  5
3F5
  8
1BY1
 10
99825.0
 20
482339.0
 30
1.0
  0
VERTEX
  5
3F6
  8
1BY1
 10
99825.0
 20
482340.0
 30
1.0
  0
VERTEX
  5
3F7
  8
1BY1
 10
99824.0
 20
482340.0
 30
1.0
  0
SEQEND
  5
3F8
  8
1BY1
  0
POLYLINE
  5
7F
  8
1BY1
 66
     1
 10
0.0
 20
0.0
 30
1.0
 70
     1
1001
DCO15
1071
        2
1071
        2
1000
variablelink
1004
0000000000004340
  0
VERTEX
  5
3F9
  8
1BY1
 10
99821.0
 20
482252.0
 30
1.0
  0
VERTEX
  5
3FA
  8
1BY1
 10
99822.0
 20
482252.0
 30
1.0
  0
VERTEX
  5
3FB
  8
1BY1
 10
99822.0
 20
482253.0
 30
1.0
  0
VERTEX
  5
3FC
  8
1BY1
 10
99821.0
 20
482253.0
 30
1.0
  0
SEQEND
  5
3FD
  8
1BY1
  0
POLYLINE
  5
80
  8
1BY1
 66
     1
 10
0.0
 20
0.0
 30
2.0
 70
     1
1001
DCO15
1071
        2
1071
        2
1000
variablelink
1004
0000000000804340
  0
VERTEX
  5
3FE
  8
1BY1
 10
99823.0
 20
482258.0
 30
2.0
  0
VERTEX
  5
3FF
  8
1BY1
 10
99824.0
 20
482258.0
 30
2.0
  0
VERTEX
  5
400
  8
1BY1
 10
99824.0
 20
482259.0
 30
2.0
  0
VERTEX
  5
401
  8
1BY1
 10
99823.0
 20
482259.0
 30
2.0
  0
SEQEND
  5
402
  8
1BY1
  0
POLYLINE
  5
81
  8
1BY1
 66
     1
 10
0.0
 20
0.0
 30
1.0
 70
     1
1001
DCO15
1071
        2
1071
        2
1000
variablelink
1004
0000000000004440
  0
VERTEX
  5
403
  8
1BY1
 10
99813.0
 20
482279.0
 30
1.0
  0
VERTEX
  5
404
  8
1BY1
 10
99814.0
 20
482279.0
 30
1.0
  0
VERTEX
  5
405
  8
1BY1
 10
99814.0
 20
482280.0
 30
1.0
  0
VERTEX
  5
406
  8
1BY1
 10
99813.0
 20
482280.0
 30
1.0
  0
SEQEND
  5
407
  8
1BY1
  0
POLYLINE
  5
82
  8
1BY1
 66
     1
 10
0.0
 20
0.0
 30
3.2000000000000002
 70
     1
1001
DCO15
1071
        2
1071
        2
1000
variablelink
1004
0000000000004740
  0
VERTEX
  5
408
  8
1BY1
 10
99838.0
 20
482353.0
 30
3.2000000000000002
  0
VERTEX
  5
409
  8
1BY1
 10
99839.0
 20
482353.0
 30
3.2000000000000002
  0
VERTEX
  5
40A
  8
1BY1
 10
99839.0
 20
482354.0
 30
3.2000000000000002
  0
VERTEX
  5
40B
  8
1BY1
 10
99838.0
 20
482354.0
 30
3.2000000000000002
  0
SEQEND
  5
40C
  8
1BY1
  0
POLYLINE
  5
83
  8
1BY1
 66
     1
 10
0.0
 20
0.0
 30
1.6000000000000001
 70
     1
1001
DCO15
1071
        2
1071
        2
1000
variablelink
1004
0000000000804B40
  0
VERTEX
  5
40D
  8
1BY1
 10
99969.0
 20
482493.0
 30
1.6000000000000001
  0
VERTEX
  5
40E
  8
1BY1
 10
99970.0
 20
482493.0
 30
1.6000000000000001
  0
VERTEX
  5
40F
  8
1BY1
 10
99970.0
 20
482494.0
 30
1.6000000000000001
  0
VERTEX
  5
410
  8
1BY1
 10
99969.0
 20
482494.0
 30
1.6000000000000001
  0
SEQEND
  5
411
  8
1BY1
  0
POLYLINE
  5
84
  8
1BY1
 66
     1
 10
0.0
 20
0.0
 30
1.6000000000000001
 70
     1
1001
DCO15
1071
        2
1071
        2
1000
variablelink
1004
0000000000004C40
  0
VERTEX
  5
412
  8
1BY1
 10
99881.0
 20
482356.0
 30
1.6000000000000001
  0
VERTEX
  5
413
  8
1BY1
 10
99882.0
 20
482356.0
 30
1.6000000000000001
  0
VERTEX
  5
414
  8
1BY1
 10
99882.0
 20
482357.0
 30
1.6000000000000001
  0
VERTEX
  5
415
  8
1BY1
 10
99881.0
 20
482357.0
 30
1.6000000000000001
  0
SEQEND
  5
416
  8
1BY1
  0
POLYLINE
  5
85
  8
1BY1
 66
     1
 10
0.0
 20
0.0
 30
3.2000000000000002
 70
     1
1001
DCO15
1071
        2
1071
        2
1000
variablelink
1004
0000000000004D40
  0
VERTEX
  5
417
  8
1BY1
 10
99849.0
 20
482248.0
 30
3.2000000000000002
  0
VERTEX
  5
418
  8
1BY1
 10
99850.0
 20
482248.0
 30
3.2000000000000002
  0
VERTEX
  5
419
  8
1BY1
 10
99850.0
 20
482249.0
 30
3.2000000000000002
  0
VERTEX
  5
41A
  8
1BY1
 10
99849.0
 20
482249.0
 30
3.2000000000000002
  0
SEQEND
  5
41B
  8
1BY1
  0
POLYLINE
  5
86
  8
1BY1
 66
     1
 10
0.0
 20
0.0
 30
1.6000000000000001
 70
     1
1001
DCO15
1071
        2
1071
        2
1000
variablelink
1004
0000000000805140
  0
VERTEX
  5
41C
  8
1BY1
 10
99882.0
 20
482322.0
 30
1.6000000000000001
  0
VERTEX
  5
41D
  8
1BY1
 10
99883.0
 20
482322.0
 30
1.6000000000000001
  0
VERTEX
  5
41E
  8
1BY1
 10
99883.0
 20
482323.0
 30
1.6000000000000001
  0
VERTEX
  5
41F
  8
1BY1
 10
99882.0
 20
482323.0
 30
1.6000000000000001
  0
SEQEND
  5
420
  8
1BY1
  0
POLYLINE
  5
87
  8
1BY1
 66
     1
 10
0.0
 20
0.0
 30
1.6000000000000001
 70
     1
1001
DCO15
1071
        2
1071
        2
1000
variablelink
1004
0000000000C05240
  0
VERTEX
  5
421
  8
1BY1
 10
99885.0
 20
482304.0
 30
1.6000000000000001
  0
VERTEX
  5
422
  8
1BY1
 10
99886.0
 20
482304.0
 30
1.6000000000000001
  0
VERTEX
  5
423
  8
1BY1
 10
99886.0
 20
482305.0
 30
1.6000000000000001
  0
VERTEX
  5
424
  8
1BY1
 10
99885.0
 20
482305.0
 30
1.6000000000000001
  0
SEQEND
  5
425
  8
1BY1
  0
POLYLINE
  5
88
  8
1BY1
 66
     1
 10
0.0
 20
0.0
 30
1.6000000000000001
 70
     1
1001
DCO15
1071
        2
1071
        2
1000
variablelink
1004
0000000000C05340
  0
VERTEX
  5
426
  8
1BY1
 10
99883.0
 20
482341.0
 30
1.6000000000000001
  0
VERTEX
  5
427
  8
1BY1
 10
99884.0
 20
482341.0
 30
1.6000000000000001
  0
VERTEX
  5
428
  8
1BY1
 10
99884.0
 20
482342.0
 30
1.6000000000000001
  0
VERTEX
  5
429
  8
1BY1
 10
99883.0
 20
482342.0
 30
1.6000000000000001
  0
SEQEND
  5
42A
  8
1BY1
  0
POLYLINE
  5
89
  8
1BY1
 66
     1
 10
0.0
 20
0.0
 30
3.2000000000000002
 70
     1
1001
DCO15
1071
        2
1071
        2
1000
variablelink
1004
0000000000C05440
  0
VERTEX
  5
42B
  8
1BY1
 10
99884.0
 20
482334.0
 30
3.2000000000000002
  0
VERTEX
  5
42C
  8
1BY1
 10
99885.0
 20
482334.0
 30
3.2000000000000002
  0
VERTEX
  5
42D
  8
1BY1
 10
99885.0
 20
482335.0
 30
3.2000000000000002
  0
VERTEX
  5
42E
  8
1BY1
 10
99884.0
 20
482335.0
 30
3.2000000000000002
  0
SEQEND
  5
42F
  8
1BY1
  0
POLYLINE
  5
8A
  8
1BY1
 66
     1
 10
0.0
 20
0.0
 30
1.6000000000000001
 70
     1
1001
DCO15
1071
        2
1071
        2
1000
variablelink
1004
0000000000405540
  0
VERTEX
  5
430
  8
1BY1
 10
99628.0
 20
482839.0
 30
1.6000000000000001
  0
VERTEX
  5
431
  8
1BY1
 10
99629.0
 20
482839.0
 30
1.6000000000000001
  0
VERTEX
  5
432
  8
1BY1
 10
99629.0
 20
482840.0
 30
1.6000000000000001
  0
VERTEX
  5
433
  8
1BY1
 10
99628.0
 20
482840.0
 30
1.6000000000000001
  0
SEQEND
  5
434
  8
1BY1
  0
POLYLINE
  5
8B
  8
1BY1
 66
     1
 10
0.0
 20
0.0
 30
1.0
 70
     1
1001
DCO15
1071
        2
1071
        2
1000
variablelink
1004
0000000000805540
  0
VERTEX
  5
435
  8
1BY1
 10
99615.0
 20
482706.0
 30
1.0
  0
VERTEX
  5
436
  8
1BY1
 10
99616.0
 20
482706.0
 30
1.0
  0
VERTEX
  5
437
  8
1BY1
 10
99616.0
 20
482707.0
 30
1.0
  0
VERTEX
  5
438
  8
1BY1
 10
99615.0
 20
482707.0
 30
1.0
  0
SEQEND
  5
439
  8
1BY1
  0
POLYLINE
  5
8C
  8
1BY1
 66
     1
 10
0.0
 20
0.0
 30
1.6000000000000001
 70
     1
1001
DCO15
1071
        2
1071
        2
1000
variablelink
1004
0000000000C05540
  0
VERTEX
  5
43A
  8
1BY1
 10
99579.0
 20
482979.0
 30
1.6000000000000001
  0
VERTEX
  5
43B
  8
1BY1
 10
99580.0
 20
482979.0
 30
1.6000000000000001
  0
VERTEX
  5
43C
  8
1BY1
 10
99580.0
 20
482980.0
 30
1.6000000000000001
  0
VERTEX
  5
43D
  8
1BY1
 10
99579.0
 20
482980.0
 30
1.6000000000000001
  0
SEQEND
  5
43E
  8
1BY1
  0
POLYLINE
  5
8D
  8
1BY1
 66
     1
 10
0.0
 20
0.0
 30
2.0
 70
     1
1001
DCO15
1071
        2
1071
        2
1000
variablelink
1004
0000000000405940
  0
VERTEX
  5
43F
  8
1BY1
 10
99747.0
 20
483703.0
 30
2.0
  0
VERTEX
  5
440
  8
1BY1
 10
99748.0
 20
483703.0
 30
2.0
  0
VERTEX
  5
441
  8
1BY1
 10
99748.0
 20
483704.0
 30
2.0
  0
VERTEX
  5
442
  8
1BY1
 10
99747.0
 20
483704.0
 30
2.0
  0
SEQEND
  5
443
  8
1BY1
  0
POLYLINE
  5
8E
  8
1BY1
 66
     1
 10
0.0
 20
0.0
 30
1.0
 70
     1
1001
DCO15
1071
        2
1071
        2
1000
variablelink
1004
0000000000606B40
  0
VERTEX
  5
444
  8
1BY1
 10
99655.0
 20
483617.0
 30
1.0
  0
VERTEX
  5
445
  8
1BY1
 10
99656.0
 20
483617.0
 30
1.0
  0
VERTEX
  5
446
  8
1BY1
 10
99656.0
 20
483618.0
 30
1.0
  0
VERTEX
  5
447
  8
1BY1
 10
99655.0
 20
483618.0
 30
1.0
  0
SEQEND
  5
448
  8
1BY1
  0
POLYLINE
  5
8F
  8
1BY1
 66
     1
 10
0.0
 20
0.0
 30
1.0
 70
     1
1001
DCO15
1071
        2
1071
        2
1000
variablelink
1004
0000000000A06B40
  0
VERTEX
  5
449
  8
1BY1
 10
99585.0
 20
483665.0
 30
1.0
  0
VERTEX
  5
44A
  8
1BY1
 10
99586.0
 20
483665.0
 30
1.0
  0
VERTEX
  5
44B
  8
1BY1
 10
99586.0
 20
483666.0
 30
1.0
  0
VERTEX
  5
44C
  8
1BY1
 10
99585.0
 20
483666.0
 30
1.0
  0
SEQEND
  5
44D
  8
1BY1
  0
POLYLINE
  5
90
  8
1BY1
 66
     1
 10
0.0
 20
0.0
 30
1.0
 70
     1
1001
DCO15
1071
        2
1071
        2
1000
variablelink
1004
0000000000A06C40
  0
VERTEX
  5
44E
  8
1BY1
 10
99535.0
 20
483589.0
 30
1.0
  0
VERTEX
  5
44F
  8
1BY1
 10
99536.0
 20
483589.0
 30
1.0
  0
VERTEX
  5
450
  8
1BY1
 10
99536.0
 20
483590.0
 30
1.0
  0
VERTEX
  5
451
  8
1BY1
 10
99535.0
 20
483590.0
 30
1.0
  0
SEQEND
  5
452
  8
1BY1
  0
POLYLINE
  5
91
  8
1BY1
 66
     1
 10
0.0
 20
0.0
 30
1.0
 70
     1
1001
DCO15
1071
        2
1071
        2
1000
variablelink
1004
0000000000C06C40
  0
VERTEX
  5
453
  8
1BY1
 10
99509.0
 20
483645.0
 30
1.0
  0
VERTEX
  5
454
  8
1BY1
 10
99510.0
 20
483645.0
 30
1.0
  0
VERTEX
  5
455
  8
1BY1
 10
99510.0
 20
483646.0
 30
1.0
  0
VERTEX
  5
456
  8
1BY1
 10
99509.0
 20
483646.0
 30
1.0
  0
SEQEND
  5
457
  8
1BY1
  0
POLYLINE
  5
92
  8
1BY1
 66
     1
 10
0.0
 20
0.0
 30
1.0
 70
     1
1001
DCO15
1071
        2
1071
        2
1000
variablelink
1004
0000000000E06C40
  0
VERTEX
  5
458
  8
1BY1
 10
99503.0
 20
483643.0
 30
1.0
  0
VERTEX
  5
459
  8
1BY1
 10
99504.0
 20
483643.0
 30
1.0
  0
VERTEX
  5
45A
  8
1BY1
 10
99504.0
 20
483644.0
 30
1.0
  0
VERTEX
  5
45B
  8
1BY1
 10
99503.0
 20
483644.0
 30
1.0
  0
SEQEND
  5
45C
  8
1BY1
  0
POLYLINE
  5
93
  8
1BY1
 66
     1
 10
0.0
 20
0.0
 30
2.0
 70
     1
1001
DCO15
1071
        2
1071
        2
1000
variablelink
1004
0000000000006E40
  0
VERTEX
  5
45D
  8
1BY1
 10
99656.0
 20
483795.0
 30
2.0
  0
VERTEX
  5
45E
  8
1BY1
 10
99657.0
 20
483795.0
 30
2.0
  0
VERTEX
  5
45F
  8
1BY1
 10
99657.0
 20
483796.0
 30
2.0
  0
VERTEX
  5
460
  8
1BY1
 10
99656.0
 20
483796.0
 30
2.0
  0
SEQEND
  5
461
  8
1BY1
  0
POLYLINE
  5
94
  8
1BY1
 66
     1
 10
0.0
 20
0.0
 30
13.0
 70
     1
1001
DCO15
1071
        2
1071
        2
1000
variablelink
1004
0000000000B07240
  0
VERTEX
  5
462
  8
1BY1
 10
99672.0
 20
483679.0
 30
13.0
  0
VERTEX
  5
463
  8
1BY1
 10
99673.0
 20
483679.0
 30
13.0
  0
VERTEX
  5
464
  8
1BY1
 10
99673.0
 20
483680.0
 30
13.0
  0
VERTEX
  5
465
  8
1BY1
 10
99672.0
 20
483680.0
 30
13.0
  0
SEQEND
  5
466
  8
1BY1
  0
POLYLINE
  5
95
  8
1BY1
 66
     1
 10
0.0
 20
0.0
 30
1.0
 70
     1
1001
DCO15
1071
        2
1071
        2
1000
variablelink
1004
0000000000307740
  0
VERTEX
  5
467
  8
1BY1
 10
99560.0
 20
483646.0
 30
1.0
  0
VERTEX
  5
468
  8
1BY1
 10
99561.0
 20
483646.0
 30
1.0
  0
VERTEX
  5
469
  8
1BY1
 10
99561.0
 20
483647.0
 30
1.0
  0
VERTEX
  5
46A
  8
1BY1
 10
99560.0
 20
483647.0
 30
1.0
  0
SEQEND
  5
46B
  8
1BY1
  0
POLYLINE
  5
96
  8
1BY1
 66
     1
 10
0.0
 20
0.0
 30
1.7
 70
     1
1001
DCO15
1071
        2
1071
        2
1000
variablelink
1004
0000000000507940
  0
VERTEX
  5
46C
  8
1BY1
 10
99756.0
 20
481986.0
 30
1.7
  0
VERTEX
  5
46D
  8
1BY1
 10
99757.0
 20
481986.0
 30
1.7
  0
VERTEX
  5
46E
  8
1BY1
 10
99757.0
 20
481987.0
 30
1.7
  0
VERTEX
  5
46F
  8
1BY1
 10
99756.0
 20
481987.0
 30
1.7
  0
SEQEND
  5
470
  8
1BY1
  0
POLYLINE
  5
97
  8
1BY1
 66
     1
 10
0.0
 20
0.0
 30
1.7
 70
     1
1001
DCO15
1071
        2
1071
        2
1000
variablelink
1004
0000000000607940
  0
VERTEX
  5
471
  8
1BY1
 10
99779.0
 20
482073.0
 30
1.7
  0
VERTEX
  5
472
  8
1BY1
 10
99780.0
 20
482073.0
 30
1.7
  0
VERTEX
  5
473
  8
1BY1
 10
99780.0
 20
482074.0
 30
1.7
  0
VERTEX
  5
474
  8
1BY1
 10
99779.0
 20
482074.0
 30
1.7
  0
SEQEND
  5
475
  8
1BY1
  0
POLYLINE
  5
98
  8
1BY1
 66
     1
 10
0.0
 20
0.0
 30
1.6000000000000001
 70
     1
1001
DCO15
1071
        2
1071
        2
1000
variablelink
1004
0000000000707940
  0
VERTEX
  5
476
  8
1BY1
 10
99763.0
 20
482381.0
 30
1.6000000000000001
  0
VERTEX
  5
477
  8
1BY1
 10
99764.0
 20
482381.0
 30
1.6000000000000001
  0
VERTEX
  5
478
  8
1BY1
 10
99764.0
 20
482382.0
 30
1.6000000000000001
  0
VERTEX
  5
479
  8
1BY1
 10
99763.0
 20
482382.0
 30
1.6000000000000001
  0
SEQEND
  5
47A
  8
1BY1
  0
POLYLINE
  5
99
  8
1BY1
 66
     1
 10
0.0
 20
0.0
 30
1.0
 70
     1
1001
DCO15
1071
        2
1071
        2
1000
variablelink
1004
0000000000807940
  0
VERTEX
  5
47B
  8
1BY1
 10
99708.0
 20
482422.0
 30
1.0
  0
VERTEX
  5
47C
  8
1BY1
 10
99709.0
 20
482422.0
 30
1.0
  0
VERTEX
  5
47D
  8
1BY1
 10
99709.0
 20
482423.0
 30
1.0
  0
VERTEX
  5
47E
  8
1BY1
 10
99708.0
 20
482423.0
 30
1.0
  0
SEQEND
  5
47F
  8
1BY1
  0
POLYLINE
  5
9A
  8
1BY1
 66
     1
 10
0.0
 20
0.0
 30
1.0
 70
     1
1001
DCO15
1071
        2
1071
        2
1000
variablelink
1004
0000000000A07940
  0
VERTEX
  5
480
  8
1BY1
 10
99594.0
 20
482033.0
 30
1.0
  0
VERTEX
  5
481
  8
1BY1
 10
99595.0
 20
482033.0
 30
1.0
  0
VERTEX
  5
482
  8
1BY1
 10
99595.0
 20
482034.0
 30
1.0
  0
VERTEX
  5
483
  8
1BY1
 10
99594.0
 20
482034.0
 30
1.0
  0
SEQEND
  5
484
  8
1BY1
  0
POLYLINE
  5
9B
  8
1BY1
 66
     1
 10
0.0
 20
0.0
 30
1.6000000000000001
 70
     1
1001
DCO15
1071
        2
1071
        2
1000
variablelink
1004
0000000000B07940
  0
VERTEX
  5
485
  8
1BY1
 10
99608.0
 20
482046.0
 30
1.6000000000000001
  0
VERTEX
  5
486
  8
1BY1
 10
99609.0
 20
482046.0
 30
1.6000000000000001
  0
VERTEX
  5
487
  8
1BY1
 10
99609.0
 20
482047.0
 30
1.6000000000000001
  0
VERTEX
  5
488
  8
1BY1
 10
99608.0
 20
482047.0
 30
1.6000000000000001
  0
SEQEND
  5
489
  8
1BY1
  0
POLYLINE
  5
9C
  8
1BY1
 66
     1
 10
0.0
 20
0.0
 30
1.6000000000000001
 70
     1
1001
DCO15
1071
        2
1071
        2
1000
variablelink
1004
0000000000C07940
  0
VERTEX
  5
48A
  8
1BY1
 10
99605.0
 20
482052.0
 30
1.6000000000000001
  0
VERTEX
  5
48B
  8
1BY1
 10
99606.0
 20
482052.0
 30
1.6000000000000001
  0
VERTEX
  5
48C
  8
1BY1
 10
99606.0
 20
482053.0
 30
1.6000000000000001
  0
VERTEX
  5
48D
  8
1BY1
 10
99605.0
 20
482053.0
 30
1.6000000000000001
  0
SEQEND
  5
48E
  8
1BY1
  0
POLYLINE
  5
9D
  8
1BY1
 66
     1
 10
0.0
 20
0.0
 30
1.0
 70
     1
1001
DCO15
1071
        2
1071
        2
1000
variablelink
1004
0000000000D07940
  0
VERTEX
  5
48F
  8
1BY1
 10
99605.0
 20
482055.0
 30
1.0
  0
VERTEX
  5
490
  8
1BY1
 10
99606.0
 20
482055.0
 30
1.0
  0
VERTEX
  5
491
  8
1BY1
 10
99606.0
 20
482056.0
 30
1.0
  0
VERTEX
  5
492
  8
1BY1
 10
99605.0
 20
482056.0
 30
1.0
  0
SEQEND
  5
493
  8
1BY1
  0
POLYLINE
  5
9E
  8
1BY1
 66
     1
 10
0.0
 20
0.0
 30
1.7
 70
     1
1001
DCO15
1071
        2
1071
        2
1000
variablelink
1004
0000000000F07940
  0
VERTEX
  5
494
  8
1BY1
 10
99622.0
 20
482016.0
 30
1.7
  0
VERTEX
  5
495
  8
1BY1
 10
99623.0
 20
482016.0
 30
1.7
  0
VERTEX
  5
496
  8
1BY1
 10
99623.0
 20
482017.0
 30
1.7
  0
VERTEX
  5
497
  8
1BY1
 10
99622.0
 20
482017.0
 30
1.7
  0
SEQEND
  5
498
  8
1BY1
  0
POLYLINE
  5
9F
  8
1BY1
 66
     1
 10
0.0
 20
0.0
 30
1.0
 70
     1
1001
DCO15
1071
        2
1071
        2
1000
variablelink
1004
0000000000007A40
  0
VERTEX
  5
499
  8
1BY1
 10
99621.0
 20
482020.0
 30
1.0
  0
VERTEX
  5
49A
  8
1BY1
 10
99622.0
 20
482020.0
 30
1.0
  0
VERTEX
  5
49B
  8
1BY1
 10
99622.0
 20
482021.0
 30
1.0
  0
VERTEX
  5
49C
  8
1BY1
 10
99621.0
 20
482021.0
 30
1.0
  0
SEQEND
  5
49D
  8
1BY1
  0
POLYLINE
  5
A0
  8
1BY1
 66
     1
 10
0.0
 20
0.0
 30
3.399999999999999
 70
     1
1001
DCO15
1071
        2
1071
        2
1000
variablelink
1004
0000000000107A40
  0
VERTEX
  5
49E
  8
1BY1
 10
99620.0
 20
482013.0
 30
3.399999999999999
  0
VERTEX
  5
49F
  8
1BY1
 10
99621.0
 20
482013.0
 30
3.399999999999999
  0
VERTEX
  5
4A0
  8
1BY1
 10
99621.0
 20
482014.0
 30
3.399999999999999
  0
VERTEX
  5
4A1
  8
1BY1
 10
99620.0
 20
482014.0
 30
3.399999999999999
  0
SEQEND
  5
4A2
  8
1BY1
  0
POLYLINE
  5
A1
  8
1BY1
 66
     1
 10
0.0
 20
0.0
 30
2.0
 70
     1
1001
DCO15
1071
        2
1071
        2
1000
variablelink
1004
0000000000407A40
  0
VERTEX
  5
4A3
  8
1BY1
 10
99563.0
 20
482372.0
 30
2.0
  0
VERTEX
  5
4A4
  8
1BY1
 10
99564.0
 20
482372.0
 30
2.0
  0
VERTEX
  5
4A5
  8
1BY1
 10
99564.0
 20
482373.0
 30
2.0
  0
VERTEX
  5
4A6
  8
1BY1
 10
99563.0
 20
482373.0
 30
2.0
  0
SEQEND
  5
4A7
  8
1BY1
  0
POLYLINE
  5
A2
  8
1BY1
 66
     1
 10
0.0
 20
0.0
 30
5.0
 70
     1
1001
DCO15
1071
        2
1071
        2
1000
variablelink
1004
0000000000507A40
  0
VERTEX
  5
4A8
  8
1BY1
 10
99599.0
 20
482461.0
 30
5.0
  0
VERTEX
  5
4A9
  8
1BY1
 10
99600.0
 20
482461.0
 30
5.0
  0
VERTEX
  5
4AA
  8
1BY1
 10
99600.0
 20
482462.0
 30
5.0
  0
VERTEX
  5
4AB
  8
1BY1
 10
99599.0
 20
482462.0
 30
5.0
  0
SEQEND
  5
4AC
  8
1BY1
  0
POLYLINE
  5
A3
  8
1BY1
 66
     1
 10
0.0
 20
0.0
 30
1.0
 70
     1
1001
DCO15
1071
        2
1071
        2
1000
variablelink
1004
0000000000607A40
  0
VERTEX
  5
4AD
  8
1BY1
 10
99625.0
 20
482496.0
 30
1.0
  0
VERTEX
  5
4AE
  8
1BY1
 10
99626.0
 20
482496.0
 30
1.0
  0
VERTEX
  5
4AF
  8
1BY1
 10
99626.0
 20
482497.0
 30
1.0
  0
VERTEX
  5
4B0
  8
1BY1
 10
99625.0
 20
482497.0
 30
1.0
  0
SEQEND
  5
4B1
  8
1BY1
  0
POLYLINE
  5
A4
  8
1BY1
 66
     1
 10
0.0
 20
0.0
 30
1.6000000000000001
 70
     1
1001
DCO15
1071
        2
1071
        2
1000
variablelink
1004
0000000000907A40
  0
VERTEX
  5
4B2
  8
1BY1
 10
99732.0
 20
482028.0
 30
1.6000000000000001
  0
VERTEX
  5
4B3
  8
1BY1
 10
99733.0
 20
482028.0
 30
1.6000000000000001
  0
VERTEX
  5
4B4
  8
1BY1
 10
99733.0
 20
482029.0
 30
1.6000000000000001
  0
VERTEX
  5
4B5
  8
1BY1
 10
99732.0
 20
482029.0
 30
1.6000000000000001
  0
SEQEND
  5
4B6
  8
1BY1
  0
POLYLINE
  5
A5
  8
1BY1
 66
     1
 10
0.0
 20
0.0
 30
1.0
 70
     1
1001
DCO15
1071
        2
1071
        2
1000
variablelink
1004
0000000000A07A40
  0
VERTEX
  5
4B7
  8
1BY1
 10
99635.0
 20
482409.0
 30
1.0
  0
VERTEX
  5
4B8
  8
1BY1
 10
99636.0
 20
482409.0
 30
1.0
  0
VERTEX
  5
4B9
  8
1BY1
 10
99636.0
 20
482410.0
 30
1.0
  0
VERTEX
  5
4BA
  8
1BY1
 10
99635.0
 20
482410.0
 30
1.0
  0
SEQEND
  5
4BB
  8
1BY1
  0
POLYLINE
  5
A6
  8
1BY1
 66
     1
 10
0.0
 20
0.0
 30
1.0
 70
     1
1001
DCO15
1071
        2
1071
        2
1000
variablelink
1004
0000000000C07A40
  0
VERTEX
  5
4BC
  8
1BY1
 10
99586.0
 20
482419.0
 30
1.0
  0
VERTEX
  5
4BD
  8
1BY1
 10
99587.0
 20
482419.0
 30
1.0
  0
VERTEX
  5
4BE
  8
1BY1
 10
99587.0
 20
482420.0
 30
1.0
  0
VERTEX
  5
4BF
  8
1BY1
 10
99586.0
 20
482420.0
 30
1.0
  0
SEQEND
  5
4C0
  8
1BY1
  0
POLYLINE
  5
A7
  8
1BY1
 66
     1
 10
0.0
 20
0.0
 30
1.0
 70
     1
1001
DCO15
1071
        2
1071
        2
1000
variablelink
1004
0000000000D07A40
  0
VERTEX
  5
4C1
  8
1BY1
 10
99600.0
 20
482373.0
 30
1.0
  0
VERTEX
  5
4C2
  8
1BY1
 10
99601.0
 20
482373.0
 30
1.0
  0
VERTEX
  5
4C3
  8
1BY1
 10
99601.0
 20
482374.0
 30
1.0
  0
VERTEX
  5
4C4
  8
1BY1
 10
99600.0
 20
482374.0
 30
1.0
  0
SEQEND
  5
4C5
  8
1BY1
  0
POLYLINE
  5
A8
  8
1BY1
 66
     1
 10
0.0
 20
0.0
 30
1.6000000000000001
 70
     1
1001
DCO15
1071
        2
1071
        2
1000
variablelink
1004
0000000000E07A40
  0
VERTEX
  5
4C6
  8
1BY1
 10
99595.0
 20
482336.0
 30
1.6000000000000001
  0
VERTEX
  5
4C7
  8
1BY1
 10
99596.0
 20
482336.0
 30
1.6000000000000001
  0
VERTEX
  5
4C8
  8
1BY1
 10
99596.0
 20
482337.0
 30
1.6000000000000001
  0
VERTEX
  5
4C9
  8
1BY1
 10
99595.0
 20
482337.0
 30
1.6000000000000001
  0
SEQEND
  5
4CA
  8
1BY1
  0
POLYLINE
  5
A9
  8
1BY1
 66
     1
 10
0.0
 20
0.0
 30
1.0
 70
     1
1001
DCO15
1071
        2
1071
        2
1000
variablelink
1004
0000000000207B40
  0
VERTEX
  5
4CB
  8
1BY1
 10
99403.0
 20
483353.0
 30
1.0
  0
VERTEX
  5
4CC
  8
1BY1
 10
99404.0
 20
483353.0
 30
1.0
  0
VERTEX
  5
4CD
  8
1BY1
 10
99404.0
 20
483354.0
 30
1.0
  0
VERTEX
  5
4CE
  8
1BY1
 10
99403.0
 20
483354.0
 30
1.0
  0
SEQEND
  5
4CF
  8
1BY1
  0
POLYLINE
  5
AA
  8
1BY1
 66
     1
 10
0.0
 20
0.0
 30
1.0
 70
     1
1001
DCO15
1071
        2
1071
        2
1000
variablelink
1004
0000000000807B40
  0
VERTEX
  5
4D0
  8
1BY1
 10
99431.0
 20
482092.0
 30
1.0
  0
VERTEX
  5
4D1
  8
1BY1
 10
99432.0
 20
482092.0
 30
1.0
  0
VERTEX
  5
4D2
  8
1BY1
 10
99432.0
 20
482093.0
 30
1.0
  0
VERTEX
  5
4D3
  8
1BY1
 10
99431.0
 20
482093.0
 30
1.0
  0
SEQEND
  5
4D4
  8
1BY1
  0
POLYLINE
  5
AB
  8
1BY1
 66
     1
 10
0.0
 20
0.0
 30
1.7
 70
     1
1001
DCO15
1071
        2
1071
        2
1000
variablelink
1004
0000000000A07B40
  0
VERTEX
  5
4D5
  8
1BY1
 10
99397.0
 20
482102.0
 30
1.7
  0
VERTEX
  5
4D6
  8
1BY1
 10
99398.0
 20
482102.0
 30
1.7
  0
VERTEX
  5
4D7
  8
1BY1
 10
99398.0
 20
482103.0
 30
1.7
  0
VERTEX
  5
4D8
  8
1BY1
 10
99397.0
 20
482103.0
 30
1.7
  0
SEQEND
  5
4D9
  8
1BY1
  0
POLYLINE
  5
AC
  8
1BY1
 66
     1
 10
0.0
 20
0.0
 30
10.199999999999999
 70
     1
1001
DCO15
1071
        2
1071
        2
1000
variablelink
1004
0000000000C07B40
  0
VERTEX
  5
4DA
  8
1BY1
 10
99342.0
 20
482097.0
 30
10.199999999999999
  0
VERTEX
  5
4DB
  8
1BY1
 10
99343.0
 20
482097.0
 30
10.199999999999999
  0
VERTEX
  5
4DC
  8
1BY1
 10
99343.0
 20
482098.0
 30
10.199999999999999
  0
VERTEX
  5
4DD
  8
1BY1
 10
99342.0
 20
482098.0
 30
10.199999999999999
  0
SEQEND
  5
4DE
  8
1BY1
  0
POLYLINE
  5
AD
  8
1BY1
 66
     1
 10
0.0
 20
0.0
 30
1.7
 70
     1
1001
DCO15
1071
        2
1071
        2
1000
variablelink
1004
0000000000D07B40
  0
VERTEX
  5
4DF
  8
1BY1
 10
99399.0
 20
482101.0
 30
1.7
  0
VERTEX
  5
4E0
  8
1BY1
 10
99400.0
 20
482101.0
 30
1.7
  0
VERTEX
  5
4E1
  8
1BY1
 10
99400.0
 20
482102.0
 30
1.7
  0
VERTEX
  5
4E2
  8
1BY1
 10
99399.0
 20
482102.0
 30
1.7
  0
SEQEND
  5
4E3
  8
1BY1
  0
POLYLINE
  5
AE
  8
1BY1
 66
     1
 10
0.0
 20
0.0
 30
32.0
 70
     1
1001
DCO15
1071
        2
1071
        2
1000
variablelink
1004
0000000000E07B40
  0
VERTEX
  5
4E4
  8
1BY1
 10
99379.0
 20
482104.0
 30
32.0
  0
VERTEX
  5
4E5
  8
1BY1
 10
99380.0
 20
482104.0
 30
32.0
  0
VERTEX
  5
4E6
  8
1BY1
 10
99380.0
 20
482105.0
 30
32.0
  0
VERTEX
  5
4E7
  8
1BY1
 10
99379.0
 20
482105.0
 30
32.0
  0
SEQEND
  5
4E8
  8
1BY1
  0
POLYLINE
  5
AF
  8
1BY1
 66
     1
 10
0.0
 20
0.0
 30
1.7
 70
     1
1001
DCO15
1071
        2
1071
        2
1000
variablelink
1004
0000000000007C40
  0
VERTEX
  5
4E9
  8
1BY1
 10
99362.0
 20
482054.0
 30
1.7
  0
VERTEX
  5
4EA
  8
1BY1
 10
99363.0
 20
482054.0
 30
1.7
  0
VERTEX
  5
4EB
  8
1BY1
 10
99363.0
 20
482055.0
 30
1.7
  0
VERTEX
  5
4EC
  8
1BY1
 10
99362.0
 20
482055.0
 30
1.7
  0
SEQEND
  5
4ED
  8
1BY1
  0
POLYLINE
  5
B0
  8
1BY1
 66
     1
 10
0.0
 20
0.0
 30
1.6000000000000001
 70
     1
1001
DCO15
1071
        2
1071
        2
1000
variablelink
1004
0000000000107C40
  0
VERTEX
  5
4EE
  8
1BY1
 10
99238.0
 20
482011.0
 30
1.6000000000000001
  0
VERTEX
  5
4EF
  8
1BY1
 10
99239.0
 20
482011.0
 30
1.6000000000000001
  0
VERTEX
  5
4F0
  8
1BY1
 10
99239.0
 20
482012.0
 30
1.6000000000000001
  0
VERTEX
  5
4F1
  8
1BY1
 10
99238.0
 20
482012.0
 30
1.6000000000000001
  0
SEQEND
  5
4F2
  8
1BY1
  0
POLYLINE
  5
B1
  8
1BY1
 66
     1
 10
0.0
 20
0.0
 30
8.0
 70
     1
1001
DCO15
1071
        2
1071
        2
1000
variablelink
1004
0000000000207C40
  0
VERTEX
  5
4F3
  8
1BY1
 10
99237.0
 20
482019.0
 30
8.0
  0
VERTEX
  5
4F4
  8
1BY1
 10
99238.0
 20
482019.0
 30
8.0
  0
VERTEX
  5
4F5
  8
1BY1
 10
99238.0
 20
482020.0
 30
8.0
  0
VERTEX
  5
4F6
  8
1BY1
 10
99237.0
 20
482020.0
 30
8.0
  0
SEQEND
  5
4F7
  8
1BY1
  0
POLYLINE
  5
B2
  8
1BY1
 66
     1
 10
0.0
 20
0.0
 30
1.0
 70
     1
1001
DCO15
1071
        2
1071
        2
1000
variablelink
1004
0000000000607C40
  0
VERTEX
  5
4F8
  8
1BY1
 10
99273.0
 20
482800.0
 30
1.0
  0
VERTEX
  5
4F9
  8
1BY1
 10
99274.0
 20
482800.0
 30
1.0
  0
VERTEX
  5
4FA
  8
1BY1
 10
99274.0
 20
482801.0
 30
1.0
  0
VERTEX
  5
4FB
  8
1BY1
 10
99273.0
 20
482801.0
 30
1.0
  0
SEQEND
  5
4FC
  8
1BY1
  0
POLYLINE
  5
B3
  8
1BY1
 66
     1
 10
0.0
 20
0.0
 30
1.0
 70
     1
1001
DCO15
1071
        2
1071
        2
1000
variablelink
1004
0000000000907C40
  0
VERTEX
  5
4FD
  8
1BY1
 10
99296.0
 20
482189.0
 30
1.0
  0
VERTEX
  5
4FE
  8
1BY1
 10
99297.0
 20
482189.0
 30
1.0
  0
VERTEX
  5
4FF
  8
1BY1
 10
99297.0
 20
482190.0
 30
1.0
  0
VERTEX
  5
500
  8
1BY1
 10
99296.0
 20
482190.0
 30
1.0
  0
SEQEND
  5
501
  8
1BY1
  0
POLYLINE
  5
B4
  8
1BY1
 66
     1
 10
0.0
 20
0.0
 30
1.6000000000000001
 70
     1
1001
DCO15
1071
        2
1071
        2
1000
variablelink
1004
0000000000A07C40
  0
VERTEX
  5
502
  8
1BY1
 10
99294.0
 20
482174.0
 30
1.6000000000000001
  0
VERTEX
  5
503
  8
1BY1
 10
99295.0
 20
482174.0
 30
1.6000000000000001
  0
VERTEX
  5
504
  8
1BY1
 10
99295.0
 20
482175.0
 30
1.6000000000000001
  0
VERTEX
  5
505
  8
1BY1
 10
99294.0
 20
482175.0
 30
1.6000000000000001
  0
SEQEND
  5
506
  8
1BY1
  0
POLYLINE
  5
B5
  8
1BY1
 66
     1
 10
0.0
 20
0.0
 30
1.6000000000000001
 70
     1
1001
DCO15
1071
        2
1071
        2
1000
variablelink
1004
0000000000B07C40
  0
VERTEX
  5
507
  8
1BY1
 10
99276.0
 20
482219.0
 30
1.6000000000000001
  0
VERTEX
  5
508
  8
1BY1
 10
99277.0
 20
482219.0
 30
1.6000000000000001
  0
VERTEX
  5
509
  8
1BY1
 10
99277.0
 20
482220.0
 30
1.6000000000000001
  0
VERTEX
  5
50A
  8
1BY1
 10
99276.0
 20
482220.0
 30
1.6000000000000001
  0
SEQEND
  5
50B
  8
1BY1
  0
POLYLINE
  5
B6
  8
1BY1
 66
     1
 10
0.0
 20
0.0
 30
1.0
 70
     1
1001
DCO15
1071
        2
1071
        2
1000
variablelink
1004
0000000000D07C40
  0
VERTEX
  5
50C
  8
1BY1
 10
99325.0
 20
482171.0
 30
1.0
  0
VERTEX
  5
50D
  8
1BY1
 10
99326.0
 20
482171.0
 30
1.0
  0
VERTEX
  5
50E
  8
1BY1
 10
99326.0
 20
482172.0
 30
1.0
  0
VERTEX
  5
50F
  8
1BY1
 10
99325.0
 20
482172.0
 30
1.0
  0
SEQEND
  5
510
  8
1BY1
  0
POLYLINE
  5
B7
  8
1BY1
 66
     1
 10
0.0
 20
0.0
 30
3.2000000000000002
 70
     1
1001
DCO15
1071
        2
1071
        2
1000
variablelink
1004
0000000000E07C40
  0
VERTEX
  5
511
  8
1BY1
 10
99303.0
 20
482097.0
 30
3.2000000000000002
  0
VERTEX
  5
512
  8
1BY1
 10
99304.0
 20
482097.0
 30
3.2000000000000002
  0
VERTEX
  5
513
  8
1BY1
 10
99304.0
 20
482098.0
 30
3.2000000000000002
  0
VERTEX
  5
514
  8
1BY1
 10
99303.0
 20
482098.0
 30
3.2000000000000002
  0
SEQEND
  5
515
  8
1BY1
  0
POLYLINE
  5
B8
  8
1BY1
 66
     1
 10
0.0
 20
0.0
 30
2.0
 70
     1
1001
DCO15
1071
        2
1071
        2
1000
variablelink
1004
0000000000007D40
  0
VERTEX
  5
516
  8
1BY1
 10
99312.0
 20
482331.0
 30
2.0
  0
VERTEX
  5
517
  8
1BY1
 10
99313.0
 20
482331.0
 30
2.0
  0
VERTEX
  5
518
  8
1BY1
 10
99313.0
 20
482332.0
 30
2.0
  0
VERTEX
  5
519
  8
1BY1
 10
99312.0
 20
482332.0
 30
2.0
  0
SEQEND
  5
51A
  8
1BY1
  0
POLYLINE
  5
B9
  8
1BY1
 66
     1
 10
0.0
 20
0.0
 30
1.6000000000000001
 70
     1
1001
DCO15
1071
        2
1071
        2
1000
variablelink
1004
0000000000407D40
  0
VERTEX
  5
51B
  8
1BY1
 10
99122.0
 20
482171.0
 30
1.6000000000000001
  0
VERTEX
  5
51C
  8
1BY1
 10
99123.0
 20
482171.0
 30
1.6000000000000001
  0
VERTEX
  5
51D
  8
1BY1
 10
99123.0
 20
482172.0
 30
1.6000000000000001
  0
VERTEX
  5
51E
  8
1BY1
 10
99122.0
 20
482172.0
 30
1.6000000000000001
  0
SEQEND
  5
51F
  8
1BY1
  0
POLYLINE
  5
BA
  8
1BY1
 66
     1
 10
0.0
 20
0.0
 30
3.2000000000000002
 70
     1
1001
DCO15
1071
        2
1071
        2
1000
variablelink
1004
0000000000507D40
  0
VERTEX
  5
520
  8
1BY1
 10
99130.0
 20
482135.0
 30
3.2000000000000002
  0
VERTEX
  5
521
  8
1BY1
 10
99131.0
 20
482135.0
 30
3.2000000000000002
  0
VERTEX
  5
522
  8
1BY1
 10
99131.0
 20
482136.0
 30
3.2000000000000002
  0
VERTEX
  5
523
  8
1BY1
 10
99130.0
 20
482136.0
 30
3.2000000000000002
  0
SEQEND
  5
524
  8
1BY1
  0
POLYLINE
  5
BB
  8
1BY1
 66
     1
 10
0.0
 20
0.0
 30
1.0
 70
     1
1001
DCO15
1071
        2
1071
        2
1000
variablelink
1004
0000000000607D40
  0
VERTEX
  5
525
  8
1BY1
 10
99108.0
 20
482167.0
 30
1.0
  0
VERTEX
  5
526
  8
1BY1
 10
99109.0
 20
482167.0
 30
1.0
  0
VERTEX
  5
527
  8
1BY1
 10
99109.0
 20
482168.0
 30
1.0
  0
VERTEX
  5
528
  8
1BY1
 10
99108.0
 20
482168.0
 30
1.0
  0
SEQEND
  5
529
  8
1BY1
  0
POLYLINE
  5
BC
  8
1BY1
 66
     1
 10
0.0
 20
0.0
 30
3.2000000000000002
 70
     1
1001
DCO15
1071
        2
1071
        2
1000
variablelink
1004
0000000000707D40
  0
VERTEX
  5
52A
  8
1BY1
 10
99088.0
 20
482173.0
 30
3.2000000000000002
  0
VERTEX
  5
52B
  8
1BY1
 10
99089.0
 20
482173.0
 30
3.2000000000000002
  0
VERTEX
  5
52C
  8
1BY1
 10
99089.0
 20
482174.0
 30
3.2000000000000002
  0
VERTEX
  5
52D
  8
1BY1
 10
99088.0
 20
482174.0
 30
3.2000000000000002
  0
SEQEND
  5
52E
  8
1BY1
  0
POLYLINE
  5
BD
  8
1BY1
 66
     1
 10
0.0
 20
0.0
 30
1.0
 70
     1
1001
DCO15
1071
        2
1071
        2
1000
variablelink
1004
0000000000807D40
  0
VERTEX
  5
52F
  8
1BY1
 10
99060.0
 20
482168.0
 30
1.0
  0
VERTEX
  5
530
  8
1BY1
 10
99061.0
 20
482168.0
 30
1.0
  0
VERTEX
  5
531
  8
1BY1
 10
99061.0
 20
482169.0
 30
1.0
  0
VERTEX
  5
532
  8
1BY1
 10
99060.0
 20
482169.0
 30
1.0
  0
SEQEND
  5
533
  8
1BY1
  0
POLYLINE
  5
BE
  8
1BY1
 66
     1
 10
0.0
 20
0.0
 30
2.0
 70
     1
1001
DCO15
1071
        2
1071
        2
1000
variablelink
1004
0000000000907D40
  0
VERTEX
  5
534
  8
1BY1
 10
99144.0
 20
482124.0
 30
2.0
  0
VERTEX
  5
535
  8
1BY1
 10
99145.0
 20
482124.0
 30
2.0
  0
VERTEX
  5
536
  8
1BY1
 10
99145.0
 20
482125.0
 30
2.0
  0
VERTEX
  5
537
  8
1BY1
 10
99144.0
 20
482125.0
 30
2.0
  0
SEQEND
  5
538
  8
1BY1
  0
POLYLINE
  5
BF
  8
1BY1
 66
     1
 10
0.0
 20
0.0
 30
1.6000000000000001
 70
     1
1001
DCO15
1071
        2
1071
        2
1000
variablelink
1004
0000000000A07D40
  0
VERTEX
  5
539
  8
1BY1
 10
99080.0
 20
482172.0
 30
1.6000000000000001
  0
VERTEX
  5
53A
  8
1BY1
 10
99081.0
 20
482172.0
 30
1.6000000000000001
  0
VERTEX
  5
53B
  8
1BY1
 10
99081.0
 20
482173.0
 30
1.6000000000000001
  0
VERTEX
  5
53C
  8
1BY1
 10
99080.0
 20
482173.0
 30
1.6000000000000001
  0
SEQEND
  5
53D
  8
1BY1
  0
POLYLINE
  5
C0
  8
1BY1
 66
     1
 10
0.0
 20
0.0
 30
1.6000000000000001
 70
     1
1001
DCO15
1071
        2
1071
        2
1000
variablelink
1004
0000000000B07D40
  0
VERTEX
  5
53E
  8
1BY1
 10
99088.0
 20
482226.0
 30
1.6000000000000001
  0
VERTEX
  5
53F
  8
1BY1
 10
99089.0
 20
482226.0
 30
1.6000000000000001
  0
VERTEX
  5
540
  8
1BY1
 10
99089.0
 20
482227.0
 30
1.6000000000000001
  0
VERTEX
  5
541
  8
1BY1
 10
99088.0
 20
482227.0
 30
1.6000000000000001
  0
SEQEND
  5
542
  8
1BY1
  0
POLYLINE
  5
C1
  8
1BY1
 66
     1
 10
0.0
 20
0.0
 30
3.2000000000000002
 70
     1
1001
DCO15
1071
        2
1071
        2
1000
variablelink
1004
0000000000C07D40
  0
VERTEX
  5
543
  8
1BY1
 10
99082.0
 20
482118.0
 30
3.2000000000000002
  0
VERTEX
  5
544
  8
1BY1
 10
99083.0
 20
482118.0
 30
3.2000000000000002
  0
VERTEX
  5
545
  8
1BY1
 10
99083.0
 20
482119.0
 30
3.2000000000000002
  0
VERTEX
  5
546
  8
1BY1
 10
99082.0
 20
482119.0
 30
3.2000000000000002
  0
SEQEND
  5
547
  8
1BY1
  0
POLYLINE
  5
C2
  8
1BY1
 66
     1
 10
0.0
 20
0.0
 30
1.0
 70
     1
1001
DCO15
1071
        2
1071
        2
1000
variablelink
1004
0000000000D07D40
  0
VERTEX
  5
548
  8
1BY1
 10
99631.0
 20
482473.0
 30
1.0
  0
VERTEX
  5
549
  8
1BY1
 10
99632.0
 20
482473.0
 30
1.0
  0
VERTEX
  5
54A
  8
1BY1
 10
99632.0
 20
482474.0
 30
1.0
  0
VERTEX
  5
54B
  8
1BY1
 10
99631.0
 20
482474.0
 30
1.0
  0
SEQEND
  5
54C
  8
1BY1
  0
POLYLINE
  5
C3
  8
1BY1
 66
     1
 10
0.0
 20
0.0
 30
1.0
 70
     1
1001
DCO15
1071
        2
1071
        2
1000
variablelink
1004
0000000000F07D40
  0
VERTEX
  5
54D
  8
1BY1
 10
100097.0
 20
482080.0
 30
1.0
  0
VERTEX
  5
54E
  8
1BY1
 10
100098.0
 20
482080.0
 30
1.0
  0
VERTEX
  5
54F
  8
1BY1
 10
100098.0
 20
482081.0
 30
1.0
  0
VERTEX
  5
550
  8
1BY1
 10
100097.0
 20
482081.0
 30
1.0
  0
SEQEND
  5
551
  8
1BY1
  0
POLYLINE
  5
C4
  8
1BY1
 66
     1
 10
0.0
 20
0.0
 30
2.0
 70
     1
1001
DCO15
1071
        2
1071
        2
1000
variablelink
1004
0000000000007E40
  0
VERTEX
  5
552
  8
1BY1
 10
99995.0
 20
482057.0
 30
2.0
  0
VERTEX
  5
553
  8
1BY1
 10
99996.0
 20
482057.0
 30
2.0
  0
VERTEX
  5
554
  8
1BY1
 10
99996.0
 20
482058.0
 30
2.0
  0
VERTEX
  5
555
  8
1BY1
 10
99995.0
 20
482058.0
 30
2.0
  0
SEQEND
  5
556
  8
1BY1
  0
POLYLINE
  5
C5
  8
1BY1
 66
     1
 10
0.0
 20
0.0
 30
1.0
 70
     1
1001
DCO15
1071
        2
1071
        2
1000
variablelink
1004
0000000000107E40
  0
VERTEX
  5
557
  8
1BY1
 10
100031.0
 20
482046.0
 30
1.0
  0
VERTEX
  5
558
  8
1BY1
 10
100032.0
 20
482046.0
 30
1.0
  0
VERTEX
  5
559
  8
1BY1
 10
100032.0
 20
482047.0
 30
1.0
  0
VERTEX
  5
55A
  8
1BY1
 10
100031.0
 20
482047.0
 30
1.0
  0
SEQEND
  5
55B
  8
1BY1
  0
POLYLINE
  5
C6
  8
1BY1
 66
     1
 10
0.0
 20
0.0
 30
3.0
 70
     1
1001
DCO15
1071
        2
1071
        2
1000
variablelink
1004
0000000000307E40
  0
VERTEX
  5
55C
  8
1BY1
 10
100065.0
 20
482042.0
 30
3.0
  0
VERTEX
  5
55D
  8
1BY1
 10
100066.0
 20
482042.0
 30
3.0
  0
VERTEX
  5
55E
  8
1BY1
 10
100066.0
 20
482043.0
 30
3.0
  0
VERTEX
  5
55F
  8
1BY1
 10
100065.0
 20
482043.0
 30
3.0
  0
SEQEND
  5
560
  8
1BY1
  0
POLYLINE
  5
C7
  8
1BY1
 66
     1
 10
0.0
 20
0.0
 30
4.0
 70
     1
1001
DCO15
1071
        2
1071
        2
1000
variablelink
1004
0000000000407E40
  0
VERTEX
  5
561
  8
1BY1
 10
100142.0
 20
482042.0
 30
4.0
  0
VERTEX
  5
562
  8
1BY1
 10
100143.0
 20
482042.0
 30
4.0
  0
VERTEX
  5
563
  8
1BY1
 10
100143.0
 20
482043.0
 30
4.0
  0
VERTEX
  5
564
  8
1BY1
 10
100142.0
 20
482043.0
 30
4.0
  0
SEQEND
  5
565
  8
1BY1
  0
POLYLINE
  5
C8
  8
1BY1
 66
     1
 10
0.0
 20
0.0
 30
5.0
 70
     1
1001
DCO15
1071
        2
1071
        2
1000
variablelink
1004
0000000000707E40
  0
VERTEX
  5
566
  8
1BY1
 10
100156.0
 20
482037.0
 30
5.0
  0
VERTEX
  5
567
  8
1BY1
 10
100157.0
 20
482037.0
 30
5.0
  0
VERTEX
  5
568
  8
1BY1
 10
100157.0
 20
482038.0
 30
5.0
  0
VERTEX
  5
569
  8
1BY1
 10
100156.0
 20
482038.0
 30
5.0
  0
SEQEND
  5
56A
  8
1BY1
  0
POLYLINE
  5
C9
  8
1BY1
 66
     1
 10
0.0
 20
0.0
 30
1.0
 70
     1
1001
DCO15
1071
        2
1071
        2
1000
variablelink
1004
0000000000A07E40
  0
VERTEX
  5
56B
  8
1BY1
 10
100248.0
 20
482021.0
 30
1.0
  0
VERTEX
  5
56C
  8
1BY1
 10
100249.0
 20
482021.0
 30
1.0
  0
VERTEX
  5
56D
  8
1BY1
 10
100249.0
 20
482022.0
 30
1.0
  0
VERTEX
  5
56E
  8
1BY1
 10
100248.0
 20
482022.0
 30
1.0
  0
SEQEND
  5
56F
  8
1BY1
  0
POLYLINE
  5
CA
  8
1BY1
 66
     1
 10
0.0
 20
0.0
 30
2.0
 70
     1
1001
DCO15
1071
        2
1071
        2
1000
variablelink
1004
0000000000B07E40
  0
VERTEX
  5
570
  8
1BY1
 10
100372.0
 20
482016.0
 30
2.0
  0
VERTEX
  5
571
  8
1BY1
 10
100373.0
 20
482016.0
 30
2.0
  0
VERTEX
  5
572
  8
1BY1
 10
100373.0
 20
482017.0
 30
2.0
  0
VERTEX
  5
573
  8
1BY1
 10
100372.0
 20
482017.0
 30
2.0
  0
SEQEND
  5
574
  8
1BY1
  0
POLYLINE
  5
CB
  8
1BY1
 66
     1
 10
0.0
 20
0.0
 30
1.0
 70
     1
1001
DCO15
1071
        2
1071
        2
1000
variablelink
1004
0000000000C07E40
  0
VERTEX
  5
575
  8
1BY1
 10
100416.0
 20
482191.0
 30
1.0
  0
VERTEX
  5
576
  8
1BY1
 10
100417.0
 20
482191.0
 30
1.0
  0
VERTEX
  5
577
  8
1BY1
 10
100417.0
 20
482192.0
 30
1.0
  0
VERTEX
  5
578
  8
1BY1
 10
100416.0
 20
482192.0
 30
1.0
  0
SEQEND
  5
579
  8
1BY1
  0
POLYLINE
  5
CC
  8
1BY1
 66
     1
 10
0.0
 20
0.0
 30
1.0
 70
     1
1001
DCO15
1071
        2
1071
        2
1000
variablelink
1004
0000000000D07E40
  0
VERTEX
  5
57A
  8
1BY1
 10
100125.0
 20
482038.0
 30
1.0
  0
VERTEX
  5
57B
  8
1BY1
 10
100126.0
 20
482038.0
 30
1.0
  0
VERTEX
  5
57C
  8
1BY1
 10
100126.0
 20
482039.0
 30
1.0
  0
VERTEX
  5
57D
  8
1BY1
 10
100125.0
 20
482039.0
 30
1.0
  0
SEQEND
  5
57E
  8
1BY1
  0
POLYLINE
  5
CD
  8
1BY1
 66
     1
 10
0.0
 20
0.0
 30
1.0
 70
     1
1001
DCO15
1071
        2
1071
        2
1000
variablelink
1004
0000000000E07E40
  0
VERTEX
  5
57F
  8
1BY1
 10
100134.0
 20
482031.0
 30
1.0
  0
VERTEX
  5
580
  8
1BY1
 10
100135.0
 20
482031.0
 30
1.0
  0
VERTEX
  5
581
  8
1BY1
 10
100135.0
 20
482032.0
 30
1.0
  0
VERTEX
  5
582
  8
1BY1
 10
100134.0
 20
482032.0
 30
1.0
  0
SEQEND
  5
583
  8
1BY1
  0
POLYLINE
  5
CE
  8
1BY1
 66
     1
 10
0.0
 20
0.0
 30
1.0
 70
     1
1001
DCO15
1071
        2
1071
        2
1000
variablelink
1004
0000000000F07E40
  0
VERTEX
  5
584
  8
1BY1
 10
100170.0
 20
482017.0
 30
1.0
  0
VERTEX
  5
585
  8
1BY1
 10
100171.0
 20
482017.0
 30
1.0
  0
VERTEX
  5
586
  8
1BY1
 10
100171.0
 20
482018.0
 30
1.0
  0
VERTEX
  5
587
  8
1BY1
 10
100170.0
 20
482018.0
 30
1.0
  0
SEQEND
  5
588
  8
1BY1
  0
POLYLINE
  5
CF
  8
1BY1
 66
     1
 10
0.0
 20
0.0
 30
1.0
 70
     1
1001
DCO15
1071
        2
1071
        2
1000
variablelink
1004
0000000000007F40
  0
VERTEX
  5
589
  8
1BY1
 10
100187.0
 20
482002.0
 30
1.0
  0
VERTEX
  5
58A
  8
1BY1
 10
100188.0
 20
482002.0
 30
1.0
  0
VERTEX
  5
58B
  8
1BY1
 10
100188.0
 20
482003.0
 30
1.0
  0
VERTEX
  5
58C
  8
1BY1
 10
100187.0
 20
482003.0
 30
1.0
  0
SEQEND
  5
58D
  8
1BY1
  0
POLYLINE
  5
D0
  8
1BY1
 66
     1
 10
0.0
 20
0.0
 30
1.0
 70
     1
1001
DCO15
1071
        2
1071
        2
1000
variablelink
1004
0000000000107F40
  0
VERTEX
  5
58E
  8
1BY1
 10
100239.0
 20
481989.0
 30
1.0
  0
VERTEX
  5
58F
  8
1BY1
 10
100240.0
 20
481989.0
 30
1.0
  0
VERTEX
  5
590
  8
1BY1
 10
100240.0
 20
481990.0
 30
1.0
  0
VERTEX
  5
591
  8
1BY1
 10
100239.0
 20
481990.0
 30
1.0
  0
SEQEND
  5
592
  8
1BY1
  0
POLYLINE
  5
D1
  8
1BY1
 66
     1
 10
0.0
 20
0.0
 30
1.0
 70
     1
1001
DCO15
1071
        2
1071
        2
1000
variablelink
1004
0000000000207F40
  0
VERTEX
  5
593
  8
1BY1
 10
100190.0
 20
482021.0
 30
1.0
  0
VERTEX
  5
594
  8
1BY1
 10
100191.0
 20
482021.0
 30
1.0
  0
VERTEX
  5
595
  8
1BY1
 10
100191.0
 20
482022.0
 30
1.0
  0
VERTEX
  5
596
  8
1BY1
 10
100190.0
 20
482022.0
 30
1.0
  0
SEQEND
  5
597
  8
1BY1
  0
POLYLINE
  5
D2
  8
1BY1
 66
     1
 10
0.0
 20
0.0
 30
1.6000000000000001
 70
     1
1001
DCO15
1071
        2
1071
        2
1000
variablelink
1004
0000000000607F40
  0
VERTEX
  5
598
  8
1BY1
 10
100081.0
 20
482031.0
 30
1.6000000000000001
  0
VERTEX
  5
599
  8
1BY1
 10
100082.0
 20
482031.0
 30
1.6000000000000001
  0
VERTEX
  5
59A
  8
1BY1
 10
100082.0
 20
482032.0
 30
1.6000000000000001
  0
VERTEX
  5
59B
  8
1BY1
 10
100081.0
 20
482032.0
 30
1.6000000000000001
  0
SEQEND
  5
59C
  8
1BY1
  0
POLYLINE
  5
D3
  8
1BY1
 66
     1
 10
0.0
 20
0.0
 30
2.0
 70
     1
1001
DCO15
1071
        2
1071
        2
1000
variablelink
1004
0000000000A07F40
  0
VERTEX
  5
59D
  8
1BY1
 10
100178.0
 20
481988.0
 30
2.0
  0
VERTEX
  5
59E
  8
1BY1
 10
100179.0
 20
481988.0
 30
2.0
  0
VERTEX
  5
59F
  8
1BY1
 10
100179.0
 20
481989.0
 30
2.0
  0
VERTEX
  5
5A0
  8
1BY1
 10
100178.0
 20
481989.0
 30
2.0
  0
SEQEND
  5
5A1
  8
1BY1
  0
POLYLINE
  5
D4
  8
1BY1
 66
     1
 10
0.0
 20
0.0
 30
1.0
 70
     1
1001
DCO15
1071
        2
1071
        2
1000
variablelink
1004
0000000000B07F40
  0
VERTEX
  5
5A2
  8
1BY1
 10
100187.0
 20
481997.0
 30
1.0
  0
VERTEX
  5
5A3
  8
1BY1
 10
100188.0
 20
481997.0
 30
1.0
  0
VERTEX
  5
5A4
  8
1BY1
 10
100188.0
 20
481998.0
 30
1.0
  0
VERTEX
  5
5A5
  8
1BY1
 10
100187.0
 20
481998.0
 30
1.0
  0
SEQEND
  5
5A6
  8
1BY1
  0
POLYLINE
  5
D5
  8
1BY1
 66
     1
 10
0.0
 20
0.0
 30
1.6000000000000001
 70
     1
1001
DCO15
1071
        2
1071
        2
1000
variablelink
1004
0000000000D07F40
  0
VERTEX
  5
5A7
  8
1BY1
 10
100210.0
 20
482499.0
 30
1.6000000000000001
  0
VERTEX
  5
5A8
  8
1BY1
 10
100211.0
 20
482499.0
 30
1.6000000000000001
  0
VERTEX
  5
5A9
  8
1BY1
 10
100211.0
 20
482500.0
 30
1.6000000000000001
  0
VERTEX
  5
5AA
  8
1BY1
 10
100210.0
 20
482500.0
 30
1.6000000000000001
  0
SEQEND
  5
5AB
  8
1BY1
  0
POLYLINE
  5
D6
  8
1BY1
 66
     1
 10
0.0
 20
0.0
 30
1.7
 70
     1
1001
DCO15
1071
        2
1071
        2
1000
variablelink
1004
0000000000A88040
  0
VERTEX
  5
5AC
  8
1BY1
 10
101001.0
 20
481697.0
 30
1.7
  0
VERTEX
  5
5AD
  8
1BY1
 10
101002.0
 20
481697.0
 30
1.7
  0
VERTEX
  5
5AE
  8
1BY1
 10
101002.0
 20
481698.0
 30
1.7
  0
VERTEX
  5
5AF
  8
1BY1
 10
101001.0
 20
481698.0
 30
1.7
  0
SEQEND
  5
5B0
  8
1BY1
  0
POLYLINE
  5
D7
  8
1BY1
 66
     1
 10
0.0
 20
0.0
 30
3.2000000000000002
 70
     1
1001
DCO15
1071
        2
1071
        2
1000
variablelink
1004
0000000000B08040
  0
VERTEX
  5
5B1
  8
1BY1
 10
100621.0
 20
481908.0
 30
3.2000000000000002
  0
VERTEX
  5
5B2
  8
1BY1
 10
100622.0
 20
481908.0
 30
3.2000000000000002
  0
VERTEX
  5
5B3
  8
1BY1
 10
100622.0
 20
481909.0
 30
3.2000000000000002
  0
VERTEX
  5
5B4
  8
1BY1
 10
100621.0
 20
481909.0
 30
3.2000000000000002
  0
SEQEND
  5
5B5
  8
1BY1
  0
POLYLINE
  5
D8
  8
1BY1
 66
     1
 10
0.0
 20
0.0
 30
1.0
 70
     1
1001
DCO15
1071
        2
1071
        2
1000
variablelink
1004
0000000000C88040
  0
VERTEX
  5
5B6
  8
1BY1
 10
99140.0
 20
482141.0
 30
1.0
  0
VERTEX
  5
5B7
  8
1BY1
 10
99141.0
 20
482141.0
 30
1.0
  0
VERTEX
  5
5B8
  8
1BY1
 10
99141.0
 20
482142.0
 30
1.0
  0
VERTEX
  5
5B9
  8
1BY1
 10
99140.0
 20
482142.0
 30
1.0
  0
SEQEND
  5
5BA
  8
1BY1
  0
POLYLINE
  5
D9
  8
1BY1
 66
     1
 10
0.0
 20
0.0
 30
44.799999999999997
 70
     1
1001
DCO15
1071
        2
1071
        2
1000
variablelink
1004
0000000000D08040
  0
VERTEX
  5
5BB
  8
1BY1
 10
99719.0
 20
482417.0
 30
44.799999999999997
  0
VERTEX
  5
5BC
  8
1BY1
 10
99720.0
 20
482417.0
 30
44.799999999999997
  0
VERTEX
  5
5BD
  8
1BY1
 10
99720.0
 20
482418.0
 30
44.799999999999997
  0
VERTEX
  5
5BE
  8
1BY1
 10
99719.0
 20
482418.0
 30
44.799999999999997
  0
SEQEND
  5
5BF
  8
1BY1
  0
POLYLINE
  5
DA
  8
1BY1
 66
     1
 10
0.0
 20
0.0
 30
12.800000000000001
 70
     1
1001
DCO15
1071
        2
1071
        2
1000
variablelink
1004
0000000000E88040
  0
VERTEX
  5
5C0
  8
1BY1
 10
99876.0
 20
482357.0
 30
12.800000000000001
  0
VERTEX
  5
5C1
  8
1BY1
 10
99877.0
 20
482357.0
 30
12.800000000000001
  0
VERTEX
  5
5C2
  8
1BY1
 10
99877.0
 20
482358.0
 30
12.800000000000001
  0
VERTEX
  5
5C3
  8
1BY1
 10
99876.0
 20
482358.0
 30
12.800000000000001
  0
SEQEND
  5
5C4
  8
1BY1
  0
POLYLINE
  5
DB
  8
1BY1
 66
     1
 10
0.0
 20
0.0
 30
5.0
 70
     1
1001
DCO15
1071
        2
1071
        2
1000
variablelink
1004
0000000000F88040
  0
VERTEX
  5
5C5
  8
1BY1
 10
99309.0
 20
482932.0
 30
5.0
  0
VERTEX
  5
5C6
  8
1BY1
 10
99310.0
 20
482932.0
 30
5.0
  0
VERTEX
  5
5C7
  8
1BY1
 10
99310.0
 20
482933.0
 30
5.0
  0
VERTEX
  5
5C8
  8
1BY1
 10
99309.0
 20
482933.0
 30
5.0
  0
SEQEND
  5
5C9
  8
1BY1
  0
POLYLINE
  5
DC
  8
1BY1
 66
     1
 10
0.0
 20
0.0
 30
1.6000000000000001
 70
     1
1001
DCO15
1071
        2
1071
        2
1000
variablelink
1004
0000000000088140
  0
VERTEX
  5
5CA
  8
1BY1
 10
100279.0
 20
482017.0
 30
1.6000000000000001
  0
VERTEX
  5
5CB
  8
1BY1
 10
100280.0
 20
482017.0
 30
1.6000000000000001
  0
VERTEX
  5
5CC
  8
1BY1
 10
100280.0
 20
482018.0
 30
1.6000000000000001
  0
VERTEX
  5
5CD
  8
1BY1
 10
100279.0
 20
482018.0
 30
1.6000000000000001
  0
SEQEND
  5
5CE
  8
1BY1
  0
POLYLINE
  5
DD
  8
1BY1
 66
     1
 10
0.0
 20
0.0
 30
14.4
 70
     1
1001
DCO15
1071
        2
1071
        2
1000
variablelink
1004
0000000000108140
  0
VERTEX
  5
5CF
  8
1BY1
 10
99907.0
 20
482197.0
 30
14.4
  0
VERTEX
  5
5D0
  8
1BY1
 10
99908.0
 20
482197.0
 30
14.4
  0
VERTEX
  5
5D1
  8
1BY1
 10
99908.0
 20
482198.0
 30
14.4
  0
VERTEX
  5
5D2
  8
1BY1
 10
99907.0
 20
482198.0
 30
14.4
  0
SEQEND
  5
5D3
  8
1BY1
  0
POLYLINE
  5
DE
  8
1BY1
 66
     1
 10
0.0
 20
0.0
 30
11.199999999999999
 70
     1
1001
DCO15
1071
        2
1071
        2
1000
variablelink
1004
0000000000188140
  0
VERTEX
  5
5D4
  8
1BY1
 10
99907.0
 20
482200.0
 30
11.199999999999999
  0
VERTEX
  5
5D5
  8
1BY1
 10
99908.0
 20
482200.0
 30
11.199999999999999
  0
VERTEX
  5
5D6
  8
1BY1
 10
99908.0
 20
482201.0
 30
11.199999999999999
  0
VERTEX
  5
5D7
  8
1BY1
 10
99907.0
 20
482201.0
 30
11.199999999999999
  0
SEQEND
  5
5D8
  8
1BY1
  0
POLYLINE
  5
DF
  8
1BY1
 66
     1
 10
0.0
 20
0.0
 30
12.800000000000001
 70
     1
1001
DCO15
1071
        2
1071
        2
1000
variablelink
1004
0000000000208140
  0
VERTEX
  5
5D9
  8
1BY1
 10
99906.0
 20
482199.0
 30
12.800000000000001
  0
VERTEX
  5
5DA
  8
1BY1
 10
99907.0
 20
482199.0
 30
12.800000000000001
  0
VERTEX
  5
5DB
  8
1BY1
 10
99907.0
 20
482200.0
 30
12.800000000000001
  0
VERTEX
  5
5DC
  8
1BY1
 10
99906.0
 20
482200.0
 30
12.800000000000001
  0
SEQEND
  5
5DD
  8
1BY1
  0
POLYLINE
  5
E0
  8
1BY1
 66
     1
 10
0.0
 20
0.0
 30
1.0
 70
     1
1001
DCO15
1071
        2
1071
        2
1000
variablelink
1004
0000000000408140
  0
VERTEX
  5
5DE
  8
1BY1
 10
99637.0
 20
482652.0
 30
1.0
  0
VERTEX
  5
5DF
  8
1BY1
 10
99638.0
 20
482652.0
 30
1.0
  0
VERTEX
  5
5E0
  8
1BY1
 10
99638.0
 20
482653.0
 30
1.0
  0
VERTEX
  5
5E1
  8
1BY1
 10
99637.0
 20
482653.0
 30
1.0
  0
SEQEND
  5
5E2
  8
1BY1
  0
POLYLINE
  5
E1
  8
1BY1
 66
     1
 10
0.0
 20
0.0
 30
8.0
 70
     1
1001
DCO15
1071
        2
1071
        2
1000
variablelink
1004
0000000000588140
  0
VERTEX
  5
5E3
  8
1BY1
 10
99903.0
 20
482199.0
 30
8.0
  0
VERTEX
  5
5E4
  8
1BY1
 10
99904.0
 20
482199.0
 30
8.0
  0
VERTEX
  5
5E5
  8
1BY1
 10
99904.0
 20
482200.0
 30
8.0
  0
VERTEX
  5
5E6
  8
1BY1
 10
99903.0
 20
482200.0
 30
8.0
  0
SEQEND
  5
5E7
  8
1BY1
  0
POLYLINE
  5
E2
  8
1BY1
 66
     1
 10
0.0
 20
0.0
 30
1.0
 70
     1
1001
DCO15
1071
        2
1071
        2
1000
variablelink
1004
0000000000688140
  0
VERTEX
  5
5E8
  8
1BY1
 10
100229.0
 20
481873.0
 30
1.0
  0
VERTEX
  5
5E9
  8
1BY1
 10
100230.0
 20
481873.0
 30
1.0
  0
VERTEX
  5
5EA
  8
1BY1
 10
100230.0
 20
481874.0
 30
1.0
  0
VERTEX
  5
5EB
  8
1BY1
 10
100229.0
 20
481874.0
 30
1.0
  0
SEQEND
  5
5EC
  8
1BY1
  0
POLYLINE
  5
E3
  8
1BY1
 66
     1
 10
0.0
 20
0.0
 30
1.0
 70
     1
1001
DCO15
1071
        2
1071
        2
1000
variablelink
1004
0000000000708140
  0
VERTEX
  5
5ED
  8
1BY1
 10
99193.0
 20
482230.0
 30
1.0
  0
VERTEX
  5
5EE
  8
1BY1
 10
99194.0
 20
482230.0
 30
1.0
  0
VERTEX
  5
5EF
  8
1BY1
 10
99194.0
 20
482231.0
 30
1.0
  0
VERTEX
  5
5F0
  8
1BY1
 10
99193.0
 20
482231.0
 30
1.0
  0
SEQEND
  5
5F1
  8
1BY1
  0
POLYLINE
  5
E4
  8
1BY1
 66
     1
 10
0.0
 20
0.0
 30
1.6000000000000001
 70
     1
1001
DCO15
1071
        2
1071
        2
1000
variablelink
1004
0000000000808140
  0
VERTEX
  5
5F2
  8
1BY1
 10
99024.0
 20
482205.0
 30
1.6000000000000001
  0
VERTEX
  5
5F3
  8
1BY1
 10
99025.0
 20
482205.0
 30
1.6000000000000001
  0
VERTEX
  5
5F4
  8
1BY1
 10
99025.0
 20
482206.0
 30
1.6000000000000001
  0
VERTEX
  5
5F5
  8
1BY1
 10
99024.0
 20
482206.0
 30
1.6000000000000001
  0
SEQEND
  5
5F6
  8
1BY1
  0
POLYLINE
  5
E5
  8
2BY2
 66
     1
 10
0.0
 20
0.0
 30
8.4000000000000004
 70
     1
1001
DCO15
1071
        2
1071
        2
1000
variablelink
1004
0000000000003F40
  0
VERTEX
  5
5F7
  8
2BY2
 10
99871.0
 20
482361.0
 30
8.4000000000000004
  0
VERTEX
  5
5F8
  8
2BY2
 10
99873.0
 20
482361.0
 30
8.4000000000000004
  0
VERTEX
  5
5F9
  8
2BY2
 10
99873.0
 20
482363.0
 30
8.4000000000000004
  0
VERTEX
  5
5FA
  8
2BY2
 10
99871.0
 20
482363.0
 30
8.4000000000000004
  0
SEQEND
  5
5FB
  8
2BY2
  0
POLYLINE
  5
E7
  8
2BY2
 66
     1
 10
0.0
 20
0.0
 30
0.8
 70
     1
1001
DCO15
1071
        2
1071
        2
1000
variablelink
1004
0000000000004040
  0
VERTEX
  5
5FC
  8
2BY2
 10
99874.0
 20
482364.0
 30
0.8
  0
VERTEX
  5
5FD
  8
2BY2
 10
99876.0
 20
482364.0
 30
0.8
  0
VERTEX
  5
5FE
  8
2BY2
 10
99876.0
 20
482366.0
 30
0.8
  0
VERTEX
  5
5FF
  8
2BY2
 10
99874.0
 20
482366.0
 30
0.8
  0
SEQEND
  5
600
  8
2BY2
  0
POLYLINE
  5
E8
  8
2BY2
 66
     1
 10
0.0
 20
0.0
 30
13.199999999999999
 70
     1
1001
DCO15
1071
        2
1071
        2
1000
variablelink
1004
0000000000804040
  0
VERTEX
  5
601
  8
2BY2
 10
99884.0
 20
482362.0
 30
13.199999999999999
  0
VERTEX
  5
602
  8
2BY2
 10
99886.0
 20
482362.0
 30
13.199999999999999
  0
VERTEX
  5
603
  8
2BY2
 10
99886.0
 20
482364.0
 30
13.199999999999999
  0
VERTEX
  5
604
  8
2BY2
 10
99884.0
 20
482364.0
 30
13.199999999999999
  0
SEQEND
  5
605
  8
2BY2
  0
POLYLINE
  5
E9
  8
2BY2
 66
     1
 10
0.0
 20
0.0
 30
9.2000000000000011
 70
     1
1001
DCO15
1071
        2
1071
        2
1000
variablelink
1004
0000000000004140
  0
VERTEX
  5
606
  8
2BY2
 10
99881.0
 20
482357.0
 30
9.2000000000000011
  0
VERTEX
  5
607
  8
2BY2
 10
99883.0
 20
482357.0
 30
9.2000000000000011
  0
VERTEX
  5
608
  8
2BY2
 10
99883.0
 20
482359.0
 30
9.2000000000000011
  0
VERTEX
  5
609
  8
2BY2
 10
99881.0
 20
482359.0
 30
9.2000000000000011
  0
SEQEND
  5
60A
  8
2BY2
  0
POLYLINE
  5
EA
  8
2BY2
 66
     1
 10
0.0
 20
0.0
 30
0.25
 70
     1
1001
DCO15
1071
        2
1071
        2
1000
variablelink
1004
0000000000004240
  0
VERTEX
  5
60B
  8
2BY2
 10
99886.0
 20
482355.0
 30
0.25
  0
VERTEX
  5
60C
  8
2BY2
 10
99888.0
 20
482355.0
 30
0.25
  0
VERTEX
  5
60D
  8
2BY2
 10
99888.0
 20
482357.0
 30
0.25
  0
VERTEX
  5
60E
  8
2BY2
 10
99886.0
 20
482357.0
 30
0.25
  0
SEQEND
  5
60F
  8
2BY2
  0
POLYLINE
  5
EB
  8
2BY2
 66
     1
 10
0.0
 20
0.0
 30
2.0
 70
     1
1001
DCO15
1071
        2
1071
        2
1000
variablelink
1004
0000000000804740
  0
VERTEX
  5
610
  8
2BY2
 10
99878.0
 20
482358.0
 30
2.0
  0
VERTEX
  5
611
  8
2BY2
 10
99880.0
 20
482358.0
 30
2.0
  0
VERTEX
  5
612
  8
2BY2
 10
99880.0
 20
482360.0
 30
2.0
  0
VERTEX
  5
613
  8
2BY2
 10
99878.0
 20
482360.0
 30
2.0
  0
SEQEND
  5
614
  8
2BY2
  0
POLYLINE
  5
EC
  8
2BY2
 66
     1
 10
0.0
 20
0.0
 30
4.4000000000000004
 70
     1
1001
DCO15
1071
        2
1071
        2
1000
variablelink
1004
0000000000004840
  0
VERTEX
  5
615
  8
2BY2
 10
99847.0
 20
482357.0
 30
4.4000000000000004
  0
VERTEX
  5
616
  8
2BY2
 10
99849.0
 20
482357.0
 30
4.4000000000000004
  0
VERTEX
  5
617
  8
2BY2
 10
99849.0
 20
482359.0
 30
4.4000000000000004
  0
VERTEX
  5
618
  8
2BY2
 10
99847.0
 20
482359.0
 30
4.4000000000000004
  0
SEQEND
  5
619
  8
2BY2
  0
POLYLINE
  5
ED
  8
2BY2
 66
     1
 10
0.0
 20
0.0
 30
4.7999999999999998
 70
     1
1001
DCO15
1071
        2
1071
        2
1000
variablelink
1004
0000000000804840
  0
VERTEX
  5
61A
  8
2BY2
 10
99887.0
 20
482351.0
 30
4.7999999999999998
  0
VERTEX
  5
61B
  8
2BY2
 10
99889.0
 20
482351.0
 30
4.7999999999999998
  0
VERTEX
  5
61C
  8
2BY2
 10
99889.0
 20
482353.0
 30
4.7999999999999998
  0
VERTEX
  5
61D
  8
2BY2
 10
99887.0
 20
482353.0
 30
4.7999999999999998
  0
SEQEND
  5
61E
  8
2BY2
  0
POLYLINE
  5
EE
  8
2BY2
 66
     1
 10
0.0
 20
0.0
 30
2.3999999999999999
 70
     1
1001
DCO15
1071
        2
1071
        2
1000
variablelink
1004
0000000000804940
  0
VERTEX
  5
61F
  8
2BY2
 10
99885.0
 20
482352.0
 30
2.3999999999999999
  0
VERTEX
  5
620
  8
2BY2
 10
99887.0
 20
482352.0
 30
2.3999999999999999
  0
VERTEX
  5
621
  8
2BY2
 10
99887.0
 20
482354.0
 30
2.3999999999999999
  0
VERTEX
  5
622
  8
2BY2
 10
99885.0
 20
482354.0
 30
2.3999999999999999
  0
SEQEND
  5
623
  8
2BY2
  0
POLYLINE
  5
EF
  8
2BY2
 66
     1
 10
0.0
 20
0.0
 30
5.2000000000000002
 70
     1
1001
DCO15
1071
        2
1071
        2
1000
variablelink
1004
0000000000004A40
  0
VERTEX
  5
624
  8
2BY2
 10
99883.0
 20
482355.0
 30
5.2000000000000002
  0
VERTEX
  5
625
  8
2BY2
 10
99885.0
 20
482355.0
 30
5.2000000000000002
  0
VERTEX
  5
626
  8
2BY2
 10
99885.0
 20
482357.0
 30
5.2000000000000002
  0
VERTEX
  5
627
  8
2BY2
 10
99883.0
 20
482357.0
 30
5.2000000000000002
  0
SEQEND
  5
628
  8
2BY2
  0
POLYLINE
  5
F0
  8
2BY2
 66
     1
 10
0.0
 20
0.0
 30
3.2000000000000002
 70
     1
1001
DCO15
1071
        2
1071
        2
1000
variablelink
1004
0000000000804D40
  0
VERTEX
  5
629
  8
2BY2
 10
99882.0
 20
482347.0
 30
3.2000000000000002
  0
VERTEX
  5
62A
  8
2BY2
 10
99884.0
 20
482347.0
 30
3.2000000000000002
  0
VERTEX
  5
62B
  8
2BY2
 10
99884.0
 20
482349.0
 30
3.2000000000000002
  0
VERTEX
  5
62C
  8
2BY2
 10
99882.0
 20
482349.0
 30
3.2000000000000002
  0
SEQEND
  5
62D
  8
2BY2
  0
POLYLINE
  5
F1
  8
2BY2
 66
     1
 10
0.0
 20
0.0
 30
0.4
 70
     1
1001
DCO15
1071
        2
1071
        2
1000
variablelink
1004
0000000000004F40
  0
VERTEX
  5
62E
  8
2BY2
 10
99885.0
 20
482346.0
 30
0.4
  0
VERTEX
  5
62F
  8
2BY2
 10
99887.0
 20
482346.0
 30
0.4
  0
VERTEX
  5
630
  8
2BY2
 10
99887.0
 20
482348.0
 30
0.4
  0
VERTEX
  5
631
  8
2BY2
 10
99885.0
 20
482348.0
 30
0.4
  0
SEQEND
  5
632
  8
2BY2
  0
POLYLINE
  5
F2
  8
2BY2
 66
     1
 10
0.0
 20
0.0
 30
1.2
 70
     1
1001
DCO15
1071
        2
1071
        2
1000
variablelink
1004
0000000000005040
  0
VERTEX
  5
633
  8
2BY2
 10
99885.0
 20
482340.0
 30
1.2
  0
VERTEX
  5
634
  8
2BY2
 10
99887.0
 20
482340.0
 30
1.2
  0
VERTEX
  5
635
  8
2BY2
 10
99887.0
 20
482342.0
 30
1.2
  0
VERTEX
  5
636
  8
2BY2
 10
99885.0
 20
482342.0
 30
1.2
  0
SEQEND
  5
637
  8
2BY2
  0
POLYLINE
  5
F3
  8
2BY2
 66
     1
 10
0.0
 20
0.0
 30
3.2000000000000002
 70
     1
1001
DCO15
1071
        2
1071
        2
1000
variablelink
1004
0000000000405040
  0
VERTEX
  5
638
  8
2BY2
 10
99888.0
 20
482331.0
 30
3.2000000000000002
  0
VERTEX
  5
639
  8
2BY2
 10
99890.0
 20
482331.0
 30
3.2000000000000002
  0
VERTEX
  5
63A
  8
2BY2
 10
99890.0
 20
482333.0
 30
3.2000000000000002
  0
VERTEX
  5
63B
  8
2BY2
 10
99888.0
 20
482333.0
 30
3.2000000000000002
  0
SEQEND
  5
63C
  8
2BY2
  0
POLYLINE
  5
F4
  8
2BY2
 66
     1
 10
0.0
 20
0.0
 30
5.2000000000000002
 70
     1
1001
DCO15
1071
        2
1071
        2
1000
variablelink
1004
0000000000805040
  0
VERTEX
  5
63D
  8
2BY2
 10
99885.0
 20
482332.0
 30
5.2000000000000002
  0
VERTEX
  5
63E
  8
2BY2
 10
99887.0
 20
482332.0
 30
5.2000000000000002
  0
VERTEX
  5
63F
  8
2BY2
 10
99887.0
 20
482334.0
 30
5.2000000000000002
  0
VERTEX
  5
640
  8
2BY2
 10
99885.0
 20
482334.0
 30
5.2000000000000002
  0
SEQEND
  5
641
  8
2BY2
  0
POLYLINE
  5
F5
  8
2BY2
 66
     1
 10
0.0
 20
0.0
 30
0.4
 70
     1
1001
DCO15
1071
        2
1071
        2
1000
variablelink
1004
0000000000C05040
  0
VERTEX
  5
642
  8
2BY2
 10
99885.0
 20
482322.0
 30
0.4
  0
VERTEX
  5
643
  8
2BY2
 10
99887.0
 20
482322.0
 30
0.4
  0
VERTEX
  5
644
  8
2BY2
 10
99887.0
 20
482324.0
 30
0.4
  0
VERTEX
  5
645
  8
2BY2
 10
99885.0
 20
482324.0
 30
0.4
  0
SEQEND
  5
646
  8
2BY2
  0
POLYLINE
  5
F6
  8
2BY2
 66
     1
 10
0.0
 20
0.0
 30
0.4
 70
     1
1001
DCO15
1071
        2
1071
        2
1000
variablelink
1004
0000000000005140
  0
VERTEX
  5
647
  8
2BY2
 10
99885.0
 20
482325.0
 30
0.4
  0
VERTEX
  5
648
  8
2BY2
 10
99887.0
 20
482325.0
 30
0.4
  0
VERTEX
  5
649
  8
2BY2
 10
99887.0
 20
482327.0
 30
0.4
  0
VERTEX
  5
64A
  8
2BY2
 10
99885.0
 20
482327.0
 30
0.4
  0
SEQEND
  5
64B
  8
2BY2
  0
POLYLINE
  5
F7
  8
2BY2
 66
     1
 10
0.0
 20
0.0
 30
0.8
 70
     1
1001
DCO15
1071
        2
1071
        2
1000
variablelink
1004
0000000000405140
  0
VERTEX
  5
64C
  8
2BY2
 10
99889.0
 20
482320.0
 30
0.8
  0
VERTEX
  5
64D
  8
2BY2
 10
99891.0
 20
482320.0
 30
0.8
  0
VERTEX
  5
64E
  8
2BY2
 10
99891.0
 20
482322.0
 30
0.8
  0
VERTEX
  5
64F
  8
2BY2
 10
99889.0
 20
482322.0
 30
0.8
  0
SEQEND
  5
650
  8
2BY2
  0
POLYLINE
  5
F8
  8
2BY2
 66
     1
 10
0.0
 20
0.0
 30
2.0
 70
     1
1001
DCO15
1071
        2
1071
        2
1000
variablelink
1004
0000000000005240
  0
VERTEX
  5
651
  8
2BY2
 10
99886.0
 20
482312.0
 30
2.0
  0
VERTEX
  5
652
  8
2BY2
 10
99888.0
 20
482312.0
 30
2.0
  0
VERTEX
  5
653
  8
2BY2
 10
99888.0
 20
482314.0
 30
2.0
  0
VERTEX
  5
654
  8
2BY2
 10
99886.0
 20
482314.0
 30
2.0
  0
SEQEND
  5
655
  8
2BY2
  0
POLYLINE
  5
F9
  8
2BY2
 66
     1
 10
0.0
 20
0.0
 30
2.7999999999999998
 70
     1
1001
DCO15
1071
        2
1071
        2
1000
variablelink
1004
0000000000405240
  0
VERTEX
  5
656
  8
2BY2
 10
99884.0
 20
482309.0
 30
2.7999999999999998
  0
VERTEX
  5
657
  8
2BY2
 10
99886.0
 20
482309.0
 30
2.7999999999999998
  0
VERTEX
  5
658
  8
2BY2
 10
99886.0
 20
482311.0
 30
2.7999999999999998
  0
VERTEX
  5
659
  8
2BY2
 10
99884.0
 20
482311.0
 30
2.7999999999999998
  0
SEQEND
  5
65A
  8
2BY2
  0
POLYLINE
  5
FA
  8
2BY2
 66
     1
 10
0.0
 20
0.0
 30
5.5999999999999996
 70
     1
1001
DCO15
1071
        2
1071
        2
1000
variablelink
1004
0000000000405340
  0
VERTEX
  5
65B
  8
2BY2
 10
99886.0
 20
482348.0
 30
5.5999999999999996
  0
VERTEX
  5
65C
  8
2BY2
 10
99888.0
 20
482348.0
 30
5.5999999999999996
  0
VERTEX
  5
65D
  8
2BY2
 10
99888.0
 20
482350.0
 30
5.5999999999999996
  0
VERTEX
  5
65E
  8
2BY2
 10
99886.0
 20
482350.0
 30
5.5999999999999996
  0
SEQEND
  5
65F
  8
2BY2
  0
POLYLINE
  5
FB
  8
2BY2
 66
     1
 10
0.0
 20
0.0
 30
0.4
 70
     1
1001
DCO15
1071
        2
1071
        2
1000
variablelink
1004
0000000000805340
  0
VERTEX
  5
660
  8
2BY2
 10
99884.0
 20
482343.0
 30
0.4
  0
VERTEX
  5
661
  8
2BY2
 10
99886.0
 20
482343.0
 30
0.4
  0
VERTEX
  5
662
  8
2BY2
 10
99886.0
 20
482345.0
 30
0.4
  0
VERTEX
  5
663
  8
2BY2
 10
99884.0
 20
482345.0
 30
0.4
  0
SEQEND
  5
664
  8
2BY2
  0
POLYLINE
  5
FC
  8
2BY2
 66
     1
 10
0.0
 20
0.0
 30
0.8
 70
     1
1001
DCO15
1071
        2
1071
        2
1000
variablelink
1004
0000000000F07A40
  0
VERTEX
  5
665
  8
2BY2
 10
99585.0
 20
482332.0
 30
0.8
  0
VERTEX
  5
666
  8
2BY2
 10
99587.0
 20
482332.0
 30
0.8
  0
VERTEX
  5
667
  8
2BY2
 10
99587.0
 20
482334.0
 30
0.8
  0
VERTEX
  5
668
  8
2BY2
 10
99585.0
 20
482334.0
 30
0.8
  0
SEQEND
  5
669
  8
2BY2
  0
POLYLINE
  5
FD
  8
2BY2
 66
     1
 10
0.0
 20
0.0
 30
0.4
 70
     1
1001
DCO15
1071
        2
1071
        2
1000
variablelink
1004
0000000000507C40
  0
VERTEX
  5
66A
  8
2BY2
 10
99299.0
 20
482770.0
 30
0.4
  0
VERTEX
  5
66B
  8
2BY2
 10
99301.0
 20
482770.0
 30
0.4
  0
VERTEX
  5
66C
  8
2BY2
 10
99301.0
 20
482772.0
 30
0.4
  0
VERTEX
  5
66D
  8
2BY2
 10
99299.0
 20
482772.0
 30
0.4
  0
SEQEND
  5
66E
  8
2BY2
  0
POLYLINE
  5
FE
  8
2BY2
 66
     1
 10
0.0
 20
0.0
 30
8.25
 70
     1
1001
DCO15
1071
        2
1071
        2
1000
variablelink
1004
0000000000707C40
  0
VERTEX
  5
66F
  8
2BY2
 10
99298.0
 20
482920.0
 30
8.25
  0
VERTEX
  5
670
  8
2BY2
 10
99300.0
 20
482920.0
 30
8.25
  0
VERTEX
  5
671
  8
2BY2
 10
99300.0
 20
482922.0
 30
8.25
  0
VERTEX
  5
672
  8
2BY2
 10
99298.0
 20
482922.0
 30
8.25
  0
SEQEND
  5
673
  8
2BY2
  0
POLYLINE
  5
FF
  8
2BY2
 66
     1
 10
0.0
 20
0.0
 30
2.25
 70
     1
1001
DCO15
1071
        2
1071
        2
1000
variablelink
1004
0000000000807C40
  0
VERTEX
  5
674
  8
2BY2
 10
99294.0
 20
482918.0
 30
2.25
  0
VERTEX
  5
675
  8
2BY2
 10
99296.0
 20
482918.0
 30
2.25
  0
VERTEX
  5
676
  8
2BY2
 10
99296.0
 20
482920.0
 30
2.25
  0
VERTEX
  5
677
  8
2BY2
 10
99294.0
 20
482920.0
 30
2.25
  0
SEQEND
  5
678
  8
2BY2
  0
POLYLINE
  5
100
  8
2BY2
 66
     1
 10
0.0
 20
0.0
 30
3.5
 70
     1
1001
DCO15
1071
        2
1071
        2
1000
variablelink
1004
0000000000507E40
  0
VERTEX
  5
679
  8
2BY2
 10
100153.0
 20
482042.0
 30
3.5
  0
VERTEX
  5
67A
  8
2BY2
 10
100155.0
 20
482042.0
 30
3.5
  0
VERTEX
  5
67B
  8
2BY2
 10
100155.0
 20
482044.0
 30
3.5
  0
VERTEX
  5
67C
  8
2BY2
 10
100153.0
 20
482044.0
 30
3.5
  0
SEQEND
  5
67D
  8
2BY2
  0
POLYLINE
  5
101
  8
2BY2
 66
     1
 10
0.0
 20
0.0
 30
3.75
 70
     1
1001
DCO15
1071
        2
1071
        2
1000
variablelink
1004
0000000000607E40
  0
VERTEX
  5
67E
  8
2BY2
 10
100153.0
 20
482036.0
 30
3.75
  0
VERTEX
  5
67F
  8
2BY2
 10
100155.0
 20
482036.0
 30
3.75
  0
VERTEX
  5
680
  8
2BY2
 10
100155.0
 20
482038.0
 30
3.75
  0
VERTEX
  5
681
  8
2BY2
 10
100153.0
 20
482038.0
 30
3.75
  0
SEQEND
  5
682
  8
2BY2
  0
POLYLINE
  5
102
  8
2BY2
 66
     1
 10
0.0
 20
0.0
 30
2.3999999999999999
 70
     1
1001
DCO15
1071
        2
1071
        2
1000
variablelink
1004
0000000000807E40
  0
VERTEX
  5
683
  8
2BY2
 10
100122.0
 20
482047.0
 30
2.3999999999999999
  0
VERTEX
  5
684
  8
2BY2
 10
100124.0
 20
482047.0
 30
2.3999999999999999
  0
VERTEX
  5
685
  8
2BY2
 10
100124.0
 20
482049.0
 30
2.3999999999999999
  0
VERTEX
  5
686
  8
2BY2
 10
100122.0
 20
482049.0
 30
2.3999999999999999
  0
SEQEND
  5
687
  8
2BY2
  0
POLYLINE
  5
103
  8
2BY2
 66
     1
 10
0.0
 20
0.0
 30
0.8
 70
     1
1001
DCO15
1071
        2
1071
        2
1000
variablelink
1004
0000000000907E40
  0
VERTEX
  5
688
  8
2BY2
 10
100166.0
 20
482029.0
 30
0.8
  0
VERTEX
  5
689
  8
2BY2
 10
100168.0
 20
482029.0
 30
0.8
  0
VERTEX
  5
68A
  8
2BY2
 10
100168.0
 20
482031.0
 30
0.8
  0
VERTEX
  5
68B
  8
2BY2
 10
100166.0
 20
482031.0
 30
0.8
  0
SEQEND
  5
68C
  8
2BY2
  0
POLYLINE
  5
104
  8
2BY2
 66
     1
 10
0.0
 20
0.0
 30
14.0
 70
     1
1001
DCO15
1071
        2
1071
        2
1000
variablelink
1004
0000000000307F40
  0
VERTEX
  5
68D
  8
2BY2
 10
100282.0
 20
482011.0
 30
14.0
  0
VERTEX
  5
68E
  8
2BY2
 10
100284.0
 20
482011.0
 30
14.0
  0
VERTEX
  5
68F
  8
2BY2
 10
100284.0
 20
482013.0
 30
14.0
  0
VERTEX
  5
690
  8
2BY2
 10
100282.0
 20
482013.0
 30
14.0
  0
SEQEND
  5
691
  8
2BY2
  0
POLYLINE
  5
105
  8
2BY2
 66
     1
 10
0.0
 20
0.0
 30
0.25
 70
     1
1001
DCO15
1071
        2
1071
        2
1000
variablelink
1004
0000000000707F40
  0
VERTEX
  5
692
  8
2BY2
 10
100085.0
 20
482030.0
 30
0.25
  0
VERTEX
  5
693
  8
2BY2
 10
100087.0
 20
482030.0
 30
0.25
  0
VERTEX
  5
694
  8
2BY2
 10
100087.0
 20
482032.0
 30
0.25
  0
VERTEX
  5
695
  8
2BY2
 10
100085.0
 20
482032.0
 30
0.25
  0
SEQEND
  5
696
  8
2BY2
  0
POLYLINE
  5
106
  8
10BY10
 66
     1
 10
0.0
 20
0.0
 30
0.03
 70
     1
1001
DCO15
1071
        2
1071
        2
1000
variablelink
1004
0000000000C08140
  0
VERTEX
  5
697
  8
10BY10
 10
101160.0
 20
482620.0
 30
0.03
  0
VERTEX
  5
698
  8
10BY10
 10
101170.0
 20
482620.0
 30
0.03
  0
VERTEX
  5
699
  8
10BY10
 10
101170.0
 20
482630.0
 30
0.03
  0
VERTEX
  5
69A
  8
10BY10
 10
101160.0
 20
482630.0
 30
0.03
  0
SEQEND
  5
69B
  8
10BY10
  0
POLYLINE
  5
108
  8
10BY10
 66
     1
 10
0.0
 20
0.0
 30
0.03
 70
     1
1001
DCO15
1071
        2
1071
        2
1000
variablelink
1004
0000000000C88140
  0
VERTEX
  5
69C
  8
10BY10
 10
101171.0
 20
482598.0
 30
0.03
  0
VERTEX
  5
69D
  8
10BY10
 10
101181.0
 20
482598.0
 30
0.03
  0
VERTEX
  5
69E
  8
10BY10
 10
101181.0
 20
482608.0
 30
0.03
  0
VERTEX
  5
69F
  8
10BY10
 10
101171.0
 20
482608.0
 30
0.03
  0
SEQEND
  5
6A0
  8
10BY10
  0
POLYLINE
  5
109
  8
10BY10
 66
     1
 10
0.0
 20
0.0
 30
0.016
 70
     1
1001
DCO15
1071
        2
1071
        2
1000
variablelink
1004
0000000000F88140
  0
VERTEX
  5
6A1
  8
10BY10
 10
101114.0
 20
481841.0
 30
0.016
  0
VERTEX
  5
6A2
  8
10BY10
 10
101124.0
 20
481841.0
 30
0.016
  0
VERTEX
  5
6A3
  8
10BY10
 10
101124.0
 20
481851.0
 30
0.016
  0
VERTEX
  5
6A4
  8
10BY10
 10
101114.0
 20
481851.0
 30
0.016
  0
SEQEND
  5
6A5
  8
10BY10
  0
POLYLINE
  5
10A
  8
10BY10
 66
     1
 10
0.0
 20
0.0
 30
0.096
 70
     1
1001
DCO15
1071
        2
1071
        2
1000
variablelink
1004
0000000000008240
  0
VERTEX
  5
6A6
  8
10BY10
 10
101331.0
 20
482438.0
 30
0.096
  0
VERTEX
  5
6A7
  8
10BY10
 10
101341.0
 20
482438.0
 30
0.096
  0
VERTEX
  5
6A8
  8
10BY10
 10
101341.0
 20
482448.0
 30
0.096
  0
VERTEX
  5
6A9
  8
10BY10
 10
101331.0
 20
482448.0
 30
0.096
  0
SEQEND
  5
6AA
  8
10BY10
  0
POLYLINE
  5
10B
  8
10BY10
 66
     1
 10
0.0
 20
0.0
 30
0.032
 70
     1
1001
DCO15
1071
        2
1071
        2
1000
variablelink
1004
0000000000308240
  0
VERTEX
  5
6AB
  8
10BY10
 10
96676.0
 20
482989.0
 30
0.032
  0
VERTEX
  5
6AC
  8
10BY10
 10
96686.0
 20
482989.0
 30
0.032
  0
VERTEX
  5
6AD
  8
10BY10
 10
96686.0
 20
482999.0
 30
0.032
  0
VERTEX
  5
6AE
  8
10BY10
 10
96676.0
 20
482999.0
 30
0.032
  0
SEQEND
  5
6AF
  8
10BY10
  0
POLYLINE
  5
10C
  8
10BY10
 66
     1
 10
0.0
 20
0.0
 30
0.048
 70
     1
1001
DCO15
1071
        2
1071
        2
1000
variablelink
1004
0000000000388240
  0
VERTEX
  5
6B0
  8
10BY10
 10
97754.0
 20
483385.0
 30
0.048
  0
VERTEX
  5
6B1
  8
10BY10
 10
97764.0
 20
483385.0
 30
0.048
  0
VERTEX
  5
6B2
  8
10BY10
 10
97764.0
 20
483395.0
 30
0.048
  0
VERTEX
  5
6B3
  8
10BY10
 10
97754.0
 20
483395.0
 30
0.048
  0
SEQEND
  5
6B4
  8
10BY10
  0
POLYLINE
  5
10D
  8
10BY10
 66
     1
 10
0.0
 20
0.0
 30
0.048
 70
     1
1001
DCO15
1071
        2
1071
        2
1000
variablelink
1004
0000000000408240
  0
VERTEX
  5
6B5
  8
10BY10
 10
97794.0
 20
483350.0
 30
0.048
  0
VERTEX
  5
6B6
  8
10BY10
 10
97804.0
 20
483350.0
 30
0.048
  0
VERTEX
  5
6B7
  8
10BY10
 10
97804.0
 20
483360.0
 30
0.048
  0
VERTEX
  5
6B8
  8
10BY10
 10
97794.0
 20
483360.0
 30
0.048
  0
SEQEND
  5
6B9
  8
10BY10
  0
POLYLINE
  5
10E
  8
10BY10
 66
     1
 10
0.0
 20
0.0
 30
0.32
 70
     1
1001
DCO15
1071
        2
1071
        2
1000
variablelink
1004
0000000000588240
  0
VERTEX
  5
6BA
  8
10BY10
 10
97772.0
 20
483384.0
 30
0.32
  0
VERTEX
  5
6BB
  8
10BY10
 10
97782.0
 20
483384.0
 30
0.32
  0
VERTEX
  5
6BC
  8
10BY10
 10
97782.0
 20
483394.0
 30
0.32
  0
VERTEX
  5
6BD
  8
10BY10
 10
97772.0
 20
483394.0
 30
0.32
  0
SEQEND
  5
6BE
  8
10BY10
  0
POLYLINE
  5
10F
  8
10BY10
 66
     1
 10
0.0
 20
0.0
 30
0.032
 70
     1
1001
DCO15
1071
        2
1071
        2
1000
variablelink
1004
0000000000688240
  0
VERTEX
  5
6BF
  8
10BY10
 10
97725.0
 20
483357.0
 30
0.032
  0
VERTEX
  5
6C0
  8
10BY10
 10
97735.0
 20
483357.0
 30
0.032
  0
VERTEX
  5
6C1
  8
10BY10
 10
97735.0
 20
483367.0
 30
0.032
  0
VERTEX
  5
6C2
  8
10BY10
 10
97725.0
 20
483367.0
 30
0.032
  0
SEQEND
  5
6C3
  8
10BY10
  0
POLYLINE
  5
110
  8
10BY10
 66
     1
 10
0.0
 20
0.0
 30
0.016
 70
     1
1001
DCO15
1071
        2
1071
        2
1000
variablelink
1004
0000000000788240
  0
VERTEX
  5
6C4
  8
10BY10
 10
97755.0
 20
483223.0
 30
0.016
  0
VERTEX
  5
6C5
  8
10BY10
 10
97765.0
 20
483223.0
 30
0.016
  0
VERTEX
  5
6C6
  8
10BY10
 10
97765.0
 20
483233.0
 30
0.016
  0
VERTEX
  5
6C7
  8
10BY10
 10
97755.0
 20
483233.0
 30
0.016
  0
SEQEND
  5
6C8
  8
10BY10
  0
POLYLINE
  5
111
  8
10BY10
 66
     1
 10
0.0
 20
0.0
 30
0.01
 70
     1
1001
DCO15
1071
        2
1071
        2
1000
variablelink
1004
0000000000808240
  0
VERTEX
  5
6C9
  8
10BY10
 10
94523.0
 20
483230.0
 30
0.01
  0
VERTEX
  5
6CA
  8
10BY10
 10
94533.0
 20
483230.0
 30
0.01
  0
VERTEX
  5
6CB
  8
10BY10
 10
94533.0
 20
483240.0
 30
0.01
  0
VERTEX
  5
6CC
  8
10BY10
 10
94523.0
 20
483240.0
 30
0.01
  0
SEQEND
  5
6CD
  8
10BY10
  0
POLYLINE
  5
112
  8
10BY10
 66
     1
 10
0.0
 20
0.0
 30
0.02
 70
     1
1001
DCO15
1071
        2
1071
        2
1000
variablelink
1004
0000000000888240
  0
VERTEX
  5
6CE
  8
10BY10
 10
94533.0
 20
483223.0
 30
0.02
  0
VERTEX
  5
6CF
  8
10BY10
 10
94543.0
 20
483223.0
 30
0.02
  0
VERTEX
  5
6D0
  8
10BY10
 10
94543.0
 20
483233.0
 30
0.02
  0
VERTEX
  5
6D1
  8
10BY10
 10
94533.0
 20
483233.0
 30
0.02
  0
SEQEND
  5
6D2
  8
10BY10
  0
POLYLINE
  5
113
  8
10BY10
 66
     1
 10
0.0
 20
0.0
 30
0.01
 70
     1
1001
DCO15
1071
        2
1071
        2
1000
variablelink
1004
0000000000908240
  0
VERTEX
  5
6D3
  8
10BY10
 10
94561.0
 20
483211.0
 30
0.01
  0
VERTEX
  5
6D4
  8
10BY10
 10
94571.0
 20
483211.0
 30
0.01
  0
VERTEX
  5
6D5
  8
10BY10
 10
94571.0
 20
483221.0
 30
0.01
  0
VERTEX
  5
6D6
  8
10BY10
 10
94561.0
 20
483221.0
 30
0.01
  0
SEQEND
  5
6D7
  8
10BY10
  0
POLYLINE
  5
114
  8
10BY10
 66
     1
 10
0.0
 20
0.0
 30
0.03
 70
     1
1001
DCO15
1071
        2
1071
        2
1000
variablelink
1004
0000000000A08240
  0
VERTEX
  5
6D8
  8
10BY10
 10
94409.0
 20
483273.0
 30
0.03
  0
VERTEX
  5
6D9
  8
10BY10
 10
94419.0
 20
483273.0
 30
0.03
  0
VERTEX
  5
6DA
  8
10BY10
 10
94419.0
 20
483283.0
 30
0.03
  0
VERTEX
  5
6DB
  8
10BY10
 10
94409.0
 20
483283.0
 30
0.03
  0
SEQEND
  5
6DC
  8
10BY10
  0
POLYLINE
  5
115
  8
10BY10
 66
     1
 10
0.0
 20
0.0
 30
0.02
 70
     1
1001
DCO15
1071
        2
1071
        2
1000
variablelink
1004
0000000000C08240
  0
VERTEX
  5
6DD
  8
10BY10
 10
94340.0
 20
483303.0
 30
0.02
  0
VERTEX
  5
6DE
  8
10BY10
 10
94350.0
 20
483303.0
 30
0.02
  0
VERTEX
  5
6DF
  8
10BY10
 10
94350.0
 20
483313.0
 30
0.02
  0
VERTEX
  5
6E0
  8
10BY10
 10
94340.0
 20
483313.0
 30
0.02
  0
SEQEND
  5
6E1
  8
10BY10
  0
POLYLINE
  5
116
  8
10BY10
 66
     1
 10
0.0
 20
0.0
 30
0.02
 70
     1
1001
DCO15
1071
        2
1071
        2
1000
variablelink
1004
0000000000C88240
  0
VERTEX
  5
6E2
  8
10BY10
 10
94416.0
 20
483287.0
 30
0.02
  0
VERTEX
  5
6E3
  8
10BY10
 10
94426.0
 20
483287.0
 30
0.02
  0
VERTEX
  5
6E4
  8
10BY10
 10
94426.0
 20
483297.0
 30
0.02
  0
VERTEX
  5
6E5
  8
10BY10
 10
94416.0
 20
483297.0
 30
0.02
  0
SEQEND
  5
6E6
  8
10BY10
  0
POLYLINE
  5
117
  8
10BY10
 66
     1
 10
0.0
 20
0.0
 30
0.01
 70
     1
1001
DCO15
1071
        2
1071
        2
1000
variablelink
1004
0000000000D88240
  0
VERTEX
  5
6E7
  8
10BY10
 10
94371.0
 20
483293.0
 30
0.01
  0
VERTEX
  5
6E8
  8
10BY10
 10
94381.0
 20
483293.0
 30
0.01
  0
VERTEX
  5
6E9
  8
10BY10
 10
94381.0
 20
483303.0
 30
0.01
  0
VERTEX
  5
6EA
  8
10BY10
 10
94371.0
 20
483303.0
 30
0.01
  0
SEQEND
  5
6EB
  8
10BY10
  0
POLYLINE
  5
118
  8
10BY10
 66
     1
 10
0.0
 20
0.0
 30
0.01
 70
     1
1001
DCO15
1071
        2
1071
        2
1000
variablelink
1004
0000000000B08340
  0
VERTEX
  5
6EC
  8
10BY10
 10
102664.0
 20
478742.0
 30
0.01
  0
VERTEX
  5
6ED
  8
10BY10
 10
102674.0
 20
478742.0
 30
0.01
  0
VERTEX
  5
6EE
  8
10BY10
 10
102674.0
 20
478752.0
 30
0.01
  0
VERTEX
  5
6EF
  8
10BY10
 10
102664.0
 20
478752.0
 30
0.01
  0
SEQEND
  5
6F0
  8
10BY10
  0
POLYLINE
  5
119
  8
10BY10
 66
     1
 10
0.0
 20
0.0
 30
0.5610000000000001
 70
     1
1001
DCO15
1071
        2
1071
        2
1000
variablelink
1004
0000000000008440
  0
VERTEX
  5
6F1
  8
10BY10
 10
104773.0
 20
481014.0
 30
0.5610000000000001
  0
VERTEX
  5
6F2
  8
10BY10
 10
104783.0
 20
481014.0
 30
0.5610000000000001
  0
VERTEX
  5
6F3
  8
10BY10
 10
104783.0
 20
481024.0
 30
0.5610000000000001
  0
VERTEX
  5
6F4
  8
10BY10
 10
104773.0
 20
481024.0
 30
0.5610000000000001
  0
SEQEND
  5
6F5
  8
10BY10
  0
POLYLINE
  5
11A
  8
10BY10
 66
     1
 10
0.0
 20
0.0
 30
0.4760000000000001
 70
     1
1001
DCO15
1071
        2
1071
        2
1000
variablelink
1004
0000000000088440
  0
VERTEX
  5
6F6
  8
10BY10
 10
104766.0
 20
481029.0
 30
0.4760000000000001
  0
VERTEX
  5
6F7
  8
10BY10
 10
104776.0
 20
481029.0
 30
0.4760000000000001
  0
VERTEX
  5
6F8
  8
10BY10
 10
104776.0
 20
481039.0
 30
0.4760000000000001
  0
VERTEX
  5
6F9
  8
10BY10
 10
104766.0
 20
481039.0
 30
0.4760000000000001
  0
SEQEND
  5
6FA
  8
10BY10
  0
POLYLINE
  5
11B
  8
10BY10
 66
     1
 10
0.0
 20
0.0
 30
0.578
 70
     1
1001
DCO15
1071
        2
1071
        2
1000
variablelink
1004
0000000000108440
  0
VERTEX
  5
6FB
  8
10BY10
 10
104775.0
 20
481057.0
 30
0.578
  0
VERTEX
  5
6FC
  8
10BY10
 10
104785.0
 20
481057.0
 30
0.578
  0
VERTEX
  5
6FD
  8
10BY10
 10
104785.0
 20
481067.0
 30
0.578
  0
VERTEX
  5
6FE
  8
10BY10
 10
104775.0
 20
481067.0
 30
0.578
  0
SEQEND
  5
6FF
  8
10BY10
  0
POLYLINE
  5
11C
  8
10BY10
 66
     1
 10
0.0
 20
0.0
 30
0.051
 70
     1
1001
DCO15
1071
        2
1071
        2
1000
variablelink
1004
0000000000208440
  0
VERTEX
  5
700
  8
10BY10
 10
104780.0
 20
481092.0
 30
0.051
  0
VERTEX
  5
701
  8
10BY10
 10
104790.0
 20
481092.0
 30
0.051
  0
VERTEX
  5
702
  8
10BY10
 10
104790.0
 20
481102.0
 30
0.051
  0
VERTEX
  5
703
  8
10BY10
 10
104780.0
 20
481102.0
 30
0.051
  0
SEQEND
  5
704
  8
10BY10
  0
POLYLINE
  5
11D
  8
10BY10
 66
     1
 10
0.0
 20
0.0
 30
0.034
 70
     1
1001
DCO15
1071
        2
1071
        2
1000
variablelink
1004
0000000000288440
  0
VERTEX
  5
705
  8
10BY10
 10
104732.0
 20
481072.0
 30
0.034
  0
VERTEX
  5
706
  8
10BY10
 10
104742.0
 20
481072.0
 30
0.034
  0
VERTEX
  5
707
  8
10BY10
 10
104742.0
 20
481082.0
 30
0.034
  0
VERTEX
  5
708
  8
10BY10
 10
104732.0
 20
481082.0
 30
0.034
  0
SEQEND
  5
709
  8
10BY10
  0
POLYLINE
  5
11E
  8
10BY10
 66
     1
 10
0.0
 20
0.0
 30
0.01
 70
     1
1001
DCO15
1071
        2
1071
        2
1000
variablelink
1004
0000000000A88440
  0
VERTEX
  5
70A
  8
10BY10
 10
102703.0
 20
478749.0
 30
0.01
  0
VERTEX
  5
70B
  8
10BY10
 10
102713.0
 20
478749.0
 30
0.01
  0
VERTEX
  5
70C
  8
10BY10
 10
102713.0
 20
478759.0
 30
0.01
  0
VERTEX
  5
70D
  8
10BY10
 10
102703.0
 20
478759.0
 30
0.01
  0
SEQEND
  5
70E
  8
10BY10
  0
POLYLINE
  5
11F
  8
10BY10
 66
     1
 10
0.0
 20
0.0
 30
0.02
 70
     1
1001
DCO15
1071
        2
1071
        2
1000
variablelink
1004
0000000000B08440
  0
VERTEX
  5
70F
  8
10BY10
 10
102683.0
 20
478755.0
 30
0.02
  0
VERTEX
  5
710
  8
10BY10
 10
102693.0
 20
478755.0
 30
0.02
  0
VERTEX
  5
711
  8
10BY10
 10
102693.0
 20
478765.0
 30
0.02
  0
VERTEX
  5
712
  8
10BY10
 10
102683.0
 20
478765.0
 30
0.02
  0
SEQEND
  5
713
  8
10BY10
  0
POLYLINE
  5
120
  8
10BY10
 66
     1
 10
0.0
 20
0.0
 30
0.02
 70
     1
1001
DCO15
1071
        2
1071
        2
1000
variablelink
1004
0000000000B88440
  0
VERTEX
  5
714
  8
10BY10
 10
102639.0
 20
478785.0
 30
0.02
  0
VERTEX
  5
715
  8
10BY10
 10
102649.0
 20
478785.0
 30
0.02
  0
VERTEX
  5
716
  8
10BY10
 10
102649.0
 20
478795.0
 30
0.02
  0
VERTEX
  5
717
  8
10BY10
 10
102639.0
 20
478795.0
 30
0.02
  0
SEQEND
  5
718
  8
10BY10
  0
POLYLINE
  5
121
  8
10BY10
 66
     1
 10
0.0
 20
0.0
 30
0.064
 70
     1
1001
DCO15
1071
        2
1071
        2
1000
variablelink
1004
0000000000B88540
  0
VERTEX
  5
719
  8
10BY10
 10
103108.0
 20
478892.0
 30
0.064
  0
VERTEX
  5
71A
  8
10BY10
 10
103118.0
 20
478892.0
 30
0.064
  0
VERTEX
  5
71B
  8
10BY10
 10
103118.0
 20
478902.0
 30
0.064
  0
VERTEX
  5
71C
  8
10BY10
 10
103108.0
 20
478902.0
 30
0.064
  0
SEQEND
  5
71D
  8
10BY10
  0
POLYLINE
  5
122
  8
10BY10
 66
     1
 10
0.0
 20
0.0
 30
0.144
 70
     1
1001
DCO15
1071
        2
1071
        2
1000
variablelink
1004
0000000000C08540
  0
VERTEX
  5
71E
  8
10BY10
 10
103128.0
 20
478936.0
 30
0.144
  0
VERTEX
  5
71F
  8
10BY10
 10
103138.0
 20
478936.0
 30
0.144
  0
VERTEX
  5
720
  8
10BY10
 10
103138.0
 20
478946.0
 30
0.144
  0
VERTEX
  5
721
  8
10BY10
 10
103128.0
 20
478946.0
 30
0.144
  0
SEQEND
  5
722
  8
10BY10
  0
POLYLINE
  5
123
  8
10BY10
 66
     1
 10
0.0
 20
0.0
 30
0.03
 70
     1
1001
DCO15
1071
        2
1071
        2
1000
variablelink
1004
0000000000E88540
  0
VERTEX
  5
723
  8
10BY10
 10
103136.0
 20
478901.0
 30
0.03
  0
VERTEX
  5
724
  8
10BY10
 10
103146.0
 20
478901.0
 30
0.03
  0
VERTEX
  5
725
  8
10BY10
 10
103146.0
 20
478911.0
 30
0.03
  0
VERTEX
  5
726
  8
10BY10
 10
103136.0
 20
478911.0
 30
0.03
  0
SEQEND
  5
727
  8
10BY10
  0
POLYLINE
  5
124
  8
10BY10
 66
     1
 10
0.0
 20
0.0
 30
0.16
 70
     1
1001
DCO15
1071
        2
1071
        2
1000
variablelink
1004
0000000000F08540
  0
VERTEX
  5
728
  8
10BY10
 10
103129.0
 20
478883.0
 30
0.16
  0
VERTEX
  5
729
  8
10BY10
 10
103139.0
 20
478883.0
 30
0.16
  0
VERTEX
  5
72A
  8
10BY10
 10
103139.0
 20
478893.0
 30
0.16
  0
VERTEX
  5
72B
  8
10BY10
 10
103129.0
 20
478893.0
 30
0.16
  0
SEQEND
  5
72C
  8
10BY10
  0
POLYLINE
  5
125
  8
10BY10
 66
     1
 10
0.0
 20
0.0
 30
0.11
 70
     1
1001
DCO15
1071
        2
1071
        2
1000
variablelink
1004
0000000000188640
  0
VERTEX
  5
72D
  8
10BY10
 10
103130.0
 20
478923.0
 30
0.11
  0
VERTEX
  5
72E
  8
10BY10
 10
103140.0
 20
478923.0
 30
0.11
  0
VERTEX
  5
72F
  8
10BY10
 10
103140.0
 20
478933.0
 30
0.11
  0
VERTEX
  5
730
  8
10BY10
 10
103130.0
 20
478933.0
 30
0.11
  0
SEQEND
  5
731
  8
10BY10
  0
POLYLINE
  5
126
  8
10BY10
 66
     1
 10
0.0
 20
0.0
 30
0.06
 70
     1
1001
DCO15
1071
        2
1071
        2
1000
variablelink
1004
0000000000208640
  0
VERTEX
  5
732
  8
10BY10
 10
103146.0
 20
478913.0
 30
0.06
  0
VERTEX
  5
733
  8
10BY10
 10
103156.0
 20
478913.0
 30
0.06
  0
VERTEX
  5
734
  8
10BY10
 10
103156.0
 20
478923.0
 30
0.06
  0
VERTEX
  5
735
  8
10BY10
 10
103146.0
 20
478923.0
 30
0.06
  0
SEQEND
  5
736
  8
10BY10
  0
POLYLINE
  5
127
  8
10BY10
 66
     1
 10
0.0
 20
0.0
 30
0.1
 70
     1
1001
DCO15
1071
        2
1071
        2
1000
variablelink
1004
0000000000288640
  0
VERTEX
  5
737
  8
10BY10
 10
103126.0
 20
478903.0
 30
0.1
  0
VERTEX
  5
738
  8
10BY10
 10
103136.0
 20
478903.0
 30
0.1
  0
VERTEX
  5
739
  8
10BY10
 10
103136.0
 20
478913.0
 30
0.1
  0
VERTEX
  5
73A
  8
10BY10
 10
103126.0
 20
478913.0
 30
0.1
  0
SEQEND
  5
73B
  8
10BY10
  0
POLYLINE
  5
128
  8
10BY10
 66
     1
 10
0.0
 20
0.0
 30
0.15
 70
     1
1001
DCO15
1071
        2
1071
        2
1000
variablelink
1004
0000000000308640
  0
VERTEX
  5
73C
  8
10BY10
 10
103136.0
 20
478913.0
 30
0.15
  0
VERTEX
  5
73D
  8
10BY10
 10
103146.0
 20
478913.0
 30
0.15
  0
VERTEX
  5
73E
  8
10BY10
 10
103146.0
 20
478923.0
 30
0.15
  0
VERTEX
  5
73F
  8
10BY10
 10
103136.0
 20
478923.0
 30
0.15
  0
SEQEND
  5
740
  8
10BY10
  0
POLYLINE
  5
129
  8
10BY10
 66
     1
 10
0.0
 20
0.0
 30
0.05
 70
     1
1001
DCO15
1071
        2
1071
        2
1000
variablelink
1004
0000000000388640
  0
VERTEX
  5
741
  8
10BY10
 10
103125.0
 20
478893.0
 30
0.05
  0
VERTEX
  5
742
  8
10BY10
 10
103135.0
 20
478893.0
 30
0.05
  0
VERTEX
  5
743
  8
10BY10
 10
103135.0
 20
478903.0
 30
0.05
  0
VERTEX
  5
744
  8
10BY10
 10
103125.0
 20
478903.0
 30
0.05
  0
SEQEND
  5
745
  8
10BY10
  0
POLYLINE
  5
12A
  8
10BY10
 66
     1
 10
0.0
 20
0.0
 30
0.06
 70
     1
1001
DCO15
1071
        2
1071
        2
1000
variablelink
1004
0000000000408640
  0
VERTEX
  5
746
  8
10BY10
 10
103121.0
 20
478863.0
 30
0.06
  0
VERTEX
  5
747
  8
10BY10
 10
103131.0
 20
478863.0
 30
0.06
  0
VERTEX
  5
748
  8
10BY10
 10
103131.0
 20
478873.0
 30
0.06
  0
VERTEX
  5
749
  8
10BY10
 10
103121.0
 20
478873.0
 30
0.06
  0
SEQEND
  5
74A
  8
10BY10
  0
POLYLINE
  5
12B
  8
10BY10
 66
     1
 10
0.0
 20
0.0
 30
0.05
 70
     1
1001
DCO15
1071
        2
1071
        2
1000
variablelink
1004
0000000000B88740
  0
VERTEX
  5
74B
  8
10BY10
 10
101409.0
 20
484536.0
 30
0.05
  0
VERTEX
  5
74C
  8
10BY10
 10
101419.0
 20
484536.0
 30
0.05
  0
VERTEX
  5
74D
  8
10BY10
 10
101419.0
 20
484546.0
 30
0.05
  0
VERTEX
  5
74E
  8
10BY10
 10
101409.0
 20
484546.0
 30
0.05
  0
SEQEND
  5
74F
  8
10BY10
  0
POLYLINE
  5
12C
  8
10BY10
 66
     1
 10
0.0
 20
0.0
 30
0.08
 70
     1
1001
DCO15
1071
        2
1071
        2
1000
variablelink
1004
0000000000C08740
  0
VERTEX
  5
750
  8
10BY10
 10
101412.0
 20
484560.0
 30
0.08
  0
VERTEX
  5
751
  8
10BY10
 10
101422.0
 20
484560.0
 30
0.08
  0
VERTEX
  5
752
  8
10BY10
 10
101422.0
 20
484570.0
 30
0.08
  0
VERTEX
  5
753
  8
10BY10
 10
101412.0
 20
484570.0
 30
0.08
  0
SEQEND
  5
754
  8
10BY10
  0
POLYLINE
  5
12D
  8
10BY10
 66
     1
 10
0.0
 20
0.0
 30
0.05
 70
     1
1001
DCO15
1071
        2
1071
        2
1000
variablelink
1004
0000000000D88740
  0
VERTEX
  5
755
  8
10BY10
 10
101373.0
 20
484518.0
 30
0.05
  0
VERTEX
  5
756
  8
10BY10
 10
101383.0
 20
484518.0
 30
0.05
  0
VERTEX
  5
757
  8
10BY10
 10
101383.0
 20
484528.0
 30
0.05
  0
VERTEX
  5
758
  8
10BY10
 10
101373.0
 20
484528.0
 30
0.05
  0
SEQEND
  5
759
  8
10BY10
  0
POLYLINE
  5
12E
  8
10BY10
 66
     1
 10
0.0
 20
0.0
 30
0.01
 70
     1
1001
DCO15
1071
        2
1071
        2
1000
variablelink
1004
0000000000F08740
  0
VERTEX
  5
75A
  8
10BY10
 10
101263.0
 20
484501.0
 30
0.01
  0
VERTEX
  5
75B
  8
10BY10
 10
101273.0
 20
484501.0
 30
0.01
  0
VERTEX
  5
75C
  8
10BY10
 10
101273.0
 20
484511.0
 30
0.01
  0
VERTEX
  5
75D
  8
10BY10
 10
101263.0
 20
484511.0
 30
0.01
  0
SEQEND
  5
75E
  8
10BY10
  0
POLYLINE
  5
12F
  8
10BY10
 66
     1
 10
0.0
 20
0.0
 30
0.06
 70
     1
1001
DCO15
1071
        2
1071
        2
1000
variablelink
1004
0000000000688940
  0
VERTEX
  5
75F
  8
10BY10
 10
85804.0
 20
497001.0
 30
0.06
  0
VERTEX
  5
760
  8
10BY10
 10
85814.0
 20
497001.0
 30
0.06
  0
VERTEX
  5
761
  8
10BY10
 10
85814.0
 20
497011.0
 30
0.06
  0
VERTEX
  5
762
  8
10BY10
 10
85804.0
 20
497011.0
 30
0.06
  0
SEQEND
  5
763
  8
10BY10
  0
POLYLINE
  5
130
  8
10BY10
 66
     1
 10
0.0
 20
0.0
 30
0.02
 70
     1
1001
DCO15
1071
        2
1071
        2
1000
variablelink
1004
0000000000788940
  0
VERTEX
  5
764
  8
10BY10
 10
85202.0
 20
497066.0
 30
0.02
  0
VERTEX
  5
765
  8
10BY10
 10
85212.0
 20
497066.0
 30
0.02
  0
VERTEX
  5
766
  8
10BY10
 10
85212.0
 20
497076.0
 30
0.02
  0
VERTEX
  5
767
  8
10BY10
 10
85202.0
 20
497076.0
 30
0.02
  0
SEQEND
  5
768
  8
10BY10
  0
POLYLINE
  5
131
  8
10BY10
 66
     1
 10
0.0
 20
0.0
 30
0.05
 70
     1
1001
DCO15
1071
        2
1071
        2
1000
variablelink
1004
0000000000908940
  0
VERTEX
  5
769
  8
10BY10
 10
85161.0
 20
497034.0
 30
0.05
  0
VERTEX
  5
76A
  8
10BY10
 10
85171.0
 20
497034.0
 30
0.05
  0
VERTEX
  5
76B
  8
10BY10
 10
85171.0
 20
497044.0
 30
0.05
  0
VERTEX
  5
76C
  8
10BY10
 10
85161.0
 20
497044.0
 30
0.05
  0
SEQEND
  5
76D
  8
10BY10
  0
POLYLINE
  5
132
  8
10BY10
 66
     1
 10
0.0
 20
0.0
 30
0.29
 70
     1
1001
DCO15
1071
        2
1071
        2
1000
variablelink
1004
0000000000B08940
  0
VERTEX
  5
76E
  8
10BY10
 10
85177.0
 20
497010.0
 30
0.29
  0
VERTEX
  5
76F
  8
10BY10
 10
85187.0
 20
497010.0
 30
0.29
  0
VERTEX
  5
770
  8
10BY10
 10
85187.0
 20
497020.0
 30
0.29
  0
VERTEX
  5
771
  8
10BY10
 10
85177.0
 20
497020.0
 30
0.29
  0
SEQEND
  5
772
  8
10BY10
  0
POLYLINE
  5
133
  8
10BY10
 66
     1
 10
0.0
 20
0.0
 30
0.051
 70
     1
1001
DCO15
1071
        2
1071
        2
1000
variablelink
1004
0000000000C08940
  0
VERTEX
  5
773
  8
10BY10
 10
85471.0
 20
497034.0
 30
0.051
  0
VERTEX
  5
774
  8
10BY10
 10
85481.0
 20
497034.0
 30
0.051
  0
VERTEX
  5
775
  8
10BY10
 10
85481.0
 20
497044.0
 30
0.051
  0
VERTEX
  5
776
  8
10BY10
 10
85471.0
 20
497044.0
 30
0.051
  0
SEQEND
  5
777
  8
10BY10
  0
POLYLINE
  5
134
  8
10BY10
 66
     1
 10
0.0
 20
0.0
 30
0.04
 70
     1
1001
DCO15
1071
        2
1071
        2
1000
variablelink
1004
0000000000D88940
  0
VERTEX
  5
778
  8
10BY10
 10
85190.0
 20
497013.0
 30
0.04
  0
VERTEX
  5
779
  8
10BY10
 10
85200.0
 20
497013.0
 30
0.04
  0
VERTEX
  5
77A
  8
10BY10
 10
85200.0
 20
497023.0
 30
0.04
  0
VERTEX
  5
77B
  8
10BY10
 10
85190.0
 20
497023.0
 30
0.04
  0
SEQEND
  5
77C
  8
10BY10
  0
POLYLINE
  5
135
  8
10BY10
 66
     1
 10
0.0
 20
0.0
 30
0.02
 70
     1
1001
DCO15
1071
        2
1071
        2
1000
variablelink
1004
0000000000A08A40
  0
VERTEX
  5
77D
  8
10BY10
 10
89949.0
 20
494329.0
 30
0.02
  0
VERTEX
  5
77E
  8
10BY10
 10
89959.0
 20
494329.0
 30
0.02
  0
VERTEX
  5
77F
  8
10BY10
 10
89959.0
 20
494339.0
 30
0.02
  0
VERTEX
  5
780
  8
10BY10
 10
89949.0
 20
494339.0
 30
0.02
  0
SEQEND
  5
781
  8
10BY10
  0
POLYLINE
  5
136
  8
10BY10
 66
     1
 10
0.0
 20
0.0
 30
0.01
 70
     1
1001
DCO15
1071
        2
1071
        2
1000
variablelink
1004
0000000000888B40
  0
VERTEX
  5
782
  8
10BY10
 10
81101.0
 20
495519.0
 30
0.01
  0
VERTEX
  5
783
  8
10BY10
 10
81111.0
 20
495519.0
 30
0.01
  0
VERTEX
  5
784
  8
10BY10
 10
81111.0
 20
495529.0
 30
0.01
  0
VERTEX
  5
785
  8
10BY10
 10
81101.0
 20
495529.0
 30
0.01
  0
SEQEND
  5
786
  8
10BY10
  0
POLYLINE
  5
137
  8
10BY10
 66
     1
 10
0.0
 20
0.0
 30
0.08
 70
     1
1001
DCO15
1071
        2
1071
        2
1000
variablelink
1004
0000000000B08B40
  0
VERTEX
  5
787
  8
10BY10
 10
80970.0
 20
495308.0
 30
0.08
  0
VERTEX
  5
788
  8
10BY10
 10
80980.0
 20
495308.0
 30
0.08
  0
VERTEX
  5
789
  8
10BY10
 10
80980.0
 20
495318.0
 30
0.08
  0
VERTEX
  5
78A
  8
10BY10
 10
80970.0
 20
495318.0
 30
0.08
  0
SEQEND
  5
78B
  8
10BY10
  0
POLYLINE
  5
138
  8
10BY10
 66
     1
 10
0.0
 20
0.0
 30
0.04
 70
     1
1001
DCO15
1071
        2
1071
        2
1000
variablelink
1004
0000000000B88B40
  0
VERTEX
  5
78C
  8
10BY10
 10
81083.0
 20
495350.0
 30
0.04
  0
VERTEX
  5
78D
  8
10BY10
 10
81093.0
 20
495350.0
 30
0.04
  0
VERTEX
  5
78E
  8
10BY10
 10
81093.0
 20
495360.0
 30
0.04
  0
VERTEX
  5
78F
  8
10BY10
 10
81083.0
 20
495360.0
 30
0.04
  0
SEQEND
  5
790
  8
10BY10
  0
POLYLINE
  5
139
  8
10BY10
 66
     1
 10
0.0
 20
0.0
 30
0.03
 70
     1
1001
DCO15
1071
        2
1071
        2
1000
variablelink
1004
0000000000C08B40
  0
VERTEX
  5
791
  8
10BY10
 10
80966.0
 20
495318.0
 30
0.03
  0
VERTEX
  5
792
  8
10BY10
 10
80976.0
 20
495318.0
 30
0.03
  0
VERTEX
  5
793
  8
10BY10
 10
80976.0
 20
495328.0
 30
0.03
  0
VERTEX
  5
794
  8
10BY10
 10
80966.0
 20
495328.0
 30
0.03
  0
SEQEND
  5
795
  8
10BY10
  0
POLYLINE
  5
13A
  8
10BY10
 66
     1
 10
0.0
 20
0.0
 30
0.07
 70
     1
1001
DCO15
1071
        2
1071
        2
1000
variablelink
1004
0000000000008C40
  0
VERTEX
  5
796
  8
10BY10
 10
81117.0
 20
495532.0
 30
0.07
  0
VERTEX
  5
797
  8
10BY10
 10
81127.0
 20
495532.0
 30
0.07
  0
VERTEX
  5
798
  8
10BY10
 10
81127.0
 20
495542.0
 30
0.07
  0
VERTEX
  5
799
  8
10BY10
 10
81117.0
 20
495542.0
 30
0.07
  0
SEQEND
  5
79A
  8
10BY10
  0
POLYLINE
  5
13B
  8
10BY10
 66
     1
 10
0.0
 20
0.0
 30
0.08
 70
     1
1001
DCO15
1071
        2
1071
        2
1000
variablelink
1004
0000000000088C40
  0
VERTEX
  5
79B
  8
10BY10
 10
81123.0
 20
495497.0
 30
0.08
  0
VERTEX
  5
79C
  8
10BY10
 10
81133.0
 20
495497.0
 30
0.08
  0
VERTEX
  5
79D
  8
10BY10
 10
81133.0
 20
495507.0
 30
0.08
  0
VERTEX
  5
79E
  8
10BY10
 10
81123.0
 20
495507.0
 30
0.08
  0
SEQEND
  5
79F
  8
10BY10
  0
POLYLINE
  5
13C
  8
10BY10
 66
     1
 10
0.0
 20
0.0
 30
0.03
 70
     1
1001
DCO15
1071
        2
1071
        2
1000
variablelink
1004
0000000000108C40
  0
VERTEX
  5
7A0
  8
10BY10
 10
81157.0
 20
495349.0
 30
0.03
  0
VERTEX
  5
7A1
  8
10BY10
 10
81167.0
 20
495349.0
 30
0.03
  0
VERTEX
  5
7A2
  8
10BY10
 10
81167.0
 20
495359.0
 30
0.03
  0
VERTEX
  5
7A3
  8
10BY10
 10
81157.0
 20
495359.0
 30
0.03
  0
SEQEND
  5
7A4
  8
10BY10
  0
POLYLINE
  5
13D
  8
10BY10
 66
     1
 10
0.0
 20
0.0
 30
0.02
 70
     1
1001
DCO15
1071
        2
1071
        2
1000
variablelink
1004
0000000000208C40
  0
VERTEX
  5
7A5
  8
10BY10
 10
81138.0
 20
495244.0
 30
0.02
  0
VERTEX
  5
7A6
  8
10BY10
 10
81148.0
 20
495244.0
 30
0.02
  0
VERTEX
  5
7A7
  8
10BY10
 10
81148.0
 20
495254.0
 30
0.02
  0
VERTEX
  5
7A8
  8
10BY10
 10
81138.0
 20
495254.0
 30
0.02
  0
SEQEND
  5
7A9
  8
10BY10
  0
POLYLINE
  5
13E
  8
10BY10
 66
     1
 10
0.0
 20
0.0
 30
0.12
 70
     1
1001
DCO15
1071
        2
1071
        2
1000
variablelink
1004
0000000000308C40
  0
VERTEX
  5
7AA
  8
10BY10
 10
81128.0
 20
495300.0
 30
0.12
  0
VERTEX
  5
7AB
  8
10BY10
 10
81138.0
 20
495300.0
 30
0.12
  0
VERTEX
  5
7AC
  8
10BY10
 10
81138.0
 20
495310.0
 30
0.12
  0
VERTEX
  5
7AD
  8
10BY10
 10
81128.0
 20
495310.0
 30
0.12
  0
SEQEND
  5
7AE
  8
10BY10
  0
POLYLINE
  5
13F
  8
10BY10
 66
     1
 10
0.0
 20
0.0
 30
0.04
 70
     1
1001
DCO15
1071
        2
1071
        2
1000
variablelink
1004
0000000000388C40
  0
VERTEX
  5
7AF
  8
10BY10
 10
81116.0
 20
495351.0
 30
0.04
  0
VERTEX
  5
7B0
  8
10BY10
 10
81126.0
 20
495351.0
 30
0.04
  0
VERTEX
  5
7B1
  8
10BY10
 10
81126.0
 20
495361.0
 30
0.04
  0
VERTEX
  5
7B2
  8
10BY10
 10
81116.0
 20
495361.0
 30
0.04
  0
SEQEND
  5
7B3
  8
10BY10
  0
POLYLINE
  5
140
  8
10BY10
 66
     1
 10
0.0
 20
0.0
 30
0.04
 70
     1
1001
DCO15
1071
        2
1071
        2
1000
variablelink
1004
0000000000408C40
  0
VERTEX
  5
7B4
  8
10BY10
 10
80998.0
 20
495316.0
 30
0.04
  0
VERTEX
  5
7B5
  8
10BY10
 10
81008.0
 20
495316.0
 30
0.04
  0
VERTEX
  5
7B6
  8
10BY10
 10
81008.0
 20
495326.0
 30
0.04
  0
VERTEX
  5
7B7
  8
10BY10
 10
80998.0
 20
495326.0
 30
0.04
  0
SEQEND
  5
7B8
  8
10BY10
  0
POLYLINE
  5
141
  8
10BY10
 66
     1
 10
0.0
 20
0.0
 30
0.03
 70
     1
1001
DCO15
1071
        2
1071
        2
1000
variablelink
1004
0000000000488C40
  0
VERTEX
  5
7B9
  8
10BY10
 10
80986.0
 20
495389.0
 30
0.03
  0
VERTEX
  5
7BA
  8
10BY10
 10
80996.0
 20
495389.0
 30
0.03
  0
VERTEX
  5
7BB
  8
10BY10
 10
80996.0
 20
495399.0
 30
0.03
  0
VERTEX
  5
7BC
  8
10BY10
 10
80986.0
 20
495399.0
 30
0.03
  0
SEQEND
  5
7BD
  8
10BY10
  0
POLYLINE
  5
142
  8
10BY10
 66
     1
 10
0.0
 20
0.0
 30
0.13
 70
     1
1001
DCO15
1071
        2
1071
        2
1000
variablelink
1004
0000000000508C40
  0
VERTEX
  5
7BE
  8
10BY10
 10
80956.0
 20
495362.0
 30
0.13
  0
VERTEX
  5
7BF
  8
10BY10
 10
80966.0
 20
495362.0
 30
0.13
  0
VERTEX
  5
7C0
  8
10BY10
 10
80966.0
 20
495372.0
 30
0.13
  0
VERTEX
  5
7C1
  8
10BY10
 10
80956.0
 20
495372.0
 30
0.13
  0
SEQEND
  5
7C2
  8
10BY10
  0
POLYLINE
  5
143
  8
10BY10
 66
     1
 10
0.0
 20
0.0
 30
0.01
 70
     1
1001
DCO15
1071
        2
1071
        2
1000
variablelink
1004
0000000000588C40
  0
VERTEX
  5
7C3
  8
10BY10
 10
80970.0
 20
495338.0
 30
0.01
  0
VERTEX
  5
7C4
  8
10BY10
 10
80980.0
 20
495338.0
 30
0.01
  0
VERTEX
  5
7C5
  8
10BY10
 10
80980.0
 20
495348.0
 30
0.01
  0
VERTEX
  5
7C6
  8
10BY10
 10
80970.0
 20
495348.0
 30
0.01
  0
SEQEND
  5
7C7
  8
10BY10
  0
POLYLINE
  5
144
  8
10BY10
 66
     1
 10
0.0
 20
0.0
 30
0.01
 70
     1
1001
DCO15
1071
        2
1071
        2
1000
variablelink
1004
0000000000708C40
  0
VERTEX
  5
7C8
  8
10BY10
 10
81117.0
 20
495366.0
 30
0.01
  0
VERTEX
  5
7C9
  8
10BY10
 10
81127.0
 20
495366.0
 30
0.01
  0
VERTEX
  5
7CA
  8
10BY10
 10
81127.0
 20
495376.0
 30
0.01
  0
VERTEX
  5
7CB
  8
10BY10
 10
81117.0
 20
495376.0
 30
0.01
  0
SEQEND
  5
7CC
  8
10BY10
  0
POLYLINE
  5
145
  8
10BY10
 66
     1
 10
0.0
 20
0.0
 30
0.02
 70
     1
1001
DCO15
1071
        2
1071
        2
1000
variablelink
1004
0000000000788C40
  0
VERTEX
  5
7CD
  8
10BY10
 10
81101.0
 20
495371.0
 30
0.02
  0
VERTEX
  5
7CE
  8
10BY10
 10
81111.0
 20
495371.0
 30
0.02
  0
VERTEX
  5
7CF
  8
10BY10
 10
81111.0
 20
495381.0
 30
0.02
  0
VERTEX
  5
7D0
  8
10BY10
 10
81101.0
 20
495381.0
 30
0.02
  0
SEQEND
  5
7D1
  8
10BY10
  0
POLYLINE
  5
146
  8
10BY10
 66
     1
 10
0.0
 20
0.0
 30
0.03
 70
     1
1001
DCO15
1071
        2
1071
        2
1000
variablelink
1004
0000000000808C40
  0
VERTEX
  5
7D2
  8
10BY10
 10
81090.0
 20
495414.0
 30
0.03
  0
VERTEX
  5
7D3
  8
10BY10
 10
81100.0
 20
495414.0
 30
0.03
  0
VERTEX
  5
7D4
  8
10BY10
 10
81100.0
 20
495424.0
 30
0.03
  0
VERTEX
  5
7D5
  8
10BY10
 10
81090.0
 20
495424.0
 30
0.03
  0
SEQEND
  5
7D6
  8
10BY10
  0
POLYLINE
  5
147
  8
10BY10
 66
     1
 10
0.0
 20
0.0
 30
0.1
 70
     1
1001
DCO15
1071
        2
1071
        2
1000
variablelink
1004
0000000000888C40
  0
VERTEX
  5
7D7
  8
10BY10
 10
81084.0
 20
495435.0
 30
0.1
  0
VERTEX
  5
7D8
  8
10BY10
 10
81094.0
 20
495435.0
 30
0.1
  0
VERTEX
  5
7D9
  8
10BY10
 10
81094.0
 20
495445.0
 30
0.1
  0
VERTEX
  5
7DA
  8
10BY10
 10
81084.0
 20
495445.0
 30
0.1
  0
SEQEND
  5
7DB
  8
10BY10
  0
POLYLINE
  5
148
  8
10BY10
 66
     1
 10
0.0
 20
0.0
 30
0.04
 70
     1
1001
DCO15
1071
        2
1071
        2
1000
variablelink
1004
0000000000908C40
  0
VERTEX
  5
7DC
  8
10BY10
 10
81082.0
 20
495374.0
 30
0.04
  0
VERTEX
  5
7DD
  8
10BY10
 10
81092.0
 20
495374.0
 30
0.04
  0
VERTEX
  5
7DE
  8
10BY10
 10
81092.0
 20
495384.0
 30
0.04
  0
VERTEX
  5
7DF
  8
10BY10
 10
81082.0
 20
495384.0
 30
0.04
  0
SEQEND
  5
7E0
  8
10BY10
  0
POLYLINE
  5
149
  8
10BY10
 66
     1
 10
0.0
 20
0.0
 30
0.01
 70
     1
1001
DCO15
1071
        2
1071
        2
1000
variablelink
1004
0000000000A08C40
  0
VERTEX
  5
7E1
  8
10BY10
 10
81016.0
 20
495332.0
 30
0.01
  0
VERTEX
  5
7E2
  8
10BY10
 10
81026.0
 20
495332.0
 30
0.01
  0
VERTEX
  5
7E3
  8
10BY10
 10
81026.0
 20
495342.0
 30
0.01
  0
VERTEX
  5
7E4
  8
10BY10
 10
81016.0
 20
495342.0
 30
0.01
  0
SEQEND
  5
7E5
  8
10BY10
  0
POLYLINE
  5
14A
  8
10BY10
 66
     1
 10
0.0
 20
0.0
 30
0.02
 70
     1
1001
DCO15
1071
        2
1071
        2
1000
variablelink
1004
0000000000B08C40
  0
VERTEX
  5
7E6
  8
10BY10
 10
81000.0
 20
495380.0
 30
0.02
  0
VERTEX
  5
7E7
  8
10BY10
 10
81010.0
 20
495380.0
 30
0.02
  0
VERTEX
  5
7E8
  8
10BY10
 10
81010.0
 20
495390.0
 30
0.02
  0
VERTEX
  5
7E9
  8
10BY10
 10
81000.0
 20
495390.0
 30
0.02
  0
SEQEND
  5
7EA
  8
10BY10
  0
POLYLINE
  5
14B
  8
10BY10
 66
     1
 10
0.0
 20
0.0
 30
0.01
 70
     1
1001
DCO15
1071
        2
1071
        2
1000
variablelink
1004
0000000000C08C40
  0
VERTEX
  5
7EB
  8
10BY10
 10
81204.0
 20
495639.0
 30
0.01
  0
VERTEX
  5
7EC
  8
10BY10
 10
81214.0
 20
495639.0
 30
0.01
  0
VERTEX
  5
7ED
  8
10BY10
 10
81214.0
 20
495649.0
 30
0.01
  0
VERTEX
  5
7EE
  8
10BY10
 10
81204.0
 20
495649.0
 30
0.01
  0
SEQEND
  5
7EF
  8
10BY10
  0
POLYLINE
  5
14C
  8
10BY10
 66
     1
 10
0.0
 20
0.0
 30
0.06
 70
     1
1001
DCO15
1071
        2
1071
        2
1000
variablelink
1004
0000000000D08C40
  0
VERTEX
  5
7F0
  8
10BY10
 10
81100.0
 20
495467.0
 30
0.06
  0
VERTEX
  5
7F1
  8
10BY10
 10
81110.0
 20
495467.0
 30
0.06
  0
VERTEX
  5
7F2
  8
10BY10
 10
81110.0
 20
495477.0
 30
0.06
  0
VERTEX
  5
7F3
  8
10BY10
 10
81100.0
 20
495477.0
 30
0.06
  0
SEQEND
  5
7F4
  8
10BY10
  0
POLYLINE
  5
14D
  8
10BY10
 66
     1
 10
0.0
 20
0.0
 30
0.03
 70
     1
1001
DCO15
1071
        2
1071
        2
1000
variablelink
1004
0000000000E08C40
  0
VERTEX
  5
7F5
  8
10BY10
 10
81130.0
 20
495326.0
 30
0.03
  0
VERTEX
  5
7F6
  8
10BY10
 10
81140.0
 20
495326.0
 30
0.03
  0
VERTEX
  5
7F7
  8
10BY10
 10
81140.0
 20
495336.0
 30
0.03
  0
VERTEX
  5
7F8
  8
10BY10
 10
81130.0
 20
495336.0
 30
0.03
  0
SEQEND
  5
7F9
  8
10BY10
  0
POLYLINE
  5
14E
  8
10BY10
 66
     1
 10
0.0
 20
0.0
 30
0.07
 70
     1
1001
DCO15
1071
        2
1071
        2
1000
variablelink
1004
0000000000E88C40
  0
VERTEX
  5
7FA
  8
10BY10
 10
81083.0
 20
495290.0
 30
0.07
  0
VERTEX
  5
7FB
  8
10BY10
 10
81093.0
 20
495290.0
 30
0.07
  0
VERTEX
  5
7FC
  8
10BY10
 10
81093.0
 20
495300.0
 30
0.07
  0
VERTEX
  5
7FD
  8
10BY10
 10
81083.0
 20
495300.0
 30
0.07
  0
SEQEND
  5
7FE
  8
10BY10
  0
POLYLINE
  5
14F
  8
10BY10
 66
     1
 10
0.0
 20
0.0
 30
0.05
 70
     1
1001
DCO15
1071
        2
1071
        2
1000
variablelink
1004
0000000000F08C40
  0
VERTEX
  5
7FF
  8
10BY10
 10
81074.0
 20
495321.0
 30
0.05
  0
VERTEX
  5
800
  8
10BY10
 10
81084.0
 20
495321.0
 30
0.05
  0
VERTEX
  5
801
  8
10BY10
 10
81084.0
 20
495331.0
 30
0.05
  0
VERTEX
  5
802
  8
10BY10
 10
81074.0
 20
495331.0
 30
0.05
  0
SEQEND
  5
803
  8
10BY10
  0
POLYLINE
  5
150
  8
10BY10
 66
     1
 10
0.0
 20
0.0
 30
0.04
 70
     1
1001
DCO15
1071
        2
1071
        2
1000
variablelink
1004
0000000000008D40
  0
VERTEX
  5
804
  8
10BY10
 10
81087.0
 20
495404.0
 30
0.04
  0
VERTEX
  5
805
  8
10BY10
 10
81097.0
 20
495404.0
 30
0.04
  0
VERTEX
  5
806
  8
10BY10
 10
81097.0
 20
495414.0
 30
0.04
  0
VERTEX
  5
807
  8
10BY10
 10
81087.0
 20
495414.0
 30
0.04
  0
SEQEND
  5
808
  8
10BY10
  0
POLYLINE
  5
151
  8
10BY10
 66
     1
 10
0.0
 20
0.0
 30
0.19
 70
     1
1001
DCO15
1071
        2
1071
        2
1000
variablelink
1004
0000000000088D40
  0
VERTEX
  5
809
  8
10BY10
 10
81094.0
 20
495427.0
 30
0.19
  0
VERTEX
  5
80A
  8
10BY10
 10
81104.0
 20
495427.0
 30
0.19
  0
VERTEX
  5
80B
  8
10BY10
 10
81104.0
 20
495437.0
 30
0.19
  0
VERTEX
  5
80C
  8
10BY10
 10
81094.0
 20
495437.0
 30
0.19
  0
SEQEND
  5
80D
  8
10BY10
  0
POLYLINE
  5
152
  8
10BY10
 66
     1
 10
0.0
 20
0.0
 30
0.03
 70
     1
1001
DCO15
1071
        2
1071
        2
1000
variablelink
1004
0000000000108D40
  0
VERTEX
  5
80E
  8
10BY10
 10
81008.0
 20
495308.0
 30
0.03
  0
VERTEX
  5
80F
  8
10BY10
 10
81018.0
 20
495308.0
 30
0.03
  0
VERTEX
  5
810
  8
10BY10
 10
81018.0
 20
495318.0
 30
0.03
  0
VERTEX
  5
811
  8
10BY10
 10
81008.0
 20
495318.0
 30
0.03
  0
SEQEND
  5
812
  8
10BY10
  0
POLYLINE
  5
153
  8
10BY10
 66
     1
 10
0.0
 20
0.0
 30
0.01
 70
     1
1001
DCO15
1071
        2
1071
        2
1000
variablelink
1004
0000000000188D40
  0
VERTEX
  5
813
  8
10BY10
 10
81003.0
 20
495335.0
 30
0.01
  0
VERTEX
  5
814
  8
10BY10
 10
81013.0
 20
495335.0
 30
0.01
  0
VERTEX
  5
815
  8
10BY10
 10
81013.0
 20
495345.0
 30
0.01
  0
VERTEX
  5
816
  8
10BY10
 10
81003.0
 20
495345.0
 30
0.01
  0
SEQEND
  5
817
  8
10BY10
  0
POLYLINE
  5
154
  8
10BY10
 66
     1
 10
0.0
 20
0.0
 30
0.02
 70
     1
1001
DCO15
1071
        2
1071
        2
1000
variablelink
1004
0000000000208D40
  0
VERTEX
  5
818
  8
10BY10
 10
80984.0
 20
495414.0
 30
0.02
  0
VERTEX
  5
819
  8
10BY10
 10
80994.0
 20
495414.0
 30
0.02
  0
VERTEX
  5
81A
  8
10BY10
 10
80994.0
 20
495424.0
 30
0.02
  0
VERTEX
  5
81B
  8
10BY10
 10
80984.0
 20
495424.0
 30
0.02
  0
SEQEND
  5
81C
  8
10BY10
  0
POLYLINE
  5
155
  8
10BY10
 66
     1
 10
0.0
 20
0.0
 30
0.05
 70
     1
1001
DCO15
1071
        2
1071
        2
1000
variablelink
1004
0000000000288D40
  0
VERTEX
  5
81D
  8
10BY10
 10
80958.0
 20
495398.0
 30
0.05
  0
VERTEX
  5
81E
  8
10BY10
 10
80968.0
 20
495398.0
 30
0.05
  0
VERTEX
  5
81F
  8
10BY10
 10
80968.0
 20
495408.0
 30
0.05
  0
VERTEX
  5
820
  8
10BY10
 10
80958.0
 20
495408.0
 30
0.05
  0
SEQEND
  5
821
  8
10BY10
  0
POLYLINE
  5
156
  8
10BY10
 66
     1
 10
0.0
 20
0.0
 30
0.07
 70
     1
1001
DCO15
1071
        2
1071
        2
1000
variablelink
1004
0000000000308D40
  0
VERTEX
  5
822
  8
10BY10
 10
80958.0
 20
495376.0
 30
0.07
  0
VERTEX
  5
823
  8
10BY10
 10
80968.0
 20
495376.0
 30
0.07
  0
VERTEX
  5
824
  8
10BY10
 10
80968.0
 20
495386.0
 30
0.07
  0
VERTEX
  5
825
  8
10BY10
 10
80958.0
 20
495386.0
 30
0.07
  0
SEQEND
  5
826
  8
10BY10
  0
POLYLINE
  5
157
  8
10BY10
 66
     1
 10
0.0
 20
0.0
 30
0.05
 70
     1
1001
DCO15
1071
        2
1071
        2
1000
variablelink
1004
0000000000388D40
  0
VERTEX
  5
827
  8
10BY10
 10
81029.0
 20
495367.0
 30
0.05
  0
VERTEX
  5
828
  8
10BY10
 10
81039.0
 20
495367.0
 30
0.05
  0
VERTEX
  5
829
  8
10BY10
 10
81039.0
 20
495377.0
 30
0.05
  0
VERTEX
  5
82A
  8
10BY10
 10
81029.0
 20
495377.0
 30
0.05
  0
SEQEND
  5
82B
  8
10BY10
  0
POLYLINE
  5
158
  8
10BY10
 66
     1
 10
0.0
 20
0.0
 30
0.02
 70
     1
1001
DCO15
1071
        2
1071
        2
1000
variablelink
1004
0000000000408D40
  0
VERTEX
  5
82C
  8
10BY10
 10
81038.0
 20
495337.0
 30
0.02
  0
VERTEX
  5
82D
  8
10BY10
 10
81048.0
 20
495337.0
 30
0.02
  0
VERTEX
  5
82E
  8
10BY10
 10
81048.0
 20
495347.0
 30
0.02
  0
VERTEX
  5
82F
  8
10BY10
 10
81038.0
 20
495347.0
 30
0.02
  0
SEQEND
  5
830
  8
10BY10
  0
POLYLINE
  5
159
  8
10BY10
 66
     1
 10
0.0
 20
0.0
 30
0.07
 70
     1
1001
DCO15
1071
        2
1071
        2
1000
variablelink
1004
0000000000488D40
  0
VERTEX
  5
831
  8
10BY10
 10
81041.0
 20
495319.0
 30
0.07
  0
VERTEX
  5
832
  8
10BY10
 10
81051.0
 20
495319.0
 30
0.07
  0
VERTEX
  5
833
  8
10BY10
 10
81051.0
 20
495329.0
 30
0.07
  0
VERTEX
  5
834
  8
10BY10
 10
81041.0
 20
495329.0
 30
0.07
  0
SEQEND
  5
835
  8
10BY10
  0
POLYLINE
  5
15A
  8
10BY10
 66
     1
 10
0.0
 20
0.0
 30
0.06
 70
     1
1001
DCO15
1071
        2
1071
        2
1000
variablelink
1004
0000000000508D40
  0
VERTEX
  5
836
  8
10BY10
 10
81044.0
 20
495302.0
 30
0.06
  0
VERTEX
  5
837
  8
10BY10
 10
81054.0
 20
495302.0
 30
0.06
  0
VERTEX
  5
838
  8
10BY10
 10
81054.0
 20
495312.0
 30
0.06
  0
VERTEX
  5
839
  8
10BY10
 10
81044.0
 20
495312.0
 30
0.06
  0
SEQEND
  5
83A
  8
10BY10
  0
POLYLINE
  5
15B
  8
10BY10
 66
     1
 10
0.0
 20
0.0
 30
0.03
 70
     1
1001
DCO15
1071
        2
1071
        2
1000
variablelink
1004
0000000000588D40
  0
VERTEX
  5
83B
  8
10BY10
 10
81051.0
 20
495278.0
 30
0.03
  0
VERTEX
  5
83C
  8
10BY10
 10
81061.0
 20
495278.0
 30
0.03
  0
VERTEX
  5
83D
  8
10BY10
 10
81061.0
 20
495288.0
 30
0.03
  0
VERTEX
  5
83E
  8
10BY10
 10
81051.0
 20
495288.0
 30
0.03
  0
SEQEND
  5
83F
  8
10BY10
  0
POLYLINE
  5
15C
  8
10BY10
 66
     1
 10
0.0
 20
0.0
 30
0.11
 70
     1
1001
DCO15
1071
        2
1071
        2
1000
variablelink
1004
0000000000608D40
  0
VERTEX
  5
840
  8
10BY10
 10
81055.0
 20
495292.0
 30
0.11
  0
VERTEX
  5
841
  8
10BY10
 10
81065.0
 20
495292.0
 30
0.11
  0
VERTEX
  5
842
  8
10BY10
 10
81065.0
 20
495302.0
 30
0.11
  0
VERTEX
  5
843
  8
10BY10
 10
81055.0
 20
495302.0
 30
0.11
  0
SEQEND
  5
844
  8
10BY10
  0
POLYLINE
  5
15D
  8
10BY10
 66
     1
 10
0.0
 20
0.0
 30
0.13
 70
     1
1001
DCO15
1071
        2
1071
        2
1000
variablelink
1004
0000000000688D40
  0
VERTEX
  5
845
  8
10BY10
 10
81051.0
 20
495321.0
 30
0.13
  0
VERTEX
  5
846
  8
10BY10
 10
81061.0
 20
495321.0
 30
0.13
  0
VERTEX
  5
847
  8
10BY10
 10
81061.0
 20
495331.0
 30
0.13
  0
VERTEX
  5
848
  8
10BY10
 10
81051.0
 20
495331.0
 30
0.13
  0
SEQEND
  5
849
  8
10BY10
  0
POLYLINE
  5
15E
  8
10BY10
 66
     1
 10
0.0
 20
0.0
 30
0.04
 70
     1
1001
DCO15
1071
        2
1071
        2
1000
variablelink
1004
0000000000708D40
  0
VERTEX
  5
84A
  8
10BY10
 10
81028.0
 20
495333.0
 30
0.04
  0
VERTEX
  5
84B
  8
10BY10
 10
81038.0
 20
495333.0
 30
0.04
  0
VERTEX
  5
84C
  8
10BY10
 10
81038.0
 20
495343.0
 30
0.04
  0
VERTEX
  5
84D
  8
10BY10
 10
81028.0
 20
495343.0
 30
0.04
  0
SEQEND
  5
84E
  8
10BY10
  0
POLYLINE
  5
15F
  8
10BY10
 66
     1
 10
0.0
 20
0.0
 30
0.06
 70
     1
1001
DCO15
1071
        2
1071
        2
1000
variablelink
1004
0000000000908D40
  0
VERTEX
  5
84F
  8
10BY10
 10
81023.0
 20
495343.0
 30
0.06
  0
VERTEX
  5
850
  8
10BY10
 10
81033.0
 20
495343.0
 30
0.06
  0
VERTEX
  5
851
  8
10BY10
 10
81033.0
 20
495353.0
 30
0.06
  0
VERTEX
  5
852
  8
10BY10
 10
81023.0
 20
495353.0
 30
0.06
  0
SEQEND
  5
853
  8
10BY10
  0
POLYLINE
  5
160
  8
10BY10
 66
     1
 10
0.0
 20
0.0
 30
0.01
 70
     1
1001
DCO15
1071
        2
1071
        2
1000
variablelink
1004
0000000000988D40
  0
VERTEX
  5
854
  8
10BY10
 10
81026.0
 20
495322.0
 30
0.01
  0
VERTEX
  5
855
  8
10BY10
 10
81036.0
 20
495322.0
 30
0.01
  0
VERTEX
  5
856
  8
10BY10
 10
81036.0
 20
495332.0
 30
0.01
  0
VERTEX
  5
857
  8
10BY10
 10
81026.0
 20
495332.0
 30
0.01
  0
SEQEND
  5
858
  8
10BY10
  0
POLYLINE
  5
161
  8
10BY10
 66
     1
 10
0.0
 20
0.0
 30
0.01
 70
     1
1001
DCO15
1071
        2
1071
        2
1000
variablelink
1004
0000000000A08D40
  0
VERTEX
  5
859
  8
10BY10
 10
81036.0
 20
495279.0
 30
0.01
  0
VERTEX
  5
85A
  8
10BY10
 10
81046.0
 20
495279.0
 30
0.01
  0
VERTEX
  5
85B
  8
10BY10
 10
81046.0
 20
495289.0
 30
0.01
  0
VERTEX
  5
85C
  8
10BY10
 10
81036.0
 20
495289.0
 30
0.01
  0
SEQEND
  5
85D
  8
10BY10
  0
POLYLINE
  5
162
  8
10BY10
 66
     1
 10
0.0
 20
0.0
 30
0.05
 70
     1
1001
DCO15
1071
        2
1071
        2
1000
variablelink
1004
0000000000A88D40
  0
VERTEX
  5
85E
  8
10BY10
 10
81060.0
 20
495353.0
 30
0.05
  0
VERTEX
  5
85F
  8
10BY10
 10
81070.0
 20
495353.0
 30
0.05
  0
VERTEX
  5
860
  8
10BY10
 10
81070.0
 20
495363.0
 30
0.05
  0
VERTEX
  5
861
  8
10BY10
 10
81060.0
 20
495363.0
 30
0.05
  0
SEQEND
  5
862
  8
10BY10
  0
POLYLINE
  5
163
  8
10BY10
 66
     1
 10
0.0
 20
0.0
 30
0.01
 70
     1
1001
DCO15
1071
        2
1071
        2
1000
variablelink
1004
0000000000B08D40
  0
VERTEX
  5
863
  8
10BY10
 10
81034.0
 20
495478.0
 30
0.01
  0
VERTEX
  5
864
  8
10BY10
 10
81044.0
 20
495478.0
 30
0.01
  0
VERTEX
  5
865
  8
10BY10
 10
81044.0
 20
495488.0
 30
0.01
  0
VERTEX
  5
866
  8
10BY10
 10
81034.0
 20
495488.0
 30
0.01
  0
SEQEND
  5
867
  8
10BY10
  0
POLYLINE
  5
164
  8
10BY10
 66
     1
 10
0.0
 20
0.0
 30
0.02
 70
     1
1001
DCO15
1071
        2
1071
        2
1000
variablelink
1004
0000000000B88D40
  0
VERTEX
  5
868
  8
10BY10
 10
81047.0
 20
495396.0
 30
0.02
  0
VERTEX
  5
869
  8
10BY10
 10
81057.0
 20
495396.0
 30
0.02
  0
VERTEX
  5
86A
  8
10BY10
 10
81057.0
 20
495406.0
 30
0.02
  0
VERTEX
  5
86B
  8
10BY10
 10
81047.0
 20
495406.0
 30
0.02
  0
SEQEND
  5
86C
  8
10BY10
  0
POLYLINE
  5
165
  8
10BY10
 66
     1
 10
0.0
 20
0.0
 30
0.17
 70
     1
1001
DCO15
1071
        2
1071
        2
1000
variablelink
1004
0000000000C08D40
  0
VERTEX
  5
86D
  8
10BY10
 10
81056.0
 20
495343.0
 30
0.17
  0
VERTEX
  5
86E
  8
10BY10
 10
81066.0
 20
495343.0
 30
0.17
  0
VERTEX
  5
86F
  8
10BY10
 10
81066.0
 20
495353.0
 30
0.17
  0
VERTEX
  5
870
  8
10BY10
 10
81056.0
 20
495353.0
 30
0.17
  0
SEQEND
  5
871
  8
10BY10
  0
POLYLINE
  5
166
  8
10BY10
 66
     1
 10
0.0
 20
0.0
 30
0.06
 70
     1
1001
DCO15
1071
        2
1071
        2
1000
variablelink
1004
0000000000C88D40
  0
VERTEX
  5
872
  8
10BY10
 10
81064.0
 20
495316.0
 30
0.06
  0
VERTEX
  5
873
  8
10BY10
 10
81074.0
 20
495316.0
 30
0.06
  0
VERTEX
  5
874
  8
10BY10
 10
81074.0
 20
495326.0
 30
0.06
  0
VERTEX
  5
875
  8
10BY10
 10
81064.0
 20
495326.0
 30
0.06
  0
SEQEND
  5
876
  8
10BY10
  0
POLYLINE
  5
167
  8
10BY10
 66
     1
 10
0.0
 20
0.0
 30
0.34
 70
     1
1001
DCO15
1071
        2
1071
        2
1000
variablelink
1004
0000000000008E40
  0
VERTEX
  5
877
  8
10BY10
 10
86715.0
 20
490064.0
 30
0.34
  0
VERTEX
  5
878
  8
10BY10
 10
86725.0
 20
490064.0
 30
0.34
  0
VERTEX
  5
879
  8
10BY10
 10
86725.0
 20
490074.0
 30
0.34
  0
VERTEX
  5
87A
  8
10BY10
 10
86715.0
 20
490074.0
 30
0.34
  0
SEQEND
  5
87B
  8
10BY10
  0
POLYLINE
  5
168
  8
10BY10
 66
     1
 10
0.0
 20
0.0
 30
0.02
 70
     1
1001
DCO15
1071
        2
1071
        2
1000
variablelink
1004
0000000000088E40
  0
VERTEX
  5
87C
  8
10BY10
 10
86737.0
 20
490035.0
 30
0.02
  0
VERTEX
  5
87D
  8
10BY10
 10
86747.0
 20
490035.0
 30
0.02
  0
VERTEX
  5
87E
  8
10BY10
 10
86747.0
 20
490045.0
 30
0.02
  0
VERTEX
  5
87F
  8
10BY10
 10
86737.0
 20
490045.0
 30
0.02
  0
SEQEND
  5
880
  8
10BY10
  0
POLYLINE
  5
169
  8
10BY10
 66
     1
 10
0.0
 20
0.0
 30
0.864
 70
     1
1001
DCO15
1071
        2
1071
        2
1000
variablelink
1004
0000000000108E40
  0
VERTEX
  5
881
  8
10BY10
 10
86725.0
 20
490021.0
 30
0.864
  0
VERTEX
  5
882
  8
10BY10
 10
86735.0
 20
490021.0
 30
0.864
  0
VERTEX
  5
883
  8
10BY10
 10
86735.0
 20
490031.0
 30
0.864
  0
VERTEX
  5
884
  8
10BY10
 10
86725.0
 20
490031.0
 30
0.864
  0
SEQEND
  5
885
  8
10BY10
  0
POLYLINE
  5
16A
  8
10BY10
 66
     1
 10
0.0
 20
0.0
 30
0.04
 70
     1
1001
DCO15
1071
        2
1071
        2
1000
variablelink
1004
0000000000188E40
  0
VERTEX
  5
886
  8
10BY10
 10
86722.0
 20
489990.0
 30
0.04
  0
VERTEX
  5
887
  8
10BY10
 10
86732.0
 20
489990.0
 30
0.04
  0
VERTEX
  5
888
  8
10BY10
 10
86732.0
 20
490000.0
 30
0.04
  0
VERTEX
  5
889
  8
10BY10
 10
86722.0
 20
490000.0
 30
0.04
  0
SEQEND
  5
88A
  8
10BY10
  0
POLYLINE
  5
16B
  8
10BY10
 66
     1
 10
0.0
 20
0.0
 30
0.01
 70
     1
1001
DCO15
1071
        2
1071
        2
1000
variablelink
1004
0000000000208E40
  0
VERTEX
  5
88B
  8
10BY10
 10
86734.0
 20
489969.0
 30
0.01
  0
VERTEX
  5
88C
  8
10BY10
 10
86744.0
 20
489969.0
 30
0.01
  0
VERTEX
  5
88D
  8
10BY10
 10
86744.0
 20
489979.0
 30
0.01
  0
VERTEX
  5
88E
  8
10BY10
 10
86734.0
 20
489979.0
 30
0.01
  0
SEQEND
  5
88F
  8
10BY10
  0
POLYLINE
  5
16C
  8
10BY10
 66
     1
 10
0.0
 20
0.0
 30
0.06
 70
     1
1001
DCO15
1071
        2
1071
        2
1000
variablelink
1004
0000000000288E40
  0
VERTEX
  5
890
  8
10BY10
 10
86745.0
 20
489954.0
 30
0.06
  0
VERTEX
  5
891
  8
10BY10
 10
86755.0
 20
489954.0
 30
0.06
  0
VERTEX
  5
892
  8
10BY10
 10
86755.0
 20
489964.0
 30
0.06
  0
VERTEX
  5
893
  8
10BY10
 10
86745.0
 20
489964.0
 30
0.06
  0
SEQEND
  5
894
  8
10BY10
  0
POLYLINE
  5
16D
  8
10BY10
 66
     1
 10
0.0
 20
0.0
 30
0.02
 70
     1
1001
DCO15
1071
        2
1071
        2
1000
variablelink
1004
0000000000388E40
  0
VERTEX
  5
895
  8
10BY10
 10
86659.0
 20
490076.0
 30
0.02
  0
VERTEX
  5
896
  8
10BY10
 10
86669.0
 20
490076.0
 30
0.02
  0
VERTEX
  5
897
  8
10BY10
 10
86669.0
 20
490086.0
 30
0.02
  0
VERTEX
  5
898
  8
10BY10
 10
86659.0
 20
490086.0
 30
0.02
  0
SEQEND
  5
899
  8
10BY10
  0
POLYLINE
  5
16E
  8
10BY10
 66
     1
 10
0.0
 20
0.0
 30
0.03
 70
     1
1001
DCO15
1071
        2
1071
        2
1000
variablelink
1004
0000000000488E40
  0
VERTEX
  5
89A
  8
10BY10
 10
86703.0
 20
490099.0
 30
0.03
  0
VERTEX
  5
89B
  8
10BY10
 10
86713.0
 20
490099.0
 30
0.03
  0
VERTEX
  5
89C
  8
10BY10
 10
86713.0
 20
490109.0
 30
0.03
  0
VERTEX
  5
89D
  8
10BY10
 10
86703.0
 20
490109.0
 30
0.03
  0
SEQEND
  5
89E
  8
10BY10
  0
POLYLINE
  5
16F
  8
10BY10
 66
     1
 10
0.0
 20
0.0
 30
0.03
 70
     1
1001
DCO15
1071
        2
1071
        2
1000
variablelink
1004
0000000000508E40
  0
VERTEX
  5
89F
  8
10BY10
 10
86697.0
 20
490082.0
 30
0.03
  0
VERTEX
  5
8A0
  8
10BY10
 10
86707.0
 20
490082.0
 30
0.03
  0
VERTEX
  5
8A1
  8
10BY10
 10
86707.0
 20
490092.0
 30
0.03
  0
VERTEX
  5
8A2
  8
10BY10
 10
86697.0
 20
490092.0
 30
0.03
  0
SEQEND
  5
8A3
  8
10BY10
  0
POLYLINE
  5
170
  8
10BY10
 66
     1
 10
0.0
 20
0.0
 30
0.01
 70
     1
1001
DCO15
1071
        2
1071
        2
1000
variablelink
1004
0000000000588E40
  0
VERTEX
  5
8A4
  8
10BY10
 10
86614.0
 20
490046.0
 30
0.01
  0
VERTEX
  5
8A5
  8
10BY10
 10
86624.0
 20
490046.0
 30
0.01
  0
VERTEX
  5
8A6
  8
10BY10
 10
86624.0
 20
490056.0
 30
0.01
  0
VERTEX
  5
8A7
  8
10BY10
 10
86614.0
 20
490056.0
 30
0.01
  0
SEQEND
  5
8A8
  8
10BY10
  0
POLYLINE
  5
171
  8
10BY10
 66
     1
 10
0.0
 20
0.0
 30
0.02
 70
     1
1001
DCO15
1071
        2
1071
        2
1000
variablelink
1004
0000000000688E40
  0
VERTEX
  5
8A9
  8
10BY10
 10
86699.0
 20
490070.0
 30
0.02
  0
VERTEX
  5
8AA
  8
10BY10
 10
86709.0
 20
490070.0
 30
0.02
  0
VERTEX
  5
8AB
  8
10BY10
 10
86709.0
 20
490080.0
 30
0.02
  0
VERTEX
  5
8AC
  8
10BY10
 10
86699.0
 20
490080.0
 30
0.02
  0
SEQEND
  5
8AD
  8
10BY10
  0
POLYLINE
  5
172
  8
10BY10
 66
     1
 10
0.0
 20
0.0
 30
0.192
 70
     1
1001
DCO15
1071
        2
1071
        2
1000
variablelink
1004
0000000000788E40
  0
VERTEX
  5
8AE
  8
10BY10
 10
86747.0
 20
490016.0
 30
0.192
  0
VERTEX
  5
8AF
  8
10BY10
 10
86757.0
 20
490016.0
 30
0.192
  0
VERTEX
  5
8B0
  8
10BY10
 10
86757.0
 20
490026.0
 30
0.192
  0
VERTEX
  5
8B1
  8
10BY10
 10
86747.0
 20
490026.0
 30
0.192
  0
SEQEND
  5
8B2
  8
10BY10
  0
POLYLINE
  5
173
  8
10BY10
 66
     1
 10
0.0
 20
0.0
 30
0.04
 70
     1
1001
DCO15
1071
        2
1071
        2
1000
variablelink
1004
0000000000808E40
  0
VERTEX
  5
8B3
  8
10BY10
 10
86756.0
 20
489999.0
 30
0.04
  0
VERTEX
  5
8B4
  8
10BY10
 10
86766.0
 20
489999.0
 30
0.04
  0
VERTEX
  5
8B5
  8
10BY10
 10
86766.0
 20
490009.0
 30
0.04
  0
VERTEX
  5
8B6
  8
10BY10
 10
86756.0
 20
490009.0
 30
0.04
  0
SEQEND
  5
8B7
  8
10BY10
  0
POLYLINE
  5
174
  8
10BY10
 66
     1
 10
0.0
 20
0.0
 30
0.01
 70
     1
1001
DCO15
1071
        2
1071
        2
1000
variablelink
1004
0000000000589040
  0
VERTEX
  5
8B8
  8
10BY10
 10
89985.0
 20
483376.0
 30
0.01
  0
VERTEX
  5
8B9
  8
10BY10
 10
89995.0
 20
483376.0
 30
0.01
  0
VERTEX
  5
8BA
  8
10BY10
 10
89995.0
 20
483386.0
 30
0.01
  0
VERTEX
  5
8BB
  8
10BY10
 10
89985.0
 20
483386.0
 30
0.01
  0
SEQEND
  5
8BC
  8
10BY10
  0
POLYLINE
  5
175
  8
10BY10
 66
     1
 10
0.0
 20
0.0
 30
0.02
 70
     1
1001
DCO15
1071
        2
1071
        2
1000
variablelink
1004
00000000005C9040
  0
VERTEX
  5
8BD
  8
10BY10
 10
89975.0
 20
483371.0
 30
0.02
  0
VERTEX
  5
8BE
  8
10BY10
 10
89985.0
 20
483371.0
 30
0.02
  0
VERTEX
  5
8BF
  8
10BY10
 10
89985.0
 20
483381.0
 30
0.02
  0
VERTEX
  5
8C0
  8
10BY10
 10
89975.0
 20
483381.0
 30
0.02
  0
SEQEND
  5
8C1
  8
10BY10
  0
POLYLINE
  5
176
  8
10BY10
 66
     1
 10
0.0
 20
0.0
 30
0.01
 70
     1
1001
DCO15
1071
        2
1071
        2
1000
variablelink
1004
0000000000689040
  0
VERTEX
  5
8C2
  8
10BY10
 10
89984.0
 20
483325.0
 30
0.01
  0
VERTEX
  5
8C3
  8
10BY10
 10
89994.0
 20
483325.0
 30
0.01
  0
VERTEX
  5
8C4
  8
10BY10
 10
89994.0
 20
483335.0
 30
0.01
  0
VERTEX
  5
8C5
  8
10BY10
 10
89984.0
 20
483335.0
 30
0.01
  0
SEQEND
  5
8C6
  8
10BY10
  0
POLYLINE
  5
177
  8
10BY10
 66
     1
 10
0.0
 20
0.0
 30
0.02
 70
     1
1001
DCO15
1071
        2
1071
        2
1000
variablelink
1004
0000000000149140
  0
VERTEX
  5
8C7
  8
10BY10
 10
87496.0
 20
480878.0
 30
0.02
  0
VERTEX
  5
8C8
  8
10BY10
 10
87506.0
 20
480878.0
 30
0.02
  0
VERTEX
  5
8C9
  8
10BY10
 10
87506.0
 20
480888.0
 30
0.02
  0
VERTEX
  5
8CA
  8
10BY10
 10
87496.0
 20
480888.0
 30
0.02
  0
SEQEND
  5
8CB
  8
10BY10
  0
POLYLINE
  5
178
  8
10BY10
 66
     1
 10
0.0
 20
0.0
 30
0.03
 70
     1
1001
DCO15
1071
        2
1071
        2
1000
variablelink
1004
0000000000209140
  0
VERTEX
  5
8CC
  8
10BY10
 10
87527.0
 20
480842.0
 30
0.03
  0
VERTEX
  5
8CD
  8
10BY10
 10
87537.0
 20
480842.0
 30
0.03
  0
VERTEX
  5
8CE
  8
10BY10
 10
87537.0
 20
480852.0
 30
0.03
  0
VERTEX
  5
8CF
  8
10BY10
 10
87527.0
 20
480852.0
 30
0.03
  0
SEQEND
  5
8D0
  8
10BY10
  0
POLYLINE
  5
179
  8
10BY10
 66
     1
 10
0.0
 20
0.0
 30
0.034
 70
     1
1001
DCO15
1071
        2
1071
        2
1000
variablelink
1004
0000000000249140
  0
VERTEX
  5
8D1
  8
10BY10
 10
87489.0
 20
480902.0
 30
0.034
  0
VERTEX
  5
8D2
  8
10BY10
 10
87499.0
 20
480902.0
 30
0.034
  0
VERTEX
  5
8D3
  8
10BY10
 10
87499.0
 20
480912.0
 30
0.034
  0
VERTEX
  5
8D4
  8
10BY10
 10
87489.0
 20
480912.0
 30
0.034
  0
SEQEND
  5
8D5
  8
10BY10
  0
POLYLINE
  5
17A
  8
10BY10
 66
     1
 10
0.0
 20
0.0
 30
0.01
 70
     1
1001
DCO15
1071
        2
1071
        2
1000
variablelink
1004
00000000003C9140
  0
VERTEX
  5
8D6
  8
10BY10
 10
87539.0
 20
480816.0
 30
0.01
  0
VERTEX
  5
8D7
  8
10BY10
 10
87549.0
 20
480816.0
 30
0.01
  0
VERTEX
  5
8D8
  8
10BY10
 10
87549.0
 20
480826.0
 30
0.01
  0
VERTEX
  5
8D9
  8
10BY10
 10
87539.0
 20
480826.0
 30
0.01
  0
SEQEND
  5
8DA
  8
10BY10
  0
POLYLINE
  5
17B
  8
10BY10
 66
     1
 10
0.0
 20
0.0
 30
0.03
 70
     1
1001
DCO15
1071
        2
1071
        2
1000
variablelink
1004
0000000000489140
  0
VERTEX
  5
8DB
  8
10BY10
 10
87493.0
 20
480892.0
 30
0.03
  0
VERTEX
  5
8DC
  8
10BY10
 10
87503.0
 20
480892.0
 30
0.03
  0
VERTEX
  5
8DD
  8
10BY10
 10
87503.0
 20
480902.0
 30
0.03
  0
VERTEX
  5
8DE
  8
10BY10
 10
87493.0
 20
480902.0
 30
0.03
  0
SEQEND
  5
8DF
  8
10BY10
  0
POLYLINE
  5
17C
  8
10BY10
 66
     1
 10
0.0
 20
0.0
 30
0.016
 70
     1
1001
DCO15
1071
        2
1071
        2
1000
variablelink
1004
0000000000689340
  0
VERTEX
  5
8E0
  8
10BY10
 10
106624.0
 20
493089.0
 30
0.016
  0
VERTEX
  5
8E1
  8
10BY10
 10
106634.0
 20
493089.0
 30
0.016
  0
VERTEX
  5
8E2
  8
10BY10
 10
106634.0
 20
493099.0
 30
0.016
  0
VERTEX
  5
8E3
  8
10BY10
 10
106624.0
 20
493099.0
 30
0.016
  0
SEQEND
  5
8E4
  8
10BY10
  0
POLYLINE
  5
17D
  8
10BY10
 66
     1
 10
0.0
 20
0.0
 30
0.01
 70
     1
1001
DCO15
1071
        2
1071
        2
1000
variablelink
1004
00000000006C9340
  0
VERTEX
  5
8E5
  8
10BY10
 10
106731.0
 20
493084.0
 30
0.01
  0
VERTEX
  5
8E6
  8
10BY10
 10
106741.0
 20
493084.0
 30
0.01
  0
VERTEX
  5
8E7
  8
10BY10
 10
106741.0
 20
493094.0
 30
0.01
  0
VERTEX
  5
8E8
  8
10BY10
 10
106731.0
 20
493094.0
 30
0.01
  0
SEQEND
  5
8E9
  8
10BY10
  0
POLYLINE
  5
17E
  8
10BY10
 66
     1
 10
0.0
 20
0.0
 30
0.016
 70
     1
1001
DCO15
1071
        2
1071
        2
1000
variablelink
1004
0000000000789340
  0
VERTEX
  5
8EA
  8
10BY10
 10
106790.0
 20
492895.0
 30
0.016
  0
VERTEX
  5
8EB
  8
10BY10
 10
106800.0
 20
492895.0
 30
0.016
  0
VERTEX
  5
8EC
  8
10BY10
 10
106800.0
 20
492905.0
 30
0.016
  0
VERTEX
  5
8ED
  8
10BY10
 10
106790.0
 20
492905.0
 30
0.016
  0
SEQEND
  5
8EE
  8
10BY10
  0
POLYLINE
  5
17F
  8
10BY10
 66
     1
 10
0.0
 20
0.0
 30
0.01
 70
     1
1001
DCO15
1071
        2
1071
        2
1000
variablelink
1004
0000000000889340
  0
VERTEX
  5
8EF
  8
10BY10
 10
106769.0
 20
492978.0
 30
0.01
  0
VERTEX
  5
8F0
  8
10BY10
 10
106779.0
 20
492978.0
 30
0.01
  0
VERTEX
  5
8F1
  8
10BY10
 10
106779.0
 20
492988.0
 30
0.01
  0
VERTEX
  5
8F2
  8
10BY10
 10
106769.0
 20
492988.0
 30
0.01
  0
SEQEND
  5
8F3
  8
10BY10
  0
POLYLINE
  5
180
  8
10BY10
 66
     1
 10
0.0
 20
0.0
 30
0.032
 70
     1
1001
DCO15
1071
        2
1071
        2
1000
variablelink
1004
0000000000A09340
  0
VERTEX
  5
8F4
  8
10BY10
 10
106763.0
 20
492967.0
 30
0.032
  0
VERTEX
  5
8F5
  8
10BY10
 10
106773.0
 20
492967.0
 30
0.032
  0
VERTEX
  5
8F6
  8
10BY10
 10
106773.0
 20
492977.0
 30
0.032
  0
VERTEX
  5
8F7
  8
10BY10
 10
106763.0
 20
492977.0
 30
0.032
  0
SEQEND
  5
8F8
  8
10BY10
  0
POLYLINE
  5
181
  8
10BY10
 66
     1
 10
0.0
 20
0.0
 30
0.01
 70
     1
1001
DCO15
1071
        2
1071
        2
1000
variablelink
1004
0000000000A89340
  0
VERTEX
  5
8F9
  8
10BY10
 10
106556.0
 20
492850.0
 30
0.01
  0
VERTEX
  5
8FA
  8
10BY10
 10
106566.0
 20
492850.0
 30
0.01
  0
VERTEX
  5
8FB
  8
10BY10
 10
106566.0
 20
492860.0
 30
0.01
  0
VERTEX
  5
8FC
  8
10BY10
 10
106556.0
 20
492860.0
 30
0.01
  0
SEQEND
  5
8FD
  8
10BY10
  0
POLYLINE
  5
182
  8
10BY10
 66
     1
 10
0.0
 20
0.0
 30
0.03
 70
     1
1001
DCO15
1071
        2
1071
        2
1000
variablelink
1004
0000000000C49340
  0
VERTEX
  5
8FE
  8
10BY10
 10
106790.0
 20
492956.0
 30
0.03
  0
VERTEX
  5
8FF
  8
10BY10
 10
106800.0
 20
492956.0
 30
0.03
  0
VERTEX
  5
900
  8
10BY10
 10
106800.0
 20
492966.0
 30
0.03
  0
VERTEX
  5
901
  8
10BY10
 10
106790.0
 20
492966.0
 30
0.03
  0
SEQEND
  5
902
  8
10BY10
  0
POLYLINE
  5
183
  8
10BY10
 66
     1
 10
0.0
 20
0.0
 30
0.02
 70
     1
1001
DCO15
1071
        2
1071
        2
1000
variablelink
1004
0000000000F89340
  0
VERTEX
  5
903
  8
10BY10
 10
105812.0
 20
492183.0
 30
0.02
  0
VERTEX
  5
904
  8
10BY10
 10
105822.0
 20
492183.0
 30
0.02
  0
VERTEX
  5
905
  8
10BY10
 10
105822.0
 20
492193.0
 30
0.02
  0
VERTEX
  5
906
  8
10BY10
 10
105812.0
 20
492193.0
 30
0.02
  0
SEQEND
  5
907
  8
10BY10
  0
POLYLINE
  5
184
  8
10BY10
 66
     1
 10
0.0
 20
0.0
 30
0.102
 70
     1
1001
DCO15
1071
        2
1071
        2
1000
variablelink
1004
0000000000409640
  0
VERTEX
  5
908
  8
10BY10
 10
108394.0
 20
492787.0
 30
0.102
  0
VERTEX
  5
909
  8
10BY10
 10
108404.0
 20
492787.0
 30
0.102
  0
VERTEX
  5
90A
  8
10BY10
 10
108404.0
 20
492797.0
 30
0.102
  0
VERTEX
  5
90B
  8
10BY10
 10
108394.0
 20
492797.0
 30
0.102
  0
SEQEND
  5
90C
  8
10BY10
  0
POLYLINE
  5
185
  8
10BY10
 66
     1
 10
0.0
 20
0.0
 30
0.032
 70
     1
1001
DCO15
1071
        2
1071
        2
1000
variablelink
1004
0000000000F09640
  0
VERTEX
  5
90D
  8
10BY10
 10
110570.0
 20
497452.0
 30
0.032
  0
VERTEX
  5
90E
  8
10BY10
 10
110580.0
 20
497452.0
 30
0.032
  0
VERTEX
  5
90F
  8
10BY10
 10
110580.0
 20
497462.0
 30
0.032
  0
VERTEX
  5
910
  8
10BY10
 10
110570.0
 20
497462.0
 30
0.032
  0
SEQEND
  5
911
  8
10BY10
  0
POLYLINE
  5
186
  8
10BY10
 66
     1
 10
0.0
 20
0.0
 30
0.016
 70
     1
1001
DCO15
1071
        2
1071
        2
1000
variablelink
1004
0000000000FC9640
  0
VERTEX
  5
912
  8
10BY10
 10
110627.0
 20
497542.0
 30
0.016
  0
VERTEX
  5
913
  8
10BY10
 10
110637.0
 20
497542.0
 30
0.016
  0
VERTEX
  5
914
  8
10BY10
 10
110637.0
 20
497552.0
 30
0.016
  0
VERTEX
  5
915
  8
10BY10
 10
110627.0
 20
497552.0
 30
0.016
  0
SEQEND
  5
916
  8
10BY10
  0
POLYLINE
  5
187
  8
10BY10
 66
     1
 10
0.0
 20
0.0
 30
0.01
 70
     1
1001
DCO15
1071
        2
1071
        2
1000
variablelink
1004
0000000000589740
  0
VERTEX
  5
917
  8
10BY10
 10
109943.0
 20
497811.0
 30
0.01
  0
VERTEX
  5
918
  8
10BY10
 10
109953.0
 20
497811.0
 30
0.01
  0
VERTEX
  5
919
  8
10BY10
 10
109953.0
 20
497821.0
 30
0.01
  0
VERTEX
  5
91A
  8
10BY10
 10
109943.0
 20
497821.0
 30
0.01
  0
SEQEND
  5
91B
  8
10BY10
  0
POLYLINE
  5
188
  8
10BY10
 66
     1
 10
0.0
 20
0.0
 30
0.01
 70
     1
1001
DCO15
1071
        2
1071
        2
1000
variablelink
1004
00000000005C9740
  0
VERTEX
  5
91C
  8
10BY10
 10
107242.0
 20
497538.0
 30
0.01
  0
VERTEX
  5
91D
  8
10BY10
 10
107252.0
 20
497538.0
 30
0.01
  0
VERTEX
  5
91E
  8
10BY10
 10
107252.0
 20
497548.0
 30
0.01
  0
VERTEX
  5
91F
  8
10BY10
 10
107242.0
 20
497548.0
 30
0.01
  0
SEQEND
  5
920
  8
10BY10
  0
POLYLINE
  5
189
  8
10BY10
 66
     1
 10
0.0
 20
0.0
 30
0.01
 70
     1
1001
DCO15
1071
        2
1071
        2
1000
variablelink
1004
0000000000C49840
  0
VERTEX
  5
921
  8
10BY10
 10
108775.0
 20
499831.0
 30
0.01
  0
VERTEX
  5
922
  8
10BY10
 10
108785.0
 20
499831.0
 30
0.01
  0
VERTEX
  5
923
  8
10BY10
 10
108785.0
 20
499841.0
 30
0.01
  0
VERTEX
  5
924
  8
10BY10
 10
108775.0
 20
499841.0
 30
0.01
  0
SEQEND
  5
925
  8
10BY10
  0
POLYLINE
  5
18A
  8
10BY10
 66
     1
 10
0.0
 20
0.0
 30
0.01
 70
     1
1001
DCO15
1071
        2
1071
        2
1000
variablelink
1004
0000000000C89840
  0
VERTEX
  5
926
  8
10BY10
 10
108913.0
 20
499799.0
 30
0.01
  0
VERTEX
  5
927
  8
10BY10
 10
108923.0
 20
499799.0
 30
0.01
  0
VERTEX
  5
928
  8
10BY10
 10
108923.0
 20
499809.0
 30
0.01
  0
VERTEX
  5
929
  8
10BY10
 10
108913.0
 20
499809.0
 30
0.01
  0
SEQEND
  5
92A
  8
10BY10
  0
POLYLINE
  5
18B
  8
10BY10
 66
     1
 10
0.0
 20
0.0
 30
0.03
 70
     1
1001
DCO15
1071
        2
1071
        2
1000
variablelink
1004
0000000000009940
  0
VERTEX
  5
92B
  8
10BY10
 10
94426.0
 20
483286.0
 30
0.03
  0
VERTEX
  5
92C
  8
10BY10
 10
94436.0
 20
483286.0
 30
0.03
  0
VERTEX
  5
92D
  8
10BY10
 10
94436.0
 20
483296.0
 30
0.03
  0
VERTEX
  5
92E
  8
10BY10
 10
94426.0
 20
483296.0
 30
0.03
  0
SEQEND
  5
92F
  8
10BY10
  0
POLYLINE
  5
18C
  8
R10BY10
 66
     1
 10
0.0
 20
0.0
 30
0.01
 70
     1
1001
DCO15
1071
        2
1071
        2
1000
variablelink
1004
0000000000A88540
  0
VERTEX
  5
930
  8
R10BY10
 10
103141.0
 20
478941.0
 30
0.01
  0
VERTEX
  5
931
  8
R10BY10
 10
103151.0
 20
478941.0
 30
0.01
  0
VERTEX
  5
932
  8
R10BY10
 10
103151.0
 20
478951.0
 30
0.01
  0
VERTEX
  5
933
  8
R10BY10
 10
103141.0
 20
478951.0
 30
0.01
  0
SEQEND
  5
934
  8
R10BY10
  0
POLYLINE
  5
18E
  8
R10BY10
 66
     1
 10
0.0
 20
0.0
 30
0.01
 70
     1
1001
DCO15
1071
        2
1071
        2
1000
variablelink
1004
0000000000688740
  0
VERTEX
  5
935
  8
R10BY10
 10
93305.0
 20
486037.0
 30
0.01
  0
VERTEX
  5
936
  8
R10BY10
 10
93315.0
 20
486037.0
 30
0.01
  0
VERTEX
  5
937
  8
R10BY10
 10
93315.0
 20
486047.0
 30
0.01
  0
VERTEX
  5
938
  8
R10BY10
 10
93305.0
 20
486047.0
 30
0.01
  0
SEQEND
  5
939
  8
R10BY10
  0
POLYLINE
  5
18F
  8
R10BY10
 66
     1
 10
0.0
 20
0.0
 30
0.02
 70
     1
1001
DCO15
1071
        2
1071
        2
1000
variablelink
1004
0000000000D88B40
  0
VERTEX
  5
93A
  8
R10BY10
 10
81086.0
 20
495340.0
 30
0.02
  0
VERTEX
  5
93B
  8
R10BY10
 10
81096.0
 20
495340.0
 30
0.02
  0
VERTEX
  5
93C
  8
R10BY10
 10
81096.0
 20
495350.0
 30
0.02
  0
VERTEX
  5
93D
  8
R10BY10
 10
81086.0
 20
495350.0
 30
0.02
  0
SEQEND
  5
93E
  8
R10BY10
  0
POLYLINE
  5
190
  8
R10BY10
 66
     1
 10
0.0
 20
0.0
 30
0.01
 70
     1
1001
DCO15
1071
        2
1071
        2
1000
variablelink
1004
0000000000E08B40
  0
VERTEX
  5
93F
  8
R10BY10
 10
81083.0
 20
495360.0
 30
0.01
  0
VERTEX
  5
940
  8
R10BY10
 10
81093.0
 20
495360.0
 30
0.01
  0
VERTEX
  5
941
  8
R10BY10
 10
81093.0
 20
495370.0
 30
0.01
  0
VERTEX
  5
942
  8
R10BY10
 10
81083.0
 20
495370.0
 30
0.01
  0
SEQEND
  5
943
  8
R10BY10
  0
POLYLINE
  5
191
  8
1BY1
 66
     1
 10
0.0
 20
0.0
 30
2.0
 70
     1
1001
DCO15
1071
        2
1071
        2
1000
variablelink
1004
000000000000F03F
  0
VERTEX
  5
944
  8
1BY1
 10
99766.0
 20
482407.0
 30
2.0
  0
VERTEX
  5
945
  8
1BY1
 10
99767.0
 20
482407.0
 30
2.0
  0
VERTEX
  5
946
  8
1BY1
 10
99767.0
 20
482408.0
 30
2.0
  0
VERTEX
  5
947
  8
1BY1
 10
99766.0
 20
482408.0
 30
2.0
  0
SEQEND
  5
948
  8
1BY1
  0
POLYLINE
  5
192
  8
1BY1
 66
     1
 10
0.0
 20
0.0
 30
1.0
 70
     1
1001
DCO15
1071
        2
1071
        2
1000
variablelink
1004
0000000000000040
  0
VERTEX
  5
949
  8
1BY1
 10
99783.0
 20
482414.0
 30
1.0
  0
VERTEX
  5
94A
  8
1BY1
 10
99784.0
 20
482414.0
 30
1.0
  0
VERTEX
  5
94B
  8
1BY1
 10
99784.0
 20
482415.0
 30
1.0
  0
VERTEX
  5
94C
  8
1BY1
 10
99783.0
 20
482415.0
 30
1.0
  0
SEQEND
  5
94D
  8
1BY1
  0
POLYLINE
  5
193
  8
1BY1
 66
     1
 10
0.0
 20
0.0
 30
1.6000000000000001
 70
     1
1001
DCO15
1071
        2
1071
        2
1000
variablelink
1004
0000000000000840
  0
VERTEX
  5
94E
  8
1BY1
 10
99750.0
 20
482430.0
 30
1.6000000000000001
  0
VERTEX
  5
94F
  8
1BY1
 10
99751.0
 20
482430.0
 30
1.6000000000000001
  0
VERTEX
  5
950
  8
1BY1
 10
99751.0
 20
482431.0
 30
1.6000000000000001
  0
VERTEX
  5
951
  8
1BY1
 10
99750.0
 20
482431.0
 30
1.6000000000000001
  0
SEQEND
  5
952
  8
1BY1
  0
POLYLINE
  5
194
  8
1BY1
 66
     1
 10
0.0
 20
0.0
 30
1.6000000000000001
 70
     1
1001
DCO15
1071
        2
1071
        2
1000
variablelink
1004
0000000000001440
  0
VERTEX
  5
953
  8
1BY1
 10
99748.0
 20
482432.0
 30
1.6000000000000001
  0
VERTEX
  5
954
  8
1BY1
 10
99749.0
 20
482432.0
 30
1.6000000000000001
  0
VERTEX
  5
955
  8
1BY1
 10
99749.0
 20
482433.0
 30
1.6000000000000001
  0
VERTEX
  5
956
  8
1BY1
 10
99748.0
 20
482433.0
 30
1.6000000000000001
  0
SEQEND
  5
957
  8
1BY1
  0
POLYLINE
  5
195
  8
1BY1
 66
     1
 10
0.0
 20
0.0
 30
1.6000000000000001
 70
     1
1001
DCO15
1071
        2
1071
        2
1000
variablelink
1004
0000000000001840
  0
VERTEX
  5
958
  8
1BY1
 10
99748.0
 20
482431.0
 30
1.6000000000000001
  0
VERTEX
  5
959
  8
1BY1
 10
99749.0
 20
482431.0
 30
1.6000000000000001
  0
VERTEX
  5
95A
  8
1BY1
 10
99749.0
 20
482432.0
 30
1.6000000000000001
  0
VERTEX
  5
95B
  8
1BY1
 10
99748.0
 20
482432.0
 30
1.6000000000000001
  0
SEQEND
  5
95C
  8
1BY1
  0
POLYLINE
  5
196
  8
1BY1
 66
     1
 10
0.0
 20
0.0
 30
1.6000000000000001
 70
     1
1001
DCO15
1071
        2
1071
        2
1000
variablelink
1004
0000000000001C40
  0
VERTEX
  5
95D
  8
1BY1
 10
99745.0
 20
482429.0
 30
1.6000000000000001
  0
VERTEX
  5
95E
  8
1BY1
 10
99746.0
 20
482429.0
 30
1.6000000000000001
  0
VERTEX
  5
95F
  8
1BY1
 10
99746.0
 20
482430.0
 30
1.6000000000000001
  0
VERTEX
  5
960
  8
1BY1
 10
99745.0
 20
482430.0
 30
1.6000000000000001
  0
SEQEND
  5
961
  8
1BY1
  0
POLYLINE
  5
197
  8
1BY1
 66
     1
 10
0.0
 20
0.0
 30
3.2000000000000002
 70
     1
1001
DCO15
1071
        2
1071
        2
1000
variablelink
1004
0000000000002040
  0
VERTEX
  5
962
  8
1BY1
 10
99748.0
 20
482433.0
 30
3.2000000000000002
  0
VERTEX
  5
963
  8
1BY1
 10
99749.0
 20
482433.0
 30
3.2000000000000002
  0
VERTEX
  5
964
  8
1BY1
 10
99749.0
 20
482434.0
 30
3.2000000000000002
  0
VERTEX
  5
965
  8
1BY1
 10
99748.0
 20
482434.0
 30
3.2000000000000002
  0
SEQEND
  5
966
  8
1BY1
  0
POLYLINE
  5
198
  8
1BY1
 66
     1
 10
0.0
 20
0.0
 30
1.6000000000000001
 70
     1
1001
DCO15
1071
        2
1071
        2
1000
variablelink
1004
0000000000002440
  0
VERTEX
  5
967
  8
1BY1
 10
99741.0
 20
482439.0
 30
1.6000000000000001
  0
VERTEX
  5
968
  8
1BY1
 10
99742.0
 20
482439.0
 30
1.6000000000000001
  0
VERTEX
  5
969
  8
1BY1
 10
99742.0
 20
482440.0
 30
1.6000000000000001
  0
VERTEX
  5
96A
  8
1BY1
 10
99741.0
 20
482440.0
 30
1.6000000000000001
  0
SEQEND
  5
96B
  8
1BY1
  0
POLYLINE
  5
199
  8
1BY1
 66
     1
 10
0.0
 20
0.0
 30
1.0
 70
     1
1001
DCO15
1071
        2
1071
        2
1000
variablelink
1004
0000000000002640
  0
VERTEX
  5
96C
  8
1BY1
 10
99761.0
 20
482459.0
 30
1.0
  0
VERTEX
  5
96D
  8
1BY1
 10
99762.0
 20
482459.0
 30
1.0
  0
VERTEX
  5
96E
  8
1BY1
 10
99762.0
 20
482460.0
 30
1.0
  0
VERTEX
  5
96F
  8
1BY1
 10
99761.0
 20
482460.0
 30
1.0
  0
SEQEND
  5
970
  8
1BY1
  0
POLYLINE
  5
19A
  8
1BY1
 66
     1
 10
0.0
 20
0.0
 30
1.0
 70
     1
1001
DCO15
1071
        2
1071
        2
1000
variablelink
1004
0000000000002E40
  0
VERTEX
  5
971
  8
1BY1
 10
99684.0
 20
482550.0
 30
1.0
  0
VERTEX
  5
972
  8
1BY1
 10
99685.0
 20
482550.0
 30
1.0
  0
VERTEX
  5
973
  8
1BY1
 10
99685.0
 20
482551.0
 30
1.0
  0
VERTEX
  5
974
  8
1BY1
 10
99684.0
 20
482551.0
 30
1.0
  0
SEQEND
  5
975
  8
1BY1
  0
POLYLINE
  5
19B
  8
1BY1
 66
     1
 10
0.0
 20
0.0
 30
1.0
 70
     1
1001
DCO15
1071
        2
1071
        2
1000
variablelink
1004
0000000000003040
  0
VERTEX
  5
976
  8
1BY1
 10
99638.0
 20
482615.0
 30
1.0
  0
VERTEX
  5
977
  8
1BY1
 10
99639.0
 20
482615.0
 30
1.0
  0
VERTEX
  5
978
  8
1BY1
 10
99639.0
 20
482616.0
 30
1.0
  0
VERTEX
  5
979
  8
1BY1
 10
99638.0
 20
482616.0
 30
1.0
  0
SEQEND
  5
97A
  8
1BY1
  0
POLYLINE
  5
19C
  8
1BY1
 66
     1
 10
0.0
 20
0.0
 30
1.0
 70
     1
1001
DCO15
1071
        2
1071
        2
1000
variablelink
1004
0000000000003140
  0
VERTEX
  5
97B
  8
1BY1
 10
99647.0
 20
482668.0
 30
1.0
  0
VERTEX
  5
97C
  8
1BY1
 10
99648.0
 20
482668.0
 30
1.0
  0
VERTEX
  5
97D
  8
1BY1
 10
99648.0
 20
482669.0
 30
1.0
  0
VERTEX
  5
97E
  8
1BY1
 10
99647.0
 20
482669.0
 30
1.0
  0
SEQEND
  5
97F
  8
1BY1
  0
POLYLINE
  5
19D
  8
1BY1
 66
     1
 10
0.0
 20
0.0
 30
1.0
 70
     1
1001
DCO15
1071
        2
1071
        2
1000
variablelink
1004
0000000000003240
  0
VERTEX
  5
980
  8
1BY1
 10
99637.0
 20
482663.0
 30
1.0
  0
VERTEX
  5
981
  8
1BY1
 10
99638.0
 20
482663.0
 30
1.0
  0
VERTEX
  5
982
  8
1BY1
 10
99638.0
 20
482664.0
 30
1.0
  0
VERTEX
  5
983
  8
1BY1
 10
99637.0
 20
482664.0
 30
1.0
  0
SEQEND
  5
984
  8
1BY1
  0
POLYLINE
  5
19E
  8
1BY1
 66
     1
 10
0.0
 20
0.0
 30
1.0
 70
     1
1001
DCO15
1071
        2
1071
        2
1000
variablelink
1004
0000000000003340
  0
VERTEX
  5
985
  8
1BY1
 10
99889.0
 20
482431.0
 30
1.0
  0
VERTEX
  5
986
  8
1BY1
 10
99890.0
 20
482431.0
 30
1.0
  0
VERTEX
  5
987
  8
1BY1
 10
99890.0
 20
482432.0
 30
1.0
  0
VERTEX
  5
988
  8
1BY1
 10
99889.0
 20
482432.0
 30
1.0
  0
SEQEND
  5
989
  8
1BY1
  0
POLYLINE
  5
19F
  8
1BY1
 66
     1
 10
0.0
 20
0.0
 30
1.6000000000000001
 70
     1
1001
DCO15
1071
        2
1071
        2
1000
variablelink
1004
0000000000003540
  0
VERTEX
  5
98A
  8
1BY1
 10
99733.0
 20
482530.0
 30
1.6000000000000001
  0
VERTEX
  5
98B
  8
1BY1
 10
99734.0
 20
482530.0
 30
1.6000000000000001
  0
VERTEX
  5
98C
  8
1BY1
 10
99734.0
 20
482531.0
 30
1.6000000000000001
  0
VERTEX
  5
98D
  8
1BY1
 10
99733.0
 20
482531.0
 30
1.6000000000000001
  0
SEQEND
  5
98E
  8
1BY1
  0
POLYLINE
  5
1A0
  8
1BY1
 66
     1
 10
0.0
 20
0.0
 30
1.0
 70
     1
1001
DCO15
1071
        2
1071
        2
1000
variablelink
1004
0000000000003A40
  0
VERTEX
  5
98F
  8
1BY1
 10
99694.0
 20
482691.0
 30
1.0
  0
VERTEX
  5
990
  8
1BY1
 10
99695.0
 20
482691.0
 30
1.0
  0
VERTEX
  5
991
  8
1BY1
 10
99695.0
 20
482692.0
 30
1.0
  0
VERTEX
  5
992
  8
1BY1
 10
99694.0
 20
482692.0
 30
1.0
  0
SEQEND
  5
993
  8
1BY1
  0
POLYLINE
  5
1A1
  8
1BY1
 66
     1
 10
0.0
 20
0.0
 30
1.0
 70
     1
1001
DCO15
1071
        2
1071
        2
1000
variablelink
1004
0000000000003B40
  0
VERTEX
  5
994
  8
1BY1
 10
99821.0
 20
482448.0
 30
1.0
  0
VERTEX
  5
995
  8
1BY1
 10
99822.0
 20
482448.0
 30
1.0
  0
VERTEX
  5
996
  8
1BY1
 10
99822.0
 20
482449.0
 30
1.0
  0
VERTEX
  5
997
  8
1BY1
 10
99821.0
 20
482449.0
 30
1.0
  0
SEQEND
  5
998
  8
1BY1
  0
POLYLINE
  5
1A2
  8
1BY1
 66
     1
 10
0.0
 20
0.0
 30
1.0
 70
     1
1001
DCO15
1071
        2
1071
        2
1000
variablelink
1004
0000000000003C40
  0
VERTEX
  5
999
  8
1BY1
 10
100017.0
 20
482757.0
 30
1.0
  0
VERTEX
  5
99A
  8
1BY1
 10
100018.0
 20
482757.0
 30
1.0
  0
VERTEX
  5
99B
  8
1BY1
 10
100018.0
 20
482758.0
 30
1.0
  0
VERTEX
  5
99C
  8
1BY1
 10
100017.0
 20
482758.0
 30
1.0
  0
SEQEND
  5
99D
  8
1BY1
  0
POLYLINE
  5
1A3
  8
1BY1
 66
     1
 10
0.0
 20
0.0
 30
1.6000000000000001
 70
     1
1001
DCO15
1071
        2
1071
        2
1000
variablelink
1004
0000000000003D40
  0
VERTEX
  5
99E
  8
1BY1
 10
100006.0
 20
482762.0
 30
1.6000000000000001
  0
VERTEX
  5
99F
  8
1BY1
 10
100007.0
 20
482762.0
 30
1.6000000000000001
  0
VERTEX
  5
9A0
  8
1BY1
 10
100007.0
 20
482763.0
 30
1.6000000000000001
  0
VERTEX
  5
9A1
  8
1BY1
 10
100006.0
 20
482763.0
 30
1.6000000000000001
  0
SEQEND
  5
9A2
  8
1BY1
  0
POLYLINE
  5
1A4
  8
1BY1
 66
     1
 10
0.0
 20
0.0
 30
1.0
 70
     1
1001
DCO15
1071
        2
1071
        2
1000
variablelink
1004
0000000000003E40
  0
VERTEX
  5
9A3
  8
1BY1
 10
99824.0
 20
482339.0
 30
1.0
  0
VERTEX
  5
9A4
  8
1BY1
 10
99825.0
 20
482339.0
 30
1.0
  0
VERTEX
  5
9A5
  8
1BY1
 10
99825.0
 20
482340.0
 30
1.0
  0
VERTEX
  5
9A6
  8
1BY1
 10
99824.0
 20
482340.0
 30
1.0
  0
SEQEND
  5
9A7
  8
1BY1
  0
POLYLINE
  5
1A5
  8
1BY1
 66
     1
 10
0.0
 20
0.0
 30
1.0
 70
     1
1001
DCO15
1071
        2
1071
        2
1000
variablelink
1004
0000000000004340
  0
VERTEX
  5
9A8
  8
1BY1
 10
99821.0
 20
482252.0
 30
1.0
  0
VERTEX
  5
9A9
  8
1BY1
 10
99822.0
 20
482252.0
 30
1.0
  0
VERTEX
  5
9AA
  8
1BY1
 10
99822.0
 20
482253.0
 30
1.0
  0
VERTEX
  5
9AB
  8
1BY1
 10
99821.0
 20
482253.0
 30
1.0
  0
SEQEND
  5
9AC
  8
1BY1
  0
POLYLINE
  5
1A6
  8
1BY1
 66
     1
 10
0.0
 20
0.0
 30
2.0
 70
     1
1001
DCO15
1071
        2
1071
        2
1000
variablelink
1004
0000000000804340
  0
VERTEX
  5
9AD
  8
1BY1
 10
99823.0
 20
482258.0
 30
2.0
  0
VERTEX
  5
9AE
  8
1BY1
 10
99824.0
 20
482258.0
 30
2.0
  0
VERTEX
  5
9AF
  8
1BY1
 10
99824.0
 20
482259.0
 30
2.0
  0
VERTEX
  5
9B0
  8
1BY1
 10
99823.0
 20
482259.0
 30
2.0
  0
SEQEND
  5
9B1
  8
1BY1
  0
POLYLINE
  5
1A7
  8
1BY1
 66
     1
 10
0.0
 20
0.0
 30
1.0
 70
     1
1001
DCO15
1071
        2
1071
        2
1000
variablelink
1004
0000000000004440
  0
VERTEX
  5
9B2
  8
1BY1
 10
99813.0
 20
482279.0
 30
1.0
  0
VERTEX
  5
9B3
  8
1BY1
 10
99814.0
 20
482279.0
 30
1.0
  0
VERTEX
  5
9B4
  8
1BY1
 10
99814.0
 20
482280.0
 30
1.0
  0
VERTEX
  5
9B5
  8
1BY1
 10
99813.0
 20
482280.0
 30
1.0
  0
SEQEND
  5
9B6
  8
1BY1
  0
POLYLINE
  5
1A8
  8
1BY1
 66
     1
 10
0.0
 20
0.0
 30
1.0
 70
     1
1001
DCO15
1071
        2
1071
        2
1000
variablelink
1004
0000000000004540
  0
VERTEX
  5
9B7
  8
1BY1
 10
99806.0
 20
482310.0
 30
1.0
  0
VERTEX
  5
9B8
  8
1BY1
 10
99807.0
 20
482310.0
 30
1.0
  0
VERTEX
  5
9B9
  8
1BY1
 10
99807.0
 20
482311.0
 30
1.0
  0
VERTEX
  5
9BA
  8
1BY1
 10
99806.0
 20
482311.0
 30
1.0
  0
SEQEND
  5
9BB
  8
1BY1
  0
POLYLINE
  5
1A9
  8
1BY1
 66
     1
 10
0.0
 20
0.0
 30
1.0
 70
     1
1001
DCO15
1071
        2
1071
        2
1000
variablelink
1004
0000000000804540
  0
VERTEX
  5
9BC
  8
1BY1
 10
99809.0
 20
482307.0
 30
1.0
  0
VERTEX
  5
9BD
  8
1BY1
 10
99810.0
 20
482307.0
 30
1.0
  0
VERTEX
  5
9BE
  8
1BY1
 10
99810.0
 20
482308.0
 30
1.0
  0
VERTEX
  5
9BF
  8
1BY1
 10
99809.0
 20
482308.0
 30
1.0
  0
SEQEND
  5
9C0
  8
1BY1
  0
POLYLINE
  5
1AA
  8
1BY1
 66
     1
 10
0.0
 20
0.0
 30
3.2000000000000002
 70
     1
1001
DCO15
1071
        2
1071
        2
1000
variablelink
1004
0000000000004740
  0
VERTEX
  5
9C1
  8
1BY1
 10
99838.0
 20
482353.0
 30
3.2000000000000002
  0
VERTEX
  5
9C2
  8
1BY1
 10
99839.0
 20
482353.0
 30
3.2000000000000002
  0
VERTEX
  5
9C3
  8
1BY1
 10
99839.0
 20
482354.0
 30
3.2000000000000002
  0
VERTEX
  5
9C4
  8
1BY1
 10
99838.0
 20
482354.0
 30
3.2000000000000002
  0
SEQEND
  5
9C5
  8
1BY1
  0
POLYLINE
  5
1AB
  8
1BY1
 66
     1
 10
0.0
 20
0.0
 30
1.6000000000000001
 70
     1
1001
DCO15
1071
        2
1071
        2
1000
variablelink
1004
0000000000804B40
  0
VERTEX
  5
9C6
  8
1BY1
 10
99969.0
 20
482493.0
 30
1.6000000000000001
  0
VERTEX
  5
9C7
  8
1BY1
 10
99970.0
 20
482493.0
 30
1.6000000000000001
  0
VERTEX
  5
9C8
  8
1BY1
 10
99970.0
 20
482494.0
 30
1.6000000000000001
  0
VERTEX
  5
9C9
  8
1BY1
 10
99969.0
 20
482494.0
 30
1.6000000000000001
  0
SEQEND
  5
9CA
  8
1BY1
  0
POLYLINE
  5
1AC
  8
1BY1
 66
     1
 10
0.0
 20
0.0
 30
1.6000000000000001
 70
     1
1001
DCO15
1071
        2
1071
        2
1000
variablelink
1004
0000000000004C40
  0
VERTEX
  5
9CB
  8
1BY1
 10
99881.0
 20
482356.0
 30
1.6000000000000001
  0
VERTEX
  5
9CC
  8
1BY1
 10
99882.0
 20
482356.0
 30
1.6000000000000001
  0
VERTEX
  5
9CD
  8
1BY1
 10
99882.0
 20
482357.0
 30
1.6000000000000001
  0
VERTEX
  5
9CE
  8
1BY1
 10
99881.0
 20
482357.0
 30
1.6000000000000001
  0
SEQEND
  5
9CF
  8
1BY1
  0
POLYLINE
  5
1AD
  8
1BY1
 66
     1
 10
0.0
 20
0.0
 30
3.2000000000000002
 70
     1
1001
DCO15
1071
        2
1071
        2
1000
variablelink
1004
0000000000004D40
  0
VERTEX
  5
9D0
  8
1BY1
 10
99849.0
 20
482248.0
 30
3.2000000000000002
  0
VERTEX
  5
9D1
  8
1BY1
 10
99850.0
 20
482248.0
 30
3.2000000000000002
  0
VERTEX
  5
9D2
  8
1BY1
 10
99850.0
 20
482249.0
 30
3.2000000000000002
  0
VERTEX
  5
9D3
  8
1BY1
 10
99849.0
 20
482249.0
 30
3.2000000000000002
  0
SEQEND
  5
9D4
  8
1BY1
  0
POLYLINE
  5
1AE
  8
1BY1
 66
     1
 10
0.0
 20
0.0
 30
4.7999999999999998
 70
     1
1001
DCO15
1071
        2
1071
        2
1000
variablelink
1004
0000000000805140
  0
VERTEX
  5
9D5
  8
1BY1
 10
99882.0
 20
482322.0
 30
4.7999999999999998
  0
VERTEX
  5
9D6
  8
1BY1
 10
99883.0
 20
482322.0
 30
4.7999999999999998
  0
VERTEX
  5
9D7
  8
1BY1
 10
99883.0
 20
482323.0
 30
4.7999999999999998
  0
VERTEX
  5
9D8
  8
1BY1
 10
99882.0
 20
482323.0
 30
4.7999999999999998
  0
SEQEND
  5
9D9
  8
1BY1
  0
POLYLINE
  5
1AF
  8
1BY1
 66
     1
 10
0.0
 20
0.0
 30
1.6000000000000001
 70
     1
1001
DCO15
1071
        2
1071
        2
1000
variablelink
1004
0000000000C05240
  0
VERTEX
  5
9DA
  8
1BY1
 10
99885.0
 20
482304.0
 30
1.6000000000000001
  0
VERTEX
  5
9DB
  8
1BY1
 10
99886.0
 20
482304.0
 30
1.6000000000000001
  0
VERTEX
  5
9DC
  8
1BY1
 10
99886.0
 20
482305.0
 30
1.6000000000000001
  0
VERTEX
  5
9DD
  8
1BY1
 10
99885.0
 20
482305.0
 30
1.6000000000000001
  0
SEQEND
  5
9DE
  8
1BY1
  0
POLYLINE
  5
1B0
  8
1BY1
 66
     1
 10
0.0
 20
0.0
 30
1.6000000000000001
 70
     1
1001
DCO15
1071
        2
1071
        2
1000
variablelink
1004
0000000000C05340
  0
VERTEX
  5
9DF
  8
1BY1
 10
99883.0
 20
482341.0
 30
1.6000000000000001
  0
VERTEX
  5
9E0
  8
1BY1
 10
99884.0
 20
482341.0
 30
1.6000000000000001
  0
VERTEX
  5
9E1
  8
1BY1
 10
99884.0
 20
482342.0
 30
1.6000000000000001
  0
VERTEX
  5
9E2
  8
1BY1
 10
99883.0
 20
482342.0
 30
1.6000000000000001
  0
SEQEND
  5
9E3
  8
1BY1
  0
POLYLINE
  5
1B1
  8
1BY1
 66
     1
 10
0.0
 20
0.0
 30
1.6000000000000001
 70
     1
1001
DCO15
1071
        2
1071
        2
1000
variablelink
1004
0000000000405440
  0
VERTEX
  5
9E4
  8
1BY1
 10
99645.0
 20
482838.0
 30
1.6000000000000001
  0
VERTEX
  5
9E5
  8
1BY1
 10
99646.0
 20
482838.0
 30
1.6000000000000001
  0
VERTEX
  5
9E6
  8
1BY1
 10
99646.0
 20
482839.0
 30
1.6000000000000001
  0
VERTEX
  5
9E7
  8
1BY1
 10
99645.0
 20
482839.0
 30
1.6000000000000001
  0
SEQEND
  5
9E8
  8
1BY1
  0
POLYLINE
  5
1B2
  8
1BY1
 66
     1
 10
0.0
 20
0.0
 30
1.0
 70
     1
1001
DCO15
1071
        2
1071
        2
1000
variablelink
1004
0000000000805440
  0
VERTEX
  5
9E9
  8
1BY1
 10
99647.0
 20
482833.0
 30
1.0
  0
VERTEX
  5
9EA
  8
1BY1
 10
99648.0
 20
482833.0
 30
1.0
  0
VERTEX
  5
9EB
  8
1BY1
 10
99648.0
 20
482834.0
 30
1.0
  0
VERTEX
  5
9EC
  8
1BY1
 10
99647.0
 20
482834.0
 30
1.0
  0
SEQEND
  5
9ED
  8
1BY1
  0
POLYLINE
  5
1B3
  8
1BY1
 66
     1
 10
0.0
 20
0.0
 30
3.2000000000000002
 70
     1
1001
DCO15
1071
        2
1071
        2
1000
variablelink
1004
0000000000C05440
  0
VERTEX
  5
9EE
  8
1BY1
 10
99884.0
 20
482334.0
 30
3.2000000000000002
  0
VERTEX
  5
9EF
  8
1BY1
 10
99885.0
 20
482334.0
 30
3.2000000000000002
  0
VERTEX
  5
9F0
  8
1BY1
 10
99885.0
 20
482335.0
 30
3.2000000000000002
  0
VERTEX
  5
9F1
  8
1BY1
 10
99884.0
 20
482335.0
 30
3.2000000000000002
  0
SEQEND
  5
9F2
  8
1BY1
  0
POLYLINE
  5
1B4
  8
1BY1
 66
     1
 10
0.0
 20
0.0
 30
1.0
 70
     1
1001
DCO15
1071
        2
1071
        2
1000
variablelink
1004
0000000000005540
  0
VERTEX
  5
9F3
  8
1BY1
 10
99625.0
 20
482839.0
 30
1.0
  0
VERTEX
  5
9F4
  8
1BY1
 10
99626.0
 20
482839.0
 30
1.0
  0
VERTEX
  5
9F5
  8
1BY1
 10
99626.0
 20
482840.0
 30
1.0
  0
VERTEX
  5
9F6
  8
1BY1
 10
99625.0
 20
482840.0
 30
1.0
  0
SEQEND
  5
9F7
  8
1BY1
  0
POLYLINE
  5
1B5
  8
1BY1
 66
     1
 10
0.0
 20
0.0
 30
1.6000000000000001
 70
     1
1001
DCO15
1071
        2
1071
        2
1000
variablelink
1004
0000000000405540
  0
VERTEX
  5
9F8
  8
1BY1
 10
99628.0
 20
482839.0
 30
1.6000000000000001
  0
VERTEX
  5
9F9
  8
1BY1
 10
99629.0
 20
482839.0
 30
1.6000000000000001
  0
VERTEX
  5
9FA
  8
1BY1
 10
99629.0
 20
482840.0
 30
1.6000000000000001
  0
VERTEX
  5
9FB
  8
1BY1
 10
99628.0
 20
482840.0
 30
1.6000000000000001
  0
SEQEND
  5
9FC
  8
1BY1
  0
POLYLINE
  5
1B6
  8
1BY1
 66
     1
 10
0.0
 20
0.0
 30
1.0
 70
     1
1001
DCO15
1071
        2
1071
        2
1000
variablelink
1004
0000000000805540
  0
VERTEX
  5
9FD
  8
1BY1
 10
99615.0
 20
482706.0
 30
1.0
  0
VERTEX
  5
9FE
  8
1BY1
 10
99616.0
 20
482706.0
 30
1.0
  0
VERTEX
  5
9FF
  8
1BY1
 10
99616.0
 20
482707.0
 30
1.0
  0
VERTEX
  5
A00
  8
1BY1
 10
99615.0
 20
482707.0
 30
1.0
  0
SEQEND
  5
A01
  8
1BY1
  0
POLYLINE
  5
1B7
  8
1BY1
 66
     1
 10
0.0
 20
0.0
 30
1.6000000000000001
 70
     1
1001
DCO15
1071
        2
1071
        2
1000
variablelink
1004
0000000000C05540
  0
VERTEX
  5
A02
  8
1BY1
 10
99579.0
 20
482979.0
 30
1.6000000000000001
  0
VERTEX
  5
A03
  8
1BY1
 10
99580.0
 20
482979.0
 30
1.6000000000000001
  0
VERTEX
  5
A04
  8
1BY1
 10
99580.0
 20
482980.0
 30
1.6000000000000001
  0
VERTEX
  5
A05
  8
1BY1
 10
99579.0
 20
482980.0
 30
1.6000000000000001
  0
SEQEND
  5
A06
  8
1BY1
  0
POLYLINE
  5
1B8
  8
1BY1
 66
     1
 10
0.0
 20
0.0
 30
2.0
 70
     1
1001
DCO15
1071
        2
1071
        2
1000
variablelink
1004
0000000000405940
  0
VERTEX
  5
A07
  8
1BY1
 10
99747.0
 20
483703.0
 30
2.0
  0
VERTEX
  5
A08
  8
1BY1
 10
99748.0
 20
483703.0
 30
2.0
  0
VERTEX
  5
A09
  8
1BY1
 10
99748.0
 20
483704.0
 30
2.0
  0
VERTEX
  5
A0A
  8
1BY1
 10
99747.0
 20
483704.0
 30
2.0
  0
SEQEND
  5
A0B
  8
1BY1
  0
POLYLINE
  5
1B9
  8
1BY1
 66
     1
 10
0.0
 20
0.0
 30
1.0
 70
     1
1001
DCO15
1071
        2
1071
        2
1000
variablelink
1004
0000000000606840
  0
VERTEX
  5
A0C
  8
1BY1
 10
99681.0
 20
483649.0
 30
1.0
  0
VERTEX
  5
A0D
  8
1BY1
 10
99682.0
 20
483649.0
 30
1.0
  0
VERTEX
  5
A0E
  8
1BY1
 10
99682.0
 20
483650.0
 30
1.0
  0
VERTEX
  5
A0F
  8
1BY1
 10
99681.0
 20
483650.0
 30
1.0
  0
SEQEND
  5
A10
  8
1BY1
  0
POLYLINE
  5
1BA
  8
1BY1
 66
     1
 10
0.0
 20
0.0
 30
1.0
 70
     1
1001
DCO15
1071
        2
1071
        2
1000
variablelink
1004
0000000000606B40
  0
VERTEX
  5
A11
  8
1BY1
 10
99655.0
 20
483617.0
 30
1.0
  0
VERTEX
  5
A12
  8
1BY1
 10
99656.0
 20
483617.0
 30
1.0
  0
VERTEX
  5
A13
  8
1BY1
 10
99656.0
 20
483618.0
 30
1.0
  0
VERTEX
  5
A14
  8
1BY1
 10
99655.0
 20
483618.0
 30
1.0
  0
SEQEND
  5
A15
  8
1BY1
  0
POLYLINE
  5
1BB
  8
1BY1
 66
     1
 10
0.0
 20
0.0
 30
1.0
 70
     1
1001
DCO15
1071
        2
1071
        2
1000
variablelink
1004
0000000000A06B40
  0
VERTEX
  5
A16
  8
1BY1
 10
99585.0
 20
483665.0
 30
1.0
  0
VERTEX
  5
A17
  8
1BY1
 10
99586.0
 20
483665.0
 30
1.0
  0
VERTEX
  5
A18
  8
1BY1
 10
99586.0
 20
483666.0
 30
1.0
  0
VERTEX
  5
A19
  8
1BY1
 10
99585.0
 20
483666.0
 30
1.0
  0
SEQEND
  5
A1A
  8
1BY1
  0
POLYLINE
  5
1BC
  8
1BY1
 66
     1
 10
0.0
 20
0.0
 30
1.0
 70
     1
1001
DCO15
1071
        2
1071
        2
1000
variablelink
1004
0000000000A06C40
  0
VERTEX
  5
A1B
  8
1BY1
 10
99535.0
 20
483589.0
 30
1.0
  0
VERTEX
  5
A1C
  8
1BY1
 10
99536.0
 20
483589.0
 30
1.0
  0
VERTEX
  5
A1D
  8
1BY1
 10
99536.0
 20
483590.0
 30
1.0
  0
VERTEX
  5
A1E
  8
1BY1
 10
99535.0
 20
483590.0
 30
1.0
  0
SEQEND
  5
A1F
  8
1BY1
  0
POLYLINE
  5
1BD
  8
1BY1
 66
     1
 10
0.0
 20
0.0
 30
1.0
 70
     1
1001
DCO15
1071
        2
1071
        2
1000
variablelink
1004
0000000000C06C40
  0
VERTEX
  5
A20
  8
1BY1
 10
99509.0
 20
483645.0
 30
1.0
  0
VERTEX
  5
A21
  8
1BY1
 10
99510.0
 20
483645.0
 30
1.0
  0
VERTEX
  5
A22
  8
1BY1
 10
99510.0
 20
483646.0
 30
1.0
  0
VERTEX
  5
A23
  8
1BY1
 10
99509.0
 20
483646.0
 30
1.0
  0
SEQEND
  5
A24
  8
1BY1
  0
POLYLINE
  5
1BE
  8
1BY1
 66
     1
 10
0.0
 20
0.0
 30
1.0
 70
     1
1001
DCO15
1071
        2
1071
        2
1000
variablelink
1004
0000000000E06C40
  0
VERTEX
  5
A25
  8
1BY1
 10
99503.0
 20
483643.0
 30
1.0
  0
VERTEX
  5
A26
  8
1BY1
 10
99504.0
 20
483643.0
 30
1.0
  0
VERTEX
  5
A27
  8
1BY1
 10
99504.0
 20
483644.0
 30
1.0
  0
VERTEX
  5
A28
  8
1BY1
 10
99503.0
 20
483644.0
 30
1.0
  0
SEQEND
  5
A29
  8
1BY1
  0
POLYLINE
  5
1BF
  8
1BY1
 66
     1
 10
0.0
 20
0.0
 30
4.0
 70
     1
1001
DCO15
1071
        2
1071
        2
1000
variablelink
1004
0000000000006E40
  0
VERTEX
  5
A2A
  8
1BY1
 10
99656.0
 20
483795.0
 30
4.0
  0
VERTEX
  5
A2B
  8
1BY1
 10
99657.0
 20
483795.0
 30
4.0
  0
VERTEX
  5
A2C
  8
1BY1
 10
99657.0
 20
483796.0
 30
4.0
  0
VERTEX
  5
A2D
  8
1BY1
 10
99656.0
 20
483796.0
 30
4.0
  0
SEQEND
  5
A2E
  8
1BY1
  0
POLYLINE
  5
1C0
  8
1BY1
 66
     1
 10
0.0
 20
0.0
 30
15.0
 70
     1
1001
DCO15
1071
        2
1071
        2
1000
variablelink
1004
0000000000B07240
  0
VERTEX
  5
A2F
  8
1BY1
 10
99672.0
 20
483679.0
 30
15.0
  0
VERTEX
  5
A30
  8
1BY1
 10
99673.0
 20
483679.0
 30
15.0
  0
VERTEX
  5
A31
  8
1BY1
 10
99673.0
 20
483680.0
 30
15.0
  0
VERTEX
  5
A32
  8
1BY1
 10
99672.0
 20
483680.0
 30
15.0
  0
SEQEND
  5
A33
  8
1BY1
  0
POLYLINE
  5
1C1
  8
1BY1
 66
     1
 10
0.0
 20
0.0
 30
1.0
 70
     1
1001
DCO15
1071
        2
1071
        2
1000
variablelink
1004
0000000000307740
  0
VERTEX
  5
A34
  8
1BY1
 10
99560.0
 20
483646.0
 30
1.0
  0
VERTEX
  5
A35
  8
1BY1
 10
99561.0
 20
483646.0
 30
1.0
  0
VERTEX
  5
A36
  8
1BY1
 10
99561.0
 20
483647.0
 30
1.0
  0
VERTEX
  5
A37
  8
1BY1
 10
99560.0
 20
483647.0
 30
1.0
  0
SEQEND
  5
A38
  8
1BY1
  0
POLYLINE
  5
1C2
  8
1BY1
 66
     1
 10
0.0
 20
0.0
 30
1.0
 70
     1
1001
DCO15
1071
        2
1071
        2
1000
variablelink
1004
0000000000407940
  0
VERTEX
  5
A39
  8
1BY1
 10
99624.0
 20
482021.0
 30
1.0
  0
VERTEX
  5
A3A
  8
1BY1
 10
99625.0
 20
482021.0
 30
1.0
  0
VERTEX
  5
A3B
  8
1BY1
 10
99625.0
 20
482022.0
 30
1.0
  0
VERTEX
  5
A3C
  8
1BY1
 10
99624.0
 20
482022.0
 30
1.0
  0
SEQEND
  5
A3D
  8
1BY1
  0
POLYLINE
  5
1C3
  8
1BY1
 66
     1
 10
0.0
 20
0.0
 30
1.7
 70
     1
1001
DCO15
1071
        2
1071
        2
1000
variablelink
1004
0000000000507940
  0
VERTEX
  5
A3E
  8
1BY1
 10
99756.0
 20
481986.0
 30
1.7
  0
VERTEX
  5
A3F
  8
1BY1
 10
99757.0
 20
481986.0
 30
1.7
  0
VERTEX
  5
A40
  8
1BY1
 10
99757.0
 20
481987.0
 30
1.7
  0
VERTEX
  5
A41
  8
1BY1
 10
99756.0
 20
481987.0
 30
1.7
  0
SEQEND
  5
A42
  8
1BY1
  0
POLYLINE
  5
1C4
  8
1BY1
 66
     1
 10
0.0
 20
0.0
 30
1.7
 70
     1
1001
DCO15
1071
        2
1071
        2
1000
variablelink
1004
0000000000607940
  0
VERTEX
  5
A43
  8
1BY1
 10
99779.0
 20
482073.0
 30
1.7
  0
VERTEX
  5
A44
  8
1BY1
 10
99780.0
 20
482073.0
 30
1.7
  0
VERTEX
  5
A45
  8
1BY1
 10
99780.0
 20
482074.0
 30
1.7
  0
VERTEX
  5
A46
  8
1BY1
 10
99779.0
 20
482074.0
 30
1.7
  0
SEQEND
  5
A47
  8
1BY1
  0
POLYLINE
  5
1C5
  8
1BY1
 66
     1
 10
0.0
 20
0.0
 30
3.2000000000000002
 70
     1
1001
DCO15
1071
        2
1071
        2
1000
variablelink
1004
0000000000707940
  0
VERTEX
  5
A48
  8
1BY1
 10
99763.0
 20
482381.0
 30
3.2000000000000002
  0
VERTEX
  5
A49
  8
1BY1
 10
99764.0
 20
482381.0
 30
3.2000000000000002
  0
VERTEX
  5
A4A
  8
1BY1
 10
99764.0
 20
482382.0
 30
3.2000000000000002
  0
VERTEX
  5
A4B
  8
1BY1
 10
99763.0
 20
482382.0
 30
3.2000000000000002
  0
SEQEND
  5
A4C
  8
1BY1
  0
POLYLINE
  5
1C6
  8
1BY1
 66
     1
 10
0.0
 20
0.0
 30
1.0
 70
     1
1001
DCO15
1071
        2
1071
        2
1000
variablelink
1004
0000000000807940
  0
VERTEX
  5
A4D
  8
1BY1
 10
99708.0
 20
482422.0
 30
1.0
  0
VERTEX
  5
A4E
  8
1BY1
 10
99709.0
 20
482422.0
 30
1.0
  0
VERTEX
  5
A4F
  8
1BY1
 10
99709.0
 20
482423.0
 30
1.0
  0
VERTEX
  5
A50
  8
1BY1
 10
99708.0
 20
482423.0
 30
1.0
  0
SEQEND
  5
A51
  8
1BY1
  0
POLYLINE
  5
1C7
  8
1BY1
 66
     1
 10
0.0
 20
0.0
 30
1.0
 70
     1
1001
DCO15
1071
        2
1071
        2
1000
variablelink
1004
0000000000A07940
  0
VERTEX
  5
A52
  8
1BY1
 10
99594.0
 20
482033.0
 30
1.0
  0
VERTEX
  5
A53
  8
1BY1
 10
99595.0
 20
482033.0
 30
1.0
  0
VERTEX
  5
A54
  8
1BY1
 10
99595.0
 20
482034.0
 30
1.0
  0
VERTEX
  5
A55
  8
1BY1
 10
99594.0
 20
482034.0
 30
1.0
  0
SEQEND
  5
A56
  8
1BY1
  0
POLYLINE
  5
1C8
  8
1BY1
 66
     1
 10
0.0
 20
0.0
 30
1.6000000000000001
 70
     1
1001
DCO15
1071
        2
1071
        2
1000
variablelink
1004
0000000000B07940
  0
VERTEX
  5
A57
  8
1BY1
 10
99608.0
 20
482046.0
 30
1.6000000000000001
  0
VERTEX
  5
A58
  8
1BY1
 10
99609.0
 20
482046.0
 30
1.6000000000000001
  0
VERTEX
  5
A59
  8
1BY1
 10
99609.0
 20
482047.0
 30
1.6000000000000001
  0
VERTEX
  5
A5A
  8
1BY1
 10
99608.0
 20
482047.0
 30
1.6000000000000001
  0
SEQEND
  5
A5B
  8
1BY1
  0
POLYLINE
  5
1C9
  8
1BY1
 66
     1
 10
0.0
 20
0.0
 30
1.6000000000000001
 70
     1
1001
DCO15
1071
        2
1071
        2
1000
variablelink
1004
0000000000C07940
  0
VERTEX
  5
A5C
  8
1BY1
 10
99605.0
 20
482052.0
 30
1.6000000000000001
  0
VERTEX
  5
A5D
  8
1BY1
 10
99606.0
 20
482052.0
 30
1.6000000000000001
  0
VERTEX
  5
A5E
  8
1BY1
 10
99606.0
 20
482053.0
 30
1.6000000000000001
  0
VERTEX
  5
A5F
  8
1BY1
 10
99605.0
 20
482053.0
 30
1.6000000000000001
  0
SEQEND
  5
A60
  8
1BY1
  0
POLYLINE
  5
1CA
  8
1BY1
 66
     1
 10
0.0
 20
0.0
 30
1.0
 70
     1
1001
DCO15
1071
        2
1071
        2
1000
variablelink
1004
0000000000D07940
  0
VERTEX
  5
A61
  8
1BY1
 10
99605.0
 20
482055.0
 30
1.0
  0
VERTEX
  5
A62
  8
1BY1
 10
99606.0
 20
482055.0
 30
1.0
  0
VERTEX
  5
A63
  8
1BY1
 10
99606.0
 20
482056.0
 30
1.0
  0
VERTEX
  5
A64
  8
1BY1
 10
99605.0
 20
482056.0
 30
1.0
  0
SEQEND
  5
A65
  8
1BY1
  0
POLYLINE
  5
1CB
  8
1BY1
 66
     1
 10
0.0
 20
0.0
 30
1.0
 70
     1
1001
DCO15
1071
        2
1071
        2
1000
variablelink
1004
0000000000E07940
  0
VERTEX
  5
A66
  8
1BY1
 10
99599.0
 20
482052.0
 30
1.0
  0
VERTEX
  5
A67
  8
1BY1
 10
99600.0
 20
482052.0
 30
1.0
  0
VERTEX
  5
A68
  8
1BY1
 10
99600.0
 20
482053.0
 30
1.0
  0
VERTEX
  5
A69
  8
1BY1
 10
99599.0
 20
482053.0
 30
1.0
  0
SEQEND
  5
A6A
  8
1BY1
  0
POLYLINE
  5
1CC
  8
1BY1
 66
     1
 10
0.0
 20
0.0
 30
1.0
 70
     1
1001
DCO15
1071
        2
1071
        2
1000
variablelink
1004
0000000000007A40
  0
VERTEX
  5
A6B
  8
1BY1
 10
99621.0
 20
482020.0
 30
1.0
  0
VERTEX
  5
A6C
  8
1BY1
 10
99622.0
 20
482020.0
 30
1.0
  0
VERTEX
  5
A6D
  8
1BY1
 10
99622.0
 20
482021.0
 30
1.0
  0
VERTEX
  5
A6E
  8
1BY1
 10
99621.0
 20
482021.0
 30
1.0
  0
SEQEND
  5
A6F
  8
1BY1
  0
POLYLINE
  5
1CD
  8
1BY1
 66
     1
 10
0.0
 20
0.0
 30
2.0
 70
     1
1001
DCO15
1071
        2
1071
        2
1000
variablelink
1004
0000000000407A40
  0
VERTEX
  5
A70
  8
1BY1
 10
99563.0
 20
482372.0
 30
2.0
  0
VERTEX
  5
A71
  8
1BY1
 10
99564.0
 20
482372.0
 30
2.0
  0
VERTEX
  5
A72
  8
1BY1
 10
99564.0
 20
482373.0
 30
2.0
  0
VERTEX
  5
A73
  8
1BY1
 10
99563.0
 20
482373.0
 30
2.0
  0
SEQEND
  5
A74
  8
1BY1
  0
POLYLINE
  5
1CE
  8
1BY1
 66
     1
 10
0.0
 20
0.0
 30
6.0
 70
     1
1001
DCO15
1071
        2
1071
        2
1000
variablelink
1004
0000000000507A40
  0
VERTEX
  5
A75
  8
1BY1
 10
99599.0
 20
482461.0
 30
6.0
  0
VERTEX
  5
A76
  8
1BY1
 10
99600.0
 20
482461.0
 30
6.0
  0
VERTEX
  5
A77
  8
1BY1
 10
99600.0
 20
482462.0
 30
6.0
  0
VERTEX
  5
A78
  8
1BY1
 10
99599.0
 20
482462.0
 30
6.0
  0
SEQEND
  5
A79
  8
1BY1
  0
POLYLINE
  5
1CF
  8
1BY1
 66
     1
 10
0.0
 20
0.0
 30
3.0
 70
     1
1001
DCO15
1071
        2
1071
        2
1000
variablelink
1004
0000000000707A40
  0
VERTEX
  5
A7A
  8
1BY1
 10
99594.0
 20
482023.0
 30
3.0
  0
VERTEX
  5
A7B
  8
1BY1
 10
99595.0
 20
482023.0
 30
3.0
  0
VERTEX
  5
A7C
  8
1BY1
 10
99595.0
 20
482024.0
 30
3.0
  0
VERTEX
  5
A7D
  8
1BY1
 10
99594.0
 20
482024.0
 30
3.0
  0
SEQEND
  5
A7E
  8
1BY1
  0
POLYLINE
  5
1D0
  8
1BY1
 66
     1
 10
0.0
 20
0.0
 30
1.6000000000000001
 70
     1
1001
DCO15
1071
        2
1071
        2
1000
variablelink
1004
0000000000807A40
  0
VERTEX
  5
A7F
  8
1BY1
 10
99678.0
 20
482009.0
 30
1.6000000000000001
  0
VERTEX
  5
A80
  8
1BY1
 10
99679.0
 20
482009.0
 30
1.6000000000000001
  0
VERTEX
  5
A81
  8
1BY1
 10
99679.0
 20
482010.0
 30
1.6000000000000001
  0
VERTEX
  5
A82
  8
1BY1
 10
99678.0
 20
482010.0
 30
1.6000000000000001
  0
SEQEND
  5
A83
  8
1BY1
  0
POLYLINE
  5
1D1
  8
1BY1
 66
     1
 10
0.0
 20
0.0
 30
1.6000000000000001
 70
     1
1001
DCO15
1071
        2
1071
        2
1000
variablelink
1004
0000000000907A40
  0
VERTEX
  5
A84
  8
1BY1
 10
99732.0
 20
482028.0
 30
1.6000000000000001
  0
VERTEX
  5
A85
  8
1BY1
 10
99733.0
 20
482028.0
 30
1.6000000000000001
  0
VERTEX
  5
A86
  8
1BY1
 10
99733.0
 20
482029.0
 30
1.6000000000000001
  0
VERTEX
  5
A87
  8
1BY1
 10
99732.0
 20
482029.0
 30
1.6000000000000001
  0
SEQEND
  5
A88
  8
1BY1
  0
POLYLINE
  5
1D2
  8
1BY1
 66
     1
 10
0.0
 20
0.0
 30
1.0
 70
     1
1001
DCO15
1071
        2
1071
        2
1000
variablelink
1004
0000000000A07A40
  0
VERTEX
  5
A89
  8
1BY1
 10
99635.0
 20
482409.0
 30
1.0
  0
VERTEX
  5
A8A
  8
1BY1
 10
99636.0
 20
482409.0
 30
1.0
  0
VERTEX
  5
A8B
  8
1BY1
 10
99636.0
 20
482410.0
 30
1.0
  0
VERTEX
  5
A8C
  8
1BY1
 10
99635.0
 20
482410.0
 30
1.0
  0
SEQEND
  5
A8D
  8
1BY1
  0
POLYLINE
  5
1D3
  8
1BY1
 66
     1
 10
0.0
 20
0.0
 30
1.0
 70
     1
1001
DCO15
1071
        2
1071
        2
1000
variablelink
1004
0000000000B07A40
  0
VERTEX
  5
A8E
  8
1BY1
 10
99655.0
 20
482421.0
 30
1.0
  0
VERTEX
  5
A8F
  8
1BY1
 10
99656.0
 20
482421.0
 30
1.0
  0
VERTEX
  5
A90
  8
1BY1
 10
99656.0
 20
482422.0
 30
1.0
  0
VERTEX
  5
A91
  8
1BY1
 10
99655.0
 20
482422.0
 30
1.0
  0
SEQEND
  5
A92
  8
1BY1
  0
POLYLINE
  5
1D4
  8
1BY1
 66
     1
 10
0.0
 20
0.0
 30
1.0
 70
     1
1001
DCO15
1071
        2
1071
        2
1000
variablelink
1004
0000000000C07A40
  0
VERTEX
  5
A93
  8
1BY1
 10
99586.0
 20
482419.0
 30
1.0
  0
VERTEX
  5
A94
  8
1BY1
 10
99587.0
 20
482419.0
 30
1.0
  0
VERTEX
  5
A95
  8
1BY1
 10
99587.0
 20
482420.0
 30
1.0
  0
VERTEX
  5
A96
  8
1BY1
 10
99586.0
 20
482420.0
 30
1.0
  0
SEQEND
  5
A97
  8
1BY1
  0
POLYLINE
  5
1D5
  8
1BY1
 66
     1
 10
0.0
 20
0.0
 30
1.0
 70
     1
1001
DCO15
1071
        2
1071
        2
1000
variablelink
1004
0000000000D07A40
  0
VERTEX
  5
A98
  8
1BY1
 10
99600.0
 20
482373.0
 30
1.0
  0
VERTEX
  5
A99
  8
1BY1
 10
99601.0
 20
482373.0
 30
1.0
  0
VERTEX
  5
A9A
  8
1BY1
 10
99601.0
 20
482374.0
 30
1.0
  0
VERTEX
  5
A9B
  8
1BY1
 10
99600.0
 20
482374.0
 30
1.0
  0
SEQEND
  5
A9C
  8
1BY1
  0
POLYLINE
  5
1D6
  8
1BY1
 66
     1
 10
0.0
 20
0.0
 30
1.6000000000000001
 70
     1
1001
DCO15
1071
        2
1071
        2
1000
variablelink
1004
0000000000E07A40
  0
VERTEX
  5
A9D
  8
1BY1
 10
99595.0
 20
482336.0
 30
1.6000000000000001
  0
VERTEX
  5
A9E
  8
1BY1
 10
99596.0
 20
482336.0
 30
1.6000000000000001
  0
VERTEX
  5
A9F
  8
1BY1
 10
99596.0
 20
482337.0
 30
1.6000000000000001
  0
VERTEX
  5
AA0
  8
1BY1
 10
99595.0
 20
482337.0
 30
1.6000000000000001
  0
SEQEND
  5
AA1
  8
1BY1
  0
POLYLINE
  5
1D7
  8
1BY1
 66
     1
 10
0.0
 20
0.0
 30
1.0
 70
     1
1001
DCO15
1071
        2
1071
        2
1000
variablelink
1004
0000000000207B40
  0
VERTEX
  5
AA2
  8
1BY1
 10
99403.0
 20
483353.0
 30
1.0
  0
VERTEX
  5
AA3
  8
1BY1
 10
99404.0
 20
483353.0
 30
1.0
  0
VERTEX
  5
AA4
  8
1BY1
 10
99404.0
 20
483354.0
 30
1.0
  0
VERTEX
  5
AA5
  8
1BY1
 10
99403.0
 20
483354.0
 30
1.0
  0
SEQEND
  5
AA6
  8
1BY1
  0
POLYLINE
  5
1D8
  8
1BY1
 66
     1
 10
0.0
 20
0.0
 30
1.0
 70
     1
1001
DCO15
1071
        2
1071
        2
1000
variablelink
1004
0000000000807B40
  0
VERTEX
  5
AA7
  8
1BY1
 10
99431.0
 20
482092.0
 30
1.0
  0
VERTEX
  5
AA8
  8
1BY1
 10
99432.0
 20
482092.0
 30
1.0
  0
VERTEX
  5
AA9
  8
1BY1
 10
99432.0
 20
482093.0
 30
1.0
  0
VERTEX
  5
AAA
  8
1BY1
 10
99431.0
 20
482093.0
 30
1.0
  0
SEQEND
  5
AAB
  8
1BY1
  0
POLYLINE
  5
1D9
  8
1BY1
 66
     1
 10
0.0
 20
0.0
 30
1.0
 70
     1
1001
DCO15
1071
        2
1071
        2
1000
variablelink
1004
0000000000907B40
  0
VERTEX
  5
AAC
  8
1BY1
 10
99448.0
 20
482101.0
 30
1.0
  0
VERTEX
  5
AAD
  8
1BY1
 10
99449.0
 20
482101.0
 30
1.0
  0
VERTEX
  5
AAE
  8
1BY1
 10
99449.0
 20
482102.0
 30
1.0
  0
VERTEX
  5
AAF
  8
1BY1
 10
99448.0
 20
482102.0
 30
1.0
  0
SEQEND
  5
AB0
  8
1BY1
  0
POLYLINE
  5
1DA
  8
1BY1
 66
     1
 10
0.0
 20
0.0
 30
17.0
 70
     1
1001
DCO15
1071
        2
1071
        2
1000
variablelink
1004
0000000000C07B40
  0
VERTEX
  5
AB1
  8
1BY1
 10
99342.0
 20
482097.0
 30
17.0
  0
VERTEX
  5
AB2
  8
1BY1
 10
99343.0
 20
482097.0
 30
17.0
  0
VERTEX
  5
AB3
  8
1BY1
 10
99343.0
 20
482098.0
 30
17.0
  0
VERTEX
  5
AB4
  8
1BY1
 10
99342.0
 20
482098.0
 30
17.0
  0
SEQEND
  5
AB5
  8
1BY1
  0
POLYLINE
  5
1DB
  8
1BY1
 66
     1
 10
0.0
 20
0.0
 30
1.7
 70
     1
1001
DCO15
1071
        2
1071
        2
1000
variablelink
1004
0000000000D07B40
  0
VERTEX
  5
AB6
  8
1BY1
 10
99399.0
 20
482101.0
 30
1.7
  0
VERTEX
  5
AB7
  8
1BY1
 10
99400.0
 20
482101.0
 30
1.7
  0
VERTEX
  5
AB8
  8
1BY1
 10
99400.0
 20
482102.0
 30
1.7
  0
VERTEX
  5
AB9
  8
1BY1
 10
99399.0
 20
482102.0
 30
1.7
  0
SEQEND
  5
ABA
  8
1BY1
  0
POLYLINE
  5
1DC
  8
1BY1
 66
     1
 10
0.0
 20
0.0
 30
32.0
 70
     1
1001
DCO15
1071
        2
1071
        2
1000
variablelink
1004
0000000000E07B40
  0
VERTEX
  5
ABB
  8
1BY1
 10
99379.0
 20
482104.0
 30
32.0
  0
VERTEX
  5
ABC
  8
1BY1
 10
99380.0
 20
482104.0
 30
32.0
  0
VERTEX
  5
ABD
  8
1BY1
 10
99380.0
 20
482105.0
 30
32.0
  0
VERTEX
  5
ABE
  8
1BY1
 10
99379.0
 20
482105.0
 30
32.0
  0
SEQEND
  5
ABF
  8
1BY1
  0
POLYLINE
  5
1DD
  8
1BY1
 66
     1
 10
0.0
 20
0.0
 30
1.7
 70
     1
1001
DCO15
1071
        2
1071
        2
1000
variablelink
1004
0000000000007C40
  0
VERTEX
  5
AC0
  8
1BY1
 10
99362.0
 20
482054.0
 30
1.7
  0
VERTEX
  5
AC1
  8
1BY1
 10
99363.0
 20
482054.0
 30
1.7
  0
VERTEX
  5
AC2
  8
1BY1
 10
99363.0
 20
482055.0
 30
1.7
  0
VERTEX
  5
AC3
  8
1BY1
 10
99362.0
 20
482055.0
 30
1.7
  0
SEQEND
  5
AC4
  8
1BY1
  0
POLYLINE
  5
1DE
  8
1BY1
 66
     1
 10
0.0
 20
0.0
 30
1.6000000000000001
 70
     1
1001
DCO15
1071
        2
1071
        2
1000
variablelink
1004
0000000000107C40
  0
VERTEX
  5
AC5
  8
1BY1
 10
99238.0
 20
482011.0
 30
1.6000000000000001
  0
VERTEX
  5
AC6
  8
1BY1
 10
99239.0
 20
482011.0
 30
1.6000000000000001
  0
VERTEX
  5
AC7
  8
1BY1
 10
99239.0
 20
482012.0
 30
1.6000000000000001
  0
VERTEX
  5
AC8
  8
1BY1
 10
99238.0
 20
482012.0
 30
1.6000000000000001
  0
SEQEND
  5
AC9
  8
1BY1
  0
POLYLINE
  5
1DF
  8
1BY1
 66
     1
 10
0.0
 20
0.0
 30
8.0
 70
     1
1001
DCO15
1071
        2
1071
        2
1000
variablelink
1004
0000000000207C40
  0
VERTEX
  5
ACA
  8
1BY1
 10
99237.0
 20
482019.0
 30
8.0
  0
VERTEX
  5
ACB
  8
1BY1
 10
99238.0
 20
482019.0
 30
8.0
  0
VERTEX
  5
ACC
  8
1BY1
 10
99238.0
 20
482020.0
 30
8.0
  0
VERTEX
  5
ACD
  8
1BY1
 10
99237.0
 20
482020.0
 30
8.0
  0
SEQEND
  5
ACE
  8
1BY1
  0
POLYLINE
  5
1E0
  8
1BY1
 66
     1
 10
0.0
 20
0.0
 30
1.6000000000000001
 70
     1
1001
DCO15
1071
        2
1071
        2
1000
variablelink
1004
0000000000307C40
  0
VERTEX
  5
ACF
  8
1BY1
 10
99376.0
 20
482142.0
 30
1.6000000000000001
  0
VERTEX
  5
AD0
  8
1BY1
 10
99377.0
 20
482142.0
 30
1.6000000000000001
  0
VERTEX
  5
AD1
  8
1BY1
 10
99377.0
 20
482143.0
 30
1.6000000000000001
  0
VERTEX
  5
AD2
  8
1BY1
 10
99376.0
 20
482143.0
 30
1.6000000000000001
  0
SEQEND
  5
AD3
  8
1BY1
  0
POLYLINE
  5
1E1
  8
1BY1
 66
     1
 10
0.0
 20
0.0
 30
1.0
 70
     1
1001
DCO15
1071
        2
1071
        2
1000
variablelink
1004
0000000000607C40
  0
VERTEX
  5
AD4
  8
1BY1
 10
99273.0
 20
482800.0
 30
1.0
  0
VERTEX
  5
AD5
  8
1BY1
 10
99274.0
 20
482800.0
 30
1.0
  0
VERTEX
  5
AD6
  8
1BY1
 10
99274.0
 20
482801.0
 30
1.0
  0
VERTEX
  5
AD7
  8
1BY1
 10
99273.0
 20
482801.0
 30
1.0
  0
SEQEND
  5
AD8
  8
1BY1
  0
POLYLINE
  5
1E2
  8
1BY1
 66
     1
 10
0.0
 20
0.0
 30
1.0
 70
     1
1001
DCO15
1071
        2
1071
        2
1000
variablelink
1004
0000000000907C40
  0
VERTEX
  5
AD9
  8
1BY1
 10
99296.0
 20
482189.0
 30
1.0
  0
VERTEX
  5
ADA
  8
1BY1
 10
99297.0
 20
482189.0
 30
1.0
  0
VERTEX
  5
ADB
  8
1BY1
 10
99297.0
 20
482190.0
 30
1.0
  0
VERTEX
  5
ADC
  8
1BY1
 10
99296.0
 20
482190.0
 30
1.0
  0
SEQEND
  5
ADD
  8
1BY1
  0
POLYLINE
  5
1E3
  8
1BY1
 66
     1
 10
0.0
 20
0.0
 30
1.6000000000000001
 70
     1
1001
DCO15
1071
        2
1071
        2
1000
variablelink
1004
0000000000A07C40
  0
VERTEX
  5
ADE
  8
1BY1
 10
99294.0
 20
482174.0
 30
1.6000000000000001
  0
VERTEX
  5
ADF
  8
1BY1
 10
99295.0
 20
482174.0
 30
1.6000000000000001
  0
VERTEX
  5
AE0
  8
1BY1
 10
99295.0
 20
482175.0
 30
1.6000000000000001
  0
VERTEX
  5
AE1
  8
1BY1
 10
99294.0
 20
482175.0
 30
1.6000000000000001
  0
SEQEND
  5
AE2
  8
1BY1
  0
POLYLINE
  5
1E4
  8
1BY1
 66
     1
 10
0.0
 20
0.0
 30
1.6000000000000001
 70
     1
1001
DCO15
1071
        2
1071
        2
1000
variablelink
1004
0000000000B07C40
  0
VERTEX
  5
AE3
  8
1BY1
 10
99276.0
 20
482219.0
 30
1.6000000000000001
  0
VERTEX
  5
AE4
  8
1BY1
 10
99277.0
 20
482219.0
 30
1.6000000000000001
  0
VERTEX
  5
AE5
  8
1BY1
 10
99277.0
 20
482220.0
 30
1.6000000000000001
  0
VERTEX
  5
AE6
  8
1BY1
 10
99276.0
 20
482220.0
 30
1.6000000000000001
  0
SEQEND
  5
AE7
  8
1BY1
  0
POLYLINE
  5
1E5
  8
1BY1
 66
     1
 10
0.0
 20
0.0
 30
8.0
 70
     1
1001
DCO15
1071
        2
1071
        2
1000
variablelink
1004
0000000000E07C40
  0
VERTEX
  5
AE8
  8
1BY1
 10
99303.0
 20
482097.0
 30
8.0
  0
VERTEX
  5
AE9
  8
1BY1
 10
99304.0
 20
482097.0
 30
8.0
  0
VERTEX
  5
AEA
  8
1BY1
 10
99304.0
 20
482098.0
 30
8.0
  0
VERTEX
  5
AEB
  8
1BY1
 10
99303.0
 20
482098.0
 30
8.0
  0
SEQEND
  5
AEC
  8
1BY1
  0
POLYLINE
  5
1E6
  8
1BY1
 66
     1
 10
0.0
 20
0.0
 30
2.0
 70
     1
1001
DCO15
1071
        2
1071
        2
1000
variablelink
1004
0000000000007D40
  0
VERTEX
  5
AED
  8
1BY1
 10
99312.0
 20
482331.0
 30
2.0
  0
VERTEX
  5
AEE
  8
1BY1
 10
99313.0
 20
482331.0
 30
2.0
  0
VERTEX
  5
AEF
  8
1BY1
 10
99313.0
 20
482332.0
 30
2.0
  0
VERTEX
  5
AF0
  8
1BY1
 10
99312.0
 20
482332.0
 30
2.0
  0
SEQEND
  5
AF1
  8
1BY1
  0
POLYLINE
  5
1E7
  8
1BY1
 66
     1
 10
0.0
 20
0.0
 30
1.6000000000000001
 70
     1
1001
DCO15
1071
        2
1071
        2
1000
variablelink
1004
0000000000407D40
  0
VERTEX
  5
AF2
  8
1BY1
 10
99122.0
 20
482171.0
 30
1.6000000000000001
  0
VERTEX
  5
AF3
  8
1BY1
 10
99123.0
 20
482171.0
 30
1.6000000000000001
  0
VERTEX
  5
AF4
  8
1BY1
 10
99123.0
 20
482172.0
 30
1.6000000000000001
  0
VERTEX
  5
AF5
  8
1BY1
 10
99122.0
 20
482172.0
 30
1.6000000000000001
  0
SEQEND
  5
AF6
  8
1BY1
  0
POLYLINE
  5
1E8
  8
1BY1
 66
     1
 10
0.0
 20
0.0
 30
3.2000000000000002
 70
     1
1001
DCO15
1071
        2
1071
        2
1000
variablelink
1004
0000000000507D40
  0
VERTEX
  5
AF7
  8
1BY1
 10
99130.0
 20
482135.0
 30
3.2000000000000002
  0
VERTEX
  5
AF8
  8
1BY1
 10
99131.0
 20
482135.0
 30
3.2000000000000002
  0
VERTEX
  5
AF9
  8
1BY1
 10
99131.0
 20
482136.0
 30
3.2000000000000002
  0
VERTEX
  5
AFA
  8
1BY1
 10
99130.0
 20
482136.0
 30
3.2000000000000002
  0
SEQEND
  5
AFB
  8
1BY1
  0
POLYLINE
  5
1E9
  8
1BY1
 66
     1
 10
0.0
 20
0.0
 30
1.0
 70
     1
1001
DCO15
1071
        2
1071
        2
1000
variablelink
1004
0000000000607D40
  0
VERTEX
  5
AFC
  8
1BY1
 10
99108.0
 20
482167.0
 30
1.0
  0
VERTEX
  5
AFD
  8
1BY1
 10
99109.0
 20
482167.0
 30
1.0
  0
VERTEX
  5
AFE
  8
1BY1
 10
99109.0
 20
482168.0
 30
1.0
  0
VERTEX
  5
AFF
  8
1BY1
 10
99108.0
 20
482168.0
 30
1.0
  0
SEQEND
  5
B00
  8
1BY1
  0
POLYLINE
  5
1EA
  8
1BY1
 66
     1
 10
0.0
 20
0.0
 30
4.7999999999999998
 70
     1
1001
DCO15
1071
        2
1071
        2
1000
variablelink
1004
0000000000707D40
  0
VERTEX
  5
B01
  8
1BY1
 10
99088.0
 20
482173.0
 30
4.7999999999999998
  0
VERTEX
  5
B02
  8
1BY1
 10
99089.0
 20
482173.0
 30
4.7999999999999998
  0
VERTEX
  5
B03
  8
1BY1
 10
99089.0
 20
482174.0
 30
4.7999999999999998
  0
VERTEX
  5
B04
  8
1BY1
 10
99088.0
 20
482174.0
 30
4.7999999999999998
  0
SEQEND
  5
B05
  8
1BY1
  0
POLYLINE
  5
1EB
  8
1BY1
 66
     1
 10
0.0
 20
0.0
 30
1.0
 70
     1
1001
DCO15
1071
        2
1071
        2
1000
variablelink
1004
0000000000807D40
  0
VERTEX
  5
B06
  8
1BY1
 10
99060.0
 20
482168.0
 30
1.0
  0
VERTEX
  5
B07
  8
1BY1
 10
99061.0
 20
482168.0
 30
1.0
  0
VERTEX
  5
B08
  8
1BY1
 10
99061.0
 20
482169.0
 30
1.0
  0
VERTEX
  5
B09
  8
1BY1
 10
99060.0
 20
482169.0
 30
1.0
  0
SEQEND
  5
B0A
  8
1BY1
  0
POLYLINE
  5
1EC
  8
1BY1
 66
     1
 10
0.0
 20
0.0
 30
2.0
 70
     1
1001
DCO15
1071
        2
1071
        2
1000
variablelink
1004
0000000000907D40
  0
VERTEX
  5
B0B
  8
1BY1
 10
99144.0
 20
482124.0
 30
2.0
  0
VERTEX
  5
B0C
  8
1BY1
 10
99145.0
 20
482124.0
 30
2.0
  0
VERTEX
  5
B0D
  8
1BY1
 10
99145.0
 20
482125.0
 30
2.0
  0
VERTEX
  5
B0E
  8
1BY1
 10
99144.0
 20
482125.0
 30
2.0
  0
SEQEND
  5
B0F
  8
1BY1
  0
POLYLINE
  5
1ED
  8
1BY1
 66
     1
 10
0.0
 20
0.0
 30
1.6000000000000001
 70
     1
1001
DCO15
1071
        2
1071
        2
1000
variablelink
1004
0000000000A07D40
  0
VERTEX
  5
B10
  8
1BY1
 10
99080.0
 20
482172.0
 30
1.6000000000000001
  0
VERTEX
  5
B11
  8
1BY1
 10
99081.0
 20
482172.0
 30
1.6000000000000001
  0
VERTEX
  5
B12
  8
1BY1
 10
99081.0
 20
482173.0
 30
1.6000000000000001
  0
VERTEX
  5
B13
  8
1BY1
 10
99080.0
 20
482173.0
 30
1.6000000000000001
  0
SEQEND
  5
B14
  8
1BY1
  0
POLYLINE
  5
1EE
  8
1BY1
 66
     1
 10
0.0
 20
0.0
 30
1.6000000000000001
 70
     1
1001
DCO15
1071
        2
1071
        2
1000
variablelink
1004
0000000000B07D40
  0
VERTEX
  5
B15
  8
1BY1
 10
99088.0
 20
482226.0
 30
1.6000000000000001
  0
VERTEX
  5
B16
  8
1BY1
 10
99089.0
 20
482226.0
 30
1.6000000000000001
  0
VERTEX
  5
B17
  8
1BY1
 10
99089.0
 20
482227.0
 30
1.6000000000000001
  0
VERTEX
  5
B18
  8
1BY1
 10
99088.0
 20
482227.0
 30
1.6000000000000001
  0
SEQEND
  5
B19
  8
1BY1
  0
POLYLINE
  5
1EF
  8
1BY1
 66
     1
 10
0.0
 20
0.0
 30
3.2000000000000002
 70
     1
1001
DCO15
1071
        2
1071
        2
1000
variablelink
1004
0000000000C07D40
  0
VERTEX
  5
B1A
  8
1BY1
 10
99082.0
 20
482118.0
 30
3.2000000000000002
  0
VERTEX
  5
B1B
  8
1BY1
 10
99083.0
 20
482118.0
 30
3.2000000000000002
  0
VERTEX
  5
B1C
  8
1BY1
 10
99083.0
 20
482119.0
 30
3.2000000000000002
  0
VERTEX
  5
B1D
  8
1BY1
 10
99082.0
 20
482119.0
 30
3.2000000000000002
  0
SEQEND
  5
B1E
  8
1BY1
  0
POLYLINE
  5
1F0
  8
1BY1
 66
     1
 10
0.0
 20
0.0
 30
1.0
 70
     1
1001
DCO15
1071
        2
1071
        2
1000
variablelink
1004
0000000000D07D40
  0
VERTEX
  5
B1F
  8
1BY1
 10
99631.0
 20
482473.0
 30
1.0
  0
VERTEX
  5
B20
  8
1BY1
 10
99632.0
 20
482473.0
 30
1.0
  0
VERTEX
  5
B21
  8
1BY1
 10
99632.0
 20
482474.0
 30
1.0
  0
VERTEX
  5
B22
  8
1BY1
 10
99631.0
 20
482474.0
 30
1.0
  0
SEQEND
  5
B23
  8
1BY1
  0
POLYLINE
  5
1F1
  8
1BY1
 66
     1
 10
0.0
 20
0.0
 30
1.0
 70
     1
1001
DCO15
1071
        2
1071
        2
1000
variablelink
1004
0000000000F07D40
  0
VERTEX
  5
B24
  8
1BY1
 10
100097.0
 20
482080.0
 30
1.0
  0
VERTEX
  5
B25
  8
1BY1
 10
100098.0
 20
482080.0
 30
1.0
  0
VERTEX
  5
B26
  8
1BY1
 10
100098.0
 20
482081.0
 30
1.0
  0
VERTEX
  5
B27
  8
1BY1
 10
100097.0
 20
482081.0
 30
1.0
  0
SEQEND
  5
B28
  8
1BY1
  0
POLYLINE
  5
1F2
  8
1BY1
 66
     1
 10
0.0
 20
0.0
 30
3.0
 70
     1
1001
DCO15
1071
        2
1071
        2
1000
variablelink
1004
0000000000007E40
  0
VERTEX
  5
B29
  8
1BY1
 10
99995.0
 20
482057.0
 30
3.0
  0
VERTEX
  5
B2A
  8
1BY1
 10
99996.0
 20
482057.0
 30
3.0
  0
VERTEX
  5
B2B
  8
1BY1
 10
99996.0
 20
482058.0
 30
3.0
  0
VERTEX
  5
B2C
  8
1BY1
 10
99995.0
 20
482058.0
 30
3.0
  0
SEQEND
  5
B2D
  8
1BY1
  0
POLYLINE
  5
1F3
  8
1BY1
 66
     1
 10
0.0
 20
0.0
 30
1.0
 70
     1
1001
DCO15
1071
        2
1071
        2
1000
variablelink
1004
0000000000107E40
  0
VERTEX
  5
B2E
  8
1BY1
 10
100031.0
 20
482046.0
 30
1.0
  0
VERTEX
  5
B2F
  8
1BY1
 10
100032.0
 20
482046.0
 30
1.0
  0
VERTEX
  5
B30
  8
1BY1
 10
100032.0
 20
482047.0
 30
1.0
  0
VERTEX
  5
B31
  8
1BY1
 10
100031.0
 20
482047.0
 30
1.0
  0
SEQEND
  5
B32
  8
1BY1
  0
POLYLINE
  5
1F4
  8
1BY1
 66
     1
 10
0.0
 20
0.0
 30
4.0
 70
     1
1001
DCO15
1071
        2
1071
        2
1000
variablelink
1004
0000000000307E40
  0
VERTEX
  5
B33
  8
1BY1
 10
100065.0
 20
482042.0
 30
4.0
  0
VERTEX
  5
B34
  8
1BY1
 10
100066.0
 20
482042.0
 30
4.0
  0
VERTEX
  5
B35
  8
1BY1
 10
100066.0
 20
482043.0
 30
4.0
  0
VERTEX
  5
B36
  8
1BY1
 10
100065.0
 20
482043.0
 30
4.0
  0
SEQEND
  5
B37
  8
1BY1
  0
POLYLINE
  5
1F5
  8
1BY1
 66
     1
 10
0.0
 20
0.0
 30
7.0
 70
     1
1001
DCO15
1071
        2
1071
        2
1000
variablelink
1004
0000000000407E40
  0
VERTEX
  5
B38
  8
1BY1
 10
100142.0
 20
482042.0
 30
7.0
  0
VERTEX
  5
B39
  8
1BY1
 10
100143.0
 20
482042.0
 30
7.0
  0
VERTEX
  5
B3A
  8
1BY1
 10
100143.0
 20
482043.0
 30
7.0
  0
VERTEX
  5
B3B
  8
1BY1
 10
100142.0
 20
482043.0
 30
7.0
  0
SEQEND
  5
B3C
  8
1BY1
  0
POLYLINE
  5
1F6
  8
1BY1
 66
     1
 10
0.0
 20
0.0
 30
5.0
 70
     1
1001
DCO15
1071
        2
1071
        2
1000
variablelink
1004
0000000000707E40
  0
VERTEX
  5
B3D
  8
1BY1
 10
100156.0
 20
482037.0
 30
5.0
  0
VERTEX
  5
B3E
  8
1BY1
 10
100157.0
 20
482037.0
 30
5.0
  0
VERTEX
  5
B3F
  8
1BY1
 10
100157.0
 20
482038.0
 30
5.0
  0
VERTEX
  5
B40
  8
1BY1
 10
100156.0
 20
482038.0
 30
5.0
  0
SEQEND
  5
B41
  8
1BY1
  0
POLYLINE
  5
1F7
  8
1BY1
 66
     1
 10
0.0
 20
0.0
 30
1.0
 70
     1
1001
DCO15
1071
        2
1071
        2
1000
variablelink
1004
0000000000A07E40
  0
VERTEX
  5
B42
  8
1BY1
 10
100248.0
 20
482021.0
 30
1.0
  0
VERTEX
  5
B43
  8
1BY1
 10
100249.0
 20
482021.0
 30
1.0
  0
VERTEX
  5
B44
  8
1BY1
 10
100249.0
 20
482022.0
 30
1.0
  0
VERTEX
  5
B45
  8
1BY1
 10
100248.0
 20
482022.0
 30
1.0
  0
SEQEND
  5
B46
  8
1BY1
  0
POLYLINE
  5
1F8
  8
1BY1
 66
     1
 10
0.0
 20
0.0
 30
2.0
 70
     1
1001
DCO15
1071
        2
1071
        2
1000
variablelink
1004
0000000000B07E40
  0
VERTEX
  5
B47
  8
1BY1
 10
100372.0
 20
482016.0
 30
2.0
  0
VERTEX
  5
B48
  8
1BY1
 10
100373.0
 20
482016.0
 30
2.0
  0
VERTEX
  5
B49
  8
1BY1
 10
100373.0
 20
482017.0
 30
2.0
  0
VERTEX
  5
B4A
  8
1BY1
 10
100372.0
 20
482017.0
 30
2.0
  0
SEQEND
  5
B4B
  8
1BY1
  0
POLYLINE
  5
1F9
  8
1BY1
 66
     1
 10
0.0
 20
0.0
 30
1.0
 70
     1
1001
DCO15
1071
        2
1071
        2
1000
variablelink
1004
0000000000C07E40
  0
VERTEX
  5
B4C
  8
1BY1
 10
100416.0
 20
482191.0
 30
1.0
  0
VERTEX
  5
B4D
  8
1BY1
 10
100417.0
 20
482191.0
 30
1.0
  0
VERTEX
  5
B4E
  8
1BY1
 10
100417.0
 20
482192.0
 30
1.0
  0
VERTEX
  5
B4F
  8
1BY1
 10
100416.0
 20
482192.0
 30
1.0
  0
SEQEND
  5
B50
  8
1BY1
  0
POLYLINE
  5
1FA
  8
1BY1
 66
     1
 10
0.0
 20
0.0
 30
1.0
 70
     1
1001
DCO15
1071
        2
1071
        2
1000
variablelink
1004
0000000000D07E40
  0
VERTEX
  5
B51
  8
1BY1
 10
100125.0
 20
482038.0
 30
1.0
  0
VERTEX
  5
B52
  8
1BY1
 10
100126.0
 20
482038.0
 30
1.0
  0
VERTEX
  5
B53
  8
1BY1
 10
100126.0
 20
482039.0
 30
1.0
  0
VERTEX
  5
B54
  8
1BY1
 10
100125.0
 20
482039.0
 30
1.0
  0
SEQEND
  5
B55
  8
1BY1
  0
POLYLINE
  5
1FB
  8
1BY1
 66
     1
 10
0.0
 20
0.0
 30
1.0
 70
     1
1001
DCO15
1071
        2
1071
        2
1000
variablelink
1004
0000000000E07E40
  0
VERTEX
  5
B56
  8
1BY1
 10
100134.0
 20
482031.0
 30
1.0
  0
VERTEX
  5
B57
  8
1BY1
 10
100135.0
 20
482031.0
 30
1.0
  0
VERTEX
  5
B58
  8
1BY1
 10
100135.0
 20
482032.0
 30
1.0
  0
VERTEX
  5
B59
  8
1BY1
 10
100134.0
 20
482032.0
 30
1.0
  0
SEQEND
  5
B5A
  8
1BY1
  0
POLYLINE
  5
1FC
  8
1BY1
 66
     1
 10
0.0
 20
0.0
 30
1.0
 70
     1
1001
DCO15
1071
        2
1071
        2
1000
variablelink
1004
0000000000F07E40
  0
VERTEX
  5
B5B
  8
1BY1
 10
100170.0
 20
482017.0
 30
1.0
  0
VERTEX
  5
B5C
  8
1BY1
 10
100171.0
 20
482017.0
 30
1.0
  0
VERTEX
  5
B5D
  8
1BY1
 10
100171.0
 20
482018.0
 30
1.0
  0
VERTEX
  5
B5E
  8
1BY1
 10
100170.0
 20
482018.0
 30
1.0
  0
SEQEND
  5
B5F
  8
1BY1
  0
POLYLINE
  5
1FD
  8
1BY1
 66
     1
 10
0.0
 20
0.0
 30
1.0
 70
     1
1001
DCO15
1071
        2
1071
        2
1000
variablelink
1004
0000000000007F40
  0
VERTEX
  5
B60
  8
1BY1
 10
100187.0
 20
482002.0
 30
1.0
  0
VERTEX
  5
B61
  8
1BY1
 10
100188.0
 20
482002.0
 30
1.0
  0
VERTEX
  5
B62
  8
1BY1
 10
100188.0
 20
482003.0
 30
1.0
  0
VERTEX
  5
B63
  8
1BY1
 10
100187.0
 20
482003.0
 30
1.0
  0
SEQEND
  5
B64
  8
1BY1
  0
POLYLINE
  5
1FE
  8
1BY1
 66
     1
 10
0.0
 20
0.0
 30
1.0
 70
     1
1001
DCO15
1071
        2
1071
        2
1000
variablelink
1004
0000000000207F40
  0
VERTEX
  5
B65
  8
1BY1
 10
100190.0
 20
482021.0
 30
1.0
  0
VERTEX
  5
B66
  8
1BY1
 10
100191.0
 20
482021.0
 30
1.0
  0
VERTEX
  5
B67
  8
1BY1
 10
100191.0
 20
482022.0
 30
1.0
  0
VERTEX
  5
B68
  8
1BY1
 10
100190.0
 20
482022.0
 30
1.0
  0
SEQEND
  5
B69
  8
1BY1
  0
POLYLINE
  5
1FF
  8
1BY1
 66
     1
 10
0.0
 20
0.0
 30
1.6000000000000001
 70
     1
1001
DCO15
1071
        2
1071
        2
1000
variablelink
1004
0000000000607F40
  0
VERTEX
  5
B6A
  8
1BY1
 10
100081.0
 20
482031.0
 30
1.6000000000000001
  0
VERTEX
  5
B6B
  8
1BY1
 10
100082.0
 20
482031.0
 30
1.6000000000000001
  0
VERTEX
  5
B6C
  8
1BY1
 10
100082.0
 20
482032.0
 30
1.6000000000000001
  0
VERTEX
  5
B6D
  8
1BY1
 10
100081.0
 20
482032.0
 30
1.6000000000000001
  0
SEQEND
  5
B6E
  8
1BY1
  0
POLYLINE
  5
200
  8
1BY1
 66
     1
 10
0.0
 20
0.0
 30
2.0
 70
     1
1001
DCO15
1071
        2
1071
        2
1000
variablelink
1004
0000000000907F40
  0
VERTEX
  5
B6F
  8
1BY1
 10
100178.0
 20
481991.0
 30
2.0
  0
VERTEX
  5
B70
  8
1BY1
 10
100179.0
 20
481991.0
 30
2.0
  0
VERTEX
  5
B71
  8
1BY1
 10
100179.0
 20
481992.0
 30
2.0
  0
VERTEX
  5
B72
  8
1BY1
 10
100178.0
 20
481992.0
 30
2.0
  0
SEQEND
  5
B73
  8
1BY1
  0
POLYLINE
  5
201
  8
1BY1
 66
     1
 10
0.0
 20
0.0
 30
2.0
 70
     1
1001
DCO15
1071
        2
1071
        2
1000
variablelink
1004
0000000000A07F40
  0
VERTEX
  5
B74
  8
1BY1
 10
100178.0
 20
481988.0
 30
2.0
  0
VERTEX
  5
B75
  8
1BY1
 10
100179.0
 20
481988.0
 30
2.0
  0
VERTEX
  5
B76
  8
1BY1
 10
100179.0
 20
481989.0
 30
2.0
  0
VERTEX
  5
B77
  8
1BY1
 10
100178.0
 20
481989.0
 30
2.0
  0
SEQEND
  5
B78
  8
1BY1
  0
POLYLINE
  5
202
  8
1BY1
 66
     1
 10
0.0
 20
0.0
 30
1.0
 70
     1
1001
DCO15
1071
        2
1071
        2
1000
variablelink
1004
0000000000B07F40
  0
VERTEX
  5
B79
  8
1BY1
 10
100187.0
 20
481997.0
 30
1.0
  0
VERTEX
  5
B7A
  8
1BY1
 10
100188.0
 20
481997.0
 30
1.0
  0
VERTEX
  5
B7B
  8
1BY1
 10
100188.0
 20
481998.0
 30
1.0
  0
VERTEX
  5
B7C
  8
1BY1
 10
100187.0
 20
481998.0
 30
1.0
  0
SEQEND
  5
B7D
  8
1BY1
  0
POLYLINE
  5
203
  8
1BY1
 66
     1
 10
0.0
 20
0.0
 30
1.6000000000000001
 70
     1
1001
DCO15
1071
        2
1071
        2
1000
variablelink
1004
0000000000D07F40
  0
VERTEX
  5
B7E
  8
1BY1
 10
100210.0
 20
482499.0
 30
1.6000000000000001
  0
VERTEX
  5
B7F
  8
1BY1
 10
100211.0
 20
482499.0
 30
1.6000000000000001
  0
VERTEX
  5
B80
  8
1BY1
 10
100211.0
 20
482500.0
 30
1.6000000000000001
  0
VERTEX
  5
B81
  8
1BY1
 10
100210.0
 20
482500.0
 30
1.6000000000000001
  0
SEQEND
  5
B82
  8
1BY1
  0
POLYLINE
  5
204
  8
1BY1
 66
     1
 10
0.0
 20
0.0
 30
1.0
 70
     1
1001
DCO15
1071
        2
1071
        2
1000
variablelink
1004
0000000000508040
  0
VERTEX
  5
B83
  8
1BY1
 10
98978.0
 20
483504.0
 30
1.0
  0
VERTEX
  5
B84
  8
1BY1
 10
98979.0
 20
483504.0
 30
1.0
  0
VERTEX
  5
B85
  8
1BY1
 10
98979.0
 20
483505.0
 30
1.0
  0
VERTEX
  5
B86
  8
1BY1
 10
98978.0
 20
483505.0
 30
1.0
  0
SEQEND
  5
B87
  8
1BY1
  0
POLYLINE
  5
205
  8
1BY1
 66
     1
 10
0.0
 20
0.0
 30
1.7
 70
     1
1001
DCO15
1071
        2
1071
        2
1000
variablelink
1004
0000000000A88040
  0
VERTEX
  5
B88
  8
1BY1
 10
101001.0
 20
481697.0
 30
1.7
  0
VERTEX
  5
B89
  8
1BY1
 10
101002.0
 20
481697.0
 30
1.7
  0
VERTEX
  5
B8A
  8
1BY1
 10
101002.0
 20
481698.0
 30
1.7
  0
VERTEX
  5
B8B
  8
1BY1
 10
101001.0
 20
481698.0
 30
1.7
  0
SEQEND
  5
B8C
  8
1BY1
  0
POLYLINE
  5
206
  8
1BY1
 66
     1
 10
0.0
 20
0.0
 30
6.4000000000000004
 70
     1
1001
DCO15
1071
        2
1071
        2
1000
variablelink
1004
0000000000B08040
  0
VERTEX
  5
B8D
  8
1BY1
 10
100621.0
 20
481908.0
 30
6.4000000000000004
  0
VERTEX
  5
B8E
  8
1BY1
 10
100622.0
 20
481908.0
 30
6.4000000000000004
  0
VERTEX
  5
B8F
  8
1BY1
 10
100622.0
 20
481909.0
 30
6.4000000000000004
  0
VERTEX
  5
B90
  8
1BY1
 10
100621.0
 20
481909.0
 30
6.4000000000000004
  0
SEQEND
  5
B91
  8
1BY1
  0
POLYLINE
  5
207
  8
1BY1
 66
     1
 10
0.0
 20
0.0
 30
1.0
 70
     1
1001
DCO15
1071
        2
1071
        2
1000
variablelink
1004
0000000000C88040
  0
VERTEX
  5
B92
  8
1BY1
 10
99140.0
 20
482141.0
 30
1.0
  0
VERTEX
  5
B93
  8
1BY1
 10
99141.0
 20
482141.0
 30
1.0
  0
VERTEX
  5
B94
  8
1BY1
 10
99141.0
 20
482142.0
 30
1.0
  0
VERTEX
  5
B95
  8
1BY1
 10
99140.0
 20
482142.0
 30
1.0
  0
SEQEND
  5
B96
  8
1BY1
  0
POLYLINE
  5
208
  8
1BY1
 66
     1
 10
0.0
 20
0.0
 30
59.200000000000003
 70
     1
1001
DCO15
1071
        2
1071
        2
1000
variablelink
1004
0000000000D08040
  0
VERTEX
  5
B97
  8
1BY1
 10
99719.0
 20
482417.0
 30
59.200000000000003
  0
VERTEX
  5
B98
  8
1BY1
 10
99720.0
 20
482417.0
 30
59.200000000000003
  0
VERTEX
  5
B99
  8
1BY1
 10
99720.0
 20
482418.0
 30
59.200000000000003
  0
VERTEX
  5
B9A
  8
1BY1
 10
99719.0
 20
482418.0
 30
59.200000000000003
  0
SEQEND
  5
B9B
  8
1BY1
  0
POLYLINE
  5
209
  8
1BY1
 66
     1
 10
0.0
 20
0.0
 30
20.800000000000001
 70
     1
1001
DCO15
1071
        2
1071
        2
1000
variablelink
1004
0000000000E88040
  0
VERTEX
  5
B9C
  8
1BY1
 10
99876.0
 20
482357.0
 30
20.800000000000001
  0
VERTEX
  5
B9D
  8
1BY1
 10
99877.0
 20
482357.0
 30
20.800000000000001
  0
VERTEX
  5
B9E
  8
1BY1
 10
99877.0
 20
482358.0
 30
20.800000000000001
  0
VERTEX
  5
B9F
  8
1BY1
 10
99876.0
 20
482358.0
 30
20.800000000000001
  0
SEQEND
  5
BA0
  8
1BY1
  0
POLYLINE
  5
20A
  8
1BY1
 66
     1
 10
0.0
 20
0.0
 30
21.0
 70
     1
1001
DCO15
1071
        2
1071
        2
1000
variablelink
1004
0000000000F88040
  0
VERTEX
  5
BA1
  8
1BY1
 10
99309.0
 20
482932.0
 30
21.0
  0
VERTEX
  5
BA2
  8
1BY1
 10
99310.0
 20
482932.0
 30
21.0
  0
VERTEX
  5
BA3
  8
1BY1
 10
99310.0
 20
482933.0
 30
21.0
  0
VERTEX
  5
BA4
  8
1BY1
 10
99309.0
 20
482933.0
 30
21.0
  0
SEQEND
  5
BA5
  8
1BY1
  0
POLYLINE
  5
20B
  8
1BY1
 66
     1
 10
0.0
 20
0.0
 30
1.6000000000000001
 70
     1
1001
DCO15
1071
        2
1071
        2
1000
variablelink
1004
0000000000088140
  0
VERTEX
  5
BA6
  8
1BY1
 10
100279.0
 20
482017.0
 30
1.6000000000000001
  0
VERTEX
  5
BA7
  8
1BY1
 10
100280.0
 20
482017.0
 30
1.6000000000000001
  0
VERTEX
  5
BA8
  8
1BY1
 10
100280.0
 20
482018.0
 30
1.6000000000000001
  0
VERTEX
  5
BA9
  8
1BY1
 10
100279.0
 20
482018.0
 30
1.6000000000000001
  0
SEQEND
  5
BAA
  8
1BY1
  0
POLYLINE
  5
20C
  8
1BY1
 66
     1
 10
0.0
 20
0.0
 30
32.0
 70
     1
1001
DCO15
1071
        2
1071
        2
1000
variablelink
1004
0000000000108140
  0
VERTEX
  5
BAB
  8
1BY1
 10
99907.0
 20
482197.0
 30
32.0
  0
VERTEX
  5
BAC
  8
1BY1
 10
99908.0
 20
482197.0
 30
32.0
  0
VERTEX
  5
BAD
  8
1BY1
 10
99908.0
 20
482198.0
 30
32.0
  0
VERTEX
  5
BAE
  8
1BY1
 10
99907.0
 20
482198.0
 30
32.0
  0
SEQEND
  5
BAF
  8
1BY1
  0
POLYLINE
  5
20D
  8
1BY1
 66
     1
 10
0.0
 20
0.0
 30
17.600000000000001
 70
     1
1001
DCO15
1071
        2
1071
        2
1000
variablelink
1004
0000000000188140
  0
VERTEX
  5
BB0
  8
1BY1
 10
99907.0
 20
482200.0
 30
17.600000000000001
  0
VERTEX
  5
BB1
  8
1BY1
 10
99908.0
 20
482200.0
 30
17.600000000000001
  0
VERTEX
  5
BB2
  8
1BY1
 10
99908.0
 20
482201.0
 30
17.600000000000001
  0
VERTEX
  5
BB3
  8
1BY1
 10
99907.0
 20
482201.0
 30
17.600000000000001
  0
SEQEND
  5
BB4
  8
1BY1
  0
POLYLINE
  5
20E
  8
1BY1
 66
     1
 10
0.0
 20
0.0
 30
12.800000000000001
 70
     1
1001
DCO15
1071
        2
1071
        2
1000
variablelink
1004
0000000000208140
  0
VERTEX
  5
BB5
  8
1BY1
 10
99906.0
 20
482199.0
 30
12.800000000000001
  0
VERTEX
  5
BB6
  8
1BY1
 10
99907.0
 20
482199.0
 30
12.800000000000001
  0
VERTEX
  5
BB7
  8
1BY1
 10
99907.0
 20
482200.0
 30
12.800000000000001
  0
VERTEX
  5
BB8
  8
1BY1
 10
99906.0
 20
482200.0
 30
12.800000000000001
  0
SEQEND
  5
BB9
  8
1BY1
  0
POLYLINE
  5
20F
  8
1BY1
 66
     1
 10
0.0
 20
0.0
 30
16.0
 70
     1
1001
DCO15
1071
        2
1071
        2
1000
variablelink
1004
0000000000288140
  0
VERTEX
  5
BBA
  8
1BY1
 10
99906.0
 20
482203.0
 30
16.0
  0
VERTEX
  5
BBB
  8
1BY1
 10
99907.0
 20
482203.0
 30
16.0
  0
VERTEX
  5
BBC
  8
1BY1
 10
99907.0
 20
482204.0
 30
16.0
  0
VERTEX
  5
BBD
  8
1BY1
 10
99906.0
 20
482204.0
 30
16.0
  0
SEQEND
  5
BBE
  8
1BY1
  0
POLYLINE
  5
210
  8
1BY1
 66
     1
 10
0.0
 20
0.0
 30
4.7999999999999998
 70
     1
1001
DCO15
1071
        2
1071
        2
1000
variablelink
1004
0000000000308140
  0
VERTEX
  5
BBF
  8
1BY1
 10
99911.0
 20
482204.0
 30
4.7999999999999998
  0
VERTEX
  5
BC0
  8
1BY1
 10
99912.0
 20
482204.0
 30
4.7999999999999998
  0
VERTEX
  5
BC1
  8
1BY1
 10
99912.0
 20
482205.0
 30
4.7999999999999998
  0
VERTEX
  5
BC2
  8
1BY1
 10
99911.0
 20
482205.0
 30
4.7999999999999998
  0
SEQEND
  5
BC3
  8
1BY1
  0
POLYLINE
  5
211
  8
1BY1
 66
     1
 10
0.0
 20
0.0
 30
4.7999999999999998
 70
     1
1001
DCO15
1071
        2
1071
        2
1000
variablelink
1004
0000000000388140
  0
VERTEX
  5
BC4
  8
1BY1
 10
99913.0
 20
482206.0
 30
4.7999999999999998
  0
VERTEX
  5
BC5
  8
1BY1
 10
99914.0
 20
482206.0
 30
4.7999999999999998
  0
VERTEX
  5
BC6
  8
1BY1
 10
99914.0
 20
482207.0
 30
4.7999999999999998
  0
VERTEX
  5
BC7
  8
1BY1
 10
99913.0
 20
482207.0
 30
4.7999999999999998
  0
SEQEND
  5
BC8
  8
1BY1
  0
POLYLINE
  5
212
  8
1BY1
 66
     1
 10
0.0
 20
0.0
 30
1.0
 70
     1
1001
DCO15
1071
        2
1071
        2
1000
variablelink
1004
0000000000408140
  0
VERTEX
  5
BC9
  8
1BY1
 10
99637.0
 20
482652.0
 30
1.0
  0
VERTEX
  5
BCA
  8
1BY1
 10
99638.0
 20
482652.0
 30
1.0
  0
VERTEX
  5
BCB
  8
1BY1
 10
99638.0
 20
482653.0
 30
1.0
  0
VERTEX
  5
BCC
  8
1BY1
 10
99637.0
 20
482653.0
 30
1.0
  0
SEQEND
  5
BCD
  8
1BY1
  0
POLYLINE
  5
213
  8
1BY1
 66
     1
 10
0.0
 20
0.0
 30
8.0
 70
     1
1001
DCO15
1071
        2
1071
        2
1000
variablelink
1004
0000000000588140
  0
VERTEX
  5
BCE
  8
1BY1
 10
99903.0
 20
482199.0
 30
8.0
  0
VERTEX
  5
BCF
  8
1BY1
 10
99904.0
 20
482199.0
 30
8.0
  0
VERTEX
  5
BD0
  8
1BY1
 10
99904.0
 20
482200.0
 30
8.0
  0
VERTEX
  5
BD1
  8
1BY1
 10
99903.0
 20
482200.0
 30
8.0
  0
SEQEND
  5
BD2
  8
1BY1
  0
POLYLINE
  5
214
  8
1BY1
 66
     1
 10
0.0
 20
0.0
 30
1.0
 70
     1
1001
DCO15
1071
        2
1071
        2
1000
variablelink
1004
0000000000688140
  0
VERTEX
  5
BD3
  8
1BY1
 10
100229.0
 20
481873.0
 30
1.0
  0
VERTEX
  5
BD4
  8
1BY1
 10
100230.0
 20
481873.0
 30
1.0
  0
VERTEX
  5
BD5
  8
1BY1
 10
100230.0
 20
481874.0
 30
1.0
  0
VERTEX
  5
BD6
  8
1BY1
 10
100229.0
 20
481874.0
 30
1.0
  0
SEQEND
  5
BD7
  8
1BY1
  0
POLYLINE
  5
215
  8
1BY1
 66
     1
 10
0.0
 20
0.0
 30
1.0
 70
     1
1001
DCO15
1071
        2
1071
        2
1000
variablelink
1004
0000000000708140
  0
VERTEX
  5
BD8
  8
1BY1
 10
99193.0
 20
482230.0
 30
1.0
  0
VERTEX
  5
BD9
  8
1BY1
 10
99194.0
 20
482230.0
 30
1.0
  0
VERTEX
  5
BDA
  8
1BY1
 10
99194.0
 20
482231.0
 30
1.0
  0
VERTEX
  5
BDB
  8
1BY1
 10
99193.0
 20
482231.0
 30
1.0
  0
SEQEND
  5
BDC
  8
1BY1
  0
POLYLINE
  5
216
  8
1BY1
 66
     1
 10
0.0
 20
0.0
 30
1.6000000000000001
 70
     1
1001
DCO15
1071
        2
1071
        2
1000
variablelink
1004
0000000000808140
  0
VERTEX
  5
BDD
  8
1BY1
 10
99024.0
 20
482205.0
 30
1.6000000000000001
  0
VERTEX
  5
BDE
  8
1BY1
 10
99025.0
 20
482205.0
 30
1.6000000000000001
  0
VERTEX
  5
BDF
  8
1BY1
 10
99025.0
 20
482206.0
 30
1.6000000000000001
  0
VERTEX
  5
BE0
  8
1BY1
 10
99024.0
 20
482206.0
 30
1.6000000000000001
  0
SEQEND
  5
BE1
  8
1BY1
  0
POLYLINE
  5
217
  8
2BY2
 66
     1
 10
0.0
 20
0.0
 30
13.199999999999999
 70
     1
1001
DCO15
1071
        2
1071
        2
1000
variablelink
1004
0000000000003F40
  0
VERTEX
  5
BE2
  8
2BY2
 10
99871.0
 20
482361.0
 30
13.199999999999999
  0
VERTEX
  5
BE3
  8
2BY2
 10
99873.0
 20
482361.0
 30
13.199999999999999
  0
VERTEX
  5
BE4
  8
2BY2
 10
99873.0
 20
482363.0
 30
13.199999999999999
  0
VERTEX
  5
BE5
  8
2BY2
 10
99871.0
 20
482363.0
 30
13.199999999999999
  0
SEQEND
  5
BE6
  8
2BY2
  0
POLYLINE
  5
218
  8
2BY2
 66
     1
 10
0.0
 20
0.0
 30
1.2
 70
     1
1001
DCO15
1071
        2
1071
        2
1000
variablelink
1004
0000000000004040
  0
VERTEX
  5
BE7
  8
2BY2
 10
99874.0
 20
482364.0
 30
1.2
  0
VERTEX
  5
BE8
  8
2BY2
 10
99876.0
 20
482364.0
 30
1.2
  0
VERTEX
  5
BE9
  8
2BY2
 10
99876.0
 20
482366.0
 30
1.2
  0
VERTEX
  5
BEA
  8
2BY2
 10
99874.0
 20
482366.0
 30
1.2
  0
SEQEND
  5
BEB
  8
2BY2
  0
POLYLINE
  5
219
  8
2BY2
 66
     1
 10
0.0
 20
0.0
 30
13.6
 70
     1
1001
DCO15
1071
        2
1071
        2
1000
variablelink
1004
0000000000804040
  0
VERTEX
  5
BEC
  8
2BY2
 10
99884.0
 20
482362.0
 30
13.6
  0
VERTEX
  5
BED
  8
2BY2
 10
99886.0
 20
482362.0
 30
13.6
  0
VERTEX
  5
BEE
  8
2BY2
 10
99886.0
 20
482364.0
 30
13.6
  0
VERTEX
  5
BEF
  8
2BY2
 10
99884.0
 20
482364.0
 30
13.6
  0
SEQEND
  5
BF0
  8
2BY2
  0
POLYLINE
  5
21A
  8
2BY2
 66
     1
 10
0.0
 20
0.0
 30
9.6000000000000014
 70
     1
1001
DCO15
1071
        2
1071
        2
1000
variablelink
1004
0000000000004140
  0
VERTEX
  5
BF1
  8
2BY2
 10
99881.0
 20
482357.0
 30
9.6000000000000014
  0
VERTEX
  5
BF2
  8
2BY2
 10
99883.0
 20
482357.0
 30
9.6000000000000014
  0
VERTEX
  5
BF3
  8
2BY2
 10
99883.0
 20
482359.0
 30
9.6000000000000014
  0
VERTEX
  5
BF4
  8
2BY2
 10
99881.0
 20
482359.0
 30
9.6000000000000014
  0
SEQEND
  5
BF5
  8
2BY2
  0
POLYLINE
  5
21B
  8
2BY2
 66
     1
 10
0.0
 20
0.0
 30
0.25
 70
     1
1001
DCO15
1071
        2
1071
        2
1000
variablelink
1004
0000000000004240
  0
VERTEX
  5
BF6
  8
2BY2
 10
99886.0
 20
482355.0
 30
0.25
  0
VERTEX
  5
BF7
  8
2BY2
 10
99888.0
 20
482355.0
 30
0.25
  0
VERTEX
  5
BF8
  8
2BY2
 10
99888.0
 20
482357.0
 30
0.25
  0
VERTEX
  5
BF9
  8
2BY2
 10
99886.0
 20
482357.0
 30
0.25
  0
SEQEND
  5
BFA
  8
2BY2
  0
POLYLINE
  5
21C
  8
2BY2
 66
     1
 10
0.0
 20
0.0
 30
4.0
 70
     1
1001
DCO15
1071
        2
1071
        2
1000
variablelink
1004
0000000000804740
  0
VERTEX
  5
BFB
  8
2BY2
 10
99878.0
 20
482358.0
 30
4.0
  0
VERTEX
  5
BFC
  8
2BY2
 10
99880.0
 20
482358.0
 30
4.0
  0
VERTEX
  5
BFD
  8
2BY2
 10
99880.0
 20
482360.0
 30
4.0
  0
VERTEX
  5
BFE
  8
2BY2
 10
99878.0
 20
482360.0
 30
4.0
  0
SEQEND
  5
BFF
  8
2BY2
  0
POLYLINE
  5
21D
  8
2BY2
 66
     1
 10
0.0
 20
0.0
 30
6.4000000000000004
 70
     1
1001
DCO15
1071
        2
1071
        2
1000
variablelink
1004
0000000000004840
  0
VERTEX
  5
C00
  8
2BY2
 10
99847.0
 20
482357.0
 30
6.4000000000000004
  0
VERTEX
  5
C01
  8
2BY2
 10
99849.0
 20
482357.0
 30
6.4000000000000004
  0
VERTEX
  5
C02
  8
2BY2
 10
99849.0
 20
482359.0
 30
6.4000000000000004
  0
VERTEX
  5
C03
  8
2BY2
 10
99847.0
 20
482359.0
 30
6.4000000000000004
  0
SEQEND
  5
C04
  8
2BY2
  0
POLYLINE
  5
21E
  8
2BY2
 66
     1
 10
0.0
 20
0.0
 30
8.4000000000000004
 70
     1
1001
DCO15
1071
        2
1071
        2
1000
variablelink
1004
0000000000804840
  0
VERTEX
  5
C05
  8
2BY2
 10
99887.0
 20
482351.0
 30
8.4000000000000004
  0
VERTEX
  5
C06
  8
2BY2
 10
99889.0
 20
482351.0
 30
8.4000000000000004
  0
VERTEX
  5
C07
  8
2BY2
 10
99889.0
 20
482353.0
 30
8.4000000000000004
  0
VERTEX
  5
C08
  8
2BY2
 10
99887.0
 20
482353.0
 30
8.4000000000000004
  0
SEQEND
  5
C09
  8
2BY2
  0
POLYLINE
  5
21F
  8
2BY2
 66
     1
 10
0.0
 20
0.0
 30
6.4000000000000004
 70
     1
1001
DCO15
1071
        2
1071
        2
1000
variablelink
1004
0000000000804940
  0
VERTEX
  5
C0A
  8
2BY2
 10
99885.0
 20
482352.0
 30
6.4000000000000004
  0
VERTEX
  5
C0B
  8
2BY2
 10
99887.0
 20
482352.0
 30
6.4000000000000004
  0
VERTEX
  5
C0C
  8
2BY2
 10
99887.0
 20
482354.0
 30
6.4000000000000004
  0
VERTEX
  5
C0D
  8
2BY2
 10
99885.0
 20
482354.0
 30
6.4000000000000004
  0
SEQEND
  5
C0E
  8
2BY2
  0
POLYLINE
  5
220
  8
2BY2
 66
     1
 10
0.0
 20
0.0
 30
6.0
 70
     1
1001
DCO15
1071
        2
1071
        2
1000
variablelink
1004
0000000000004A40
  0
VERTEX
  5
C0F
  8
2BY2
 10
99883.0
 20
482355.0
 30
6.0
  0
VERTEX
  5
C10
  8
2BY2
 10
99885.0
 20
482355.0
 30
6.0
  0
VERTEX
  5
C11
  8
2BY2
 10
99885.0
 20
482357.0
 30
6.0
  0
VERTEX
  5
C12
  8
2BY2
 10
99883.0
 20
482357.0
 30
6.0
  0
SEQEND
  5
C13
  8
2BY2
  0
POLYLINE
  5
221
  8
2BY2
 66
     1
 10
0.0
 20
0.0
 30
2.3999999999999999
 70
     1
1001
DCO15
1071
        2
1071
        2
1000
variablelink
1004
0000000000804D40
  0
VERTEX
  5
C14
  8
2BY2
 10
99882.0
 20
482347.0
 30
2.3999999999999999
  0
VERTEX
  5
C15
  8
2BY2
 10
99884.0
 20
482347.0
 30
2.3999999999999999
  0
VERTEX
  5
C16
  8
2BY2
 10
99884.0
 20
482349.0
 30
2.3999999999999999
  0
VERTEX
  5
C17
  8
2BY2
 10
99882.0
 20
482349.0
 30
2.3999999999999999
  0
SEQEND
  5
C18
  8
2BY2
  0
POLYLINE
  5
222
  8
2BY2
 66
     1
 10
0.0
 20
0.0
 30
8.0
 70
     1
1001
DCO15
1071
        2
1071
        2
1000
variablelink
1004
0000000000004E40
  0
VERTEX
  5
C19
  8
2BY2
 10
99887.0
 20
482346.0
 30
8.0
  0
VERTEX
  5
C1A
  8
2BY2
 10
99889.0
 20
482346.0
 30
8.0
  0
VERTEX
  5
C1B
  8
2BY2
 10
99889.0
 20
482348.0
 30
8.0
  0
VERTEX
  5
C1C
  8
2BY2
 10
99887.0
 20
482348.0
 30
8.0
  0
SEQEND
  5
C1D
  8
2BY2
  0
POLYLINE
  5
223
  8
2BY2
 66
     1
 10
0.0
 20
0.0
 30
0.8
 70
     1
1001
DCO15
1071
        2
1071
        2
1000
variablelink
1004
0000000000004F40
  0
VERTEX
  5
C1E
  8
2BY2
 10
99885.0
 20
482346.0
 30
0.8
  0
VERTEX
  5
C1F
  8
2BY2
 10
99887.0
 20
482346.0
 30
0.8
  0
VERTEX
  5
C20
  8
2BY2
 10
99887.0
 20
482348.0
 30
0.8
  0
VERTEX
  5
C21
  8
2BY2
 10
99885.0
 20
482348.0
 30
0.8
  0
SEQEND
  5
C22
  8
2BY2
  0
POLYLINE
  5
224
  8
2BY2
 66
     1
 10
0.0
 20
0.0
 30
1.2
 70
     1
1001
DCO15
1071
        2
1071
        2
1000
variablelink
1004
0000000000804F40
  0
VERTEX
  5
C23
  8
2BY2
 10
99887.0
 20
482337.0
 30
1.2
  0
VERTEX
  5
C24
  8
2BY2
 10
99889.0
 20
482337.0
 30
1.2
  0
VERTEX
  5
C25
  8
2BY2
 10
99889.0
 20
482339.0
 30
1.2
  0
VERTEX
  5
C26
  8
2BY2
 10
99887.0
 20
482339.0
 30
1.2
  0
SEQEND
  5
C27
  8
2BY2
  0
POLYLINE
  5
225
  8
2BY2
 66
     1
 10
0.0
 20
0.0
 30
1.2
 70
     1
1001
DCO15
1071
        2
1071
        2
1000
variablelink
1004
0000000000005040
  0
VERTEX
  5
C28
  8
2BY2
 10
99885.0
 20
482340.0
 30
1.2
  0
VERTEX
  5
C29
  8
2BY2
 10
99887.0
 20
482340.0
 30
1.2
  0
VERTEX
  5
C2A
  8
2BY2
 10
99887.0
 20
482342.0
 30
1.2
  0
VERTEX
  5
C2B
  8
2BY2
 10
99885.0
 20
482342.0
 30
1.2
  0
SEQEND
  5
C2C
  8
2BY2
  0
POLYLINE
  5
226
  8
2BY2
 66
     1
 10
0.0
 20
0.0
 30
7.5999999999999996
 70
     1
1001
DCO15
1071
        2
1071
        2
1000
variablelink
1004
0000000000405040
  0
VERTEX
  5
C2D
  8
2BY2
 10
99888.0
 20
482331.0
 30
7.5999999999999996
  0
VERTEX
  5
C2E
  8
2BY2
 10
99890.0
 20
482331.0
 30
7.5999999999999996
  0
VERTEX
  5
C2F
  8
2BY2
 10
99890.0
 20
482333.0
 30
7.5999999999999996
  0
VERTEX
  5
C30
  8
2BY2
 10
99888.0
 20
482333.0
 30
7.5999999999999996
  0
SEQEND
  5
C31
  8
2BY2
  0
POLYLINE
  5
227
  8
2BY2
 66
     1
 10
0.0
 20
0.0
 30
5.2000000000000002
 70
     1
1001
DCO15
1071
        2
1071
        2
1000
variablelink
1004
0000000000805040
  0
VERTEX
  5
C32
  8
2BY2
 10
99885.0
 20
482332.0
 30
5.2000000000000002
  0
VERTEX
  5
C33
  8
2BY2
 10
99887.0
 20
482332.0
 30
5.2000000000000002
  0
VERTEX
  5
C34
  8
2BY2
 10
99887.0
 20
482334.0
 30
5.2000000000000002
  0
VERTEX
  5
C35
  8
2BY2
 10
99885.0
 20
482334.0
 30
5.2000000000000002
  0
SEQEND
  5
C36
  8
2BY2
  0
POLYLINE
  5
228
  8
2BY2
 66
     1
 10
0.0
 20
0.0
 30
3.2000000000000002
 70
     1
1001
DCO15
1071
        2
1071
        2
1000
variablelink
1004
0000000000C05040
  0
VERTEX
  5
C37
  8
2BY2
 10
99885.0
 20
482322.0
 30
3.2000000000000002
  0
VERTEX
  5
C38
  8
2BY2
 10
99887.0
 20
482322.0
 30
3.2000000000000002
  0
VERTEX
  5
C39
  8
2BY2
 10
99887.0
 20
482324.0
 30
3.2000000000000002
  0
VERTEX
  5
C3A
  8
2BY2
 10
99885.0
 20
482324.0
 30
3.2000000000000002
  0
SEQEND
  5
C3B
  8
2BY2
  0
POLYLINE
  5
229
  8
2BY2
 66
     1
 10
0.0
 20
0.0
 30
3.6000000000000001
 70
     1
1001
DCO15
1071
        2
1071
        2
1000
variablelink
1004
0000000000005140
  0
VERTEX
  5
C3C
  8
2BY2
 10
99885.0
 20
482325.0
 30
3.6000000000000001
  0
VERTEX
  5
C3D
  8
2BY2
 10
99887.0
 20
482325.0
 30
3.6000000000000001
  0
VERTEX
  5
C3E
  8
2BY2
 10
99887.0
 20
482327.0
 30
3.6000000000000001
  0
VERTEX
  5
C3F
  8
2BY2
 10
99885.0
 20
482327.0
 30
3.6000000000000001
  0
SEQEND
  5
C40
  8
2BY2
  0
POLYLINE
  5
22A
  8
2BY2
 66
     1
 10
0.0
 20
0.0
 30
5.2000000000000002
 70
     1
1001
DCO15
1071
        2
1071
        2
1000
variablelink
1004
0000000000405140
  0
VERTEX
  5
C41
  8
2BY2
 10
99889.0
 20
482320.0
 30
5.2000000000000002
  0
VERTEX
  5
C42
  8
2BY2
 10
99891.0
 20
482320.0
 30
5.2000000000000002
  0
VERTEX
  5
C43
  8
2BY2
 10
99891.0
 20
482322.0
 30
5.2000000000000002
  0
VERTEX
  5
C44
  8
2BY2
 10
99889.0
 20
482322.0
 30
5.2000000000000002
  0
SEQEND
  5
C45
  8
2BY2
  0
POLYLINE
  5
22B
  8
2BY2
 66
     1
 10
0.0
 20
0.0
 30
8.0
 70
     1
1001
DCO15
1071
        2
1071
        2
1000
variablelink
1004
0000000000C05140
  0
VERTEX
  5
C46
  8
2BY2
 10
99875.0
 20
482313.0
 30
8.0
  0
VERTEX
  5
C47
  8
2BY2
 10
99877.0
 20
482313.0
 30
8.0
  0
VERTEX
  5
C48
  8
2BY2
 10
99877.0
 20
482315.0
 30
8.0
  0
VERTEX
  5
C49
  8
2BY2
 10
99875.0
 20
482315.0
 30
8.0
  0
SEQEND
  5
C4A
  8
2BY2
  0
POLYLINE
  5
22C
  8
2BY2
 66
     1
 10
0.0
 20
0.0
 30
3.2000000000000002
 70
     1
1001
DCO15
1071
        2
1071
        2
1000
variablelink
1004
0000000000005240
  0
VERTEX
  5
C4B
  8
2BY2
 10
99886.0
 20
482312.0
 30
3.2000000000000002
  0
VERTEX
  5
C4C
  8
2BY2
 10
99888.0
 20
482312.0
 30
3.2000000000000002
  0
VERTEX
  5
C4D
  8
2BY2
 10
99888.0
 20
482314.0
 30
3.2000000000000002
  0
VERTEX
  5
C4E
  8
2BY2
 10
99886.0
 20
482314.0
 30
3.2000000000000002
  0
SEQEND
  5
C4F
  8
2BY2
  0
POLYLINE
  5
22D
  8
2BY2
 66
     1
 10
0.0
 20
0.0
 30
5.2000000000000002
 70
     1
1001
DCO15
1071
        2
1071
        2
1000
variablelink
1004
0000000000405240
  0
VERTEX
  5
C50
  8
2BY2
 10
99884.0
 20
482309.0
 30
5.2000000000000002
  0
VERTEX
  5
C51
  8
2BY2
 10
99886.0
 20
482309.0
 30
5.2000000000000002
  0
VERTEX
  5
C52
  8
2BY2
 10
99886.0
 20
482311.0
 30
5.2000000000000002
  0
VERTEX
  5
C53
  8
2BY2
 10
99884.0
 20
482311.0
 30
5.2000000000000002
  0
SEQEND
  5
C54
  8
2BY2
  0
POLYLINE
  5
22E
  8
2BY2
 66
     1
 10
0.0
 20
0.0
 30
1.2
 70
     1
1001
DCO15
1071
        2
1071
        2
1000
variablelink
1004
0000000000805240
  0
VERTEX
  5
C55
  8
2BY2
 10
99888.0
 20
482308.0
 30
1.2
  0
VERTEX
  5
C56
  8
2BY2
 10
99890.0
 20
482308.0
 30
1.2
  0
VERTEX
  5
C57
  8
2BY2
 10
99890.0
 20
482310.0
 30
1.2
  0
VERTEX
  5
C58
  8
2BY2
 10
99888.0
 20
482310.0
 30
1.2
  0
SEQEND
  5
C59
  8
2BY2
  0
POLYLINE
  5
22F
  8
2BY2
 66
     1
 10
0.0
 20
0.0
 30
5.5999999999999996
 70
     1
1001
DCO15
1071
        2
1071
        2
1000
variablelink
1004
0000000000405340
  0
VERTEX
  5
C5A
  8
2BY2
 10
99886.0
 20
482348.0
 30
5.5999999999999996
  0
VERTEX
  5
C5B
  8
2BY2
 10
99888.0
 20
482348.0
 30
5.5999999999999996
  0
VERTEX
  5
C5C
  8
2BY2
 10
99888.0
 20
482350.0
 30
5.5999999999999996
  0
VERTEX
  5
C5D
  8
2BY2
 10
99886.0
 20
482350.0
 30
5.5999999999999996
  0
SEQEND
  5
C5E
  8
2BY2
  0
POLYLINE
  5
230
  8
2BY2
 66
     1
 10
0.0
 20
0.0
 30
0.4
 70
     1
1001
DCO15
1071
        2
1071
        2
1000
variablelink
1004
0000000000805340
  0
VERTEX
  5
C5F
  8
2BY2
 10
99884.0
 20
482343.0
 30
0.4
  0
VERTEX
  5
C60
  8
2BY2
 10
99886.0
 20
482343.0
 30
0.4
  0
VERTEX
  5
C61
  8
2BY2
 10
99886.0
 20
482345.0
 30
0.4
  0
VERTEX
  5
C62
  8
2BY2
 10
99884.0
 20
482345.0
 30
0.4
  0
SEQEND
  5
C63
  8
2BY2
  0
POLYLINE
  5
231
  8
2BY2
 66
     1
 10
0.0
 20
0.0
 30
1.2
 70
     1
1001
DCO15
1071
        2
1071
        2
1000
variablelink
1004
0000000000005440
  0
VERTEX
  5
C64
  8
2BY2
 10
99883.0
 20
482328.0
 30
1.2
  0
VERTEX
  5
C65
  8
2BY2
 10
99885.0
 20
482328.0
 30
1.2
  0
VERTEX
  5
C66
  8
2BY2
 10
99885.0
 20
482330.0
 30
1.2
  0
VERTEX
  5
C67
  8
2BY2
 10
99883.0
 20
482330.0
 30
1.2
  0
SEQEND
  5
C68
  8
2BY2
  0
POLYLINE
  5
232
  8
2BY2
 66
     1
 10
0.0
 20
0.0
 30
3.6000000000000001
 70
     1
1001
DCO15
1071
        2
1071
        2
1000
variablelink
1004
0000000000F07A40
  0
VERTEX
  5
C69
  8
2BY2
 10
99585.0
 20
482332.0
 30
3.6000000000000001
  0
VERTEX
  5
C6A
  8
2BY2
 10
99587.0
 20
482332.0
 30
3.6000000000000001
  0
VERTEX
  5
C6B
  8
2BY2
 10
99587.0
 20
482334.0
 30
3.6000000000000001
  0
VERTEX
  5
C6C
  8
2BY2
 10
99585.0
 20
482334.0
 30
3.6000000000000001
  0
SEQEND
  5
C6D
  8
2BY2
  0
POLYLINE
  5
233
  8
2BY2
 66
     1
 10
0.0
 20
0.0
 30
0.8
 70
     1
1001
DCO15
1071
        2
1071
        2
1000
variablelink
1004
0000000000507C40
  0
VERTEX
  5
C6E
  8
2BY2
 10
99299.0
 20
482770.0
 30
0.8
  0
VERTEX
  5
C6F
  8
2BY2
 10
99301.0
 20
482770.0
 30
0.8
  0
VERTEX
  5
C70
  8
2BY2
 10
99301.0
 20
482772.0
 30
0.8
  0
VERTEX
  5
C71
  8
2BY2
 10
99299.0
 20
482772.0
 30
0.8
  0
SEQEND
  5
C72
  8
2BY2
  0
POLYLINE
  5
234
  8
2BY2
 66
     1
 10
0.0
 20
0.0
 30
9.75
 70
     1
1001
DCO15
1071
        2
1071
        2
1000
variablelink
1004
0000000000707C40
  0
VERTEX
  5
C73
  8
2BY2
 10
99298.0
 20
482920.0
 30
9.75
  0
VERTEX
  5
C74
  8
2BY2
 10
99300.0
 20
482920.0
 30
9.75
  0
VERTEX
  5
C75
  8
2BY2
 10
99300.0
 20
482922.0
 30
9.75
  0
VERTEX
  5
C76
  8
2BY2
 10
99298.0
 20
482922.0
 30
9.75
  0
SEQEND
  5
C77
  8
2BY2
  0
POLYLINE
  5
235
  8
2BY2
 66
     1
 10
0.0
 20
0.0
 30
2.25
 70
     1
1001
DCO15
1071
        2
1071
        2
1000
variablelink
1004
0000000000807C40
  0
VERTEX
  5
C78
  8
2BY2
 10
99294.0
 20
482918.0
 30
2.25
  0
VERTEX
  5
C79
  8
2BY2
 10
99296.0
 20
482918.0
 30
2.25
  0
VERTEX
  5
C7A
  8
2BY2
 10
99296.0
 20
482920.0
 30
2.25
  0
VERTEX
  5
C7B
  8
2BY2
 10
99294.0
 20
482920.0
 30
2.25
  0
SEQEND
  5
C7C
  8
2BY2
  0
POLYLINE
  5
236
  8
2BY2
 66
     1
 10
0.0
 20
0.0
 30
5.25
 70
     1
1001
DCO15
1071
        2
1071
        2
1000
variablelink
1004
0000000000507E40
  0
VERTEX
  5
C7D
  8
2BY2
 10
100153.0
 20
482042.0
 30
5.25
  0
VERTEX
  5
C7E
  8
2BY2
 10
100155.0
 20
482042.0
 30
5.25
  0
VERTEX
  5
C7F
  8
2BY2
 10
100155.0
 20
482044.0
 30
5.25
  0
VERTEX
  5
C80
  8
2BY2
 10
100153.0
 20
482044.0
 30
5.25
  0
SEQEND
  5
C81
  8
2BY2
  0
POLYLINE
  5
237
  8
2BY2
 66
     1
 10
0.0
 20
0.0
 30
8.25
 70
     1
1001
DCO15
1071
        2
1071
        2
1000
variablelink
1004
0000000000607E40
  0
VERTEX
  5
C82
  8
2BY2
 10
100153.0
 20
482036.0
 30
8.25
  0
VERTEX
  5
C83
  8
2BY2
 10
100155.0
 20
482036.0
 30
8.25
  0
VERTEX
  5
C84
  8
2BY2
 10
100155.0
 20
482038.0
 30
8.25
  0
VERTEX
  5
C85
  8
2BY2
 10
100153.0
 20
482038.0
 30
8.25
  0
SEQEND
  5
C86
  8
2BY2
  0
POLYLINE
  5
238
  8
2BY2
 66
     1
 10
0.0
 20
0.0
 30
3.2000000000000002
 70
     1
1001
DCO15
1071
        2
1071
        2
1000
variablelink
1004
0000000000807E40
  0
VERTEX
  5
C87
  8
2BY2
 10
100122.0
 20
482047.0
 30
3.2000000000000002
  0
VERTEX
  5
C88
  8
2BY2
 10
100124.0
 20
482047.0
 30
3.2000000000000002
  0
VERTEX
  5
C89
  8
2BY2
 10
100124.0
 20
482049.0
 30
3.2000000000000002
  0
VERTEX
  5
C8A
  8
2BY2
 10
100122.0
 20
482049.0
 30
3.2000000000000002
  0
SEQEND
  5
C8B
  8
2BY2
  0
POLYLINE
  5
239
  8
2BY2
 66
     1
 10
0.0
 20
0.0
 30
0.8
 70
     1
1001
DCO15
1071
        2
1071
        2
1000
variablelink
1004
0000000000907E40
  0
VERTEX
  5
C8C
  8
2BY2
 10
100166.0
 20
482029.0
 30
0.8
  0
VERTEX
  5
C8D
  8
2BY2
 10
100168.0
 20
482029.0
 30
0.8
  0
VERTEX
  5
C8E
  8
2BY2
 10
100168.0
 20
482031.0
 30
0.8
  0
VERTEX
  5
C8F
  8
2BY2
 10
100166.0
 20
482031.0
 30
0.8
  0
SEQEND
  5
C90
  8
2BY2
  0
POLYLINE
  5
23A
  8
2BY2
 66
     1
 10
0.0
 20
0.0
 30
14.4
 70
     1
1001
DCO15
1071
        2
1071
        2
1000
variablelink
1004
0000000000307F40
  0
VERTEX
  5
C91
  8
2BY2
 10
100282.0
 20
482011.0
 30
14.4
  0
VERTEX
  5
C92
  8
2BY2
 10
100284.0
 20
482011.0
 30
14.4
  0
VERTEX
  5
C93
  8
2BY2
 10
100284.0
 20
482013.0
 30
14.4
  0
VERTEX
  5
C94
  8
2BY2
 10
100282.0
 20
482013.0
 30
14.4
  0
SEQEND
  5
C95
  8
2BY2
  0
POLYLINE
  5
23B
  8
2BY2
 66
     1
 10
0.0
 20
0.0
 30
0.25
 70
     1
1001
DCO15
1071
        2
1071
        2
1000
variablelink
1004
0000000000707F40
  0
VERTEX
  5
C96
  8
2BY2
 10
100085.0
 20
482030.0
 30
0.25
  0
VERTEX
  5
C97
  8
2BY2
 10
100087.0
 20
482030.0
 30
0.25
  0
VERTEX
  5
C98
  8
2BY2
 10
100087.0
 20
482032.0
 30
0.25
  0
VERTEX
  5
C99
  8
2BY2
 10
100085.0
 20
482032.0
 30
0.25
  0
SEQEND
  5
C9A
  8
2BY2
  0
POLYLINE
  5
23C
  8
10BY10
 66
     1
 10
0.0
 20
0.0
 30
0.03
 70
     1
1001
DCO15
1071
        2
1071
        2
1000
variablelink
1004
0000000000C08140
  0
VERTEX
  5
C9B
  8
10BY10
 10
101160.0
 20
482620.0
 30
0.03
  0
VERTEX
  5
C9C
  8
10BY10
 10
101170.0
 20
482620.0
 30
0.03
  0
VERTEX
  5
C9D
  8
10BY10
 10
101170.0
 20
482630.0
 30
0.03
  0
VERTEX
  5
C9E
  8
10BY10
 10
101160.0
 20
482630.0
 30
0.03
  0
SEQEND
  5
C9F
  8
10BY10
  0
POLYLINE
  5
23D
  8
10BY10
 66
     1
 10
0.0
 20
0.0
 30
0.11
 70
     1
1001
DCO15
1071
        2
1071
        2
1000
variablelink
1004
0000000000C88140
  0
VERTEX
  5
CA0
  8
10BY10
 10
101171.0
 20
482598.0
 30
0.11
  0
VERTEX
  5
CA1
  8
10BY10
 10
101181.0
 20
482598.0
 30
0.11
  0
VERTEX
  5
CA2
  8
10BY10
 10
101181.0
 20
482608.0
 30
0.11
  0
VERTEX
  5
CA3
  8
10BY10
 10
101171.0
 20
482608.0
 30
0.11
  0
SEQEND
  5
CA4
  8
10BY10
  0
POLYLINE
  5
23E
  8
10BY10
 66
     1
 10
0.0
 20
0.0
 30
0.13
 70
     1
1001
DCO15
1071
        2
1071
        2
1000
variablelink
1004
0000000000D08140
  0
VERTEX
  5
CA5
  8
10BY10
 10
101124.0
 20
482600.0
 30
0.13
  0
VERTEX
  5
CA6
  8
10BY10
 10
101134.0
 20
482600.0
 30
0.13
  0
VERTEX
  5
CA7
  8
10BY10
 10
101134.0
 20
482610.0
 30
0.13
  0
VERTEX
  5
CA8
  8
10BY10
 10
101124.0
 20
482610.0
 30
0.13
  0
SEQEND
  5
CA9
  8
10BY10
  0
POLYLINE
  5
23F
  8
10BY10
 66
     1
 10
0.0
 20
0.0
 30
0.03
 70
     1
1001
DCO15
1071
        2
1071
        2
1000
variablelink
1004
0000000000D88140
  0
VERTEX
  5
CAA
  8
10BY10
 10
101131.0
 20
482619.0
 30
0.03
  0
VERTEX
  5
CAB
  8
10BY10
 10
101141.0
 20
482619.0
 30
0.03
  0
VERTEX
  5
CAC
  8
10BY10
 10
101141.0
 20
482629.0
 30
0.03
  0
VERTEX
  5
CAD
  8
10BY10
 10
101131.0
 20
482629.0
 30
0.03
  0
SEQEND
  5
CAE
  8
10BY10
  0
POLYLINE
  5
240
  8
10BY10
 66
     1
 10
0.0
 20
0.0
 30
0.016
 70
     1
1001
DCO15
1071
        2
1071
        2
1000
variablelink
1004
0000000000F88140
  0
VERTEX
  5
CAF
  8
10BY10
 10
101114.0
 20
481841.0
 30
0.016
  0
VERTEX
  5
CB0
  8
10BY10
 10
101124.0
 20
481841.0
 30
0.016
  0
VERTEX
  5
CB1
  8
10BY10
 10
101124.0
 20
481851.0
 30
0.016
  0
VERTEX
  5
CB2
  8
10BY10
 10
101114.0
 20
481851.0
 30
0.016
  0
SEQEND
  5
CB3
  8
10BY10
  0
POLYLINE
  5
241
  8
10BY10
 66
     1
 10
0.0
 20
0.0
 30
0.3840000000000001
 70
     1
1001
DCO15
1071
        2
1071
        2
1000
variablelink
1004
0000000000008240
  0
VERTEX
  5
CB4
  8
10BY10
 10
101331.0
 20
482438.0
 30
0.3840000000000001
  0
VERTEX
  5
CB5
  8
10BY10
 10
101341.0
 20
482438.0
 30
0.3840000000000001
  0
VERTEX
  5
CB6
  8
10BY10
 10
101341.0
 20
482448.0
 30
0.3840000000000001
  0
VERTEX
  5
CB7
  8
10BY10
 10
101331.0
 20
482448.0
 30
0.3840000000000001
  0
SEQEND
  5
CB8
  8
10BY10
  0
POLYLINE
  5
242
  8
10BY10
 66
     1
 10
0.0
 20
0.0
 30
0.032
 70
     1
1001
DCO15
1071
        2
1071
        2
1000
variablelink
1004
0000000000308240
  0
VERTEX
  5
CB9
  8
10BY10
 10
96676.0
 20
482989.0
 30
0.032
  0
VERTEX
  5
CBA
  8
10BY10
 10
96686.0
 20
482989.0
 30
0.032
  0
VERTEX
  5
CBB
  8
10BY10
 10
96686.0
 20
482999.0
 30
0.032
  0
VERTEX
  5
CBC
  8
10BY10
 10
96676.0
 20
482999.0
 30
0.032
  0
SEQEND
  5
CBD
  8
10BY10
  0
POLYLINE
  5
243
  8
10BY10
 66
     1
 10
0.0
 20
0.0
 30
0.08
 70
     1
1001
DCO15
1071
        2
1071
        2
1000
variablelink
1004
0000000000388240
  0
VERTEX
  5
CBE
  8
10BY10
 10
97754.0
 20
483385.0
 30
0.08
  0
VERTEX
  5
CBF
  8
10BY10
 10
97764.0
 20
483385.0
 30
0.08
  0
VERTEX
  5
CC0
  8
10BY10
 10
97764.0
 20
483395.0
 30
0.08
  0
VERTEX
  5
CC1
  8
10BY10
 10
97754.0
 20
483395.0
 30
0.08
  0
SEQEND
  5
CC2
  8
10BY10
  0
POLYLINE
  5
244
  8
10BY10
 66
     1
 10
0.0
 20
0.0
 30
0.5760000000000001
 70
     1
1001
DCO15
1071
        2
1071
        2
1000
variablelink
1004
0000000000408240
  0
VERTEX
  5
CC3
  8
10BY10
 10
97794.0
 20
483350.0
 30
0.5760000000000001
  0
VERTEX
  5
CC4
  8
10BY10
 10
97804.0
 20
483350.0
 30
0.5760000000000001
  0
VERTEX
  5
CC5
  8
10BY10
 10
97804.0
 20
483360.0
 30
0.5760000000000001
  0
VERTEX
  5
CC6
  8
10BY10
 10
97794.0
 20
483360.0
 30
0.5760000000000001
  0
SEQEND
  5
CC7
  8
10BY10
  0
POLYLINE
  5
245
  8
10BY10
 66
     1
 10
0.0
 20
0.0
 30
0.016
 70
     1
1001
DCO15
1071
        2
1071
        2
1000
variablelink
1004
0000000000488240
  0
VERTEX
  5
CC8
  8
10BY10
 10
97792.0
 20
483338.0
 30
0.016
  0
VERTEX
  5
CC9
  8
10BY10
 10
97802.0
 20
483338.0
 30
0.016
  0
VERTEX
  5
CCA
  8
10BY10
 10
97802.0
 20
483348.0
 30
0.016
  0
VERTEX
  5
CCB
  8
10BY10
 10
97792.0
 20
483348.0
 30
0.016
  0
SEQEND
  5
CCC
  8
10BY10
  0
POLYLINE
  5
246
  8
10BY10
 66
     1
 10
0.0
 20
0.0
 30
0.5280000000000001
 70
     1
1001
DCO15
1071
        2
1071
        2
1000
variablelink
1004
0000000000588240
  0
VERTEX
  5
CCD
  8
10BY10
 10
97772.0
 20
483384.0
 30
0.5280000000000001
  0
VERTEX
  5
CCE
  8
10BY10
 10
97782.0
 20
483384.0
 30
0.5280000000000001
  0
VERTEX
  5
CCF
  8
10BY10
 10
97782.0
 20
483394.0
 30
0.5280000000000001
  0
VERTEX
  5
CD0
  8
10BY10
 10
97772.0
 20
483394.0
 30
0.5280000000000001
  0
SEQEND
  5
CD1
  8
10BY10
  0
POLYLINE
  5
247
  8
10BY10
 66
     1
 10
0.0
 20
0.0
 30
0.032
 70
     1
1001
DCO15
1071
        2
1071
        2
1000
variablelink
1004
0000000000688240
  0
VERTEX
  5
CD2
  8
10BY10
 10
97725.0
 20
483357.0
 30
0.032
  0
VERTEX
  5
CD3
  8
10BY10
 10
97735.0
 20
483357.0
 30
0.032
  0
VERTEX
  5
CD4
  8
10BY10
 10
97735.0
 20
483367.0
 30
0.032
  0
VERTEX
  5
CD5
  8
10BY10
 10
97725.0
 20
483367.0
 30
0.032
  0
SEQEND
  5
CD6
  8
10BY10
  0
POLYLINE
  5
248
  8
10BY10
 66
     1
 10
0.0
 20
0.0
 30
0.032
 70
     1
1001
DCO15
1071
        2
1071
        2
1000
variablelink
1004
0000000000788240
  0
VERTEX
  5
CD7
  8
10BY10
 10
97755.0
 20
483223.0
 30
0.032
  0
VERTEX
  5
CD8
  8
10BY10
 10
97765.0
 20
483223.0
 30
0.032
  0
VERTEX
  5
CD9
  8
10BY10
 10
97765.0
 20
483233.0
 30
0.032
  0
VERTEX
  5
CDA
  8
10BY10
 10
97755.0
 20
483233.0
 30
0.032
  0
SEQEND
  5
CDB
  8
10BY10
  0
POLYLINE
  5
249
  8
10BY10
 66
     1
 10
0.0
 20
0.0
 30
0.01
 70
     1
1001
DCO15
1071
        2
1071
        2
1000
variablelink
1004
0000000000808240
  0
VERTEX
  5
CDC
  8
10BY10
 10
94523.0
 20
483230.0
 30
0.01
  0
VERTEX
  5
CDD
  8
10BY10
 10
94533.0
 20
483230.0
 30
0.01
  0
VERTEX
  5
CDE
  8
10BY10
 10
94533.0
 20
483240.0
 30
0.01
  0
VERTEX
  5
CDF
  8
10BY10
 10
94523.0
 20
483240.0
 30
0.01
  0
SEQEND
  5
CE0
  8
10BY10
  0
POLYLINE
  5
24A
  8
10BY10
 66
     1
 10
0.0
 20
0.0
 30
0.04
 70
     1
1001
DCO15
1071
        2
1071
        2
1000
variablelink
1004
0000000000888240
  0
VERTEX
  5
CE1
  8
10BY10
 10
94533.0
 20
483223.0
 30
0.04
  0
VERTEX
  5
CE2
  8
10BY10
 10
94543.0
 20
483223.0
 30
0.04
  0
VERTEX
  5
CE3
  8
10BY10
 10
94543.0
 20
483233.0
 30
0.04
  0
VERTEX
  5
CE4
  8
10BY10
 10
94533.0
 20
483233.0
 30
0.04
  0
SEQEND
  5
CE5
  8
10BY10
  0
POLYLINE
  5
24B
  8
10BY10
 66
     1
 10
0.0
 20
0.0
 30
0.02
 70
     1
1001
DCO15
1071
        2
1071
        2
1000
variablelink
1004
0000000000908240
  0
VERTEX
  5
CE6
  8
10BY10
 10
94561.0
 20
483211.0
 30
0.02
  0
VERTEX
  5
CE7
  8
10BY10
 10
94571.0
 20
483211.0
 30
0.02
  0
VERTEX
  5
CE8
  8
10BY10
 10
94571.0
 20
483221.0
 30
0.02
  0
VERTEX
  5
CE9
  8
10BY10
 10
94561.0
 20
483221.0
 30
0.02
  0
SEQEND
  5
CEA
  8
10BY10
  0
POLYLINE
  5
24C
  8
10BY10
 66
     1
 10
0.0
 20
0.0
 30
0.01
 70
     1
1001
DCO15
1071
        2
1071
        2
1000
variablelink
1004
0000000000988240
  0
VERTEX
  5
CEB
  8
10BY10
 10
94590.0
 20
483204.0
 30
0.01
  0
VERTEX
  5
CEC
  8
10BY10
 10
94600.0
 20
483204.0
 30
0.01
  0
VERTEX
  5
CED
  8
10BY10
 10
94600.0
 20
483214.0
 30
0.01
  0
VERTEX
  5
CEE
  8
10BY10
 10
94590.0
 20
483214.0
 30
0.01
  0
SEQEND
  5
CEF
  8
10BY10
  0
POLYLINE
  5
24D
  8
10BY10
 66
     1
 10
0.0
 20
0.0
 30
0.03
 70
     1
1001
DCO15
1071
        2
1071
        2
1000
variablelink
1004
0000000000A08240
  0
VERTEX
  5
CF0
  8
10BY10
 10
94409.0
 20
483273.0
 30
0.03
  0
VERTEX
  5
CF1
  8
10BY10
 10
94419.0
 20
483273.0
 30
0.03
  0
VERTEX
  5
CF2
  8
10BY10
 10
94419.0
 20
483283.0
 30
0.03
  0
VERTEX
  5
CF3
  8
10BY10
 10
94409.0
 20
483283.0
 30
0.03
  0
SEQEND
  5
CF4
  8
10BY10
  0
POLYLINE
  5
24E
  8
10BY10
 66
     1
 10
0.0
 20
0.0
 30
0.03
 70
     1
1001
DCO15
1071
        2
1071
        2
1000
variablelink
1004
0000000000C08240
  0
VERTEX
  5
CF5
  8
10BY10
 10
94340.0
 20
483303.0
 30
0.03
  0
VERTEX
  5
CF6
  8
10BY10
 10
94350.0
 20
483303.0
 30
0.03
  0
VERTEX
  5
CF7
  8
10BY10
 10
94350.0
 20
483313.0
 30
0.03
  0
VERTEX
  5
CF8
  8
10BY10
 10
94340.0
 20
483313.0
 30
0.03
  0
SEQEND
  5
CF9
  8
10BY10
  0
POLYLINE
  5
24F
  8
10BY10
 66
     1
 10
0.0
 20
0.0
 30
0.06
 70
     1
1001
DCO15
1071
        2
1071
        2
1000
variablelink
1004
0000000000C88240
  0
VERTEX
  5
CFA
  8
10BY10
 10
94416.0
 20
483287.0
 30
0.06
  0
VERTEX
  5
CFB
  8
10BY10
 10
94426.0
 20
483287.0
 30
0.06
  0
VERTEX
  5
CFC
  8
10BY10
 10
94426.0
 20
483297.0
 30
0.06
  0
VERTEX
  5
CFD
  8
10BY10
 10
94416.0
 20
483297.0
 30
0.06
  0
SEQEND
  5
CFE
  8
10BY10
  0
POLYLINE
  5
250
  8
10BY10
 66
     1
 10
0.0
 20
0.0
 30
0.01
 70
     1
1001
DCO15
1071
        2
1071
        2
1000
variablelink
1004
0000000000D88240
  0
VERTEX
  5
CFF
  8
10BY10
 10
94371.0
 20
483293.0
 30
0.01
  0
VERTEX
  5
D00
  8
10BY10
 10
94381.0
 20
483293.0
 30
0.01
  0
VERTEX
  5
D01
  8
10BY10
 10
94381.0
 20
483303.0
 30
0.01
  0
VERTEX
  5
D02
  8
10BY10
 10
94371.0
 20
483303.0
 30
0.01
  0
SEQEND
  5
D03
  8
10BY10
  0
POLYLINE
  5
251
  8
10BY10
 66
     1
 10
0.0
 20
0.0
 30
0.01
 70
     1
1001
DCO15
1071
        2
1071
        2
1000
variablelink
1004
0000000000E88240
  0
VERTEX
  5
D04
  8
10BY10
 10
100990.0
 20
482500.0
 30
0.01
  0
VERTEX
  5
D05
  8
10BY10
 10
101000.0
 20
482500.0
 30
0.01
  0
VERTEX
  5
D06
  8
10BY10
 10
101000.0
 20
482510.0
 30
0.01
  0
VERTEX
  5
D07
  8
10BY10
 10
100990.0
 20
482510.0
 30
0.01
  0
SEQEND
  5
D08
  8
10BY10
  0
POLYLINE
  5
252
  8
10BY10
 66
     1
 10
0.0
 20
0.0
 30
0.01
 70
     1
1001
DCO15
1071
        2
1071
        2
1000
variablelink
1004
0000000000B08340
  0
VERTEX
  5
D09
  8
10BY10
 10
102664.0
 20
478742.0
 30
0.01
  0
VERTEX
  5
D0A
  8
10BY10
 10
102674.0
 20
478742.0
 30
0.01
  0
VERTEX
  5
D0B
  8
10BY10
 10
102674.0
 20
478752.0
 30
0.01
  0
VERTEX
  5
D0C
  8
10BY10
 10
102664.0
 20
478752.0
 30
0.01
  0
SEQEND
  5
D0D
  8
10BY10
  0
POLYLINE
  5
253
  8
10BY10
 66
     1
 10
0.0
 20
0.0
 30
0.01
 70
     1
1001
DCO15
1071
        2
1071
        2
1000
variablelink
1004
0000000000C88340
  0
VERTEX
  5
D0E
  8
10BY10
 10
102683.0
 20
478725.0
 30
0.01
  0
VERTEX
  5
D0F
  8
10BY10
 10
102693.0
 20
478725.0
 30
0.01
  0
VERTEX
  5
D10
  8
10BY10
 10
102693.0
 20
478735.0
 30
0.01
  0
VERTEX
  5
D11
  8
10BY10
 10
102683.0
 20
478735.0
 30
0.01
  0
SEQEND
  5
D12
  8
10BY10
  0
POLYLINE
  5
254
  8
10BY10
 66
     1
 10
0.0
 20
0.0
 30
0.01
 70
     1
1001
DCO15
1071
        2
1071
        2
1000
variablelink
1004
0000000000D08340
  0
VERTEX
  5
D13
  8
10BY10
 10
102683.0
 20
478765.0
 30
0.01
  0
VERTEX
  5
D14
  8
10BY10
 10
102693.0
 20
478765.0
 30
0.01
  0
VERTEX
  5
D15
  8
10BY10
 10
102693.0
 20
478775.0
 30
0.01
  0
VERTEX
  5
D16
  8
10BY10
 10
102683.0
 20
478775.0
 30
0.01
  0
SEQEND
  5
D17
  8
10BY10
  0
POLYLINE
  5
255
  8
10BY10
 66
     1
 10
0.0
 20
0.0
 30
1.325999999999999
 70
     1
1001
DCO15
1071
        2
1071
        2
1000
variablelink
1004
0000000000008440
  0
VERTEX
  5
D18
  8
10BY10
 10
104773.0
 20
481014.0
 30
1.325999999999999
  0
VERTEX
  5
D19
  8
10BY10
 10
104783.0
 20
481014.0
 30
1.325999999999999
  0
VERTEX
  5
D1A
  8
10BY10
 10
104783.0
 20
481024.0
 30
1.325999999999999
  0
VERTEX
  5
D1B
  8
10BY10
 10
104773.0
 20
481024.0
 30
1.325999999999999
  0
SEQEND
  5
D1C
  8
10BY10
  0
POLYLINE
  5
256
  8
10BY10
 66
     1
 10
0.0
 20
0.0
 30
0.7820000000000001
 70
     1
1001
DCO15
1071
        2
1071
        2
1000
variablelink
1004
0000000000088440
  0
VERTEX
  5
D1D
  8
10BY10
 10
104766.0
 20
481029.0
 30
0.7820000000000001
  0
VERTEX
  5
D1E
  8
10BY10
 10
104776.0
 20
481029.0
 30
0.7820000000000001
  0
VERTEX
  5
D1F
  8
10BY10
 10
104776.0
 20
481039.0
 30
0.7820000000000001
  0
VERTEX
  5
D20
  8
10BY10
 10
104766.0
 20
481039.0
 30
0.7820000000000001
  0
SEQEND
  5
D21
  8
10BY10
  0
POLYLINE
  5
257
  8
10BY10
 66
     1
 10
0.0
 20
0.0
 30
0.5610000000000001
 70
     1
1001
DCO15
1071
        2
1071
        2
1000
variablelink
1004
0000000000108440
  0
VERTEX
  5
D22
  8
10BY10
 10
104775.0
 20
481057.0
 30
0.5610000000000001
  0
VERTEX
  5
D23
  8
10BY10
 10
104785.0
 20
481057.0
 30
0.5610000000000001
  0
VERTEX
  5
D24
  8
10BY10
 10
104785.0
 20
481067.0
 30
0.5610000000000001
  0
VERTEX
  5
D25
  8
10BY10
 10
104775.0
 20
481067.0
 30
0.5610000000000001
  0
SEQEND
  5
D26
  8
10BY10
  0
POLYLINE
  5
258
  8
10BY10
 66
     1
 10
0.0
 20
0.0
 30
0.017
 70
     1
1001
DCO15
1071
        2
1071
        2
1000
variablelink
1004
0000000000188440
  0
VERTEX
  5
D27
  8
10BY10
 10
104788.0
 20
481070.0
 30
0.017
  0
VERTEX
  5
D28
  8
10BY10
 10
104798.0
 20
481070.0
 30
0.017
  0
VERTEX
  5
D29
  8
10BY10
 10
104798.0
 20
481080.0
 30
0.017
  0
VERTEX
  5
D2A
  8
10BY10
 10
104788.0
 20
481080.0
 30
0.017
  0
SEQEND
  5
D2B
  8
10BY10
  0
POLYLINE
  5
259
  8
10BY10
 66
     1
 10
0.0
 20
0.0
 30
0.136
 70
     1
1001
DCO15
1071
        2
1071
        2
1000
variablelink
1004
0000000000208440
  0
VERTEX
  5
D2C
  8
10BY10
 10
104780.0
 20
481092.0
 30
0.136
  0
VERTEX
  5
D2D
  8
10BY10
 10
104790.0
 20
481092.0
 30
0.136
  0
VERTEX
  5
D2E
  8
10BY10
 10
104790.0
 20
481102.0
 30
0.136
  0
VERTEX
  5
D2F
  8
10BY10
 10
104780.0
 20
481102.0
 30
0.136
  0
SEQEND
  5
D30
  8
10BY10
  0
POLYLINE
  5
25A
  8
10BY10
 66
     1
 10
0.0
 20
0.0
 30
0.034
 70
     1
1001
DCO15
1071
        2
1071
        2
1000
variablelink
1004
0000000000288440
  0
VERTEX
  5
D31
  8
10BY10
 10
104732.0
 20
481072.0
 30
0.034
  0
VERTEX
  5
D32
  8
10BY10
 10
104742.0
 20
481072.0
 30
0.034
  0
VERTEX
  5
D33
  8
10BY10
 10
104742.0
 20
481082.0
 30
0.034
  0
VERTEX
  5
D34
  8
10BY10
 10
104732.0
 20
481082.0
 30
0.034
  0
SEQEND
  5
D35
  8
10BY10
  0
POLYLINE
  5
25B
  8
10BY10
 66
     1
 10
0.0
 20
0.0
 30
0.02
 70
     1
1001
DCO15
1071
        2
1071
        2
1000
variablelink
1004
0000000000A88440
  0
VERTEX
  5
D36
  8
10BY10
 10
102703.0
 20
478749.0
 30
0.02
  0
VERTEX
  5
D37
  8
10BY10
 10
102713.0
 20
478749.0
 30
0.02
  0
VERTEX
  5
D38
  8
10BY10
 10
102713.0
 20
478759.0
 30
0.02
  0
VERTEX
  5
D39
  8
10BY10
 10
102703.0
 20
478759.0
 30
0.02
  0
SEQEND
  5
D3A
  8
10BY10
  0
POLYLINE
  5
25C
  8
10BY10
 66
     1
 10
0.0
 20
0.0
 30
0.02
 70
     1
1001
DCO15
1071
        2
1071
        2
1000
variablelink
1004
0000000000B08440
  0
VERTEX
  5
D3B
  8
10BY10
 10
102683.0
 20
478755.0
 30
0.02
  0
VERTEX
  5
D3C
  8
10BY10
 10
102693.0
 20
478755.0
 30
0.02
  0
VERTEX
  5
D3D
  8
10BY10
 10
102693.0
 20
478765.0
 30
0.02
  0
VERTEX
  5
D3E
  8
10BY10
 10
102683.0
 20
478765.0
 30
0.02
  0
SEQEND
  5
D3F
  8
10BY10
  0
POLYLINE
  5
25D
  8
10BY10
 66
     1
 10
0.0
 20
0.0
 30
0.02
 70
     1
1001
DCO15
1071
        2
1071
        2
1000
variablelink
1004
0000000000B88440
  0
VERTEX
  5
D40
  8
10BY10
 10
102639.0
 20
478785.0
 30
0.02
  0
VERTEX
  5
D41
  8
10BY10
 10
102649.0
 20
478785.0
 30
0.02
  0
VERTEX
  5
D42
  8
10BY10
 10
102649.0
 20
478795.0
 30
0.02
  0
VERTEX
  5
D43
  8
10BY10
 10
102639.0
 20
478795.0
 30
0.02
  0
SEQEND
  5
D44
  8
10BY10
  0
POLYLINE
  5
25E
  8
10BY10
 66
     1
 10
0.0
 20
0.0
 30
0.01
 70
     1
1001
DCO15
1071
        2
1071
        2
1000
variablelink
1004
0000000000008540
  0
VERTEX
  5
D45
  8
10BY10
 10
105021.0
 20
479639.0
 30
0.01
  0
VERTEX
  5
D46
  8
10BY10
 10
105031.0
 20
479639.0
 30
0.01
  0
VERTEX
  5
D47
  8
10BY10
 10
105031.0
 20
479649.0
 30
0.01
  0
VERTEX
  5
D48
  8
10BY10
 10
105021.0
 20
479649.0
 30
0.01
  0
SEQEND
  5
D49
  8
10BY10
  0
POLYLINE
  5
25F
  8
10BY10
 66
     1
 10
0.0
 20
0.0
 30
0.01
 70
     1
1001
DCO15
1071
        2
1071
        2
1000
variablelink
1004
0000000000308540
  0
VERTEX
  5
D4A
  8
10BY10
 10
105676.0
 20
480916.0
 30
0.01
  0
VERTEX
  5
D4B
  8
10BY10
 10
105686.0
 20
480916.0
 30
0.01
  0
VERTEX
  5
D4C
  8
10BY10
 10
105686.0
 20
480926.0
 30
0.01
  0
VERTEX
  5
D4D
  8
10BY10
 10
105676.0
 20
480926.0
 30
0.01
  0
SEQEND
  5
D4E
  8
10BY10
  0
POLYLINE
  5
260
  8
10BY10
 66
     1
 10
0.0
 20
0.0
 30
0.02
 70
     1
1001
DCO15
1071
        2
1071
        2
1000
variablelink
1004
0000000000B08540
  0
VERTEX
  5
D4F
  8
10BY10
 10
103125.0
 20
478966.0
 30
0.02
  0
VERTEX
  5
D50
  8
10BY10
 10
103135.0
 20
478966.0
 30
0.02
  0
VERTEX
  5
D51
  8
10BY10
 10
103135.0
 20
478976.0
 30
0.02
  0
VERTEX
  5
D52
  8
10BY10
 10
103125.0
 20
478976.0
 30
0.02
  0
SEQEND
  5
D53
  8
10BY10
  0
POLYLINE
  5
261
  8
10BY10
 66
     1
 10
0.0
 20
0.0
 30
0.048
 70
     1
1001
DCO15
1071
        2
1071
        2
1000
variablelink
1004
0000000000B88540
  0
VERTEX
  5
D54
  8
10BY10
 10
103108.0
 20
478892.0
 30
0.048
  0
VERTEX
  5
D55
  8
10BY10
 10
103118.0
 20
478892.0
 30
0.048
  0
VERTEX
  5
D56
  8
10BY10
 10
103118.0
 20
478902.0
 30
0.048
  0
VERTEX
  5
D57
  8
10BY10
 10
103108.0
 20
478902.0
 30
0.048
  0
SEQEND
  5
D58
  8
10BY10
  0
POLYLINE
  5
262
  8
10BY10
 66
     1
 10
0.0
 20
0.0
 30
0.144
 70
     1
1001
DCO15
1071
        2
1071
        2
1000
variablelink
1004
0000000000C08540
  0
VERTEX
  5
D59
  8
10BY10
 10
103128.0
 20
478936.0
 30
0.144
  0
VERTEX
  5
D5A
  8
10BY10
 10
103138.0
 20
478936.0
 30
0.144
  0
VERTEX
  5
D5B
  8
10BY10
 10
103138.0
 20
478946.0
 30
0.144
  0
VERTEX
  5
D5C
  8
10BY10
 10
103128.0
 20
478946.0
 30
0.144
  0
SEQEND
  5
D5D
  8
10BY10
  0
POLYLINE
  5
263
  8
10BY10
 66
     1
 10
0.0
 20
0.0
 30
0.06
 70
     1
1001
DCO15
1071
        2
1071
        2
1000
variablelink
1004
0000000000E88540
  0
VERTEX
  5
D5E
  8
10BY10
 10
103136.0
 20
478901.0
 30
0.06
  0
VERTEX
  5
D5F
  8
10BY10
 10
103146.0
 20
478901.0
 30
0.06
  0
VERTEX
  5
D60
  8
10BY10
 10
103146.0
 20
478911.0
 30
0.06
  0
VERTEX
  5
D61
  8
10BY10
 10
103136.0
 20
478911.0
 30
0.06
  0
SEQEND
  5
D62
  8
10BY10
  0
POLYLINE
  5
264
  8
10BY10
 66
     1
 10
0.0
 20
0.0
 30
0.16
 70
     1
1001
DCO15
1071
        2
1071
        2
1000
variablelink
1004
0000000000F08540
  0
VERTEX
  5
D63
  8
10BY10
 10
103129.0
 20
478883.0
 30
0.16
  0
VERTEX
  5
D64
  8
10BY10
 10
103139.0
 20
478883.0
 30
0.16
  0
VERTEX
  5
D65
  8
10BY10
 10
103139.0
 20
478893.0
 30
0.16
  0
VERTEX
  5
D66
  8
10BY10
 10
103129.0
 20
478893.0
 30
0.16
  0
SEQEND
  5
D67
  8
10BY10
  0
POLYLINE
  5
265
  8
10BY10
 66
     1
 10
0.0
 20
0.0
 30
0.06
 70
     1
1001
DCO15
1071
        2
1071
        2
1000
variablelink
1004
0000000000F88540
  0
VERTEX
  5
D68
  8
10BY10
 10
103146.0
 20
478897.0
 30
0.06
  0
VERTEX
  5
D69
  8
10BY10
 10
103156.0
 20
478897.0
 30
0.06
  0
VERTEX
  5
D6A
  8
10BY10
 10
103156.0
 20
478907.0
 30
0.06
  0
VERTEX
  5
D6B
  8
10BY10
 10
103146.0
 20
478907.0
 30
0.06
  0
SEQEND
  5
D6C
  8
10BY10
  0
POLYLINE
  5
266
  8
10BY10
 66
     1
 10
0.0
 20
0.0
 30
0.1
 70
     1
1001
DCO15
1071
        2
1071
        2
1000
variablelink
1004
0000000000188640
  0
VERTEX
  5
D6D
  8
10BY10
 10
103130.0
 20
478923.0
 30
0.1
  0
VERTEX
  5
D6E
  8
10BY10
 10
103140.0
 20
478923.0
 30
0.1
  0
VERTEX
  5
D6F
  8
10BY10
 10
103140.0
 20
478933.0
 30
0.1
  0
VERTEX
  5
D70
  8
10BY10
 10
103130.0
 20
478933.0
 30
0.1
  0
SEQEND
  5
D71
  8
10BY10
  0
POLYLINE
  5
267
  8
10BY10
 66
     1
 10
0.0
 20
0.0
 30
0.57
 70
     1
1001
DCO15
1071
        2
1071
        2
1000
variablelink
1004
0000000000208640
  0
VERTEX
  5
D72
  8
10BY10
 10
103146.0
 20
478913.0
 30
0.57
  0
VERTEX
  5
D73
  8
10BY10
 10
103156.0
 20
478913.0
 30
0.57
  0
VERTEX
  5
D74
  8
10BY10
 10
103156.0
 20
478923.0
 30
0.57
  0
VERTEX
  5
D75
  8
10BY10
 10
103146.0
 20
478923.0
 30
0.57
  0
SEQEND
  5
D76
  8
10BY10
  0
POLYLINE
  5
268
  8
10BY10
 66
     1
 10
0.0
 20
0.0
 30
0.08
 70
     1
1001
DCO15
1071
        2
1071
        2
1000
variablelink
1004
0000000000288640
  0
VERTEX
  5
D77
  8
10BY10
 10
103126.0
 20
478903.0
 30
0.08
  0
VERTEX
  5
D78
  8
10BY10
 10
103136.0
 20
478903.0
 30
0.08
  0
VERTEX
  5
D79
  8
10BY10
 10
103136.0
 20
478913.0
 30
0.08
  0
VERTEX
  5
D7A
  8
10BY10
 10
103126.0
 20
478913.0
 30
0.08
  0
SEQEND
  5
D7B
  8
10BY10
  0
POLYLINE
  5
269
  8
10BY10
 66
     1
 10
0.0
 20
0.0
 30
0.18
 70
     1
1001
DCO15
1071
        2
1071
        2
1000
variablelink
1004
0000000000308640
  0
VERTEX
  5
D7C
  8
10BY10
 10
103136.0
 20
478913.0
 30
0.18
  0
VERTEX
  5
D7D
  8
10BY10
 10
103146.0
 20
478913.0
 30
0.18
  0
VERTEX
  5
D7E
  8
10BY10
 10
103146.0
 20
478923.0
 30
0.18
  0
VERTEX
  5
D7F
  8
10BY10
 10
103136.0
 20
478923.0
 30
0.18
  0
SEQEND
  5
D80
  8
10BY10
  0
POLYLINE
  5
26A
  8
10BY10
 66
     1
 10
0.0
 20
0.0
 30
0.05
 70
     1
1001
DCO15
1071
        2
1071
        2
1000
variablelink
1004
0000000000388640
  0
VERTEX
  5
D81
  8
10BY10
 10
103125.0
 20
478893.0
 30
0.05
  0
VERTEX
  5
D82
  8
10BY10
 10
103135.0
 20
478893.0
 30
0.05
  0
VERTEX
  5
D83
  8
10BY10
 10
103135.0
 20
478903.0
 30
0.05
  0
VERTEX
  5
D84
  8
10BY10
 10
103125.0
 20
478903.0
 30
0.05
  0
SEQEND
  5
D85
  8
10BY10
  0
POLYLINE
  5
26B
  8
10BY10
 66
     1
 10
0.0
 20
0.0
 30
0.12
 70
     1
1001
DCO15
1071
        2
1071
        2
1000
variablelink
1004
0000000000408640
  0
VERTEX
  5
D86
  8
10BY10
 10
103121.0
 20
478863.0
 30
0.12
  0
VERTEX
  5
D87
  8
10BY10
 10
103131.0
 20
478863.0
 30
0.12
  0
VERTEX
  5
D88
  8
10BY10
 10
103131.0
 20
478873.0
 30
0.12
  0
VERTEX
  5
D89
  8
10BY10
 10
103121.0
 20
478873.0
 30
0.12
  0
SEQEND
  5
D8A
  8
10BY10
  0
POLYLINE
  5
26C
  8
10BY10
 66
     1
 10
0.0
 20
0.0
 30
0.01
 70
     1
1001
DCO15
1071
        2
1071
        2
1000
variablelink
1004
0000000000588640
  0
VERTEX
  5
D8B
  8
10BY10
 10
96456.0
 20
481046.0
 30
0.01
  0
VERTEX
  5
D8C
  8
10BY10
 10
96466.0
 20
481046.0
 30
0.01
  0
VERTEX
  5
D8D
  8
10BY10
 10
96466.0
 20
481056.0
 30
0.01
  0
VERTEX
  5
D8E
  8
10BY10
 10
96456.0
 20
481056.0
 30
0.01
  0
SEQEND
  5
D8F
  8
10BY10
  0
POLYLINE
  5
26D
  8
10BY10
 66
     1
 10
0.0
 20
0.0
 30
0.01
 70
     1
1001
DCO15
1071
        2
1071
        2
1000
variablelink
1004
0000000000608640
  0
VERTEX
  5
D90
  8
10BY10
 10
101440.0
 20
484517.0
 30
0.01
  0
VERTEX
  5
D91
  8
10BY10
 10
101450.0
 20
484517.0
 30
0.01
  0
VERTEX
  5
D92
  8
10BY10
 10
101450.0
 20
484527.0
 30
0.01
  0
VERTEX
  5
D93
  8
10BY10
 10
101440.0
 20
484527.0
 30
0.01
  0
SEQEND
  5
D94
  8
10BY10
  0
POLYLINE
  5
26E
  8
10BY10
 66
     1
 10
0.0
 20
0.0
 30
0.04
 70
     1
1001
DCO15
1071
        2
1071
        2
1000
variablelink
1004
0000000000B88740
  0
VERTEX
  5
D95
  8
10BY10
 10
101409.0
 20
484536.0
 30
0.04
  0
VERTEX
  5
D96
  8
10BY10
 10
101419.0
 20
484536.0
 30
0.04
  0
VERTEX
  5
D97
  8
10BY10
 10
101419.0
 20
484546.0
 30
0.04
  0
VERTEX
  5
D98
  8
10BY10
 10
101409.0
 20
484546.0
 30
0.04
  0
SEQEND
  5
D99
  8
10BY10
  0
POLYLINE
  5
26F
  8
10BY10
 66
     1
 10
0.0
 20
0.0
 30
0.04
 70
     1
1001
DCO15
1071
        2
1071
        2
1000
variablelink
1004
0000000000C08740
  0
VERTEX
  5
D9A
  8
10BY10
 10
101412.0
 20
484560.0
 30
0.04
  0
VERTEX
  5
D9B
  8
10BY10
 10
101422.0
 20
484560.0
 30
0.04
  0
VERTEX
  5
D9C
  8
10BY10
 10
101422.0
 20
484570.0
 30
0.04
  0
VERTEX
  5
D9D
  8
10BY10
 10
101412.0
 20
484570.0
 30
0.04
  0
SEQEND
  5
D9E
  8
10BY10
  0
POLYLINE
  5
270
  8
10BY10
 66
     1
 10
0.0
 20
0.0
 30
0.05
 70
     1
1001
DCO15
1071
        2
1071
        2
1000
variablelink
1004
0000000000C88740
  0
VERTEX
  5
D9F
  8
10BY10
 10
101391.0
 20
484542.0
 30
0.05
  0
VERTEX
  5
DA0
  8
10BY10
 10
101401.0
 20
484542.0
 30
0.05
  0
VERTEX
  5
DA1
  8
10BY10
 10
101401.0
 20
484552.0
 30
0.05
  0
VERTEX
  5
DA2
  8
10BY10
 10
101391.0
 20
484552.0
 30
0.05
  0
SEQEND
  5
DA3
  8
10BY10
  0
POLYLINE
  5
271
  8
10BY10
 66
     1
 10
0.0
 20
0.0
 30
0.03
 70
     1
1001
DCO15
1071
        2
1071
        2
1000
variablelink
1004
0000000000D08740
  0
VERTEX
  5
DA4
  8
10BY10
 10
101356.0
 20
484547.0
 30
0.03
  0
VERTEX
  5
DA5
  8
10BY10
 10
101366.0
 20
484547.0
 30
0.03
  0
VERTEX
  5
DA6
  8
10BY10
 10
101366.0
 20
484557.0
 30
0.03
  0
VERTEX
  5
DA7
  8
10BY10
 10
101356.0
 20
484557.0
 30
0.03
  0
SEQEND
  5
DA8
  8
10BY10
  0
POLYLINE
  5
272
  8
10BY10
 66
     1
 10
0.0
 20
0.0
 30
0.05
 70
     1
1001
DCO15
1071
        2
1071
        2
1000
variablelink
1004
0000000000D88740
  0
VERTEX
  5
DA9
  8
10BY10
 10
101373.0
 20
484518.0
 30
0.05
  0
VERTEX
  5
DAA
  8
10BY10
 10
101383.0
 20
484518.0
 30
0.05
  0
VERTEX
  5
DAB
  8
10BY10
 10
101383.0
 20
484528.0
 30
0.05
  0
VERTEX
  5
DAC
  8
10BY10
 10
101373.0
 20
484528.0
 30
0.05
  0
SEQEND
  5
DAD
  8
10BY10
  0
POLYLINE
  5
273
  8
10BY10
 66
     1
 10
0.0
 20
0.0
 30
0.02
 70
     1
1001
DCO15
1071
        2
1071
        2
1000
variablelink
1004
0000000000E08740
  0
VERTEX
  5
DAE
  8
10BY10
 10
101395.0
 20
484492.0
 30
0.02
  0
VERTEX
  5
DAF
  8
10BY10
 10
101405.0
 20
484492.0
 30
0.02
  0
VERTEX
  5
DB0
  8
10BY10
 10
101405.0
 20
484502.0
 30
0.02
  0
VERTEX
  5
DB1
  8
10BY10
 10
101395.0
 20
484502.0
 30
0.02
  0
SEQEND
  5
DB2
  8
10BY10
  0
POLYLINE
  5
274
  8
10BY10
 66
     1
 10
0.0
 20
0.0
 30
0.05
 70
     1
1001
DCO15
1071
        2
1071
        2
1000
variablelink
1004
0000000000E88740
  0
VERTEX
  5
DB3
  8
10BY10
 10
101348.0
 20
484589.0
 30
0.05
  0
VERTEX
  5
DB4
  8
10BY10
 10
101358.0
 20
484589.0
 30
0.05
  0
VERTEX
  5
DB5
  8
10BY10
 10
101358.0
 20
484599.0
 30
0.05
  0
VERTEX
  5
DB6
  8
10BY10
 10
101348.0
 20
484599.0
 30
0.05
  0
SEQEND
  5
DB7
  8
10BY10
  0
POLYLINE
  5
275
  8
10BY10
 66
     1
 10
0.0
 20
0.0
 30
0.01
 70
     1
1001
DCO15
1071
        2
1071
        2
1000
variablelink
1004
0000000000F08740
  0
VERTEX
  5
DB8
  8
10BY10
 10
101263.0
 20
484501.0
 30
0.01
  0
VERTEX
  5
DB9
  8
10BY10
 10
101273.0
 20
484501.0
 30
0.01
  0
VERTEX
  5
DBA
  8
10BY10
 10
101273.0
 20
484511.0
 30
0.01
  0
VERTEX
  5
DBB
  8
10BY10
 10
101263.0
 20
484511.0
 30
0.01
  0
SEQEND
  5
DBC
  8
10BY10
  0
POLYLINE
  5
276
  8
10BY10
 66
     1
 10
0.0
 20
0.0
 30
0.02
 70
     1
1001
DCO15
1071
        2
1071
        2
1000
variablelink
1004
0000000000F88740
  0
VERTEX
  5
DBD
  8
10BY10
 10
92144.0
 20
489512.0
 30
0.02
  0
VERTEX
  5
DBE
  8
10BY10
 10
92154.0
 20
489512.0
 30
0.02
  0
VERTEX
  5
DBF
  8
10BY10
 10
92154.0
 20
489522.0
 30
0.02
  0
VERTEX
  5
DC0
  8
10BY10
 10
92144.0
 20
489522.0
 30
0.02
  0
SEQEND
  5
DC1
  8
10BY10
  0
POLYLINE
  5
277
  8
10BY10
 66
     1
 10
0.0
 20
0.0
 30
0.02
 70
     1
1001
DCO15
1071
        2
1071
        2
1000
variablelink
1004
0000000000008840
  0
VERTEX
  5
DC2
  8
10BY10
 10
92141.0
 20
489523.0
 30
0.02
  0
VERTEX
  5
DC3
  8
10BY10
 10
92151.0
 20
489523.0
 30
0.02
  0
VERTEX
  5
DC4
  8
10BY10
 10
92151.0
 20
489533.0
 30
0.02
  0
VERTEX
  5
DC5
  8
10BY10
 10
92141.0
 20
489533.0
 30
0.02
  0
SEQEND
  5
DC6
  8
10BY10
  0
POLYLINE
  5
278
  8
10BY10
 66
     1
 10
0.0
 20
0.0
 30
0.01
 70
     1
1001
DCO15
1071
        2
1071
        2
1000
variablelink
1004
0000000000108840
  0
VERTEX
  5
DC7
  8
10BY10
 10
92123.0
 20
489501.0
 30
0.01
  0
VERTEX
  5
DC8
  8
10BY10
 10
92133.0
 20
489501.0
 30
0.01
  0
VERTEX
  5
DC9
  8
10BY10
 10
92133.0
 20
489511.0
 30
0.01
  0
VERTEX
  5
DCA
  8
10BY10
 10
92123.0
 20
489511.0
 30
0.01
  0
SEQEND
  5
DCB
  8
10BY10
  0
POLYLINE
  5
279
  8
10BY10
 66
     1
 10
0.0
 20
0.0
 30
0.02
 70
     1
1001
DCO15
1071
        2
1071
        2
1000
variablelink
1004
0000000000208840
  0
VERTEX
  5
DCC
  8
10BY10
 10
92157.0
 20
489518.0
 30
0.02
  0
VERTEX
  5
DCD
  8
10BY10
 10
92167.0
 20
489518.0
 30
0.02
  0
VERTEX
  5
DCE
  8
10BY10
 10
92167.0
 20
489528.0
 30
0.02
  0
VERTEX
  5
DCF
  8
10BY10
 10
92157.0
 20
489528.0
 30
0.02
  0
SEQEND
  5
DD0
  8
10BY10
  0
POLYLINE
  5
27A
  8
10BY10
 66
     1
 10
0.0
 20
0.0
 30
0.02
 70
     1
1001
DCO15
1071
        2
1071
        2
1000
variablelink
1004
0000000000388840
  0
VERTEX
  5
DD1
  8
10BY10
 10
92151.0
 20
489491.0
 30
0.02
  0
VERTEX
  5
DD2
  8
10BY10
 10
92161.0
 20
489491.0
 30
0.02
  0
VERTEX
  5
DD3
  8
10BY10
 10
92161.0
 20
489501.0
 30
0.02
  0
VERTEX
  5
DD4
  8
10BY10
 10
92151.0
 20
489501.0
 30
0.02
  0
SEQEND
  5
DD5
  8
10BY10
  0
POLYLINE
  5
27B
  8
10BY10
 66
     1
 10
0.0
 20
0.0
 30
0.02
 70
     1
1001
DCO15
1071
        2
1071
        2
1000
variablelink
1004
0000000000408840
  0
VERTEX
  5
DD6
  8
10BY10
 10
92135.0
 20
489493.0
 30
0.02
  0
VERTEX
  5
DD7
  8
10BY10
 10
92145.0
 20
489493.0
 30
0.02
  0
VERTEX
  5
DD8
  8
10BY10
 10
92145.0
 20
489503.0
 30
0.02
  0
VERTEX
  5
DD9
  8
10BY10
 10
92135.0
 20
489503.0
 30
0.02
  0
SEQEND
  5
DDA
  8
10BY10
  0
POLYLINE
  5
27C
  8
10BY10
 66
     1
 10
0.0
 20
0.0
 30
0.01
 70
     1
1001
DCO15
1071
        2
1071
        2
1000
variablelink
1004
0000000000488840
  0
VERTEX
  5
DDB
  8
10BY10
 10
92107.0
 20
489475.0
 30
0.01
  0
VERTEX
  5
DDC
  8
10BY10
 10
92117.0
 20
489475.0
 30
0.01
  0
VERTEX
  5
DDD
  8
10BY10
 10
92117.0
 20
489485.0
 30
0.01
  0
VERTEX
  5
DDE
  8
10BY10
 10
92107.0
 20
489485.0
 30
0.01
  0
SEQEND
  5
DDF
  8
10BY10
  0
POLYLINE
  5
27D
  8
10BY10
 66
     1
 10
0.0
 20
0.0
 30
0.05
 70
     1
1001
DCO15
1071
        2
1071
        2
1000
variablelink
1004
0000000000488940
  0
VERTEX
  5
DE0
  8
10BY10
 10
85162.0
 20
497002.0
 30
0.05
  0
VERTEX
  5
DE1
  8
10BY10
 10
85172.0
 20
497002.0
 30
0.05
  0
VERTEX
  5
DE2
  8
10BY10
 10
85172.0
 20
497012.0
 30
0.05
  0
VERTEX
  5
DE3
  8
10BY10
 10
85162.0
 20
497012.0
 30
0.05
  0
SEQEND
  5
DE4
  8
10BY10
  0
POLYLINE
  5
27E
  8
10BY10
 66
     1
 10
0.0
 20
0.0
 30
0.03
 70
     1
1001
DCO15
1071
        2
1071
        2
1000
variablelink
1004
0000000000588940
  0
VERTEX
  5
DE5
  8
10BY10
 10
85217.0
 20
497050.0
 30
0.03
  0
VERTEX
  5
DE6
  8
10BY10
 10
85227.0
 20
497050.0
 30
0.03
  0
VERTEX
  5
DE7
  8
10BY10
 10
85227.0
 20
497060.0
 30
0.03
  0
VERTEX
  5
DE8
  8
10BY10
 10
85217.0
 20
497060.0
 30
0.03
  0
SEQEND
  5
DE9
  8
10BY10
  0
POLYLINE
  5
27F
  8
10BY10
 66
     1
 10
0.0
 20
0.0
 30
0.04
 70
     1
1001
DCO15
1071
        2
1071
        2
1000
variablelink
1004
0000000000688940
  0
VERTEX
  5
DEA
  8
10BY10
 10
85804.0
 20
497001.0
 30
0.04
  0
VERTEX
  5
DEB
  8
10BY10
 10
85814.0
 20
497001.0
 30
0.04
  0
VERTEX
  5
DEC
  8
10BY10
 10
85814.0
 20
497011.0
 30
0.04
  0
VERTEX
  5
DED
  8
10BY10
 10
85804.0
 20
497011.0
 30
0.04
  0
SEQEND
  5
DEE
  8
10BY10
  0
POLYLINE
  5
280
  8
10BY10
 66
     1
 10
0.0
 20
0.0
 30
0.02
 70
     1
1001
DCO15
1071
        2
1071
        2
1000
variablelink
1004
0000000000708940
  0
VERTEX
  5
DEF
  8
10BY10
 10
85212.0
 20
497062.0
 30
0.02
  0
VERTEX
  5
DF0
  8
10BY10
 10
85222.0
 20
497062.0
 30
0.02
  0
VERTEX
  5
DF1
  8
10BY10
 10
85222.0
 20
497072.0
 30
0.02
  0
VERTEX
  5
DF2
  8
10BY10
 10
85212.0
 20
497072.0
 30
0.02
  0
SEQEND
  5
DF3
  8
10BY10
  0
POLYLINE
  5
281
  8
10BY10
 66
     1
 10
0.0
 20
0.0
 30
0.11
 70
     1
1001
DCO15
1071
        2
1071
        2
1000
variablelink
1004
0000000000788940
  0
VERTEX
  5
DF4
  8
10BY10
 10
85202.0
 20
497066.0
 30
0.11
  0
VERTEX
  5
DF5
  8
10BY10
 10
85212.0
 20
497066.0
 30
0.11
  0
VERTEX
  5
DF6
  8
10BY10
 10
85212.0
 20
497076.0
 30
0.11
  0
VERTEX
  5
DF7
  8
10BY10
 10
85202.0
 20
497076.0
 30
0.11
  0
SEQEND
  5
DF8
  8
10BY10
  0
POLYLINE
  5
282
  8
10BY10
 66
     1
 10
0.0
 20
0.0
 30
0.1
 70
     1
1001
DCO15
1071
        2
1071
        2
1000
variablelink
1004
0000000000908940
  0
VERTEX
  5
DF9
  8
10BY10
 10
85161.0
 20
497034.0
 30
0.1
  0
VERTEX
  5
DFA
  8
10BY10
 10
85171.0
 20
497034.0
 30
0.1
  0
VERTEX
  5
DFB
  8
10BY10
 10
85171.0
 20
497044.0
 30
0.1
  0
VERTEX
  5
DFC
  8
10BY10
 10
85161.0
 20
497044.0
 30
0.1
  0
SEQEND
  5
DFD
  8
10BY10
  0
POLYLINE
  5
283
  8
10BY10
 66
     1
 10
0.0
 20
0.0
 30
0.03
 70
     1
1001
DCO15
1071
        2
1071
        2
1000
variablelink
1004
0000000000988940
  0
VERTEX
  5
DFE
  8
10BY10
 10
85167.0
 20
497052.0
 30
0.03
  0
VERTEX
  5
DFF
  8
10BY10
 10
85177.0
 20
497052.0
 30
0.03
  0
VERTEX
  5
E00
  8
10BY10
 10
85177.0
 20
497062.0
 30
0.03
  0
VERTEX
  5
E01
  8
10BY10
 10
85167.0
 20
497062.0
 30
0.03
  0
SEQEND
  5
E02
  8
10BY10
  0
POLYLINE
  5
284
  8
10BY10
 66
     1
 10
0.0
 20
0.0
 30
0.4400000000000001
 70
     1
1001
DCO15
1071
        2
1071
        2
1000
variablelink
1004
0000000000B08940
  0
VERTEX
  5
E03
  8
10BY10
 10
85177.0
 20
497010.0
 30
0.4400000000000001
  0
VERTEX
  5
E04
  8
10BY10
 10
85187.0
 20
497010.0
 30
0.4400000000000001
  0
VERTEX
  5
E05
  8
10BY10
 10
85187.0
 20
497020.0
 30
0.4400000000000001
  0
VERTEX
  5
E06
  8
10BY10
 10
85177.0
 20
497020.0
 30
0.4400000000000001
  0
SEQEND
  5
E07
  8
10BY10
  0
POLYLINE
  5
285
  8
10BY10
 66
     1
 10
0.0
 20
0.0
 30
0.238
 70
     1
1001
DCO15
1071
        2
1071
        2
1000
variablelink
1004
0000000000C08940
  0
VERTEX
  5
E08
  8
10BY10
 10
85471.0
 20
497034.0
 30
0.238
  0
VERTEX
  5
E09
  8
10BY10
 10
85481.0
 20
497034.0
 30
0.238
  0
VERTEX
  5
E0A
  8
10BY10
 10
85481.0
 20
497044.0
 30
0.238
  0
VERTEX
  5
E0B
  8
10BY10
 10
85471.0
 20
497044.0
 30
0.238
  0
SEQEND
  5
E0C
  8
10BY10
  0
POLYLINE
  5
286
  8
10BY10
 66
     1
 10
0.0
 20
0.0
 30
0.017
 70
     1
1001
DCO15
1071
        2
1071
        2
1000
variablelink
1004
0000000000D08940
  0
VERTEX
  5
E0D
  8
10BY10
 10
85498.0
 20
497057.0
 30
0.017
  0
VERTEX
  5
E0E
  8
10BY10
 10
85508.0
 20
497057.0
 30
0.017
  0
VERTEX
  5
E0F
  8
10BY10
 10
85508.0
 20
497067.0
 30
0.017
  0
VERTEX
  5
E10
  8
10BY10
 10
85498.0
 20
497067.0
 30
0.017
  0
SEQEND
  5
E11
  8
10BY10
  0
POLYLINE
  5
287
  8
10BY10
 66
     1
 10
0.0
 20
0.0
 30
0.07
 70
     1
1001
DCO15
1071
        2
1071
        2
1000
variablelink
1004
0000000000D88940
  0
VERTEX
  5
E12
  8
10BY10
 10
85190.0
 20
497013.0
 30
0.07
  0
VERTEX
  5
E13
  8
10BY10
 10
85200.0
 20
497013.0
 30
0.07
  0
VERTEX
  5
E14
  8
10BY10
 10
85200.0
 20
497023.0
 30
0.07
  0
VERTEX
  5
E15
  8
10BY10
 10
85190.0
 20
497023.0
 30
0.07
  0
SEQEND
  5
E16
  8
10BY10
  0
POLYLINE
  5
288
  8
10BY10
 66
     1
 10
0.0
 20
0.0
 30
0.03
 70
     1
1001
DCO15
1071
        2
1071
        2
1000
variablelink
1004
0000000000E08940
  0
VERTEX
  5
E17
  8
10BY10
 10
85486.0
 20
497062.0
 30
0.03
  0
VERTEX
  5
E18
  8
10BY10
 10
85496.0
 20
497062.0
 30
0.03
  0
VERTEX
  5
E19
  8
10BY10
 10
85496.0
 20
497072.0
 30
0.03
  0
VERTEX
  5
E1A
  8
10BY10
 10
85486.0
 20
497072.0
 30
0.03
  0
SEQEND
  5
E1B
  8
10BY10
  0
POLYLINE
  5
289
  8
10BY10
 66
     1
 10
0.0
 20
0.0
 30
0.01
 70
     1
1001
DCO15
1071
        2
1071
        2
1000
variablelink
1004
0000000000988A40
  0
VERTEX
  5
E1C
  8
10BY10
 10
89945.0
 20
494319.0
 30
0.01
  0
VERTEX
  5
E1D
  8
10BY10
 10
89955.0
 20
494319.0
 30
0.01
  0
VERTEX
  5
E1E
  8
10BY10
 10
89955.0
 20
494329.0
 30
0.01
  0
VERTEX
  5
E1F
  8
10BY10
 10
89945.0
 20
494329.0
 30
0.01
  0
SEQEND
  5
E20
  8
10BY10
  0
POLYLINE
  5
28A
  8
10BY10
 66
     1
 10
0.0
 20
0.0
 30
0.04
 70
     1
1001
DCO15
1071
        2
1071
        2
1000
variablelink
1004
0000000000A08A40
  0
VERTEX
  5
E21
  8
10BY10
 10
89949.0
 20
494329.0
 30
0.04
  0
VERTEX
  5
E22
  8
10BY10
 10
89959.0
 20
494329.0
 30
0.04
  0
VERTEX
  5
E23
  8
10BY10
 10
89959.0
 20
494339.0
 30
0.04
  0
VERTEX
  5
E24
  8
10BY10
 10
89949.0
 20
494339.0
 30
0.04
  0
SEQEND
  5
E25
  8
10BY10
  0
POLYLINE
  5
28B
  8
10BY10
 66
     1
 10
0.0
 20
0.0
 30
0.02
 70
     1
1001
DCO15
1071
        2
1071
        2
1000
variablelink
1004
0000000000888B40
  0
VERTEX
  5
E26
  8
10BY10
 10
81101.0
 20
495519.0
 30
0.02
  0
VERTEX
  5
E27
  8
10BY10
 10
81111.0
 20
495519.0
 30
0.02
  0
VERTEX
  5
E28
  8
10BY10
 10
81111.0
 20
495529.0
 30
0.02
  0
VERTEX
  5
E29
  8
10BY10
 10
81101.0
 20
495529.0
 30
0.02
  0
SEQEND
  5
E2A
  8
10BY10
  0
POLYLINE
  5
28C
  8
10BY10
 66
     1
 10
0.0
 20
0.0
 30
0.01
 70
     1
1001
DCO15
1071
        2
1071
        2
1000
variablelink
1004
0000000000A08B40
  0
VERTEX
  5
E2B
  8
10BY10
 10
80978.0
 20
495285.0
 30
0.01
  0
VERTEX
  5
E2C
  8
10BY10
 10
80988.0
 20
495285.0
 30
0.01
  0
VERTEX
  5
E2D
  8
10BY10
 10
80988.0
 20
495295.0
 30
0.01
  0
VERTEX
  5
E2E
  8
10BY10
 10
80978.0
 20
495295.0
 30
0.01
  0
SEQEND
  5
E2F
  8
10BY10
  0
POLYLINE
  5
28D
  8
10BY10
 66
     1
 10
0.0
 20
0.0
 30
0.16
 70
     1
1001
DCO15
1071
        2
1071
        2
1000
variablelink
1004
0000000000B08B40
  0
VERTEX
  5
E30
  8
10BY10
 10
80970.0
 20
495308.0
 30
0.16
  0
VERTEX
  5
E31
  8
10BY10
 10
80980.0
 20
495308.0
 30
0.16
  0
VERTEX
  5
E32
  8
10BY10
 10
80980.0
 20
495318.0
 30
0.16
  0
VERTEX
  5
E33
  8
10BY10
 10
80970.0
 20
495318.0
 30
0.16
  0
SEQEND
  5
E34
  8
10BY10
  0
POLYLINE
  5
28E
  8
10BY10
 66
     1
 10
0.0
 20
0.0
 30
0.04
 70
     1
1001
DCO15
1071
        2
1071
        2
1000
variablelink
1004
0000000000B88B40
  0
VERTEX
  5
E35
  8
10BY10
 10
81083.0
 20
495350.0
 30
0.04
  0
VERTEX
  5
E36
  8
10BY10
 10
81093.0
 20
495350.0
 30
0.04
  0
VERTEX
  5
E37
  8
10BY10
 10
81093.0
 20
495360.0
 30
0.04
  0
VERTEX
  5
E38
  8
10BY10
 10
81083.0
 20
495360.0
 30
0.04
  0
SEQEND
  5
E39
  8
10BY10
  0
POLYLINE
  5
28F
  8
10BY10
 66
     1
 10
0.0
 20
0.0
 30
0.16
 70
     1
1001
DCO15
1071
        2
1071
        2
1000
variablelink
1004
0000000000C08B40
  0
VERTEX
  5
E3A
  8
10BY10
 10
80966.0
 20
495318.0
 30
0.16
  0
VERTEX
  5
E3B
  8
10BY10
 10
80976.0
 20
495318.0
 30
0.16
  0
VERTEX
  5
E3C
  8
10BY10
 10
80976.0
 20
495328.0
 30
0.16
  0
VERTEX
  5
E3D
  8
10BY10
 10
80966.0
 20
495328.0
 30
0.16
  0
SEQEND
  5
E3E
  8
10BY10
  0
POLYLINE
  5
290
  8
10BY10
 66
     1
 10
0.0
 20
0.0
 30
0.02
 70
     1
1001
DCO15
1071
        2
1071
        2
1000
variablelink
1004
0000000000D08B40
  0
VERTEX
  5
E3F
  8
10BY10
 10
80956.0
 20
495325.0
 30
0.02
  0
VERTEX
  5
E40
  8
10BY10
 10
80966.0
 20
495325.0
 30
0.02
  0
VERTEX
  5
E41
  8
10BY10
 10
80966.0
 20
495335.0
 30
0.02
  0
VERTEX
  5
E42
  8
10BY10
 10
80956.0
 20
495335.0
 30
0.02
  0
SEQEND
  5
E43
  8
10BY10
  0
POLYLINE
  5
291
  8
10BY10
 66
     1
 10
0.0
 20
0.0
 30
0.06
 70
     1
1001
DCO15
1071
        2
1071
        2
1000
variablelink
1004
0000000000008C40
  0
VERTEX
  5
E44
  8
10BY10
 10
81117.0
 20
495532.0
 30
0.06
  0
VERTEX
  5
E45
  8
10BY10
 10
81127.0
 20
495532.0
 30
0.06
  0
VERTEX
  5
E46
  8
10BY10
 10
81127.0
 20
495542.0
 30
0.06
  0
VERTEX
  5
E47
  8
10BY10
 10
81117.0
 20
495542.0
 30
0.06
  0
SEQEND
  5
E48
  8
10BY10
  0
POLYLINE
  5
292
  8
10BY10
 66
     1
 10
0.0
 20
0.0
 30
0.01
 70
     1
1001
DCO15
1071
        2
1071
        2
1000
variablelink
1004
0000000000108C40
  0
VERTEX
  5
E49
  8
10BY10
 10
81157.0
 20
495349.0
 30
0.01
  0
VERTEX
  5
E4A
  8
10BY10
 10
81167.0
 20
495349.0
 30
0.01
  0
VERTEX
  5
E4B
  8
10BY10
 10
81167.0
 20
495359.0
 30
0.01
  0
VERTEX
  5
E4C
  8
10BY10
 10
81157.0
 20
495359.0
 30
0.01
  0
SEQEND
  5
E4D
  8
10BY10
  0
POLYLINE
  5
293
  8
10BY10
 66
     1
 10
0.0
 20
0.0
 30
0.03
 70
     1
1001
DCO15
1071
        2
1071
        2
1000
variablelink
1004
0000000000208C40
  0
VERTEX
  5
E4E
  8
10BY10
 10
81138.0
 20
495244.0
 30
0.03
  0
VERTEX
  5
E4F
  8
10BY10
 10
81148.0
 20
495244.0
 30
0.03
  0
VERTEX
  5
E50
  8
10BY10
 10
81148.0
 20
495254.0
 30
0.03
  0
VERTEX
  5
E51
  8
10BY10
 10
81138.0
 20
495254.0
 30
0.03
  0
SEQEND
  5
E52
  8
10BY10
  0
POLYLINE
  5
294
  8
10BY10
 66
     1
 10
0.0
 20
0.0
 30
0.16
 70
     1
1001
DCO15
1071
        2
1071
        2
1000
variablelink
1004
0000000000308C40
  0
VERTEX
  5
E53
  8
10BY10
 10
81128.0
 20
495300.0
 30
0.16
  0
VERTEX
  5
E54
  8
10BY10
 10
81138.0
 20
495300.0
 30
0.16
  0
VERTEX
  5
E55
  8
10BY10
 10
81138.0
 20
495310.0
 30
0.16
  0
VERTEX
  5
E56
  8
10BY10
 10
81128.0
 20
495310.0
 30
0.16
  0
SEQEND
  5
E57
  8
10BY10
  0
POLYLINE
  5
295
  8
10BY10
 66
     1
 10
0.0
 20
0.0
 30
0.05
 70
     1
1001
DCO15
1071
        2
1071
        2
1000
variablelink
1004
0000000000388C40
  0
VERTEX
  5
E58
  8
10BY10
 10
81116.0
 20
495351.0
 30
0.05
  0
VERTEX
  5
E59
  8
10BY10
 10
81126.0
 20
495351.0
 30
0.05
  0
VERTEX
  5
E5A
  8
10BY10
 10
81126.0
 20
495361.0
 30
0.05
  0
VERTEX
  5
E5B
  8
10BY10
 10
81116.0
 20
495361.0
 30
0.05
  0
SEQEND
  5
E5C
  8
10BY10
  0
POLYLINE
  5
296
  8
10BY10
 66
     1
 10
0.0
 20
0.0
 30
0.05
 70
     1
1001
DCO15
1071
        2
1071
        2
1000
variablelink
1004
0000000000408C40
  0
VERTEX
  5
E5D
  8
10BY10
 10
80998.0
 20
495316.0
 30
0.05
  0
VERTEX
  5
E5E
  8
10BY10
 10
81008.0
 20
495316.0
 30
0.05
  0
VERTEX
  5
E5F
  8
10BY10
 10
81008.0
 20
495326.0
 30
0.05
  0
VERTEX
  5
E60
  8
10BY10
 10
80998.0
 20
495326.0
 30
0.05
  0
SEQEND
  5
E61
  8
10BY10
  0
POLYLINE
  5
297
  8
10BY10
 66
     1
 10
0.0
 20
0.0
 30
0.04
 70
     1
1001
DCO15
1071
        2
1071
        2
1000
variablelink
1004
0000000000488C40
  0
VERTEX
  5
E62
  8
10BY10
 10
80986.0
 20
495389.0
 30
0.04
  0
VERTEX
  5
E63
  8
10BY10
 10
80996.0
 20
495389.0
 30
0.04
  0
VERTEX
  5
E64
  8
10BY10
 10
80996.0
 20
495399.0
 30
0.04
  0
VERTEX
  5
E65
  8
10BY10
 10
80986.0
 20
495399.0
 30
0.04
  0
SEQEND
  5
E66
  8
10BY10
  0
POLYLINE
  5
298
  8
10BY10
 66
     1
 10
0.0
 20
0.0
 30
0.2
 70
     1
1001
DCO15
1071
        2
1071
        2
1000
variablelink
1004
0000000000508C40
  0
VERTEX
  5
E67
  8
10BY10
 10
80956.0
 20
495362.0
 30
0.2
  0
VERTEX
  5
E68
  8
10BY10
 10
80966.0
 20
495362.0
 30
0.2
  0
VERTEX
  5
E69
  8
10BY10
 10
80966.0
 20
495372.0
 30
0.2
  0
VERTEX
  5
E6A
  8
10BY10
 10
80956.0
 20
495372.0
 30
0.2
  0
SEQEND
  5
E6B
  8
10BY10
  0
POLYLINE
  5
299
  8
10BY10
 66
     1
 10
0.0
 20
0.0
 30
0.11
 70
     1
1001
DCO15
1071
        2
1071
        2
1000
variablelink
1004
0000000000588C40
  0
VERTEX
  5
E6C
  8
10BY10
 10
80970.0
 20
495338.0
 30
0.11
  0
VERTEX
  5
E6D
  8
10BY10
 10
80980.0
 20
495338.0
 30
0.11
  0
VERTEX
  5
E6E
  8
10BY10
 10
80980.0
 20
495348.0
 30
0.11
  0
VERTEX
  5
E6F
  8
10BY10
 10
80970.0
 20
495348.0
 30
0.11
  0
SEQEND
  5
E70
  8
10BY10
  0
POLYLINE
  5
29A
  8
10BY10
 66
     1
 10
0.0
 20
0.0
 30
0.02
 70
     1
1001
DCO15
1071
        2
1071
        2
1000
variablelink
1004
0000000000708C40
  0
VERTEX
  5
E71
  8
10BY10
 10
81117.0
 20
495366.0
 30
0.02
  0
VERTEX
  5
E72
  8
10BY10
 10
81127.0
 20
495366.0
 30
0.02
  0
VERTEX
  5
E73
  8
10BY10
 10
81127.0
 20
495376.0
 30
0.02
  0
VERTEX
  5
E74
  8
10BY10
 10
81117.0
 20
495376.0
 30
0.02
  0
SEQEND
  5
E75
  8
10BY10
  0
POLYLINE
  5
29B
  8
10BY10
 66
     1
 10
0.0
 20
0.0
 30
0.04
 70
     1
1001
DCO15
1071
        2
1071
        2
1000
variablelink
1004
0000000000788C40
  0
VERTEX
  5
E76
  8
10BY10
 10
81101.0
 20
495371.0
 30
0.04
  0
VERTEX
  5
E77
  8
10BY10
 10
81111.0
 20
495371.0
 30
0.04
  0
VERTEX
  5
E78
  8
10BY10
 10
81111.0
 20
495381.0
 30
0.04
  0
VERTEX
  5
E79
  8
10BY10
 10
81101.0
 20
495381.0
 30
0.04
  0
SEQEND
  5
E7A
  8
10BY10
  0
POLYLINE
  5
29C
  8
10BY10
 66
     1
 10
0.0
 20
0.0
 30
0.04
 70
     1
1001
DCO15
1071
        2
1071
        2
1000
variablelink
1004
0000000000808C40
  0
VERTEX
  5
E7B
  8
10BY10
 10
81090.0
 20
495414.0
 30
0.04
  0
VERTEX
  5
E7C
  8
10BY10
 10
81100.0
 20
495414.0
 30
0.04
  0
VERTEX
  5
E7D
  8
10BY10
 10
81100.0
 20
495424.0
 30
0.04
  0
VERTEX
  5
E7E
  8
10BY10
 10
81090.0
 20
495424.0
 30
0.04
  0
SEQEND
  5
E7F
  8
10BY10
  0
POLYLINE
  5
29D
  8
10BY10
 66
     1
 10
0.0
 20
0.0
 30
0.09
 70
     1
1001
DCO15
1071
        2
1071
        2
1000
variablelink
1004
0000000000888C40
  0
VERTEX
  5
E80
  8
10BY10
 10
81084.0
 20
495435.0
 30
0.09
  0
VERTEX
  5
E81
  8
10BY10
 10
81094.0
 20
495435.0
 30
0.09
  0
VERTEX
  5
E82
  8
10BY10
 10
81094.0
 20
495445.0
 30
0.09
  0
VERTEX
  5
E83
  8
10BY10
 10
81084.0
 20
495445.0
 30
0.09
  0
SEQEND
  5
E84
  8
10BY10
  0
POLYLINE
  5
29E
  8
10BY10
 66
     1
 10
0.0
 20
0.0
 30
0.03
 70
     1
1001
DCO15
1071
        2
1071
        2
1000
variablelink
1004
0000000000908C40
  0
VERTEX
  5
E85
  8
10BY10
 10
81082.0
 20
495374.0
 30
0.03
  0
VERTEX
  5
E86
  8
10BY10
 10
81092.0
 20
495374.0
 30
0.03
  0
VERTEX
  5
E87
  8
10BY10
 10
81092.0
 20
495384.0
 30
0.03
  0
VERTEX
  5
E88
  8
10BY10
 10
81082.0
 20
495384.0
 30
0.03
  0
SEQEND
  5
E89
  8
10BY10
  0
POLYLINE
  5
29F
  8
10BY10
 66
     1
 10
0.0
 20
0.0
 30
0.01
 70
     1
1001
DCO15
1071
        2
1071
        2
1000
variablelink
1004
0000000000988C40
  0
VERTEX
  5
E8A
  8
10BY10
 10
81037.0
 20
495289.0
 30
0.01
  0
VERTEX
  5
E8B
  8
10BY10
 10
81047.0
 20
495289.0
 30
0.01
  0
VERTEX
  5
E8C
  8
10BY10
 10
81047.0
 20
495299.0
 30
0.01
  0
VERTEX
  5
E8D
  8
10BY10
 10
81037.0
 20
495299.0
 30
0.01
  0
SEQEND
  5
E8E
  8
10BY10
  0
POLYLINE
  5
2A0
  8
10BY10
 66
     1
 10
0.0
 20
0.0
 30
0.01
 70
     1
1001
DCO15
1071
        2
1071
        2
1000
variablelink
1004
0000000000A08C40
  0
VERTEX
  5
E8F
  8
10BY10
 10
81016.0
 20
495332.0
 30
0.01
  0
VERTEX
  5
E90
  8
10BY10
 10
81026.0
 20
495332.0
 30
0.01
  0
VERTEX
  5
E91
  8
10BY10
 10
81026.0
 20
495342.0
 30
0.01
  0
VERTEX
  5
E92
  8
10BY10
 10
81016.0
 20
495342.0
 30
0.01
  0
SEQEND
  5
E93
  8
10BY10
  0
POLYLINE
  5
2A1
  8
10BY10
 66
     1
 10
0.0
 20
0.0
 30
0.01
 70
     1
1001
DCO15
1071
        2
1071
        2
1000
variablelink
1004
0000000000A88C40
  0
VERTEX
  5
E94
  8
10BY10
 10
81006.0
 20
495361.0
 30
0.01
  0
VERTEX
  5
E95
  8
10BY10
 10
81016.0
 20
495361.0
 30
0.01
  0
VERTEX
  5
E96
  8
10BY10
 10
81016.0
 20
495371.0
 30
0.01
  0
VERTEX
  5
E97
  8
10BY10
 10
81006.0
 20
495371.0
 30
0.01
  0
SEQEND
  5
E98
  8
10BY10
  0
POLYLINE
  5
2A2
  8
10BY10
 66
     1
 10
0.0
 20
0.0
 30
0.02
 70
     1
1001
DCO15
1071
        2
1071
        2
1000
variablelink
1004
0000000000B08C40
  0
VERTEX
  5
E99
  8
10BY10
 10
81000.0
 20
495380.0
 30
0.02
  0
VERTEX
  5
E9A
  8
10BY10
 10
81010.0
 20
495380.0
 30
0.02
  0
VERTEX
  5
E9B
  8
10BY10
 10
81010.0
 20
495390.0
 30
0.02
  0
VERTEX
  5
E9C
  8
10BY10
 10
81000.0
 20
495390.0
 30
0.02
  0
SEQEND
  5
E9D
  8
10BY10
  0
POLYLINE
  5
2A3
  8
10BY10
 66
     1
 10
0.0
 20
0.0
 30
0.02
 70
     1
1001
DCO15
1071
        2
1071
        2
1000
variablelink
1004
0000000000B88C40
  0
VERTEX
  5
E9E
  8
10BY10
 10
80994.0
 20
495408.0
 30
0.02
  0
VERTEX
  5
E9F
  8
10BY10
 10
81004.0
 20
495408.0
 30
0.02
  0
VERTEX
  5
EA0
  8
10BY10
 10
81004.0
 20
495418.0
 30
0.02
  0
VERTEX
  5
EA1
  8
10BY10
 10
80994.0
 20
495418.0
 30
0.02
  0
SEQEND
  5
EA2
  8
10BY10
  0
POLYLINE
  5
2A4
  8
10BY10
 66
     1
 10
0.0
 20
0.0
 30
0.01
 70
     1
1001
DCO15
1071
        2
1071
        2
1000
variablelink
1004
0000000000C08C40
  0
VERTEX
  5
EA3
  8
10BY10
 10
81204.0
 20
495639.0
 30
0.01
  0
VERTEX
  5
EA4
  8
10BY10
 10
81214.0
 20
495639.0
 30
0.01
  0
VERTEX
  5
EA5
  8
10BY10
 10
81214.0
 20
495649.0
 30
0.01
  0
VERTEX
  5
EA6
  8
10BY10
 10
81204.0
 20
495649.0
 30
0.01
  0
SEQEND
  5
EA7
  8
10BY10
  0
POLYLINE
  5
2A5
  8
10BY10
 66
     1
 10
0.0
 20
0.0
 30
0.07
 70
     1
1001
DCO15
1071
        2
1071
        2
1000
variablelink
1004
0000000000D08C40
  0
VERTEX
  5
EA8
  8
10BY10
 10
81100.0
 20
495467.0
 30
0.07
  0
VERTEX
  5
EA9
  8
10BY10
 10
81110.0
 20
495467.0
 30
0.07
  0
VERTEX
  5
EAA
  8
10BY10
 10
81110.0
 20
495477.0
 30
0.07
  0
VERTEX
  5
EAB
  8
10BY10
 10
81100.0
 20
495477.0
 30
0.07
  0
SEQEND
  5
EAC
  8
10BY10
  0
POLYLINE
  5
2A6
  8
10BY10
 66
     1
 10
0.0
 20
0.0
 30
0.03
 70
     1
1001
DCO15
1071
        2
1071
        2
1000
variablelink
1004
0000000000D88C40
  0
VERTEX
  5
EAD
  8
10BY10
 10
81118.0
 20
495395.0
 30
0.03
  0
VERTEX
  5
EAE
  8
10BY10
 10
81128.0
 20
495395.0
 30
0.03
  0
VERTEX
  5
EAF
  8
10BY10
 10
81128.0
 20
495405.0
 30
0.03
  0
VERTEX
  5
EB0
  8
10BY10
 10
81118.0
 20
495405.0
 30
0.03
  0
SEQEND
  5
EB1
  8
10BY10
  0
POLYLINE
  5
2A7
  8
10BY10
 66
     1
 10
0.0
 20
0.0
 30
0.03
 70
     1
1001
DCO15
1071
        2
1071
        2
1000
variablelink
1004
0000000000E08C40
  0
VERTEX
  5
EB2
  8
10BY10
 10
81130.0
 20
495326.0
 30
0.03
  0
VERTEX
  5
EB3
  8
10BY10
 10
81140.0
 20
495326.0
 30
0.03
  0
VERTEX
  5
EB4
  8
10BY10
 10
81140.0
 20
495336.0
 30
0.03
  0
VERTEX
  5
EB5
  8
10BY10
 10
81130.0
 20
495336.0
 30
0.03
  0
SEQEND
  5
EB6
  8
10BY10
  0
POLYLINE
  5
2A8
  8
10BY10
 66
     1
 10
0.0
 20
0.0
 30
0.09
 70
     1
1001
DCO15
1071
        2
1071
        2
1000
variablelink
1004
0000000000E88C40
  0
VERTEX
  5
EB7
  8
10BY10
 10
81083.0
 20
495290.0
 30
0.09
  0
VERTEX
  5
EB8
  8
10BY10
 10
81093.0
 20
495290.0
 30
0.09
  0
VERTEX
  5
EB9
  8
10BY10
 10
81093.0
 20
495300.0
 30
0.09
  0
VERTEX
  5
EBA
  8
10BY10
 10
81083.0
 20
495300.0
 30
0.09
  0
SEQEND
  5
EBB
  8
10BY10
  0
POLYLINE
  5
2A9
  8
10BY10
 66
     1
 10
0.0
 20
0.0
 30
0.06
 70
     1
1001
DCO15
1071
        2
1071
        2
1000
variablelink
1004
0000000000F08C40
  0
VERTEX
  5
EBC
  8
10BY10
 10
81074.0
 20
495321.0
 30
0.06
  0
VERTEX
  5
EBD
  8
10BY10
 10
81084.0
 20
495321.0
 30
0.06
  0
VERTEX
  5
EBE
  8
10BY10
 10
81084.0
 20
495331.0
 30
0.06
  0
VERTEX
  5
EBF
  8
10BY10
 10
81074.0
 20
495331.0
 30
0.06
  0
SEQEND
  5
EC0
  8
10BY10
  0
POLYLINE
  5
2AA
  8
10BY10
 66
     1
 10
0.0
 20
0.0
 30
0.03
 70
     1
1001
DCO15
1071
        2
1071
        2
1000
variablelink
1004
0000000000008D40
  0
VERTEX
  5
EC1
  8
10BY10
 10
81087.0
 20
495404.0
 30
0.03
  0
VERTEX
  5
EC2
  8
10BY10
 10
81097.0
 20
495404.0
 30
0.03
  0
VERTEX
  5
EC3
  8
10BY10
 10
81097.0
 20
495414.0
 30
0.03
  0
VERTEX
  5
EC4
  8
10BY10
 10
81087.0
 20
495414.0
 30
0.03
  0
SEQEND
  5
EC5
  8
10BY10
  0
POLYLINE
  5
2AB
  8
10BY10
 66
     1
 10
0.0
 20
0.0
 30
0.18
 70
     1
1001
DCO15
1071
        2
1071
        2
1000
variablelink
1004
0000000000088D40
  0
VERTEX
  5
EC6
  8
10BY10
 10
81094.0
 20
495427.0
 30
0.18
  0
VERTEX
  5
EC7
  8
10BY10
 10
81104.0
 20
495427.0
 30
0.18
  0
VERTEX
  5
EC8
  8
10BY10
 10
81104.0
 20
495437.0
 30
0.18
  0
VERTEX
  5
EC9
  8
10BY10
 10
81094.0
 20
495437.0
 30
0.18
  0
SEQEND
  5
ECA
  8
10BY10
  0
POLYLINE
  5
2AC
  8
10BY10
 66
     1
 10
0.0
 20
0.0
 30
0.07
 70
     1
1001
DCO15
1071
        2
1071
        2
1000
variablelink
1004
0000000000108D40
  0
VERTEX
  5
ECB
  8
10BY10
 10
81008.0
 20
495308.0
 30
0.07
  0
VERTEX
  5
ECC
  8
10BY10
 10
81018.0
 20
495308.0
 30
0.07
  0
VERTEX
  5
ECD
  8
10BY10
 10
81018.0
 20
495318.0
 30
0.07
  0
VERTEX
  5
ECE
  8
10BY10
 10
81008.0
 20
495318.0
 30
0.07
  0
SEQEND
  5
ECF
  8
10BY10
  0
POLYLINE
  5
2AD
  8
10BY10
 66
     1
 10
0.0
 20
0.0
 30
0.05
 70
     1
1001
DCO15
1071
        2
1071
        2
1000
variablelink
1004
0000000000188D40
  0
VERTEX
  5
ED0
  8
10BY10
 10
81003.0
 20
495335.0
 30
0.05
  0
VERTEX
  5
ED1
  8
10BY10
 10
81013.0
 20
495335.0
 30
0.05
  0
VERTEX
  5
ED2
  8
10BY10
 10
81013.0
 20
495345.0
 30
0.05
  0
VERTEX
  5
ED3
  8
10BY10
 10
81003.0
 20
495345.0
 30
0.05
  0
SEQEND
  5
ED4
  8
10BY10
  0
POLYLINE
  5
2AE
  8
10BY10
 66
     1
 10
0.0
 20
0.0
 30
0.02
 70
     1
1001
DCO15
1071
        2
1071
        2
1000
variablelink
1004
0000000000208D40
  0
VERTEX
  5
ED5
  8
10BY10
 10
80984.0
 20
495414.0
 30
0.02
  0
VERTEX
  5
ED6
  8
10BY10
 10
80994.0
 20
495414.0
 30
0.02
  0
VERTEX
  5
ED7
  8
10BY10
 10
80994.0
 20
495424.0
 30
0.02
  0
VERTEX
  5
ED8
  8
10BY10
 10
80984.0
 20
495424.0
 30
0.02
  0
SEQEND
  5
ED9
  8
10BY10
  0
POLYLINE
  5
2AF
  8
10BY10
 66
     1
 10
0.0
 20
0.0
 30
0.08
 70
     1
1001
DCO15
1071
        2
1071
        2
1000
variablelink
1004
0000000000288D40
  0
VERTEX
  5
EDA
  8
10BY10
 10
80958.0
 20
495398.0
 30
0.08
  0
VERTEX
  5
EDB
  8
10BY10
 10
80968.0
 20
495398.0
 30
0.08
  0
VERTEX
  5
EDC
  8
10BY10
 10
80968.0
 20
495408.0
 30
0.08
  0
VERTEX
  5
EDD
  8
10BY10
 10
80958.0
 20
495408.0
 30
0.08
  0
SEQEND
  5
EDE
  8
10BY10
  0
POLYLINE
  5
2B0
  8
10BY10
 66
     1
 10
0.0
 20
0.0
 30
0.07
 70
     1
1001
DCO15
1071
        2
1071
        2
1000
variablelink
1004
0000000000308D40
  0
VERTEX
  5
EDF
  8
10BY10
 10
80958.0
 20
495376.0
 30
0.07
  0
VERTEX
  5
EE0
  8
10BY10
 10
80968.0
 20
495376.0
 30
0.07
  0
VERTEX
  5
EE1
  8
10BY10
 10
80968.0
 20
495386.0
 30
0.07
  0
VERTEX
  5
EE2
  8
10BY10
 10
80958.0
 20
495386.0
 30
0.07
  0
SEQEND
  5
EE3
  8
10BY10
  0
POLYLINE
  5
2B1
  8
10BY10
 66
     1
 10
0.0
 20
0.0
 30
0.01
 70
     1
1001
DCO15
1071
        2
1071
        2
1000
variablelink
1004
0000000000388D40
  0
VERTEX
  5
EE4
  8
10BY10
 10
81029.0
 20
495367.0
 30
0.01
  0
VERTEX
  5
EE5
  8
10BY10
 10
81039.0
 20
495367.0
 30
0.01
  0
VERTEX
  5
EE6
  8
10BY10
 10
81039.0
 20
495377.0
 30
0.01
  0
VERTEX
  5
EE7
  8
10BY10
 10
81029.0
 20
495377.0
 30
0.01
  0
SEQEND
  5
EE8
  8
10BY10
  0
POLYLINE
  5
2B2
  8
10BY10
 66
     1
 10
0.0
 20
0.0
 30
0.06
 70
     1
1001
DCO15
1071
        2
1071
        2
1000
variablelink
1004
0000000000408D40
  0
VERTEX
  5
EE9
  8
10BY10
 10
81038.0
 20
495337.0
 30
0.06
  0
VERTEX
  5
EEA
  8
10BY10
 10
81048.0
 20
495337.0
 30
0.06
  0
VERTEX
  5
EEB
  8
10BY10
 10
81048.0
 20
495347.0
 30
0.06
  0
VERTEX
  5
EEC
  8
10BY10
 10
81038.0
 20
495347.0
 30
0.06
  0
SEQEND
  5
EED
  8
10BY10
  0
POLYLINE
  5
2B3
  8
10BY10
 66
     1
 10
0.0
 20
0.0
 30
0.09
 70
     1
1001
DCO15
1071
        2
1071
        2
1000
variablelink
1004
0000000000488D40
  0
VERTEX
  5
EEE
  8
10BY10
 10
81041.0
 20
495319.0
 30
0.09
  0
VERTEX
  5
EEF
  8
10BY10
 10
81051.0
 20
495319.0
 30
0.09
  0
VERTEX
  5
EF0
  8
10BY10
 10
81051.0
 20
495329.0
 30
0.09
  0
VERTEX
  5
EF1
  8
10BY10
 10
81041.0
 20
495329.0
 30
0.09
  0
SEQEND
  5
EF2
  8
10BY10
  0
POLYLINE
  5
2B4
  8
10BY10
 66
     1
 10
0.0
 20
0.0
 30
0.09
 70
     1
1001
DCO15
1071
        2
1071
        2
1000
variablelink
1004
0000000000508D40
  0
VERTEX
  5
EF3
  8
10BY10
 10
81044.0
 20
495302.0
 30
0.09
  0
VERTEX
  5
EF4
  8
10BY10
 10
81054.0
 20
495302.0
 30
0.09
  0
VERTEX
  5
EF5
  8
10BY10
 10
81054.0
 20
495312.0
 30
0.09
  0
VERTEX
  5
EF6
  8
10BY10
 10
81044.0
 20
495312.0
 30
0.09
  0
SEQEND
  5
EF7
  8
10BY10
  0
POLYLINE
  5
2B5
  8
10BY10
 66
     1
 10
0.0
 20
0.0
 30
0.04
 70
     1
1001
DCO15
1071
        2
1071
        2
1000
variablelink
1004
0000000000588D40
  0
VERTEX
  5
EF8
  8
10BY10
 10
81051.0
 20
495278.0
 30
0.04
  0
VERTEX
  5
EF9
  8
10BY10
 10
81061.0
 20
495278.0
 30
0.04
  0
VERTEX
  5
EFA
  8
10BY10
 10
81061.0
 20
495288.0
 30
0.04
  0
VERTEX
  5
EFB
  8
10BY10
 10
81051.0
 20
495288.0
 30
0.04
  0
SEQEND
  5
EFC
  8
10BY10
  0
POLYLINE
  5
2B6
  8
10BY10
 66
     1
 10
0.0
 20
0.0
 30
0.12
 70
     1
1001
DCO15
1071
        2
1071
        2
1000
variablelink
1004
0000000000608D40
  0
VERTEX
  5
EFD
  8
10BY10
 10
81055.0
 20
495292.0
 30
0.12
  0
VERTEX
  5
EFE
  8
10BY10
 10
81065.0
 20
495292.0
 30
0.12
  0
VERTEX
  5
EFF
  8
10BY10
 10
81065.0
 20
495302.0
 30
0.12
  0
VERTEX
  5
F00
  8
10BY10
 10
81055.0
 20
495302.0
 30
0.12
  0
SEQEND
  5
F01
  8
10BY10
  0
POLYLINE
  5
2B7
  8
10BY10
 66
     1
 10
0.0
 20
0.0
 30
0.14
 70
     1
1001
DCO15
1071
        2
1071
        2
1000
variablelink
1004
0000000000688D40
  0
VERTEX
  5
F02
  8
10BY10
 10
81051.0
 20
495321.0
 30
0.14
  0
VERTEX
  5
F03
  8
10BY10
 10
81061.0
 20
495321.0
 30
0.14
  0
VERTEX
  5
F04
  8
10BY10
 10
81061.0
 20
495331.0
 30
0.14
  0
VERTEX
  5
F05
  8
10BY10
 10
81051.0
 20
495331.0
 30
0.14
  0
SEQEND
  5
F06
  8
10BY10
  0
POLYLINE
  5
2B8
  8
10BY10
 66
     1
 10
0.0
 20
0.0
 30
0.08
 70
     1
1001
DCO15
1071
        2
1071
        2
1000
variablelink
1004
0000000000708D40
  0
VERTEX
  5
F07
  8
10BY10
 10
81028.0
 20
495333.0
 30
0.08
  0
VERTEX
  5
F08
  8
10BY10
 10
81038.0
 20
495333.0
 30
0.08
  0
VERTEX
  5
F09
  8
10BY10
 10
81038.0
 20
495343.0
 30
0.08
  0
VERTEX
  5
F0A
  8
10BY10
 10
81028.0
 20
495343.0
 30
0.08
  0
SEQEND
  5
F0B
  8
10BY10
  0
POLYLINE
  5
2B9
  8
10BY10
 66
     1
 10
0.0
 20
0.0
 30
0.01
 70
     1
1001
DCO15
1071
        2
1071
        2
1000
variablelink
1004
0000000000788D40
  0
VERTEX
  5
F0C
  8
10BY10
 10
81006.0
 20
495403.0
 30
0.01
  0
VERTEX
  5
F0D
  8
10BY10
 10
81016.0
 20
495403.0
 30
0.01
  0
VERTEX
  5
F0E
  8
10BY10
 10
81016.0
 20
495413.0
 30
0.01
  0
VERTEX
  5
F0F
  8
10BY10
 10
81006.0
 20
495413.0
 30
0.01
  0
SEQEND
  5
F10
  8
10BY10
  0
POLYLINE
  5
2BA
  8
10BY10
 66
     1
 10
0.0
 20
0.0
 30
0.01
 70
     1
1001
DCO15
1071
        2
1071
        2
1000
variablelink
1004
0000000000888D40
  0
VERTEX
  5
F11
  8
10BY10
 10
81017.0
 20
495368.0
 30
0.01
  0
VERTEX
  5
F12
  8
10BY10
 10
81027.0
 20
495368.0
 30
0.01
  0
VERTEX
  5
F13
  8
10BY10
 10
81027.0
 20
495378.0
 30
0.01
  0
VERTEX
  5
F14
  8
10BY10
 10
81017.0
 20
495378.0
 30
0.01
  0
SEQEND
  5
F15
  8
10BY10
  0
POLYLINE
  5
2BB
  8
10BY10
 66
     1
 10
0.0
 20
0.0
 30
0.06
 70
     1
1001
DCO15
1071
        2
1071
        2
1000
variablelink
1004
0000000000908D40
  0
VERTEX
  5
F16
  8
10BY10
 10
81023.0
 20
495343.0
 30
0.06
  0
VERTEX
  5
F17
  8
10BY10
 10
81033.0
 20
495343.0
 30
0.06
  0
VERTEX
  5
F18
  8
10BY10
 10
81033.0
 20
495353.0
 30
0.06
  0
VERTEX
  5
F19
  8
10BY10
 10
81023.0
 20
495353.0
 30
0.06
  0
SEQEND
  5
F1A
  8
10BY10
  0
POLYLINE
  5
2BC
  8
10BY10
 66
     1
 10
0.0
 20
0.0
 30
0.03
 70
     1
1001
DCO15
1071
        2
1071
        2
1000
variablelink
1004
0000000000988D40
  0
VERTEX
  5
F1B
  8
10BY10
 10
81026.0
 20
495322.0
 30
0.03
  0
VERTEX
  5
F1C
  8
10BY10
 10
81036.0
 20
495322.0
 30
0.03
  0
VERTEX
  5
F1D
  8
10BY10
 10
81036.0
 20
495332.0
 30
0.03
  0
VERTEX
  5
F1E
  8
10BY10
 10
81026.0
 20
495332.0
 30
0.03
  0
SEQEND
  5
F1F
  8
10BY10
  0
POLYLINE
  5
2BD
  8
10BY10
 66
     1
 10
0.0
 20
0.0
 30
0.03
 70
     1
1001
DCO15
1071
        2
1071
        2
1000
variablelink
1004
0000000000A08D40
  0
VERTEX
  5
F20
  8
10BY10
 10
81036.0
 20
495279.0
 30
0.03
  0
VERTEX
  5
F21
  8
10BY10
 10
81046.0
 20
495279.0
 30
0.03
  0
VERTEX
  5
F22
  8
10BY10
 10
81046.0
 20
495289.0
 30
0.03
  0
VERTEX
  5
F23
  8
10BY10
 10
81036.0
 20
495289.0
 30
0.03
  0
SEQEND
  5
F24
  8
10BY10
  0
POLYLINE
  5
2BE
  8
10BY10
 66
     1
 10
0.0
 20
0.0
 30
0.09
 70
     1
1001
DCO15
1071
        2
1071
        2
1000
variablelink
1004
0000000000A88D40
  0
VERTEX
  5
F25
  8
10BY10
 10
81060.0
 20
495353.0
 30
0.09
  0
VERTEX
  5
F26
  8
10BY10
 10
81070.0
 20
495353.0
 30
0.09
  0
VERTEX
  5
F27
  8
10BY10
 10
81070.0
 20
495363.0
 30
0.09
  0
VERTEX
  5
F28
  8
10BY10
 10
81060.0
 20
495363.0
 30
0.09
  0
SEQEND
  5
F29
  8
10BY10
  0
POLYLINE
  5
2BF
  8
10BY10
 66
     1
 10
0.0
 20
0.0
 30
0.04
 70
     1
1001
DCO15
1071
        2
1071
        2
1000
variablelink
1004
0000000000B08D40
  0
VERTEX
  5
F2A
  8
10BY10
 10
81034.0
 20
495478.0
 30
0.04
  0
VERTEX
  5
F2B
  8
10BY10
 10
81044.0
 20
495478.0
 30
0.04
  0
VERTEX
  5
F2C
  8
10BY10
 10
81044.0
 20
495488.0
 30
0.04
  0
VERTEX
  5
F2D
  8
10BY10
 10
81034.0
 20
495488.0
 30
0.04
  0
SEQEND
  5
F2E
  8
10BY10
  0
POLYLINE
  5
2C0
  8
10BY10
 66
     1
 10
0.0
 20
0.0
 30
0.02
 70
     1
1001
DCO15
1071
        2
1071
        2
1000
variablelink
1004
0000000000B88D40
  0
VERTEX
  5
F2F
  8
10BY10
 10
81047.0
 20
495396.0
 30
0.02
  0
VERTEX
  5
F30
  8
10BY10
 10
81057.0
 20
495396.0
 30
0.02
  0
VERTEX
  5
F31
  8
10BY10
 10
81057.0
 20
495406.0
 30
0.02
  0
VERTEX
  5
F32
  8
10BY10
 10
81047.0
 20
495406.0
 30
0.02
  0
SEQEND
  5
F33
  8
10BY10
  0
POLYLINE
  5
2C1
  8
10BY10
 66
     1
 10
0.0
 20
0.0
 30
0.2
 70
     1
1001
DCO15
1071
        2
1071
        2
1000
variablelink
1004
0000000000C08D40
  0
VERTEX
  5
F34
  8
10BY10
 10
81056.0
 20
495343.0
 30
0.2
  0
VERTEX
  5
F35
  8
10BY10
 10
81066.0
 20
495343.0
 30
0.2
  0
VERTEX
  5
F36
  8
10BY10
 10
81066.0
 20
495353.0
 30
0.2
  0
VERTEX
  5
F37
  8
10BY10
 10
81056.0
 20
495353.0
 30
0.2
  0
SEQEND
  5
F38
  8
10BY10
  0
POLYLINE
  5
2C2
  8
10BY10
 66
     1
 10
0.0
 20
0.0
 30
0.02
 70
     1
1001
DCO15
1071
        2
1071
        2
1000
variablelink
1004
0000000000C88D40
  0
VERTEX
  5
F39
  8
10BY10
 10
81064.0
 20
495316.0
 30
0.02
  0
VERTEX
  5
F3A
  8
10BY10
 10
81074.0
 20
495316.0
 30
0.02
  0
VERTEX
  5
F3B
  8
10BY10
 10
81074.0
 20
495326.0
 30
0.02
  0
VERTEX
  5
F3C
  8
10BY10
 10
81064.0
 20
495326.0
 30
0.02
  0
SEQEND
  5
F3D
  8
10BY10
  0
POLYLINE
  5
2C3
  8
10BY10
 66
     1
 10
0.0
 20
0.0
 30
0.01
 70
     1
1001
DCO15
1071
        2
1071
        2
1000
variablelink
1004
0000000000D08D40
  0
VERTEX
  5
F3E
  8
10BY10
 10
81072.0
 20
495292.0
 30
0.01
  0
VERTEX
  5
F3F
  8
10BY10
 10
81082.0
 20
495292.0
 30
0.01
  0
VERTEX
  5
F40
  8
10BY10
 10
81082.0
 20
495302.0
 30
0.01
  0
VERTEX
  5
F41
  8
10BY10
 10
81072.0
 20
495302.0
 30
0.01
  0
SEQEND
  5
F42
  8
10BY10
  0
POLYLINE
  5
2C4
  8
10BY10
 66
     1
 10
0.0
 20
0.0
 30
0.4200000000000001
 70
     1
1001
DCO15
1071
        2
1071
        2
1000
variablelink
1004
0000000000008E40
  0
VERTEX
  5
F43
  8
10BY10
 10
86715.0
 20
490064.0
 30
0.4200000000000001
  0
VERTEX
  5
F44
  8
10BY10
 10
86725.0
 20
490064.0
 30
0.4200000000000001
  0
VERTEX
  5
F45
  8
10BY10
 10
86725.0
 20
490074.0
 30
0.4200000000000001
  0
VERTEX
  5
F46
  8
10BY10
 10
86715.0
 20
490074.0
 30
0.4200000000000001
  0
SEQEND
  5
F47
  8
10BY10
  0
POLYLINE
  5
2C5
  8
10BY10
 66
     1
 10
0.0
 20
0.0
 30
0.02
 70
     1
1001
DCO15
1071
        2
1071
        2
1000
variablelink
1004
0000000000088E40
  0
VERTEX
  5
F48
  8
10BY10
 10
86737.0
 20
490035.0
 30
0.02
  0
VERTEX
  5
F49
  8
10BY10
 10
86747.0
 20
490035.0
 30
0.02
  0
VERTEX
  5
F4A
  8
10BY10
 10
86747.0
 20
490045.0
 30
0.02
  0
VERTEX
  5
F4B
  8
10BY10
 10
86737.0
 20
490045.0
 30
0.02
  0
SEQEND
  5
F4C
  8
10BY10
  0
POLYLINE
  5
2C6
  8
10BY10
 66
     1
 10
0.0
 20
0.0
 30
1.3600000000000001
 70
     1
1001
DCO15
1071
        2
1071
        2
1000
variablelink
1004
0000000000108E40
  0
VERTEX
  5
F4D
  8
10BY10
 10
86725.0
 20
490021.0
 30
1.3600000000000001
  0
VERTEX
  5
F4E
  8
10BY10
 10
86735.0
 20
490021.0
 30
1.3600000000000001
  0
VERTEX
  5
F4F
  8
10BY10
 10
86735.0
 20
490031.0
 30
1.3600000000000001
  0
VERTEX
  5
F50
  8
10BY10
 10
86725.0
 20
490031.0
 30
1.3600000000000001
  0
SEQEND
  5
F51
  8
10BY10
  0
POLYLINE
  5
2C7
  8
10BY10
 66
     1
 10
0.0
 20
0.0
 30
0.05
 70
     1
1001
DCO15
1071
        2
1071
        2
1000
variablelink
1004
0000000000188E40
  0
VERTEX
  5
F52
  8
10BY10
 10
86722.0
 20
489990.0
 30
0.05
  0
VERTEX
  5
F53
  8
10BY10
 10
86732.0
 20
489990.0
 30
0.05
  0
VERTEX
  5
F54
  8
10BY10
 10
86732.0
 20
490000.0
 30
0.05
  0
VERTEX
  5
F55
  8
10BY10
 10
86722.0
 20
490000.0
 30
0.05
  0
SEQEND
  5
F56
  8
10BY10
  0
POLYLINE
  5
2C8
  8
10BY10
 66
     1
 10
0.0
 20
0.0
 30
0.07
 70
     1
1001
DCO15
1071
        2
1071
        2
1000
variablelink
1004
0000000000208E40
  0
VERTEX
  5
F57
  8
10BY10
 10
86734.0
 20
489969.0
 30
0.07
  0
VERTEX
  5
F58
  8
10BY10
 10
86744.0
 20
489969.0
 30
0.07
  0
VERTEX
  5
F59
  8
10BY10
 10
86744.0
 20
489979.0
 30
0.07
  0
VERTEX
  5
F5A
  8
10BY10
 10
86734.0
 20
489979.0
 30
0.07
  0
SEQEND
  5
F5B
  8
10BY10
  0
POLYLINE
  5
2C9
  8
10BY10
 66
     1
 10
0.0
 20
0.0
 30
0.08
 70
     1
1001
DCO15
1071
        2
1071
        2
1000
variablelink
1004
0000000000288E40
  0
VERTEX
  5
F5C
  8
10BY10
 10
86745.0
 20
489954.0
 30
0.08
  0
VERTEX
  5
F5D
  8
10BY10
 10
86755.0
 20
489954.0
 30
0.08
  0
VERTEX
  5
F5E
  8
10BY10
 10
86755.0
 20
489964.0
 30
0.08
  0
VERTEX
  5
F5F
  8
10BY10
 10
86745.0
 20
489964.0
 30
0.08
  0
SEQEND
  5
F60
  8
10BY10
  0
POLYLINE
  5
2CA
  8
10BY10
 66
     1
 10
0.0
 20
0.0
 30
0.01
 70
     1
1001
DCO15
1071
        2
1071
        2
1000
variablelink
1004
0000000000308E40
  0
VERTEX
  5
F61
  8
10BY10
 10
86693.0
 20
490108.0
 30
0.01
  0
VERTEX
  5
F62
  8
10BY10
 10
86703.0
 20
490108.0
 30
0.01
  0
VERTEX
  5
F63
  8
10BY10
 10
86703.0
 20
490118.0
 30
0.01
  0
VERTEX
  5
F64
  8
10BY10
 10
86693.0
 20
490118.0
 30
0.01
  0
SEQEND
  5
F65
  8
10BY10
  0
POLYLINE
  5
2CB
  8
10BY10
 66
     1
 10
0.0
 20
0.0
 30
0.02
 70
     1
1001
DCO15
1071
        2
1071
        2
1000
variablelink
1004
0000000000388E40
  0
VERTEX
  5
F66
  8
10BY10
 10
86659.0
 20
490076.0
 30
0.02
  0
VERTEX
  5
F67
  8
10BY10
 10
86669.0
 20
490076.0
 30
0.02
  0
VERTEX
  5
F68
  8
10BY10
 10
86669.0
 20
490086.0
 30
0.02
  0
VERTEX
  5
F69
  8
10BY10
 10
86659.0
 20
490086.0
 30
0.02
  0
SEQEND
  5
F6A
  8
10BY10
  0
POLYLINE
  5
2CC
  8
10BY10
 66
     1
 10
0.0
 20
0.0
 30
0.03
 70
     1
1001
DCO15
1071
        2
1071
        2
1000
variablelink
1004
0000000000408E40
  0
VERTEX
  5
F6B
  8
10BY10
 10
86784.0
 20
490951.0
 30
0.03
  0
VERTEX
  5
F6C
  8
10BY10
 10
86794.0
 20
490951.0
 30
0.03
  0
VERTEX
  5
F6D
  8
10BY10
 10
86794.0
 20
490961.0
 30
0.03
  0
VERTEX
  5
F6E
  8
10BY10
 10
86784.0
 20
490961.0
 30
0.03
  0
SEQEND
  5
F6F
  8
10BY10
  0
POLYLINE
  5
2CD
  8
10BY10
 66
     1
 10
0.0
 20
0.0
 30
0.14
 70
     1
1001
DCO15
1071
        2
1071
        2
1000
variablelink
1004
0000000000488E40
  0
VERTEX
  5
F70
  8
10BY10
 10
86703.0
 20
490099.0
 30
0.14
  0
VERTEX
  5
F71
  8
10BY10
 10
86713.0
 20
490099.0
 30
0.14
  0
VERTEX
  5
F72
  8
10BY10
 10
86713.0
 20
490109.0
 30
0.14
  0
VERTEX
  5
F73
  8
10BY10
 10
86703.0
 20
490109.0
 30
0.14
  0
SEQEND
  5
F74
  8
10BY10
  0
POLYLINE
  5
2CE
  8
10BY10
 66
     1
 10
0.0
 20
0.0
 30
0.05
 70
     1
1001
DCO15
1071
        2
1071
        2
1000
variablelink
1004
0000000000508E40
  0
VERTEX
  5
F75
  8
10BY10
 10
86697.0
 20
490082.0
 30
0.05
  0
VERTEX
  5
F76
  8
10BY10
 10
86707.0
 20
490082.0
 30
0.05
  0
VERTEX
  5
F77
  8
10BY10
 10
86707.0
 20
490092.0
 30
0.05
  0
VERTEX
  5
F78
  8
10BY10
 10
86697.0
 20
490092.0
 30
0.05
  0
SEQEND
  5
F79
  8
10BY10
  0
POLYLINE
  5
2CF
  8
10BY10
 66
     1
 10
0.0
 20
0.0
 30
0.03
 70
     1
1001
DCO15
1071
        2
1071
        2
1000
variablelink
1004
0000000000588E40
  0
VERTEX
  5
F7A
  8
10BY10
 10
86614.0
 20
490046.0
 30
0.03
  0
VERTEX
  5
F7B
  8
10BY10
 10
86624.0
 20
490046.0
 30
0.03
  0
VERTEX
  5
F7C
  8
10BY10
 10
86624.0
 20
490056.0
 30
0.03
  0
VERTEX
  5
F7D
  8
10BY10
 10
86614.0
 20
490056.0
 30
0.03
  0
SEQEND
  5
F7E
  8
10BY10
  0
POLYLINE
  5
2D0
  8
10BY10
 66
     1
 10
0.0
 20
0.0
 30
0.017
 70
     1
1001
DCO15
1071
        2
1071
        2
1000
variablelink
1004
0000000000608E40
  0
VERTEX
  5
F7F
  8
10BY10
 10
86739.0
 20
489920.0
 30
0.017
  0
VERTEX
  5
F80
  8
10BY10
 10
86749.0
 20
489920.0
 30
0.017
  0
VERTEX
  5
F81
  8
10BY10
 10
86749.0
 20
489930.0
 30
0.017
  0
VERTEX
  5
F82
  8
10BY10
 10
86739.0
 20
489930.0
 30
0.017
  0
SEQEND
  5
F83
  8
10BY10
  0
POLYLINE
  5
2D1
  8
10BY10
 66
     1
 10
0.0
 20
0.0
 30
0.08
 70
     1
1001
DCO15
1071
        2
1071
        2
1000
variablelink
1004
0000000000688E40
  0
VERTEX
  5
F84
  8
10BY10
 10
86699.0
 20
490070.0
 30
0.08
  0
VERTEX
  5
F85
  8
10BY10
 10
86709.0
 20
490070.0
 30
0.08
  0
VERTEX
  5
F86
  8
10BY10
 10
86709.0
 20
490080.0
 30
0.08
  0
VERTEX
  5
F87
  8
10BY10
 10
86699.0
 20
490080.0
 30
0.08
  0
SEQEND
  5
F88
  8
10BY10
  0
POLYLINE
  5
2D2
  8
10BY10
 66
     1
 10
0.0
 20
0.0
 30
0.02
 70
     1
1001
DCO15
1071
        2
1071
        2
1000
variablelink
1004
0000000000708E40
  0
VERTEX
  5
F89
  8
10BY10
 10
86686.0
 20
490048.0
 30
0.02
  0
VERTEX
  5
F8A
  8
10BY10
 10
86696.0
 20
490048.0
 30
0.02
  0
VERTEX
  5
F8B
  8
10BY10
 10
86696.0
 20
490058.0
 30
0.02
  0
VERTEX
  5
F8C
  8
10BY10
 10
86686.0
 20
490058.0
 30
0.02
  0
SEQEND
  5
F8D
  8
10BY10
  0
POLYLINE
  5
2D3
  8
10BY10
 66
     1
 10
0.0
 20
0.0
 30
0.128
 70
     1
1001
DCO15
1071
        2
1071
        2
1000
variablelink
1004
0000000000788E40
  0
VERTEX
  5
F8E
  8
10BY10
 10
86747.0
 20
490016.0
 30
0.128
  0
VERTEX
  5
F8F
  8
10BY10
 10
86757.0
 20
490016.0
 30
0.128
  0
VERTEX
  5
F90
  8
10BY10
 10
86757.0
 20
490026.0
 30
0.128
  0
VERTEX
  5
F91
  8
10BY10
 10
86747.0
 20
490026.0
 30
0.128
  0
SEQEND
  5
F92
  8
10BY10
  0
POLYLINE
  5
2D4
  8
10BY10
 66
     1
 10
0.0
 20
0.0
 30
0.03
 70
     1
1001
DCO15
1071
        2
1071
        2
1000
variablelink
1004
0000000000808E40
  0
VERTEX
  5
F93
  8
10BY10
 10
86756.0
 20
489999.0
 30
0.03
  0
VERTEX
  5
F94
  8
10BY10
 10
86766.0
 20
489999.0
 30
0.03
  0
VERTEX
  5
F95
  8
10BY10
 10
86766.0
 20
490009.0
 30
0.03
  0
VERTEX
  5
F96
  8
10BY10
 10
86756.0
 20
490009.0
 30
0.03
  0
SEQEND
  5
F97
  8
10BY10
  0
POLYLINE
  5
2D5
  8
10BY10
 66
     1
 10
0.0
 20
0.0
 30
0.01
 70
     1
1001
DCO15
1071
        2
1071
        2
1000
variablelink
1004
0000000000888E40
  0
VERTEX
  5
F98
  8
10BY10
 10
86793.0
 20
489949.0
 30
0.01
  0
VERTEX
  5
F99
  8
10BY10
 10
86803.0
 20
489949.0
 30
0.01
  0
VERTEX
  5
F9A
  8
10BY10
 10
86803.0
 20
489959.0
 30
0.01
  0
VERTEX
  5
F9B
  8
10BY10
 10
86793.0
 20
489959.0
 30
0.01
  0
SEQEND
  5
F9C
  8
10BY10
  0
POLYLINE
  5
2D6
  8
10BY10
 66
     1
 10
0.0
 20
0.0
 30
0.03
 70
     1
1001
DCO15
1071
        2
1071
        2
1000
variablelink
1004
0000000000988E40
  0
VERTEX
  5
F9D
  8
10BY10
 10
89770.0
 20
487417.0
 30
0.03
  0
VERTEX
  5
F9E
  8
10BY10
 10
89780.0
 20
487417.0
 30
0.03
  0
VERTEX
  5
F9F
  8
10BY10
 10
89780.0
 20
487427.0
 30
0.03
  0
VERTEX
  5
FA0
  8
10BY10
 10
89770.0
 20
487427.0
 30
0.03
  0
SEQEND
  5
FA1
  8
10BY10
  0
POLYLINE
  5
2D7
  8
10BY10
 66
     1
 10
0.0
 20
0.0
 30
0.02
 70
     1
1001
DCO15
1071
        2
1071
        2
1000
variablelink
1004
0000000000B88E40
  0
VERTEX
  5
FA2
  8
10BY10
 10
89800.0
 20
487408.0
 30
0.02
  0
VERTEX
  5
FA3
  8
10BY10
 10
89810.0
 20
487408.0
 30
0.02
  0
VERTEX
  5
FA4
  8
10BY10
 10
89810.0
 20
487418.0
 30
0.02
  0
VERTEX
  5
FA5
  8
10BY10
 10
89800.0
 20
487418.0
 30
0.02
  0
SEQEND
  5
FA6
  8
10BY10
  0
POLYLINE
  5
2D8
  8
10BY10
 66
     1
 10
0.0
 20
0.0
 30
0.02
 70
     1
1001
DCO15
1071
        2
1071
        2
1000
variablelink
1004
0000000000C08F40
  0
VERTEX
  5
FA7
  8
10BY10
 10
89485.0
 20
485027.0
 30
0.02
  0
VERTEX
  5
FA8
  8
10BY10
 10
89495.0
 20
485027.0
 30
0.02
  0
VERTEX
  5
FA9
  8
10BY10
 10
89495.0
 20
485037.0
 30
0.02
  0
VERTEX
  5
FAA
  8
10BY10
 10
89485.0
 20
485037.0
 30
0.02
  0
SEQEND
  5
FAB
  8
10BY10
  0
POLYLINE
  5
2D9
  8
10BY10
 66
     1
 10
0.0
 20
0.0
 30
0.01
 70
     1
1001
DCO15
1071
        2
1071
        2
1000
variablelink
1004
0000000000589040
  0
VERTEX
  5
FAC
  8
10BY10
 10
89985.0
 20
483376.0
 30
0.01
  0
VERTEX
  5
FAD
  8
10BY10
 10
89995.0
 20
483376.0
 30
0.01
  0
VERTEX
  5
FAE
  8
10BY10
 10
89995.0
 20
483386.0
 30
0.01
  0
VERTEX
  5
FAF
  8
10BY10
 10
89985.0
 20
483386.0
 30
0.01
  0
SEQEND
  5
FB0
  8
10BY10
  0
POLYLINE
  5
2DA
  8
10BY10
 66
     1
 10
0.0
 20
0.0
 30
0.03
 70
     1
1001
DCO15
1071
        2
1071
        2
1000
variablelink
1004
00000000005C9040
  0
VERTEX
  5
FB1
  8
10BY10
 10
89975.0
 20
483371.0
 30
0.03
  0
VERTEX
  5
FB2
  8
10BY10
 10
89985.0
 20
483371.0
 30
0.03
  0
VERTEX
  5
FB3
  8
10BY10
 10
89985.0
 20
483381.0
 30
0.03
  0
VERTEX
  5
FB4
  8
10BY10
 10
89975.0
 20
483381.0
 30
0.03
  0
SEQEND
  5
FB5
  8
10BY10
  0
POLYLINE
  5
2DB
  8
10BY10
 66
     1
 10
0.0
 20
0.0
 30
0.01
 70
     1
1001
DCO15
1071
        2
1071
        2
1000
variablelink
1004
0000000000689040
  0
VERTEX
  5
FB6
  8
10BY10
 10
89984.0
 20
483325.0
 30
0.01
  0
VERTEX
  5
FB7
  8
10BY10
 10
89994.0
 20
483325.0
 30
0.01
  0
VERTEX
  5
FB8
  8
10BY10
 10
89994.0
 20
483335.0
 30
0.01
  0
VERTEX
  5
FB9
  8
10BY10
 10
89984.0
 20
483335.0
 30
0.01
  0
SEQEND
  5
FBA
  8
10BY10
  0
POLYLINE
  5
2DC
  8
10BY10
 66
     1
 10
0.0
 20
0.0
 30
0.051
 70
     1
1001
DCO15
1071
        2
1071
        2
1000
variablelink
1004
00000000006C9040
  0
VERTEX
  5
FBB
  8
10BY10
 10
89962.0
 20
483361.0
 30
0.051
  0
VERTEX
  5
FBC
  8
10BY10
 10
89972.0
 20
483361.0
 30
0.051
  0
VERTEX
  5
FBD
  8
10BY10
 10
89972.0
 20
483371.0
 30
0.051
  0
VERTEX
  5
FBE
  8
10BY10
 10
89962.0
 20
483371.0
 30
0.051
  0
SEQEND
  5
FBF
  8
10BY10
  0
POLYLINE
  5
2DD
  8
10BY10
 66
     1
 10
0.0
 20
0.0
 30
0.017
 70
     1
1001
DCO15
1071
        2
1071
        2
1000
variablelink
1004
0000000000709040
  0
VERTEX
  5
FC0
  8
10BY10
 10
89989.0
 20
483315.0
 30
0.017
  0
VERTEX
  5
FC1
  8
10BY10
 10
89999.0
 20
483315.0
 30
0.017
  0
VERTEX
  5
FC2
  8
10BY10
 10
89999.0
 20
483325.0
 30
0.017
  0
VERTEX
  5
FC3
  8
10BY10
 10
89989.0
 20
483325.0
 30
0.017
  0
SEQEND
  5
FC4
  8
10BY10
  0
POLYLINE
  5
2DE
  8
10BY10
 66
     1
 10
0.0
 20
0.0
 30
0.02
 70
     1
1001
DCO15
1071
        2
1071
        2
1000
variablelink
1004
0000000000149140
  0
VERTEX
  5
FC5
  8
10BY10
 10
87496.0
 20
480878.0
 30
0.02
  0
VERTEX
  5
FC6
  8
10BY10
 10
87506.0
 20
480878.0
 30
0.02
  0
VERTEX
  5
FC7
  8
10BY10
 10
87506.0
 20
480888.0
 30
0.02
  0
VERTEX
  5
FC8
  8
10BY10
 10
87496.0
 20
480888.0
 30
0.02
  0
SEQEND
  5
FC9
  8
10BY10
  0
POLYLINE
  5
2DF
  8
10BY10
 66
     1
 10
0.0
 20
0.0
 30
0.02
 70
     1
1001
DCO15
1071
        2
1071
        2
1000
variablelink
1004
0000000000189140
  0
VERTEX
  5
FCA
  8
10BY10
 10
87401.0
 20
480894.0
 30
0.02
  0
VERTEX
  5
FCB
  8
10BY10
 10
87411.0
 20
480894.0
 30
0.02
  0
VERTEX
  5
FCC
  8
10BY10
 10
87411.0
 20
480904.0
 30
0.02
  0
VERTEX
  5
FCD
  8
10BY10
 10
87401.0
 20
480904.0
 30
0.02
  0
SEQEND
  5
FCE
  8
10BY10
  0
POLYLINE
  5
2E0
  8
10BY10
 66
     1
 10
0.0
 20
0.0
 30
0.01
 70
     1
1001
DCO15
1071
        2
1071
        2
1000
variablelink
1004
0000000000209140
  0
VERTEX
  5
FCF
  8
10BY10
 10
87527.0
 20
480842.0
 30
0.01
  0
VERTEX
  5
FD0
  8
10BY10
 10
87537.0
 20
480842.0
 30
0.01
  0
VERTEX
  5
FD1
  8
10BY10
 10
87537.0
 20
480852.0
 30
0.01
  0
VERTEX
  5
FD2
  8
10BY10
 10
87527.0
 20
480852.0
 30
0.01
  0
SEQEND
  5
FD3
  8
10BY10
  0
POLYLINE
  5
2E1
  8
10BY10
 66
     1
 10
0.0
 20
0.0
 30
0.034
 70
     1
1001
DCO15
1071
        2
1071
        2
1000
variablelink
1004
0000000000249140
  0
VERTEX
  5
FD4
  8
10BY10
 10
87489.0
 20
480902.0
 30
0.034
  0
VERTEX
  5
FD5
  8
10BY10
 10
87499.0
 20
480902.0
 30
0.034
  0
VERTEX
  5
FD6
  8
10BY10
 10
87499.0
 20
480912.0
 30
0.034
  0
VERTEX
  5
FD7
  8
10BY10
 10
87489.0
 20
480912.0
 30
0.034
  0
SEQEND
  5
FD8
  8
10BY10
  0
POLYLINE
  5
2E2
  8
10BY10
 66
     1
 10
0.0
 20
0.0
 30
0.04
 70
     1
1001
DCO15
1071
        2
1071
        2
1000
variablelink
1004
0000000000309140
  0
VERTEX
  5
FD9
  8
10BY10
 10
87400.0
 20
480906.0
 30
0.04
  0
VERTEX
  5
FDA
  8
10BY10
 10
87410.0
 20
480906.0
 30
0.04
  0
VERTEX
  5
FDB
  8
10BY10
 10
87410.0
 20
480916.0
 30
0.04
  0
VERTEX
  5
FDC
  8
10BY10
 10
87400.0
 20
480916.0
 30
0.04
  0
SEQEND
  5
FDD
  8
10BY10
  0
POLYLINE
  5
2E3
  8
10BY10
 66
     1
 10
0.0
 20
0.0
 30
0.07
 70
     1
1001
DCO15
1071
        2
1071
        2
1000
variablelink
1004
0000000000349140
  0
VERTEX
  5
FDE
  8
10BY10
 10
87412.0
 20
480892.0
 30
0.07
  0
VERTEX
  5
FDF
  8
10BY10
 10
87422.0
 20
480892.0
 30
0.07
  0
VERTEX
  5
FE0
  8
10BY10
 10
87422.0
 20
480902.0
 30
0.07
  0
VERTEX
  5
FE1
  8
10BY10
 10
87412.0
 20
480902.0
 30
0.07
  0
SEQEND
  5
FE2
  8
10BY10
  0
POLYLINE
  5
2E4
  8
10BY10
 66
     1
 10
0.0
 20
0.0
 30
0.02
 70
     1
1001
DCO15
1071
        2
1071
        2
1000
variablelink
1004
00000000003C9140
  0
VERTEX
  5
FE3
  8
10BY10
 10
87539.0
 20
480816.0
 30
0.02
  0
VERTEX
  5
FE4
  8
10BY10
 10
87549.0
 20
480816.0
 30
0.02
  0
VERTEX
  5
FE5
  8
10BY10
 10
87549.0
 20
480826.0
 30
0.02
  0
VERTEX
  5
FE6
  8
10BY10
 10
87539.0
 20
480826.0
 30
0.02
  0
SEQEND
  5
FE7
  8
10BY10
  0
POLYLINE
  5
2E5
  8
10BY10
 66
     1
 10
0.0
 20
0.0
 30
0.01
 70
     1
1001
DCO15
1071
        2
1071
        2
1000
variablelink
1004
0000000000409140
  0
VERTEX
  5
FE8
  8
10BY10
 10
87548.0
 20
480831.0
 30
0.01
  0
VERTEX
  5
FE9
  8
10BY10
 10
87558.0
 20
480831.0
 30
0.01
  0
VERTEX
  5
FEA
  8
10BY10
 10
87558.0
 20
480841.0
 30
0.01
  0
VERTEX
  5
FEB
  8
10BY10
 10
87548.0
 20
480841.0
 30
0.01
  0
SEQEND
  5
FEC
  8
10BY10
  0
POLYLINE
  5
2E6
  8
10BY10
 66
     1
 10
0.0
 20
0.0
 30
0.02
 70
     1
1001
DCO15
1071
        2
1071
        2
1000
variablelink
1004
0000000000449140
  0
VERTEX
  5
FED
  8
10BY10
 10
87422.0
 20
480896.0
 30
0.02
  0
VERTEX
  5
FEE
  8
10BY10
 10
87432.0
 20
480896.0
 30
0.02
  0
VERTEX
  5
FEF
  8
10BY10
 10
87432.0
 20
480906.0
 30
0.02
  0
VERTEX
  5
FF0
  8
10BY10
 10
87422.0
 20
480906.0
 30
0.02
  0
SEQEND
  5
FF1
  8
10BY10
  0
POLYLINE
  5
2E7
  8
10BY10
 66
     1
 10
0.0
 20
0.0
 30
0.034
 70
     1
1001
DCO15
1071
        2
1071
        2
1000
variablelink
1004
00000000002C9240
  0
VERTEX
  5
FF2
  8
10BY10
 10
87892.0
 20
480188.0
 30
0.034
  0
VERTEX
  5
FF3
  8
10BY10
 10
87902.0
 20
480188.0
 30
0.034
  0
VERTEX
  5
FF4
  8
10BY10
 10
87902.0
 20
480198.0
 30
0.034
  0
VERTEX
  5
FF5
  8
10BY10
 10
87892.0
 20
480198.0
 30
0.034
  0
SEQEND
  5
FF6
  8
10BY10
  0
POLYLINE
  5
2E8
  8
10BY10
 66
     1
 10
0.0
 20
0.0
 30
0.01
 70
     1
1001
DCO15
1071
        2
1071
        2
1000
variablelink
1004
0000000000309240
  0
VERTEX
  5
FF7
  8
10BY10
 10
87900.0
 20
480133.0
 30
0.01
  0
VERTEX
  5
FF8
  8
10BY10
 10
87910.0
 20
480133.0
 30
0.01
  0
VERTEX
  5
FF9
  8
10BY10
 10
87910.0
 20
480143.0
 30
0.01
  0
VERTEX
  5
FFA
  8
10BY10
 10
87900.0
 20
480143.0
 30
0.01
  0
SEQEND
  5
FFB
  8
10BY10
  0
POLYLINE
  5
2E9
  8
10BY10
 66
     1
 10
0.0
 20
0.0
 30
0.016
 70
     1
1001
DCO15
1071
        2
1071
        2
1000
variablelink
1004
0000000000689340
  0
VERTEX
  5
FFC
  8
10BY10
 10
106624.0
 20
493089.0
 30
0.016
  0
VERTEX
  5
FFD
  8
10BY10
 10
106634.0
 20
493089.0
 30
0.016
  0
VERTEX
  5
FFE
  8
10BY10
 10
106634.0
 20
493099.0
 30
0.016
  0
VERTEX
  5
FFF
  8
10BY10
 10
106624.0
 20
493099.0
 30
0.016
  0
SEQEND
  5
1000
  8
10BY10
  0
POLYLINE
  5
2EA
  8
10BY10
 66
     1
 10
0.0
 20
0.0
 30
0.01
 70
     1
1001
DCO15
1071
        2
1071
        2
1000
variablelink
1004
00000000006C9340
  0
VERTEX
  5
1001
  8
10BY10
 10
106731.0
 20
493084.0
 30
0.01
  0
VERTEX
  5
1002
  8
10BY10
 10
106741.0
 20
493084.0
 30
0.01
  0
VERTEX
  5
1003
  8
10BY10
 10
106741.0
 20
493094.0
 30
0.01
  0
VERTEX
  5
1004
  8
10BY10
 10
106731.0
 20
493094.0
 30
0.01
  0
SEQEND
  5
1005
  8
10BY10
  0
POLYLINE
  5
2EB
  8
10BY10
 66
     1
 10
0.0
 20
0.0
 30
0.016
 70
     1
1001
DCO15
1071
        2
1071
        2
1000
variablelink
1004
0000000000749340
  0
VERTEX
  5
1006
  8
10BY10
 10
106805.0
 20
492914.0
 30
0.016
  0
VERTEX
  5
1007
  8
10BY10
 10
106815.0
 20
492914.0
 30
0.016
  0
VERTEX
  5
1008
  8
10BY10
 10
106815.0
 20
492924.0
 30
0.016
  0
VERTEX
  5
1009
  8
10BY10
 10
106805.0
 20
492924.0
 30
0.016
  0
SEQEND
  5
100A
  8
10BY10
  0
POLYLINE
  5
2EC
  8
10BY10
 66
     1
 10
0.0
 20
0.0
 30
0.048
 70
     1
1001
DCO15
1071
        2
1071
        2
1000
variablelink
1004
0000000000789340
  0
VERTEX
  5
100B
  8
10BY10
 10
106790.0
 20
492895.0
 30
0.048
  0
VERTEX
  5
100C
  8
10BY10
 10
106800.0
 20
492895.0
 30
0.048
  0
VERTEX
  5
100D
  8
10BY10
 10
106800.0
 20
492905.0
 30
0.048
  0
VERTEX
  5
100E
  8
10BY10
 10
106790.0
 20
492905.0
 30
0.048
  0
SEQEND
  5
100F
  8
10BY10
  0
POLYLINE
  5
2ED
  8
10BY10
 66
     1
 10
0.0
 20
0.0
 30
0.02
 70
     1
1001
DCO15
1071
        2
1071
        2
1000
variablelink
1004
0000000000889340
  0
VERTEX
  5
1010
  8
10BY10
 10
106769.0
 20
492978.0
 30
0.02
  0
VERTEX
  5
1011
  8
10BY10
 10
106779.0
 20
492978.0
 30
0.02
  0
VERTEX
  5
1012
  8
10BY10
 10
106779.0
 20
492988.0
 30
0.02
  0
VERTEX
  5
1013
  8
10BY10
 10
106769.0
 20
492988.0
 30
0.02
  0
SEQEND
  5
1014
  8
10BY10
  0
POLYLINE
  5
2EE
  8
10BY10
 66
     1
 10
0.0
 20
0.0
 30
0.32
 70
     1
1001
DCO15
1071
        2
1071
        2
1000
variablelink
1004
0000000000A09340
  0
VERTEX
  5
1015
  8
10BY10
 10
106763.0
 20
492967.0
 30
0.32
  0
VERTEX
  5
1016
  8
10BY10
 10
106773.0
 20
492967.0
 30
0.32
  0
VERTEX
  5
1017
  8
10BY10
 10
106773.0
 20
492977.0
 30
0.32
  0
VERTEX
  5
1018
  8
10BY10
 10
106763.0
 20
492977.0
 30
0.32
  0
SEQEND
  5
1019
  8
10BY10
  0
POLYLINE
  5
2EF
  8
10BY10
 66
     1
 10
0.0
 20
0.0
 30
0.048
 70
     1
1001
DCO15
1071
        2
1071
        2
1000
variablelink
1004
0000000000A49340
  0
VERTEX
  5
101A
  8
10BY10
 10
106639.0
 20
492901.0
 30
0.048
  0
VERTEX
  5
101B
  8
10BY10
 10
106649.0
 20
492901.0
 30
0.048
  0
VERTEX
  5
101C
  8
10BY10
 10
106649.0
 20
492911.0
 30
0.048
  0
VERTEX
  5
101D
  8
10BY10
 10
106639.0
 20
492911.0
 30
0.048
  0
SEQEND
  5
101E
  8
10BY10
  0
POLYLINE
  5
2F0
  8
10BY10
 66
     1
 10
0.0
 20
0.0
 30
0.02
 70
     1
1001
DCO15
1071
        2
1071
        2
1000
variablelink
1004
0000000000A89340
  0
VERTEX
  5
101F
  8
10BY10
 10
106556.0
 20
492850.0
 30
0.02
  0
VERTEX
  5
1020
  8
10BY10
 10
106566.0
 20
492850.0
 30
0.02
  0
VERTEX
  5
1021
  8
10BY10
 10
106566.0
 20
492860.0
 30
0.02
  0
VERTEX
  5
1022
  8
10BY10
 10
106556.0
 20
492860.0
 30
0.02
  0
SEQEND
  5
1023
  8
10BY10
  0
POLYLINE
  5
2F1
  8
10BY10
 66
     1
 10
0.0
 20
0.0
 30
0.02
 70
     1
1001
DCO15
1071
        2
1071
        2
1000
variablelink
1004
0000000000B09340
  0
VERTEX
  5
1024
  8
10BY10
 10
106750.0
 20
493053.0
 30
0.02
  0
VERTEX
  5
1025
  8
10BY10
 10
106760.0
 20
493053.0
 30
0.02
  0
VERTEX
  5
1026
  8
10BY10
 10
106760.0
 20
493063.0
 30
0.02
  0
VERTEX
  5
1027
  8
10BY10
 10
106750.0
 20
493063.0
 30
0.02
  0
SEQEND
  5
1028
  8
10BY10
  0
POLYLINE
  5
2F2
  8
10BY10
 66
     1
 10
0.0
 20
0.0
 30
0.02
 70
     1
1001
DCO15
1071
        2
1071
        2
1000
variablelink
1004
0000000000B89340
  0
VERTEX
  5
1029
  8
10BY10
 10
106801.0
 20
492898.0
 30
0.02
  0
VERTEX
  5
102A
  8
10BY10
 10
106811.0
 20
492898.0
 30
0.02
  0
VERTEX
  5
102B
  8
10BY10
 10
106811.0
 20
492908.0
 30
0.02
  0
VERTEX
  5
102C
  8
10BY10
 10
106801.0
 20
492908.0
 30
0.02
  0
SEQEND
  5
102D
  8
10BY10
  0
POLYLINE
  5
2F3
  8
10BY10
 66
     1
 10
0.0
 20
0.0
 30
0.01
 70
     1
1001
DCO15
1071
        2
1071
        2
1000
variablelink
1004
0000000000C09340
  0
VERTEX
  5
102E
  8
10BY10
 10
106763.0
 20
493031.0
 30
0.01
  0
VERTEX
  5
102F
  8
10BY10
 10
106773.0
 20
493031.0
 30
0.01
  0
VERTEX
  5
1030
  8
10BY10
 10
106773.0
 20
493041.0
 30
0.01
  0
VERTEX
  5
1031
  8
10BY10
 10
106763.0
 20
493041.0
 30
0.01
  0
SEQEND
  5
1032
  8
10BY10
  0
POLYLINE
  5
2F4
  8
10BY10
 66
     1
 10
0.0
 20
0.0
 30
0.06
 70
     1
1001
DCO15
1071
        2
1071
        2
1000
variablelink
1004
0000000000C49340
  0
VERTEX
  5
1033
  8
10BY10
 10
106790.0
 20
492956.0
 30
0.06
  0
VERTEX
  5
1034
  8
10BY10
 10
106800.0
 20
492956.0
 30
0.06
  0
VERTEX
  5
1035
  8
10BY10
 10
106800.0
 20
492966.0
 30
0.06
  0
VERTEX
  5
1036
  8
10BY10
 10
106790.0
 20
492966.0
 30
0.06
  0
SEQEND
  5
1037
  8
10BY10
  0
POLYLINE
  5
2F5
  8
10BY10
 66
     1
 10
0.0
 20
0.0
 30
0.01
 70
     1
1001
DCO15
1071
        2
1071
        2
1000
variablelink
1004
0000000000F89340
  0
VERTEX
  5
1038
  8
10BY10
 10
105812.0
 20
492183.0
 30
0.01
  0
VERTEX
  5
1039
  8
10BY10
 10
105822.0
 20
492183.0
 30
0.01
  0
VERTEX
  5
103A
  8
10BY10
 10
105822.0
 20
492193.0
 30
0.01
  0
VERTEX
  5
103B
  8
10BY10
 10
105812.0
 20
492193.0
 30
0.01
  0
SEQEND
  5
103C
  8
10BY10
  0
POLYLINE
  5
2F6
  8
10BY10
 66
     1
 10
0.0
 20
0.0
 30
0.01
 70
     1
1001
DCO15
1071
        2
1071
        2
1000
variablelink
1004
0000000000E49540
  0
VERTEX
  5
103D
  8
10BY10
 10
109467.0
 20
489376.0
 30
0.01
  0
VERTEX
  5
103E
  8
10BY10
 10
109477.0
 20
489376.0
 30
0.01
  0
VERTEX
  5
103F
  8
10BY10
 10
109477.0
 20
489386.0
 30
0.01
  0
VERTEX
  5
1040
  8
10BY10
 10
109467.0
 20
489386.0
 30
0.01
  0
SEQEND
  5
1041
  8
10BY10
  0
POLYLINE
  5
2F7
  8
10BY10
 66
     1
 10
0.0
 20
0.0
 30
0.068
 70
     1
1001
DCO15
1071
        2
1071
        2
1000
variablelink
1004
0000000000409640
  0
VERTEX
  5
1042
  8
10BY10
 10
108394.0
 20
492787.0
 30
0.068
  0
VERTEX
  5
1043
  8
10BY10
 10
108404.0
 20
492787.0
 30
0.068
  0
VERTEX
  5
1044
  8
10BY10
 10
108404.0
 20
492797.0
 30
0.068
  0
VERTEX
  5
1045
  8
10BY10
 10
108394.0
 20
492797.0
 30
0.068
  0
SEQEND
  5
1046
  8
10BY10
  0
POLYLINE
  5
2F8
  8
10BY10
 66
     1
 10
0.0
 20
0.0
 30
0.01
 70
     1
1001
DCO15
1071
        2
1071
        2
1000
variablelink
1004
0000000000809640
  0
VERTEX
  5
1047
  8
10BY10
 10
108302.0
 20
492864.0
 30
0.01
  0
VERTEX
  5
1048
  8
10BY10
 10
108312.0
 20
492864.0
 30
0.01
  0
VERTEX
  5
1049
  8
10BY10
 10
108312.0
 20
492874.0
 30
0.01
  0
VERTEX
  5
104A
  8
10BY10
 10
108302.0
 20
492874.0
 30
0.01
  0
SEQEND
  5
104B
  8
10BY10
  0
POLYLINE
  5
2F9
  8
10BY10
 66
     1
 10
0.0
 20
0.0
 30
0.05
 70
     1
1001
DCO15
1071
        2
1071
        2
1000
variablelink
1004
0000000000889640
  0
VERTEX
  5
104C
  8
10BY10
 10
108463.0
 20
492771.0
 30
0.05
  0
VERTEX
  5
104D
  8
10BY10
 10
108473.0
 20
492771.0
 30
0.05
  0
VERTEX
  5
104E
  8
10BY10
 10
108473.0
 20
492781.0
 30
0.05
  0
VERTEX
  5
104F
  8
10BY10
 10
108463.0
 20
492781.0
 30
0.05
  0
SEQEND
  5
1050
  8
10BY10
  0
POLYLINE
  5
2FA
  8
10BY10
 66
     1
 10
0.0
 20
0.0
 30
0.048
 70
     1
1001
DCO15
1071
        2
1071
        2
1000
variablelink
1004
0000000000F09640
  0
VERTEX
  5
1051
  8
10BY10
 10
110570.0
 20
497452.0
 30
0.048
  0
VERTEX
  5
1052
  8
10BY10
 10
110580.0
 20
497452.0
 30
0.048
  0
VERTEX
  5
1053
  8
10BY10
 10
110580.0
 20
497462.0
 30
0.048
  0
VERTEX
  5
1054
  8
10BY10
 10
110570.0
 20
497462.0
 30
0.048
  0
SEQEND
  5
1055
  8
10BY10
  0
POLYLINE
  5
2FB
  8
10BY10
 66
     1
 10
0.0
 20
0.0
 30
0.112
 70
     1
1001
DCO15
1071
        2
1071
        2
1000
variablelink
1004
0000000000FC9640
  0
VERTEX
  5
1056
  8
10BY10
 10
110627.0
 20
497542.0
 30
0.112
  0
VERTEX
  5
1057
  8
10BY10
 10
110637.0
 20
497542.0
 30
0.112
  0
VERTEX
  5
1058
  8
10BY10
 10
110637.0
 20
497552.0
 30
0.112
  0
VERTEX
  5
1059
  8
10BY10
 10
110627.0
 20
497552.0
 30
0.112
  0
SEQEND
  5
105A
  8
10BY10
  0
POLYLINE
  5
2FC
  8
10BY10
 66
     1
 10
0.0
 20
0.0
 30
0.03
 70
     1
1001
DCO15
1071
        2
1071
        2
1000
variablelink
1004
0000000000049740
  0
VERTEX
  5
105B
  8
10BY10
 10
109758.0
 20
499568.0
 30
0.03
  0
VERTEX
  5
105C
  8
10BY10
 10
109768.0
 20
499568.0
 30
0.03
  0
VERTEX
  5
105D
  8
10BY10
 10
109768.0
 20
499578.0
 30
0.03
  0
VERTEX
  5
105E
  8
10BY10
 10
109758.0
 20
499578.0
 30
0.03
  0
SEQEND
  5
105F
  8
10BY10
  0
POLYLINE
  5
2FD
  8
10BY10
 66
     1
 10
0.0
 20
0.0
 30
0.017
 70
     1
1001
DCO15
1071
        2
1071
        2
1000
variablelink
1004
0000000000089740
  0
VERTEX
  5
1060
  8
10BY10
 10
109715.0
 20
499523.0
 30
0.017
  0
VERTEX
  5
1061
  8
10BY10
 10
109725.0
 20
499523.0
 30
0.017
  0
VERTEX
  5
1062
  8
10BY10
 10
109725.0
 20
499533.0
 30
0.017
  0
VERTEX
  5
1063
  8
10BY10
 10
109715.0
 20
499533.0
 30
0.017
  0
SEQEND
  5
1064
  8
10BY10
  0
POLYLINE
  5
2FE
  8
10BY10
 66
     1
 10
0.0
 20
0.0
 30
0.01
 70
     1
1001
DCO15
1071
        2
1071
        2
1000
variablelink
1004
0000000000549740
  0
VERTEX
  5
1065
  8
10BY10
 10
109935.0
 20
497840.0
 30
0.01
  0
VERTEX
  5
1066
  8
10BY10
 10
109945.0
 20
497840.0
 30
0.01
  0
VERTEX
  5
1067
  8
10BY10
 10
109945.0
 20
497850.0
 30
0.01
  0
VERTEX
  5
1068
  8
10BY10
 10
109935.0
 20
497850.0
 30
0.01
  0
SEQEND
  5
1069
  8
10BY10
  0
POLYLINE
  5
2FF
  8
10BY10
 66
     1
 10
0.0
 20
0.0
 30
0.04
 70
     1
1001
DCO15
1071
        2
1071
        2
1000
variablelink
1004
00000000005C9740
  0
VERTEX
  5
106A
  8
10BY10
 10
107242.0
 20
497538.0
 30
0.04
  0
VERTEX
  5
106B
  8
10BY10
 10
107252.0
 20
497538.0
 30
0.04
  0
VERTEX
  5
106C
  8
10BY10
 10
107252.0
 20
497548.0
 30
0.04
  0
VERTEX
  5
106D
  8
10BY10
 10
107242.0
 20
497548.0
 30
0.04
  0
SEQEND
  5
106E
  8
10BY10
  0
POLYLINE
  5
300
  8
10BY10
 66
     1
 10
0.0
 20
0.0
 30
0.03
 70
     1
1001
DCO15
1071
        2
1071
        2
1000
variablelink
1004
0000000000D09740
  0
VERTEX
  5
106F
  8
10BY10
 10
107638.0
 20
499592.0
 30
0.03
  0
VERTEX
  5
1070
  8
10BY10
 10
107648.0
 20
499592.0
 30
0.03
  0
VERTEX
  5
1071
  8
10BY10
 10
107648.0
 20
499602.0
 30
0.03
  0
VERTEX
  5
1072
  8
10BY10
 10
107638.0
 20
499602.0
 30
0.03
  0
SEQEND
  5
1073
  8
10BY10
  0
POLYLINE
  5
301
  8
10BY10
 66
     1
 10
0.0
 20
0.0
 30
0.01
 70
     1
1001
DCO15
1071
        2
1071
        2
1000
variablelink
1004
0000000000E09740
  0
VERTEX
  5
1074
  8
10BY10
 10
108816.0
 20
499815.0
 30
0.01
  0
VERTEX
  5
1075
  8
10BY10
 10
108826.0
 20
499815.0
 30
0.01
  0
VERTEX
  5
1076
  8
10BY10
 10
108826.0
 20
499825.0
 30
0.01
  0
VERTEX
  5
1077
  8
10BY10
 10
108816.0
 20
499825.0
 30
0.01
  0
SEQEND
  5
1078
  8
10BY10
  0
POLYLINE
  5
302
  8
10BY10
 66
     1
 10
0.0
 20
0.0
 30
0.03
 70
     1
1001
DCO15
1071
        2
1071
        2
1000
variablelink
1004
0000000000E89740
  0
VERTEX
  5
1079
  8
10BY10
 10
108983.0
 20
499771.0
 30
0.03
  0
VERTEX
  5
107A
  8
10BY10
 10
108993.0
 20
499771.0
 30
0.03
  0
VERTEX
  5
107B
  8
10BY10
 10
108993.0
 20
499781.0
 30
0.03
  0
VERTEX
  5
107C
  8
10BY10
 10
108983.0
 20
499781.0
 30
0.03
  0
SEQEND
  5
107D
  8
10BY10
  0
POLYLINE
  5
303
  8
10BY10
 66
     1
 10
0.0
 20
0.0
 30
0.01
 70
     1
1001
DCO15
1071
        2
1071
        2
1000
variablelink
1004
0000000000C49840
  0
VERTEX
  5
107E
  8
10BY10
 10
108775.0
 20
499831.0
 30
0.01
  0
VERTEX
  5
107F
  8
10BY10
 10
108785.0
 20
499831.0
 30
0.01
  0
VERTEX
  5
1080
  8
10BY10
 10
108785.0
 20
499841.0
 30
0.01
  0
VERTEX
  5
1081
  8
10BY10
 10
108775.0
 20
499841.0
 30
0.01
  0
SEQEND
  5
1082
  8
10BY10
  0
POLYLINE
  5
304
  8
10BY10
 66
     1
 10
0.0
 20
0.0
 30
0.01
 70
     1
1001
DCO15
1071
        2
1071
        2
1000
variablelink
1004
0000000000C89840
  0
VERTEX
  5
1083
  8
10BY10
 10
108913.0
 20
499799.0
 30
0.01
  0
VERTEX
  5
1084
  8
10BY10
 10
108923.0
 20
499799.0
 30
0.01
  0
VERTEX
  5
1085
  8
10BY10
 10
108923.0
 20
499809.0
 30
0.01
  0
VERTEX
  5
1086
  8
10BY10
 10
108913.0
 20
499809.0
 30
0.01
  0
SEQEND
  5
1087
  8
10BY10
  0
POLYLINE
  5
305
  8
10BY10
 66
     1
 10
0.0
 20
0.0
 30
0.01
 70
     1
1001
DCO15
1071
        2
1071
        2
1000
variablelink
1004
0000000000D09840
  0
VERTEX
  5
1088
  8
10BY10
 10
108810.0
 20
499866.0
 30
0.01
  0
VERTEX
  5
1089
  8
10BY10
 10
108820.0
 20
499866.0
 30
0.01
  0
VERTEX
  5
108A
  8
10BY10
 10
108820.0
 20
499876.0
 30
0.01
  0
VERTEX
  5
108B
  8
10BY10
 10
108810.0
 20
499876.0
 30
0.01
  0
SEQEND
  5
108C
  8
10BY10
  0
POLYLINE
  5
306
  8
10BY10
 66
     1
 10
0.0
 20
0.0
 30
0.06
 70
     1
1001
DCO15
1071
        2
1071
        2
1000
variablelink
1004
0000000000F49840
  0
VERTEX
  5
108D
  8
10BY10
 10
109675.0
 20
500768.0
 30
0.06
  0
VERTEX
  5
108E
  8
10BY10
 10
109685.0
 20
500768.0
 30
0.06
  0
VERTEX
  5
108F
  8
10BY10
 10
109685.0
 20
500778.0
 30
0.06
  0
VERTEX
  5
1090
  8
10BY10
 10
109675.0
 20
500778.0
 30
0.06
  0
SEQEND
  5
1091
  8
10BY10
  0
POLYLINE
  5
307
  8
10BY10
 66
     1
 10
0.0
 20
0.0
 30
0.01
 70
     1
1001
DCO15
1071
        2
1071
        2
1000
variablelink
1004
0000000000F89840
  0
VERTEX
  5
1092
  8
10BY10
 10
109641.0
 20
500739.0
 30
0.01
  0
VERTEX
  5
1093
  8
10BY10
 10
109651.0
 20
500739.0
 30
0.01
  0
VERTEX
  5
1094
  8
10BY10
 10
109651.0
 20
500749.0
 30
0.01
  0
VERTEX
  5
1095
  8
10BY10
 10
109641.0
 20
500749.0
 30
0.01
  0
SEQEND
  5
1096
  8
10BY10
  0
POLYLINE
  5
308
  8
10BY10
 66
     1
 10
0.0
 20
0.0
 30
0.03
 70
     1
1001
DCO15
1071
        2
1071
        2
1000
variablelink
1004
0000000000009940
  0
VERTEX
  5
1097
  8
10BY10
 10
94426.0
 20
483286.0
 30
0.03
  0
VERTEX
  5
1098
  8
10BY10
 10
94436.0
 20
483286.0
 30
0.03
  0
VERTEX
  5
1099
  8
10BY10
 10
94436.0
 20
483296.0
 30
0.03
  0
VERTEX
  5
109A
  8
10BY10
 10
94426.0
 20
483296.0
 30
0.03
  0
SEQEND
  5
109B
  8
10BY10
  0
POLYLINE
  5
309
  8
R10BY10
 66
     1
 10
0.0
 20
0.0
 30
0.03
 70
     1
1001
DCO15
1071
        2
1071
        2
1000
variablelink
1004
0000000000A88540
  0
VERTEX
  5
109C
  8
R10BY10
 10
103141.0
 20
478941.0
 30
0.03
  0
VERTEX
  5
109D
  8
R10BY10
 10
103151.0
 20
478941.0
 30
0.03
  0
VERTEX
  5
109E
  8
R10BY10
 10
103151.0
 20
478951.0
 30
0.03
  0
VERTEX
  5
109F
  8
R10BY10
 10
103141.0
 20
478951.0
 30
0.03
  0
SEQEND
  5
10A0
  8
R10BY10
  0
POLYLINE
  5
30A
  8
R10BY10
 66
     1
 10
0.0
 20
0.0
 30
0.01
 70
     1
1001
DCO15
1071
        2
1071
        2
1000
variablelink
1004
0000000000688740
  0
VERTEX
  5
10A1
  8
R10BY10
 10
93305.0
 20
486037.0
 30
0.01
  0
VERTEX
  5
10A2
  8
R10BY10
 10
93315.0
 20
486037.0
 30
0.01
  0
VERTEX
  5
10A3
  8
R10BY10
 10
93315.0
 20
486047.0
 30
0.01
  0
VERTEX
  5
10A4
  8
R10BY10
 10
93305.0
 20
486047.0
 30
0.01
  0
SEQEND
  5
10A5
  8
R10BY10
  0
POLYLINE
  5
30B
  8
R10BY10
 66
     1
 10
0.0
 20
0.0
 30
0.01
 70
     1
1001
DCO15
1071
        2
1071
        2
1000
variablelink
1004
0000000000C88B40
  0
VERTEX
  5
10A6
  8
R10BY10
 10
81093.0
 20
495356.0
 30
0.01
  0
VERTEX
  5
10A7
  8
R10BY10
 10
81103.0
 20
495356.0
 30
0.01
  0
VERTEX
  5
10A8
  8
R10BY10
 10
81103.0
 20
495366.0
 30
0.01
  0
VERTEX
  5
10A9
  8
R10BY10
 10
81093.0
 20
495366.0
 30
0.01
  0
SEQEND
  5
10AA
  8
R10BY10
  0
POLYLINE
  5
30C
  8
R10BY10
 66
     1
 10
0.0
 20
0.0
 30
0.03
 70
     1
1001
DCO15
1071
        2
1071
        2
1000
variablelink
1004
0000000000D88B40
  0
VERTEX
  5
10AB
  8
R10BY10
 10
81086.0
 20
495340.0
 30
0.03
  0
VERTEX
  5
10AC
  8
R10BY10
 10
81096.0
 20
495340.0
 30
0.03
  0
VERTEX
  5
10AD
  8
R10BY10
 10
81096.0
 20
495350.0
 30
0.03
  0
VERTEX
  5
10AE
  8
R10BY10
 10
81086.0
 20
495350.0
 30
0.03
  0
SEQEND
  5
10AF
  8
R10BY10
  0
POLYLINE
  5
30D
  8
R10BY10
 66
     1
 10
0.0
 20
0.0
 30
0.01
 70
     1
1001
DCO15
1071
        2
1071
        2
1000
variablelink
1004
0000000000E08B40
  0
VERTEX
  5
10B0
  8
R10BY10
 10
81083.0
 20
495360.0
 30
0.01
  0
VERTEX
  5
10B1
  8
R10BY10
 10
81093.0
 20
495360.0
 30
0.01
  0
VERTEX
  5
10B2
  8
R10BY10
 10
81093.0
 20
495370.0
 30
0.01
  0
VERTEX
  5
10B3
  8
R10BY10
 10
81083.0
 20
495370.0
 30
0.01
  0
SEQEND
  5
10B4
  8
R10BY10
  0
POLYLINE
  5
30E
  8
R10BY10
 66
     1
 10
0.0
 20
0.0
 30
0.01
 70
     1
1001
DCO15
1071
        2
1071
        2
1000
variablelink
1004
0000000000F08E40
  0
VERTEX
  5
10B5
  8
R10BY10
 10
89399.0
 20
485062.0
 30
0.01
  0
VERTEX
  5
10B6
  8
R10BY10
 10
89409.0
 20
485062.0
 30
0.01
  0
VERTEX
  5
10B7
  8
R10BY10
 10
89409.0
 20
485072.0
 30
0.01
  0
VERTEX
  5
10B8
  8
R10BY10
 10
89399.0
 20
485072.0
 30
0.01
  0
SEQEND
  5
10B9
  8
R10BY10
  0
POLYLINE
  5
30F
  8
R10BY10
 66
     1
 10
0.0
 20
0.0
 30
0.04
 70
     1
1001
DCO15
1071
        2
1071
        2
1000
variablelink
1004
0000000000B88F40
  0
VERTEX
  5
10BA
  8
R10BY10
 10
89462.0
 20
485029.0
 30
0.04
  0
VERTEX
  5
10BB
  8
R10BY10
 10
89472.0
 20
485029.0
 30
0.04
  0
VERTEX
  5
10BC
  8
R10BY10
 10
89472.0
 20
485039.0
 30
0.04
  0
VERTEX
  5
10BD
  8
R10BY10
 10
89462.0
 20
485039.0
 30
0.04
  0
SEQEND
  5
10BE
  8
R10BY10
  0
POLYLINE
  5
310
  8
R10BY10
 66
     1
 10
0.0
 20
0.0
 30
0.18
 70
     1
1001
DCO15
1071
        2
1071
        2
1000
variablelink
1004
0000000000449640
  0
VERTEX
  5
10BF
  8
R10BY10
 10
108207.0
 20
493940.0
 30
0.18
  0
VERTEX
  5
10C0
  8
R10BY10
 10
108217.0
 20
493940.0
 30
0.18
  0
VERTEX
  5
10C1
  8
R10BY10
 10
108217.0
 20
493950.0
 30
0.18
  0
VERTEX
  5
10C2
  8
R10BY10
 10
108207.0
 20
493950.0
 30
0.18
  0
SEQEND
  5
10C3
  8
R10BY10
  0
POLYLINE
  5
311
  8
R10BY10
 66
     1
 10
0.0
 20
0.0
 30
0.01
 70
     1
1001
DCO15
1071
        2
1071
        2
1000
variablelink
1004
0000000000909740
  0
VERTEX
  5
10C4
  8
R10BY10
 10
104441.0
 20
497270.0
 30
0.01
  0
VERTEX
  5
10C5
  8
R10BY10
 10
104451.0
 20
497270.0
 30
0.01
  0
VERTEX
  5
10C6
  8
R10BY10
 10
104451.0
 20
497280.0
 30
0.01
  0
VERTEX
  5
10C7
  8
R10BY10
 10
104441.0
 20
497280.0
 30
0.01
  0
SEQEND
  5
10C8
  8
R10BY10
  0
ENDSEC
  0
EOF
