  0
SECTION
  2
HEADER
  9
$ACADVER
  1
AC1009
  9
$INSBASE
 10
0.0
 20
0.0
 30
0.0
  9
$EXTMIN
 10
580956.0
 20
3478742.0
 30
0.01
  9
$EXTMAX
 10
610637.0
 20
3499841.0
 30
44.79999999999999
  9
$LIMMIN
 10
0.0
 20
0.0
  9
$LIMMAX
 10
12.0
 20
9.0
  9
$ORTHOMODE
 70
     0
  9
$REGENMODE
 70
     1
  9
$FILLMODE
 70
     1
  9
$QTEXTMODE
 70
     0
  9
$MIRRTEXT
 70
     0
  9
$DRAGMODE
 70
     2
  9
$LTSCALE
 40
1.0
  9
$OSMODE
 70
    37
  9
$ATTMODE
 70
     1
  9
$TEXTSIZE
 40
0.2
  9
$TRACEWID
 40
0.05
  9
$TEXTSTYLE
  7
STANDARD
  9
$CLAYER
  8
0
  9
$CELTYPE
  6
BYLAYER
  9
$CECOLOR
 62
   256
  9
$DIMSCALE
 40
1.0
  9
$DIMASZ
 40
0.18
  9
$DIMEXO
 40
0.0625
  9
$DIMDLI
 40
0.38
  9
$DIMRND
 40
0.0
  9
$DIMDLE
 40
0.0
  9
$DIMEXE
 40
0.18
  9
$DIMTP
 40
0.0
  9
$DIMTM
 40
0.0
  9
$DIMTXT
 40
0.18
  9
$DIMCEN
 40
0.09
  9
$DIMTSZ
 40
0.0
  9
$DIMTOL
 70
     0
  9
$DIMLIM
 70
     0
  9
$DIMTIH
 70
     1
  9
$DIMTOH
 70
     1
  9
$DIMSE1
 70
     0
  9
$DIMSE2
 70
     0
  9
$DIMTAD
 70
     0
  9
$DIMZIN
 70
     0
  9
$DIMBLK
  1

  9
$DIMASO
 70
     1
  9
$DIMSHO
 70
     1
  9
$DIMPOST
  1

  9
$DIMAPOST
  1

  9
$DIMALT
 70
     0
  9
$DIMALTD
 70
     2
  9
$DIMALTF
 40
25.399999999999999
  9
$DIMLFAC
 40
1.0
  9
$DIMTOFL
 70
     0
  9
$DIMTVP
 40
0.0
  9
$DIMTIX
 70
     0
  9
$DIMSOXD
 70
     0
  9
$DIMSAH
 70
     0
  9
$DIMBLK1
  1

  9
$DIMBLK2
  1

  9
$DIMSTYLE
  2
STANDARD
  9
$DIMCLRD
 70
     0
  9
$DIMCLRE
 70
     0
  9
$DIMCLRT
 70
     0
  9
$DIMTFAC
 40
1.0
  9
$DIMGAP
 40
0.09
  9
$LUNITS
 70
     2
  9
$LUPREC
 70
     4
  9
$SKETCHINC
 40
0.1
  9
$FILLETRAD
 40
0.0
  9
$AUNITS
 70
     0
  9
$AUPREC
 70
     0
  9
$MENU
  1
.
  9
$ELEVATION
 40
0.0
  9
$PELEVATION
 40
0.0
  9
$THICKNESS
 40
0.0
  9
$LIMCHECK
 70
     0
  9
$BLIPMODE
 70
     0
  9
$CHAMFERA
 40
0.0
  9
$CHAMFERB
 40
0.0
  9
$SKPOLY
 70
     0
  9
$TDCREATE
 40
2457685.6875817128
  9
$TDUPDATE
 40
2458148.4526991788
  9
$TDINDWG
 40
0.8518835995
  9
$TDUSRTIMER
 40
0.8518675926
  9
$USRTIMER
 70
     1
  9
$ANGBASE
 50
0.0
  9
$ANGDIR
 70
     0
  9
$PDMODE
 70
     0
  9
$PDSIZE
 40
0.0
  9
$PLINEWID
 40
0.0
  9
$COORDS
 70
     1
  9
$SPLFRAME
 70
     0
  9
$SPLINETYPE
 70
     6
  9
$SPLINESEGS
 70
     8
  9
$ATTDIA
 70
     1
  9
$ATTREQ
 70
     1
  9
$HANDLING
 70
     1
  9
$HANDSEED
  5
7CE
  9
$SURFTAB1
 70
     6
  9
$SURFTAB2
 70
     6
  9
$SURFTYPE
 70
     6
  9
$SURFU
 70
     6
  9
$SURFV
 70
     6
  9
$UCSNAME
  2

  9
$UCSORG
 10
0.0
 20
0.0
 30
0.0
  9
$UCSXDIR
 10
1.0
 20
0.0
 30
0.0
  9
$UCSYDIR
 10
0.0
 20
1.0
 30
0.0
  9
$PUCSNAME
  2

  9
$PUCSORG
 10
0.0
 20
0.0
 30
0.0
  9
$PUCSXDIR
 10
1.0
 20
0.0
 30
0.0
  9
$PUCSYDIR
 10
0.0
 20
1.0
 30
0.0
  9
$USERI1
 70
     0
  9
$USERI2
 70
     0
  9
$USERI3
 70
     0
  9
$USERI4
 70
     0
  9
$USERI5
 70
     0
  9
$USERR1
 40
0.0
  9
$USERR2
 40
0.0
  9
$USERR3
 40
0.0
  9
$USERR4
 40
0.0
  9
$USERR5
 40
0.0
  9
$WORLDVIEW
 70
     1
  9
$SHADEDGE
 70
     3
  9
$SHADEDIF
 70
    70
  9
$TILEMODE
 70
     1
  9
$MAXACTVP
 70
    64
  9
$PLIMCHECK
 70
     0
  9
$PEXTMIN
 10
0.0
 20
0.0
 30
0.0
  9
$PEXTMAX
 10
0.0
 20
0.0
 30
0.0
  9
$PLIMMIN
 10
0.0
 20
0.0
  9
$PLIMMAX
 10
12.0
 20
9.0
  9
$UNITMODE
 70
     0
  9
$VISRETAIN
 70
     1
  9
$PLINEGEN
 70
     0
  9
$PSLTSCALE
 70
     1
  0
ENDSEC
  0
SECTION
  2
TABLES
  0
TABLE
  2
VPORT
 70
     1
  0
VPORT
  2
*ACTIVE
 70
     0
 10
0.0
 20
0.0
 11
1.0
 21
1.0
 12
587212.16127867613
 22
3516636.2433074149
 13
0.0
 23
0.0
 14
0.5
 24
0.5
 15
0.5
 25
0.5
 16
0.0
 26
0.0
 36
1.0
 17
0.0
 27
0.0
 37
0.0
 40
123267.1253203785
 41
2.0426179604261789
 42
50.0
 43
0.0
 44
0.0
 50
0.0
 51
0.0
 71
     0
 72
  1000
 73
     1
 74
     3
 75
     0
 76
     0
 77
     0
 78
     0
  0
ENDTAB
  0
TABLE
  2
LTYPE
 70
     1
  0
LTYPE
  2
CONTINUOUS
 70
     0
  3
Solid line
 72
    65
 73
     0
 40
0.0
  0
ENDTAB
  0
TABLE
  2
LAYER
 70
     5
  0
LAYER
  2
0
 70
     0
 62
     7
  6
CONTINUOUS
  0
LAYER
  2
1BY1
 70
     0
 62
     4
  6
CONTINUOUS
  0
LAYER
  2
2BY2
 70
     0
 62
     2
  6
CONTINUOUS
  0
LAYER
  2
10BY10
 70
     0
 62
     6
  6
CONTINUOUS
  0
LAYER
  2
R10BY10
 70
     0
 62
     3
  6
CONTINUOUS
  0
ENDTAB
  0
TABLE
  2
STYLE
 70
     2
  0
STYLE
  2
STANDARD
 70
     0
 40
0.0
 41
1.0
 50
0.0
 71
     0
 42
0.2
  3
txt
  4

  0
STYLE
  2
LEGEND
 70
     0
 40
0.0
 41
1.0
 50
0.0
 71
     0
 42
0.2
  3
txt
  4

  0
ENDTAB
  0
TABLE
  2
VIEW
 70
     1
  0
ENDTAB
  0
TABLE
  2
UCS
 70
     0
  0
ENDTAB
  0
TABLE
  2
APPID
 70
     9
  0
APPID
  2
ACAD
 70
     0
  0
APPID
  2
ACAD_NAV_VCDISPLAY
 70
     0
  0
APPID
  2
ADE
 70
     0
  0
APPID
  2
DCO15
 70
     0
  0
APPID
  2
ADE_PROJECTION
 70
     0
  0
APPID
  2
ACMAPDMDISPLAYSTYLEREGAPP
 70
     0
  0
APPID
  2
MAPGWS
 70
     0
  0
APPID
  2
ACAD_MLEADERVER
 70
     0
  0
APPID
  2
MapManagementAppName
 70
     0
  0
ENDTAB
  0
TABLE
  2
DIMSTYLE
 70
     1
  0
DIMSTYLE
  2
STANDARD
 70
     0
  3

  4

  5

  6

  7

 40
1.0
 41
0.18
 42
0.0625
 43
0.38
 44
0.18
 45
0.0
 46
0.0
 47
0.0
 48
0.0
140
0.18
141
0.09
142
0.0
143
25.399999999999999
144
1.0
145
0.0
146
1.0
147
0.09
 71
     0
 72
     0
 73
     1
 74
     1
 75
     0
 76
     0
 77
     0
 78
     0
170
     0
171
     2
172
     0
173
     0
174
     0
175
     0
176
     0
177
     0
178
     0
  0
ENDTAB
  0
ENDSEC
  0
SECTION
  2
BLOCKS
  0
BLOCK
  8
0
  2
$MODEL_SPACE
 70
     0
 10
0.0
 20
0.0
 30
0.0
  3
$MODEL_SPACE
  1

  0
ENDBLK
  5
15
  8
0
  0
BLOCK
 67
     1
  8
0
  2
$PAPER_SPACE
 70
     0
 10
0.0
 20
0.0
 30
0.0
  3
$PAPER_SPACE
  1

  0
ENDBLK
  5
1A
 67
     1
  8
0
  0
ENDSEC
  0
SECTION
  2
ENTITIES
  0
POLYLINE
  5
5B
  8
1BY1
 66
     1
 10
0.0
 20
0.0
 30
1.6000000000000001
 70
     1
1001
DCO15
1071
        2
1071
        2
1000
variablelink
1004
0000000000C05540
  0
VERTEX
  5
200
  8
1BY1
 10
599579.0
 20
3482979.0
 30
1.6000000000000001
  0
VERTEX
  5
201
  8
1BY1
 10
599580.0
 20
3482979.0
 30
1.6000000000000001
  0
VERTEX
  5
202
  8
1BY1
 10
599580.0
 20
3482980.0
 30
1.6000000000000001
  0
VERTEX
  5
203
  8
1BY1
 10
599579.0
 20
3482980.0
 30
1.6000000000000001
  0
SEQEND
  5
204
  8
1BY1
  0
POLYLINE
  5
5E
  8
1BY1
 66
     1
 10
0.0
 20
0.0
 30
2.0
 70
     1
1001
DCO15
1071
        2
1071
        2
1000
variablelink
1004
0000000000405940
  0
VERTEX
  5
205
  8
1BY1
 10
599747.0
 20
3483703.0
 30
2.0
  0
VERTEX
  5
206
  8
1BY1
 10
599748.0
 20
3483703.0
 30
2.0
  0
VERTEX
  5
207
  8
1BY1
 10
599748.0
 20
3483704.0
 30
2.0
  0
VERTEX
  5
208
  8
1BY1
 10
599747.0
 20
3483704.0
 30
2.0
  0
SEQEND
  5
209
  8
1BY1
  0
POLYLINE
  5
5F
  8
1BY1
 66
     1
 10
0.0
 20
0.0
 30
1.0
 70
     1
1001
DCO15
1071
        2
1071
        2
1000
variablelink
1004
0000000000606B40
  0
VERTEX
  5
20A
  8
1BY1
 10
599655.0
 20
3483617.0
 30
1.0
  0
VERTEX
  5
20B
  8
1BY1
 10
599656.0
 20
3483617.0
 30
1.0
  0
VERTEX
  5
20C
  8
1BY1
 10
599656.0
 20
3483618.0
 30
1.0
  0
VERTEX
  5
20D
  8
1BY1
 10
599655.0
 20
3483618.0
 30
1.0
  0
SEQEND
  5
20E
  8
1BY1
  0
POLYLINE
  5
60
  8
1BY1
 66
     1
 10
0.0
 20
0.0
 30
1.0
 70
     1
1001
DCO15
1071
        2
1071
        2
1000
variablelink
1004
0000000000A06B40
  0
VERTEX
  5
20F
  8
1BY1
 10
599585.0
 20
3483665.0
 30
1.0
  0
VERTEX
  5
210
  8
1BY1
 10
599586.0
 20
3483665.0
 30
1.0
  0
VERTEX
  5
211
  8
1BY1
 10
599586.0
 20
3483666.0
 30
1.0
  0
VERTEX
  5
212
  8
1BY1
 10
599585.0
 20
3483666.0
 30
1.0
  0
SEQEND
  5
213
  8
1BY1
  0
POLYLINE
  5
61
  8
1BY1
 66
     1
 10
0.0
 20
0.0
 30
1.0
 70
     1
1001
DCO15
1071
        2
1071
        2
1000
variablelink
1004
0000000000A06C40
  0
VERTEX
  5
214
  8
1BY1
 10
599535.0
 20
3483589.0
 30
1.0
  0
VERTEX
  5
215
  8
1BY1
 10
599536.0
 20
3483589.0
 30
1.0
  0
VERTEX
  5
216
  8
1BY1
 10
599536.0
 20
3483590.0
 30
1.0
  0
VERTEX
  5
217
  8
1BY1
 10
599535.0
 20
3483590.0
 30
1.0
  0
SEQEND
  5
218
  8
1BY1
  0
POLYLINE
  5
62
  8
1BY1
 66
     1
 10
0.0
 20
0.0
 30
1.0
 70
     1
1001
DCO15
1071
        2
1071
        2
1000
variablelink
1004
0000000000C06C40
  0
VERTEX
  5
219
  8
1BY1
 10
599509.0
 20
3483645.0
 30
1.0
  0
VERTEX
  5
21A
  8
1BY1
 10
599510.0
 20
3483645.0
 30
1.0
  0
VERTEX
  5
21B
  8
1BY1
 10
599510.0
 20
3483646.0
 30
1.0
  0
VERTEX
  5
21C
  8
1BY1
 10
599509.0
 20
3483646.0
 30
1.0
  0
SEQEND
  5
21D
  8
1BY1
  0
POLYLINE
  5
63
  8
1BY1
 66
     1
 10
0.0
 20
0.0
 30
1.0
 70
     1
1001
DCO15
1071
        2
1071
        2
1000
variablelink
1004
0000000000E06C40
  0
VERTEX
  5
21E
  8
1BY1
 10
599503.0
 20
3483643.0
 30
1.0
  0
VERTEX
  5
21F
  8
1BY1
 10
599504.0
 20
3483643.0
 30
1.0
  0
VERTEX
  5
220
  8
1BY1
 10
599504.0
 20
3483644.0
 30
1.0
  0
VERTEX
  5
221
  8
1BY1
 10
599503.0
 20
3483644.0
 30
1.0
  0
SEQEND
  5
222
  8
1BY1
  0
POLYLINE
  5
64
  8
1BY1
 66
     1
 10
0.0
 20
0.0
 30
2.0
 70
     1
1001
DCO15
1071
        2
1071
        2
1000
variablelink
1004
0000000000006E40
  0
VERTEX
  5
223
  8
1BY1
 10
599656.0
 20
3483795.0
 30
2.0
  0
VERTEX
  5
224
  8
1BY1
 10
599657.0
 20
3483795.0
 30
2.0
  0
VERTEX
  5
225
  8
1BY1
 10
599657.0
 20
3483796.0
 30
2.0
  0
VERTEX
  5
226
  8
1BY1
 10
599656.0
 20
3483796.0
 30
2.0
  0
SEQEND
  5
227
  8
1BY1
  0
POLYLINE
  5
65
  8
1BY1
 66
     1
 10
0.0
 20
0.0
 30
13.0
 70
     1
1001
DCO15
1071
        2
1071
        2
1000
variablelink
1004
0000000000B07240
  0
VERTEX
  5
228
  8
1BY1
 10
599672.0
 20
3483679.0
 30
13.0
  0
VERTEX
  5
229
  8
1BY1
 10
599673.0
 20
3483679.0
 30
13.0
  0
VERTEX
  5
22A
  8
1BY1
 10
599673.0
 20
3483680.0
 30
13.0
  0
VERTEX
  5
22B
  8
1BY1
 10
599672.0
 20
3483680.0
 30
13.0
  0
SEQEND
  5
22C
  8
1BY1
  0
POLYLINE
  5
66
  8
1BY1
 66
     1
 10
0.0
 20
0.0
 30
1.0
 70
     1
1001
DCO15
1071
        2
1071
        2
1000
variablelink
1004
0000000000307740
  0
VERTEX
  5
22D
  8
1BY1
 10
599560.0
 20
3483646.0
 30
1.0
  0
VERTEX
  5
22E
  8
1BY1
 10
599561.0
 20
3483646.0
 30
1.0
  0
VERTEX
  5
22F
  8
1BY1
 10
599561.0
 20
3483647.0
 30
1.0
  0
VERTEX
  5
230
  8
1BY1
 10
599560.0
 20
3483647.0
 30
1.0
  0
SEQEND
  5
231
  8
1BY1
  0
POLYLINE
  5
67
  8
1BY1
 66
     1
 10
0.0
 20
0.0
 30
1.0
 70
     1
1001
DCO15
1071
        2
1071
        2
1000
variablelink
1004
0000000000207B40
  0
VERTEX
  5
232
  8
1BY1
 10
599403.0
 20
3483353.0
 30
1.0
  0
VERTEX
  5
233
  8
1BY1
 10
599404.0
 20
3483353.0
 30
1.0
  0
VERTEX
  5
234
  8
1BY1
 10
599404.0
 20
3483354.0
 30
1.0
  0
VERTEX
  5
235
  8
1BY1
 10
599403.0
 20
3483354.0
 30
1.0
  0
SEQEND
  5
236
  8
1BY1
  0
POLYLINE
  5
68
  8
1BY1
 66
     1
 10
0.0
 20
0.0
 30
1.7
 70
     1
1001
DCO15
1071
        2
1071
        2
1000
variablelink
1004
0000000000A88040
  0
VERTEX
  5
237
  8
1BY1
 10
601001.0
 20
3481697.0
 30
1.7
  0
VERTEX
  5
238
  8
1BY1
 10
601002.0
 20
3481697.0
 30
1.7
  0
VERTEX
  5
239
  8
1BY1
 10
601002.0
 20
3481698.0
 30
1.7
  0
VERTEX
  5
23A
  8
1BY1
 10
601001.0
 20
3481698.0
 30
1.7
  0
SEQEND
  5
23B
  8
1BY1
  0
POLYLINE
  5
69
  8
10BY10
 66
     1
 10
0.0
 20
0.0
 30
0.03
 70
     1
1001
DCO15
1071
        2
1071
        2
1000
variablelink
1004
0000000000C08140
  0
VERTEX
  5
23C
  8
10BY10
 10
601160.0
 20
3482620.0
 30
0.03
  0
VERTEX
  5
23D
  8
10BY10
 10
601170.0
 20
3482620.0
 30
0.03
  0
VERTEX
  5
23E
  8
10BY10
 10
601170.0
 20
3482630.0
 30
0.03
  0
VERTEX
  5
23F
  8
10BY10
 10
601160.0
 20
3482630.0
 30
0.03
  0
SEQEND
  5
240
  8
10BY10
  0
POLYLINE
  5
6B
  8
10BY10
 66
     1
 10
0.0
 20
0.0
 30
0.03
 70
     1
1001
DCO15
1071
        2
1071
        2
1000
variablelink
1004
0000000000C88140
  0
VERTEX
  5
241
  8
10BY10
 10
601171.0
 20
3482598.0
 30
0.03
  0
VERTEX
  5
242
  8
10BY10
 10
601181.0
 20
3482598.0
 30
0.03
  0
VERTEX
  5
243
  8
10BY10
 10
601181.0
 20
3482608.0
 30
0.03
  0
VERTEX
  5
244
  8
10BY10
 10
601171.0
 20
3482608.0
 30
0.03
  0
SEQEND
  5
245
  8
10BY10
  0
POLYLINE
  5
6C
  8
10BY10
 66
     1
 10
0.0
 20
0.0
 30
0.016
 70
     1
1001
DCO15
1071
        2
1071
        2
1000
variablelink
1004
0000000000F88140
  0
VERTEX
  5
246
  8
10BY10
 10
601114.0
 20
3481841.0
 30
0.016
  0
VERTEX
  5
247
  8
10BY10
 10
601124.0
 20
3481841.0
 30
0.016
  0
VERTEX
  5
248
  8
10BY10
 10
601124.0
 20
3481851.0
 30
0.016
  0
VERTEX
  5
249
  8
10BY10
 10
601114.0
 20
3481851.0
 30
0.016
  0
SEQEND
  5
24A
  8
10BY10
  0
POLYLINE
  5
6D
  8
10BY10
 66
     1
 10
0.0
 20
0.0
 30
0.096
 70
     1
1001
DCO15
1071
        2
1071
        2
1000
variablelink
1004
0000000000008240
  0
VERTEX
  5
24B
  8
10BY10
 10
601331.0
 20
3482438.0
 30
0.096
  0
VERTEX
  5
24C
  8
10BY10
 10
601341.0
 20
3482438.0
 30
0.096
  0
VERTEX
  5
24D
  8
10BY10
 10
601341.0
 20
3482448.0
 30
0.096
  0
VERTEX
  5
24E
  8
10BY10
 10
601331.0
 20
3482448.0
 30
0.096
  0
SEQEND
  5
24F
  8
10BY10
  0
POLYLINE
  5
6E
  8
10BY10
 66
     1
 10
0.0
 20
0.0
 30
0.032
 70
     1
1001
DCO15
1071
        2
1071
        2
1000
variablelink
1004
0000000000308240
  0
VERTEX
  5
250
  8
10BY10
 10
596676.0
 20
3482989.0
 30
0.032
  0
VERTEX
  5
251
  8
10BY10
 10
596686.0
 20
3482989.0
 30
0.032
  0
VERTEX
  5
252
  8
10BY10
 10
596686.0
 20
3482999.0
 30
0.032
  0
VERTEX
  5
253
  8
10BY10
 10
596676.0
 20
3482999.0
 30
0.032
  0
SEQEND
  5
254
  8
10BY10
  0
POLYLINE
  5
6F
  8
10BY10
 66
     1
 10
0.0
 20
0.0
 30
0.048
 70
     1
1001
DCO15
1071
        2
1071
        2
1000
variablelink
1004
0000000000388240
  0
VERTEX
  5
255
  8
10BY10
 10
597754.0
 20
3483385.0
 30
0.048
  0
VERTEX
  5
256
  8
10BY10
 10
597764.0
 20
3483385.0
 30
0.048
  0
VERTEX
  5
257
  8
10BY10
 10
597764.0
 20
3483395.0
 30
0.048
  0
VERTEX
  5
258
  8
10BY10
 10
597754.0
 20
3483395.0
 30
0.048
  0
SEQEND
  5
259
  8
10BY10
  0
POLYLINE
  5
70
  8
10BY10
 66
     1
 10
0.0
 20
0.0
 30
0.048
 70
     1
1001
DCO15
1071
        2
1071
        2
1000
variablelink
1004
0000000000408240
  0
VERTEX
  5
25A
  8
10BY10
 10
597794.0
 20
3483350.0
 30
0.048
  0
VERTEX
  5
25B
  8
10BY10
 10
597804.0
 20
3483350.0
 30
0.048
  0
VERTEX
  5
25C
  8
10BY10
 10
597804.0
 20
3483360.0
 30
0.048
  0
VERTEX
  5
25D
  8
10BY10
 10
597794.0
 20
3483360.0
 30
0.048
  0
SEQEND
  5
25E
  8
10BY10
  0
POLYLINE
  5
71
  8
10BY10
 66
     1
 10
0.0
 20
0.0
 30
0.32
 70
     1
1001
DCO15
1071
        2
1071
        2
1000
variablelink
1004
0000000000588240
  0
VERTEX
  5
25F
  8
10BY10
 10
597772.0
 20
3483384.0
 30
0.32
  0
VERTEX
  5
260
  8
10BY10
 10
597782.0
 20
3483384.0
 30
0.32
  0
VERTEX
  5
261
  8
10BY10
 10
597782.0
 20
3483394.0
 30
0.32
  0
VERTEX
  5
262
  8
10BY10
 10
597772.0
 20
3483394.0
 30
0.32
  0
SEQEND
  5
263
  8
10BY10
  0
POLYLINE
  5
72
  8
10BY10
 66
     1
 10
0.0
 20
0.0
 30
0.032
 70
     1
1001
DCO15
1071
        2
1071
        2
1000
variablelink
1004
0000000000688240
  0
VERTEX
  5
264
  8
10BY10
 10
597725.0
 20
3483357.0
 30
0.032
  0
VERTEX
  5
265
  8
10BY10
 10
597735.0
 20
3483357.0
 30
0.032
  0
VERTEX
  5
266
  8
10BY10
 10
597735.0
 20
3483367.0
 30
0.032
  0
VERTEX
  5
267
  8
10BY10
 10
597725.0
 20
3483367.0
 30
0.032
  0
SEQEND
  5
268
  8
10BY10
  0
POLYLINE
  5
73
  8
10BY10
 66
     1
 10
0.0
 20
0.0
 30
0.016
 70
     1
1001
DCO15
1071
        2
1071
        2
1000
variablelink
1004
0000000000788240
  0
VERTEX
  5
269
  8
10BY10
 10
597755.0
 20
3483223.0
 30
0.016
  0
VERTEX
  5
26A
  8
10BY10
 10
597765.0
 20
3483223.0
 30
0.016
  0
VERTEX
  5
26B
  8
10BY10
 10
597765.0
 20
3483233.0
 30
0.016
  0
VERTEX
  5
26C
  8
10BY10
 10
597755.0
 20
3483233.0
 30
0.016
  0
SEQEND
  5
26D
  8
10BY10
  0
POLYLINE
  5
74
  8
10BY10
 66
     1
 10
0.0
 20
0.0
 30
0.01
 70
     1
1001
DCO15
1071
        2
1071
        2
1000
variablelink
1004
0000000000808240
  0
VERTEX
  5
26E
  8
10BY10
 10
594523.0
 20
3483230.0
 30
0.01
  0
VERTEX
  5
26F
  8
10BY10
 10
594533.0
 20
3483230.0
 30
0.01
  0
VERTEX
  5
270
  8
10BY10
 10
594533.0
 20
3483240.0
 30
0.01
  0
VERTEX
  5
271
  8
10BY10
 10
594523.0
 20
3483240.0
 30
0.01
  0
SEQEND
  5
272
  8
10BY10
  0
POLYLINE
  5
75
  8
10BY10
 66
     1
 10
0.0
 20
0.0
 30
0.02
 70
     1
1001
DCO15
1071
        2
1071
        2
1000
variablelink
1004
0000000000888240
  0
VERTEX
  5
273
  8
10BY10
 10
594533.0
 20
3483223.0
 30
0.02
  0
VERTEX
  5
274
  8
10BY10
 10
594543.0
 20
3483223.0
 30
0.02
  0
VERTEX
  5
275
  8
10BY10
 10
594543.0
 20
3483233.0
 30
0.02
  0
VERTEX
  5
276
  8
10BY10
 10
594533.0
 20
3483233.0
 30
0.02
  0
SEQEND
  5
277
  8
10BY10
  0
POLYLINE
  5
76
  8
10BY10
 66
     1
 10
0.0
 20
0.0
 30
0.01
 70
     1
1001
DCO15
1071
        2
1071
        2
1000
variablelink
1004
0000000000908240
  0
VERTEX
  5
278
  8
10BY10
 10
594561.0
 20
3483211.0
 30
0.01
  0
VERTEX
  5
279
  8
10BY10
 10
594571.0
 20
3483211.0
 30
0.01
  0
VERTEX
  5
27A
  8
10BY10
 10
594571.0
 20
3483221.0
 30
0.01
  0
VERTEX
  5
27B
  8
10BY10
 10
594561.0
 20
3483221.0
 30
0.01
  0
SEQEND
  5
27C
  8
10BY10
  0
POLYLINE
  5
77
  8
10BY10
 66
     1
 10
0.0
 20
0.0
 30
0.03
 70
     1
1001
DCO15
1071
        2
1071
        2
1000
variablelink
1004
0000000000A08240
  0
VERTEX
  5
27D
  8
10BY10
 10
594409.0
 20
3483273.0
 30
0.03
  0
VERTEX
  5
27E
  8
10BY10
 10
594419.0
 20
3483273.0
 30
0.03
  0
VERTEX
  5
27F
  8
10BY10
 10
594419.0
 20
3483283.0
 30
0.03
  0
VERTEX
  5
280
  8
10BY10
 10
594409.0
 20
3483283.0
 30
0.03
  0
SEQEND
  5
281
  8
10BY10
  0
POLYLINE
  5
78
  8
10BY10
 66
     1
 10
0.0
 20
0.0
 30
0.02
 70
     1
1001
DCO15
1071
        2
1071
        2
1000
variablelink
1004
0000000000C08240
  0
VERTEX
  5
282
  8
10BY10
 10
594340.0
 20
3483303.0
 30
0.02
  0
VERTEX
  5
283
  8
10BY10
 10
594350.0
 20
3483303.0
 30
0.02
  0
VERTEX
  5
284
  8
10BY10
 10
594350.0
 20
3483313.0
 30
0.02
  0
VERTEX
  5
285
  8
10BY10
 10
594340.0
 20
3483313.0
 30
0.02
  0
SEQEND
  5
286
  8
10BY10
  0
POLYLINE
  5
79
  8
10BY10
 66
     1
 10
0.0
 20
0.0
 30
0.02
 70
     1
1001
DCO15
1071
        2
1071
        2
1000
variablelink
1004
0000000000C88240
  0
VERTEX
  5
287
  8
10BY10
 10
594416.0
 20
3483287.0
 30
0.02
  0
VERTEX
  5
288
  8
10BY10
 10
594426.0
 20
3483287.0
 30
0.02
  0
VERTEX
  5
289
  8
10BY10
 10
594426.0
 20
3483297.0
 30
0.02
  0
VERTEX
  5
28A
  8
10BY10
 10
594416.0
 20
3483297.0
 30
0.02
  0
SEQEND
  5
28B
  8
10BY10
  0
POLYLINE
  5
7A
  8
10BY10
 66
     1
 10
0.0
 20
0.0
 30
0.01
 70
     1
1001
DCO15
1071
        2
1071
        2
1000
variablelink
1004
0000000000D88240
  0
VERTEX
  5
28C
  8
10BY10
 10
594371.0
 20
3483293.0
 30
0.01
  0
VERTEX
  5
28D
  8
10BY10
 10
594381.0
 20
3483293.0
 30
0.01
  0
VERTEX
  5
28E
  8
10BY10
 10
594381.0
 20
3483303.0
 30
0.01
  0
VERTEX
  5
28F
  8
10BY10
 10
594371.0
 20
3483303.0
 30
0.01
  0
SEQEND
  5
290
  8
10BY10
  0
POLYLINE
  5
7B
  8
10BY10
 66
     1
 10
0.0
 20
0.0
 30
0.01
 70
     1
1001
DCO15
1071
        2
1071
        2
1000
variablelink
1004
0000000000B08340
  0
VERTEX
  5
291
  8
10BY10
 10
602664.0
 20
3478742.0
 30
0.01
  0
VERTEX
  5
292
  8
10BY10
 10
602674.0
 20
3478742.0
 30
0.01
  0
VERTEX
  5
293
  8
10BY10
 10
602674.0
 20
3478752.0
 30
0.01
  0
VERTEX
  5
294
  8
10BY10
 10
602664.0
 20
3478752.0
 30
0.01
  0
SEQEND
  5
295
  8
10BY10
  0
POLYLINE
  5
7C
  8
10BY10
 66
     1
 10
0.0
 20
0.0
 30
0.5610000000000001
 70
     1
1001
DCO15
1071
        2
1071
        2
1000
variablelink
1004
0000000000008440
  0
VERTEX
  5
296
  8
10BY10
 10
604773.0
 20
3481014.0
 30
0.5610000000000001
  0
VERTEX
  5
297
  8
10BY10
 10
604783.0
 20
3481014.0
 30
0.5610000000000001
  0
VERTEX
  5
298
  8
10BY10
 10
604783.0
 20
3481024.0
 30
0.5610000000000001
  0
VERTEX
  5
299
  8
10BY10
 10
604773.0
 20
3481024.0
 30
0.5610000000000001
  0
SEQEND
  5
29A
  8
10BY10
  0
POLYLINE
  5
7D
  8
10BY10
 66
     1
 10
0.0
 20
0.0
 30
0.4760000000000001
 70
     1
1001
DCO15
1071
        2
1071
        2
1000
variablelink
1004
0000000000088440
  0
VERTEX
  5
29B
  8
10BY10
 10
604766.0
 20
3481029.0
 30
0.4760000000000001
  0
VERTEX
  5
29C
  8
10BY10
 10
604776.0
 20
3481029.0
 30
0.4760000000000001
  0
VERTEX
  5
29D
  8
10BY10
 10
604776.0
 20
3481039.0
 30
0.4760000000000001
  0
VERTEX
  5
29E
  8
10BY10
 10
604766.0
 20
3481039.0
 30
0.4760000000000001
  0
SEQEND
  5
29F
  8
10BY10
  0
POLYLINE
  5
7E
  8
10BY10
 66
     1
 10
0.0
 20
0.0
 30
0.578
 70
     1
1001
DCO15
1071
        2
1071
        2
1000
variablelink
1004
0000000000108440
  0
VERTEX
  5
2A0
  8
10BY10
 10
604775.0
 20
3481057.0
 30
0.578
  0
VERTEX
  5
2A1
  8
10BY10
 10
604785.0
 20
3481057.0
 30
0.578
  0
VERTEX
  5
2A2
  8
10BY10
 10
604785.0
 20
3481067.0
 30
0.578
  0
VERTEX
  5
2A3
  8
10BY10
 10
604775.0
 20
3481067.0
 30
0.578
  0
SEQEND
  5
2A4
  8
10BY10
  0
POLYLINE
  5
7F
  8
10BY10
 66
     1
 10
0.0
 20
0.0
 30
0.051
 70
     1
1001
DCO15
1071
        2
1071
        2
1000
variablelink
1004
0000000000208440
  0
VERTEX
  5
2A5
  8
10BY10
 10
604780.0
 20
3481092.0
 30
0.051
  0
VERTEX
  5
2A6
  8
10BY10
 10
604790.0
 20
3481092.0
 30
0.051
  0
VERTEX
  5
2A7
  8
10BY10
 10
604790.0
 20
3481102.0
 30
0.051
  0
VERTEX
  5
2A8
  8
10BY10
 10
604780.0
 20
3481102.0
 30
0.051
  0
SEQEND
  5
2A9
  8
10BY10
  0
POLYLINE
  5
80
  8
10BY10
 66
     1
 10
0.0
 20
0.0
 30
0.034
 70
     1
1001
DCO15
1071
        2
1071
        2
1000
variablelink
1004
0000000000288440
  0
VERTEX
  5
2AA
  8
10BY10
 10
604732.0
 20
3481072.0
 30
0.034
  0
VERTEX
  5
2AB
  8
10BY10
 10
604742.0
 20
3481072.0
 30
0.034
  0
VERTEX
  5
2AC
  8
10BY10
 10
604742.0
 20
3481082.0
 30
0.034
  0
VERTEX
  5
2AD
  8
10BY10
 10
604732.0
 20
3481082.0
 30
0.034
  0
SEQEND
  5
2AE
  8
10BY10
  0
POLYLINE
  5
81
  8
10BY10
 66
     1
 10
0.0
 20
0.0
 30
0.01
 70
     1
1001
DCO15
1071
        2
1071
        2
1000
variablelink
1004
0000000000A88440
  0
VERTEX
  5
2AF
  8
10BY10
 10
602703.0
 20
3478749.0
 30
0.01
  0
VERTEX
  5
2B0
  8
10BY10
 10
602713.0
 20
3478749.0
 30
0.01
  0
VERTEX
  5
2B1
  8
10BY10
 10
602713.0
 20
3478759.0
 30
0.01
  0
VERTEX
  5
2B2
  8
10BY10
 10
602703.0
 20
3478759.0
 30
0.01
  0
SEQEND
  5
2B3
  8
10BY10
  0
POLYLINE
  5
82
  8
10BY10
 66
     1
 10
0.0
 20
0.0
 30
0.02
 70
     1
1001
DCO15
1071
        2
1071
        2
1000
variablelink
1004
0000000000B08440
  0
VERTEX
  5
2B4
  8
10BY10
 10
602683.0
 20
3478755.0
 30
0.02
  0
VERTEX
  5
2B5
  8
10BY10
 10
602693.0
 20
3478755.0
 30
0.02
  0
VERTEX
  5
2B6
  8
10BY10
 10
602693.0
 20
3478765.0
 30
0.02
  0
VERTEX
  5
2B7
  8
10BY10
 10
602683.0
 20
3478765.0
 30
0.02
  0
SEQEND
  5
2B8
  8
10BY10
  0
POLYLINE
  5
83
  8
10BY10
 66
     1
 10
0.0
 20
0.0
 30
0.02
 70
     1
1001
DCO15
1071
        2
1071
        2
1000
variablelink
1004
0000000000B88440
  0
VERTEX
  5
2B9
  8
10BY10
 10
602639.0
 20
3478785.0
 30
0.02
  0
VERTEX
  5
2BA
  8
10BY10
 10
602649.0
 20
3478785.0
 30
0.02
  0
VERTEX
  5
2BB
  8
10BY10
 10
602649.0
 20
3478795.0
 30
0.02
  0
VERTEX
  5
2BC
  8
10BY10
 10
602639.0
 20
3478795.0
 30
0.02
  0
SEQEND
  5
2BD
  8
10BY10
  0
POLYLINE
  5
84
  8
10BY10
 66
     1
 10
0.0
 20
0.0
 30
0.064
 70
     1
1001
DCO15
1071
        2
1071
        2
1000
variablelink
1004
0000000000B88540
  0
VERTEX
  5
2BE
  8
10BY10
 10
603108.0
 20
3478892.0
 30
0.064
  0
VERTEX
  5
2BF
  8
10BY10
 10
603118.0
 20
3478892.0
 30
0.064
  0
VERTEX
  5
2C0
  8
10BY10
 10
603118.0
 20
3478902.0
 30
0.064
  0
VERTEX
  5
2C1
  8
10BY10
 10
603108.0
 20
3478902.0
 30
0.064
  0
SEQEND
  5
2C2
  8
10BY10
  0
POLYLINE
  5
85
  8
10BY10
 66
     1
 10
0.0
 20
0.0
 30
0.144
 70
     1
1001
DCO15
1071
        2
1071
        2
1000
variablelink
1004
0000000000C08540
  0
VERTEX
  5
2C3
  8
10BY10
 10
603128.0
 20
3478936.0
 30
0.144
  0
VERTEX
  5
2C4
  8
10BY10
 10
603138.0
 20
3478936.0
 30
0.144
  0
VERTEX
  5
2C5
  8
10BY10
 10
603138.0
 20
3478946.0
 30
0.144
  0
VERTEX
  5
2C6
  8
10BY10
 10
603128.0
 20
3478946.0
 30
0.144
  0
SEQEND
  5
2C7
  8
10BY10
  0
POLYLINE
  5
86
  8
10BY10
 66
     1
 10
0.0
 20
0.0
 30
0.03
 70
     1
1001
DCO15
1071
        2
1071
        2
1000
variablelink
1004
0000000000E88540
  0
VERTEX
  5
2C8
  8
10BY10
 10
603136.0
 20
3478901.0
 30
0.03
  0
VERTEX
  5
2C9
  8
10BY10
 10
603146.0
 20
3478901.0
 30
0.03
  0
VERTEX
  5
2CA
  8
10BY10
 10
603146.0
 20
3478911.0
 30
0.03
  0
VERTEX
  5
2CB
  8
10BY10
 10
603136.0
 20
3478911.0
 30
0.03
  0
SEQEND
  5
2CC
  8
10BY10
  0
POLYLINE
  5
87
  8
10BY10
 66
     1
 10
0.0
 20
0.0
 30
0.16
 70
     1
1001
DCO15
1071
        2
1071
        2
1000
variablelink
1004
0000000000F08540
  0
VERTEX
  5
2CD
  8
10BY10
 10
603129.0
 20
3478883.0
 30
0.16
  0
VERTEX
  5
2CE
  8
10BY10
 10
603139.0
 20
3478883.0
 30
0.16
  0
VERTEX
  5
2CF
  8
10BY10
 10
603139.0
 20
3478893.0
 30
0.16
  0
VERTEX
  5
2D0
  8
10BY10
 10
603129.0
 20
3478893.0
 30
0.16
  0
SEQEND
  5
2D1
  8
10BY10
  0
POLYLINE
  5
88
  8
10BY10
 66
     1
 10
0.0
 20
0.0
 30
0.11
 70
     1
1001
DCO15
1071
        2
1071
        2
1000
variablelink
1004
0000000000188640
  0
VERTEX
  5
2D2
  8
10BY10
 10
603130.0
 20
3478923.0
 30
0.11
  0
VERTEX
  5
2D3
  8
10BY10
 10
603140.0
 20
3478923.0
 30
0.11
  0
VERTEX
  5
2D4
  8
10BY10
 10
603140.0
 20
3478933.0
 30
0.11
  0
VERTEX
  5
2D5
  8
10BY10
 10
603130.0
 20
3478933.0
 30
0.11
  0
SEQEND
  5
2D6
  8
10BY10
  0
POLYLINE
  5
89
  8
10BY10
 66
     1
 10
0.0
 20
0.0
 30
0.06
 70
     1
1001
DCO15
1071
        2
1071
        2
1000
variablelink
1004
0000000000208640
  0
VERTEX
  5
2D7
  8
10BY10
 10
603146.0
 20
3478913.0
 30
0.06
  0
VERTEX
  5
2D8
  8
10BY10
 10
603156.0
 20
3478913.0
 30
0.06
  0
VERTEX
  5
2D9
  8
10BY10
 10
603156.0
 20
3478923.0
 30
0.06
  0
VERTEX
  5
2DA
  8
10BY10
 10
603146.0
 20
3478923.0
 30
0.06
  0
SEQEND
  5
2DB
  8
10BY10
  0
POLYLINE
  5
8A
  8
10BY10
 66
     1
 10
0.0
 20
0.0
 30
0.1
 70
     1
1001
DCO15
1071
        2
1071
        2
1000
variablelink
1004
0000000000288640
  0
VERTEX
  5
2DC
  8
10BY10
 10
603126.0
 20
3478903.0
 30
0.1
  0
VERTEX
  5
2DD
  8
10BY10
 10
603136.0
 20
3478903.0
 30
0.1
  0
VERTEX
  5
2DE
  8
10BY10
 10
603136.0
 20
3478913.0
 30
0.1
  0
VERTEX
  5
2DF
  8
10BY10
 10
603126.0
 20
3478913.0
 30
0.1
  0
SEQEND
  5
2E0
  8
10BY10
  0
POLYLINE
  5
8B
  8
10BY10
 66
     1
 10
0.0
 20
0.0
 30
0.15
 70
     1
1001
DCO15
1071
        2
1071
        2
1000
variablelink
1004
0000000000308640
  0
VERTEX
  5
2E1
  8
10BY10
 10
603136.0
 20
3478913.0
 30
0.15
  0
VERTEX
  5
2E2
  8
10BY10
 10
603146.0
 20
3478913.0
 30
0.15
  0
VERTEX
  5
2E3
  8
10BY10
 10
603146.0
 20
3478923.0
 30
0.15
  0
VERTEX
  5
2E4
  8
10BY10
 10
603136.0
 20
3478923.0
 30
0.15
  0
SEQEND
  5
2E5
  8
10BY10
  0
POLYLINE
  5
8C
  8
10BY10
 66
     1
 10
0.0
 20
0.0
 30
0.05
 70
     1
1001
DCO15
1071
        2
1071
        2
1000
variablelink
1004
0000000000388640
  0
VERTEX
  5
2E6
  8
10BY10
 10
603125.0
 20
3478893.0
 30
0.05
  0
VERTEX
  5
2E7
  8
10BY10
 10
603135.0
 20
3478893.0
 30
0.05
  0
VERTEX
  5
2E8
  8
10BY10
 10
603135.0
 20
3478903.0
 30
0.05
  0
VERTEX
  5
2E9
  8
10BY10
 10
603125.0
 20
3478903.0
 30
0.05
  0
SEQEND
  5
2EA
  8
10BY10
  0
POLYLINE
  5
8D
  8
10BY10
 66
     1
 10
0.0
 20
0.0
 30
0.06
 70
     1
1001
DCO15
1071
        2
1071
        2
1000
variablelink
1004
0000000000408640
  0
VERTEX
  5
2EB
  8
10BY10
 10
603121.0
 20
3478863.0
 30
0.06
  0
VERTEX
  5
2EC
  8
10BY10
 10
603131.0
 20
3478863.0
 30
0.06
  0
VERTEX
  5
2ED
  8
10BY10
 10
603131.0
 20
3478873.0
 30
0.06
  0
VERTEX
  5
2EE
  8
10BY10
 10
603121.0
 20
3478873.0
 30
0.06
  0
SEQEND
  5
2EF
  8
10BY10
  0
POLYLINE
  5
8E
  8
10BY10
 66
     1
 10
0.0
 20
0.0
 30
0.05
 70
     1
1001
DCO15
1071
        2
1071
        2
1000
variablelink
1004
0000000000B88740
  0
VERTEX
  5
2F0
  8
10BY10
 10
601409.0
 20
3484536.0
 30
0.05
  0
VERTEX
  5
2F1
  8
10BY10
 10
601419.0
 20
3484536.0
 30
0.05
  0
VERTEX
  5
2F2
  8
10BY10
 10
601419.0
 20
3484546.0
 30
0.05
  0
VERTEX
  5
2F3
  8
10BY10
 10
601409.0
 20
3484546.0
 30
0.05
  0
SEQEND
  5
2F4
  8
10BY10
  0
POLYLINE
  5
8F
  8
10BY10
 66
     1
 10
0.0
 20
0.0
 30
0.08
 70
     1
1001
DCO15
1071
        2
1071
        2
1000
variablelink
1004
0000000000C08740
  0
VERTEX
  5
2F5
  8
10BY10
 10
601412.0
 20
3484560.0
 30
0.08
  0
VERTEX
  5
2F6
  8
10BY10
 10
601422.0
 20
3484560.0
 30
0.08
  0
VERTEX
  5
2F7
  8
10BY10
 10
601422.0
 20
3484570.0
 30
0.08
  0
VERTEX
  5
2F8
  8
10BY10
 10
601412.0
 20
3484570.0
 30
0.08
  0
SEQEND
  5
2F9
  8
10BY10
  0
POLYLINE
  5
90
  8
10BY10
 66
     1
 10
0.0
 20
0.0
 30
0.05
 70
     1
1001
DCO15
1071
        2
1071
        2
1000
variablelink
1004
0000000000D88740
  0
VERTEX
  5
2FA
  8
10BY10
 10
601373.0
 20
3484518.0
 30
0.05
  0
VERTEX
  5
2FB
  8
10BY10
 10
601383.0
 20
3484518.0
 30
0.05
  0
VERTEX
  5
2FC
  8
10BY10
 10
601383.0
 20
3484528.0
 30
0.05
  0
VERTEX
  5
2FD
  8
10BY10
 10
601373.0
 20
3484528.0
 30
0.05
  0
SEQEND
  5
2FE
  8
10BY10
  0
POLYLINE
  5
91
  8
10BY10
 66
     1
 10
0.0
 20
0.0
 30
0.01
 70
     1
1001
DCO15
1071
        2
1071
        2
1000
variablelink
1004
0000000000F08740
  0
VERTEX
  5
2FF
  8
10BY10
 10
601263.0
 20
3484501.0
 30
0.01
  0
VERTEX
  5
300
  8
10BY10
 10
601273.0
 20
3484501.0
 30
0.01
  0
VERTEX
  5
301
  8
10BY10
 10
601273.0
 20
3484511.0
 30
0.01
  0
VERTEX
  5
302
  8
10BY10
 10
601263.0
 20
3484511.0
 30
0.01
  0
SEQEND
  5
303
  8
10BY10
  0
POLYLINE
  5
92
  8
10BY10
 66
     1
 10
0.0
 20
0.0
 30
0.06
 70
     1
1001
DCO15
1071
        2
1071
        2
1000
variablelink
1004
0000000000688940
  0
VERTEX
  5
304
  8
10BY10
 10
585804.0
 20
3497001.0
 30
0.06
  0
VERTEX
  5
305
  8
10BY10
 10
585814.0
 20
3497001.0
 30
0.06
  0
VERTEX
  5
306
  8
10BY10
 10
585814.0
 20
3497011.0
 30
0.06
  0
VERTEX
  5
307
  8
10BY10
 10
585804.0
 20
3497011.0
 30
0.06
  0
SEQEND
  5
308
  8
10BY10
  0
POLYLINE
  5
93
  8
10BY10
 66
     1
 10
0.0
 20
0.0
 30
0.02
 70
     1
1001
DCO15
1071
        2
1071
        2
1000
variablelink
1004
0000000000788940
  0
VERTEX
  5
309
  8
10BY10
 10
585202.0
 20
3497066.0
 30
0.02
  0
VERTEX
  5
30A
  8
10BY10
 10
585212.0
 20
3497066.0
 30
0.02
  0
VERTEX
  5
30B
  8
10BY10
 10
585212.0
 20
3497076.0
 30
0.02
  0
VERTEX
  5
30C
  8
10BY10
 10
585202.0
 20
3497076.0
 30
0.02
  0
SEQEND
  5
30D
  8
10BY10
  0
POLYLINE
  5
94
  8
10BY10
 66
     1
 10
0.0
 20
0.0
 30
0.05
 70
     1
1001
DCO15
1071
        2
1071
        2
1000
variablelink
1004
0000000000908940
  0
VERTEX
  5
30E
  8
10BY10
 10
585161.0
 20
3497034.0
 30
0.05
  0
VERTEX
  5
30F
  8
10BY10
 10
585171.0
 20
3497034.0
 30
0.05
  0
VERTEX
  5
310
  8
10BY10
 10
585171.0
 20
3497044.0
 30
0.05
  0
VERTEX
  5
311
  8
10BY10
 10
585161.0
 20
3497044.0
 30
0.05
  0
SEQEND
  5
312
  8
10BY10
  0
POLYLINE
  5
95
  8
10BY10
 66
     1
 10
0.0
 20
0.0
 30
0.29
 70
     1
1001
DCO15
1071
        2
1071
        2
1000
variablelink
1004
0000000000B08940
  0
VERTEX
  5
313
  8
10BY10
 10
585177.0
 20
3497010.0
 30
0.29
  0
VERTEX
  5
314
  8
10BY10
 10
585187.0
 20
3497010.0
 30
0.29
  0
VERTEX
  5
315
  8
10BY10
 10
585187.0
 20
3497020.0
 30
0.29
  0
VERTEX
  5
316
  8
10BY10
 10
585177.0
 20
3497020.0
 30
0.29
  0
SEQEND
  5
317
  8
10BY10
  0
POLYLINE
  5
96
  8
10BY10
 66
     1
 10
0.0
 20
0.0
 30
0.051
 70
     1
1001
DCO15
1071
        2
1071
        2
1000
variablelink
1004
0000000000C08940
  0
VERTEX
  5
318
  8
10BY10
 10
585471.0
 20
3497034.0
 30
0.051
  0
VERTEX
  5
319
  8
10BY10
 10
585481.0
 20
3497034.0
 30
0.051
  0
VERTEX
  5
31A
  8
10BY10
 10
585481.0
 20
3497044.0
 30
0.051
  0
VERTEX
  5
31B
  8
10BY10
 10
585471.0
 20
3497044.0
 30
0.051
  0
SEQEND
  5
31C
  8
10BY10
  0
POLYLINE
  5
97
  8
10BY10
 66
     1
 10
0.0
 20
0.0
 30
0.04
 70
     1
1001
DCO15
1071
        2
1071
        2
1000
variablelink
1004
0000000000D88940
  0
VERTEX
  5
31D
  8
10BY10
 10
585190.0
 20
3497013.0
 30
0.04
  0
VERTEX
  5
31E
  8
10BY10
 10
585200.0
 20
3497013.0
 30
0.04
  0
VERTEX
  5
31F
  8
10BY10
 10
585200.0
 20
3497023.0
 30
0.04
  0
VERTEX
  5
320
  8
10BY10
 10
585190.0
 20
3497023.0
 30
0.04
  0
SEQEND
  5
321
  8
10BY10
  0
POLYLINE
  5
98
  8
10BY10
 66
     1
 10
0.0
 20
0.0
 30
0.02
 70
     1
1001
DCO15
1071
        2
1071
        2
1000
variablelink
1004
0000000000A08A40
  0
VERTEX
  5
322
  8
10BY10
 10
589949.0
 20
3494329.0
 30
0.02
  0
VERTEX
  5
323
  8
10BY10
 10
589959.0
 20
3494329.0
 30
0.02
  0
VERTEX
  5
324
  8
10BY10
 10
589959.0
 20
3494339.0
 30
0.02
  0
VERTEX
  5
325
  8
10BY10
 10
589949.0
 20
3494339.0
 30
0.02
  0
SEQEND
  5
326
  8
10BY10
  0
POLYLINE
  5
99
  8
10BY10
 66
     1
 10
0.0
 20
0.0
 30
0.01
 70
     1
1001
DCO15
1071
        2
1071
        2
1000
variablelink
1004
0000000000888B40
  0
VERTEX
  5
327
  8
10BY10
 10
581101.0
 20
3495519.0
 30
0.01
  0
VERTEX
  5
328
  8
10BY10
 10
581111.0
 20
3495519.0
 30
0.01
  0
VERTEX
  5
329
  8
10BY10
 10
581111.0
 20
3495529.0
 30
0.01
  0
VERTEX
  5
32A
  8
10BY10
 10
581101.0
 20
3495529.0
 30
0.01
  0
SEQEND
  5
32B
  8
10BY10
  0
POLYLINE
  5
9A
  8
10BY10
 66
     1
 10
0.0
 20
0.0
 30
0.08
 70
     1
1001
DCO15
1071
        2
1071
        2
1000
variablelink
1004
0000000000B08B40
  0
VERTEX
  5
32C
  8
10BY10
 10
580970.0
 20
3495308.0
 30
0.08
  0
VERTEX
  5
32D
  8
10BY10
 10
580980.0
 20
3495308.0
 30
0.08
  0
VERTEX
  5
32E
  8
10BY10
 10
580980.0
 20
3495318.0
 30
0.08
  0
VERTEX
  5
32F
  8
10BY10
 10
580970.0
 20
3495318.0
 30
0.08
  0
SEQEND
  5
330
  8
10BY10
  0
POLYLINE
  5
9B
  8
10BY10
 66
     1
 10
0.0
 20
0.0
 30
0.04
 70
     1
1001
DCO15
1071
        2
1071
        2
1000
variablelink
1004
0000000000B88B40
  0
VERTEX
  5
331
  8
10BY10
 10
581083.0
 20
3495350.0
 30
0.04
  0
VERTEX
  5
332
  8
10BY10
 10
581093.0
 20
3495350.0
 30
0.04
  0
VERTEX
  5
333
  8
10BY10
 10
581093.0
 20
3495360.0
 30
0.04
  0
VERTEX
  5
334
  8
10BY10
 10
581083.0
 20
3495360.0
 30
0.04
  0
SEQEND
  5
335
  8
10BY10
  0
POLYLINE
  5
9C
  8
10BY10
 66
     1
 10
0.0
 20
0.0
 30
0.03
 70
     1
1001
DCO15
1071
        2
1071
        2
1000
variablelink
1004
0000000000C08B40
  0
VERTEX
  5
336
  8
10BY10
 10
580966.0
 20
3495318.0
 30
0.03
  0
VERTEX
  5
337
  8
10BY10
 10
580976.0
 20
3495318.0
 30
0.03
  0
VERTEX
  5
338
  8
10BY10
 10
580976.0
 20
3495328.0
 30
0.03
  0
VERTEX
  5
339
  8
10BY10
 10
580966.0
 20
3495328.0
 30
0.03
  0
SEQEND
  5
33A
  8
10BY10
  0
POLYLINE
  5
9D
  8
10BY10
 66
     1
 10
0.0
 20
0.0
 30
0.07
 70
     1
1001
DCO15
1071
        2
1071
        2
1000
variablelink
1004
0000000000008C40
  0
VERTEX
  5
33B
  8
10BY10
 10
581117.0
 20
3495532.0
 30
0.07
  0
VERTEX
  5
33C
  8
10BY10
 10
581127.0
 20
3495532.0
 30
0.07
  0
VERTEX
  5
33D
  8
10BY10
 10
581127.0
 20
3495542.0
 30
0.07
  0
VERTEX
  5
33E
  8
10BY10
 10
581117.0
 20
3495542.0
 30
0.07
  0
SEQEND
  5
33F
  8
10BY10
  0
POLYLINE
  5
9E
  8
10BY10
 66
     1
 10
0.0
 20
0.0
 30
0.08
 70
     1
1001
DCO15
1071
        2
1071
        2
1000
variablelink
1004
0000000000088C40
  0
VERTEX
  5
340
  8
10BY10
 10
581123.0
 20
3495497.0
 30
0.08
  0
VERTEX
  5
341
  8
10BY10
 10
581133.0
 20
3495497.0
 30
0.08
  0
VERTEX
  5
342
  8
10BY10
 10
581133.0
 20
3495507.0
 30
0.08
  0
VERTEX
  5
343
  8
10BY10
 10
581123.0
 20
3495507.0
 30
0.08
  0
SEQEND
  5
344
  8
10BY10
  0
POLYLINE
  5
9F
  8
10BY10
 66
     1
 10
0.0
 20
0.0
 30
0.03
 70
     1
1001
DCO15
1071
        2
1071
        2
1000
variablelink
1004
0000000000108C40
  0
VERTEX
  5
345
  8
10BY10
 10
581157.0
 20
3495349.0
 30
0.03
  0
VERTEX
  5
346
  8
10BY10
 10
581167.0
 20
3495349.0
 30
0.03
  0
VERTEX
  5
347
  8
10BY10
 10
581167.0
 20
3495359.0
 30
0.03
  0
VERTEX
  5
348
  8
10BY10
 10
581157.0
 20
3495359.0
 30
0.03
  0
SEQEND
  5
349
  8
10BY10
  0
POLYLINE
  5
A0
  8
10BY10
 66
     1
 10
0.0
 20
0.0
 30
0.02
 70
     1
1001
DCO15
1071
        2
1071
        2
1000
variablelink
1004
0000000000208C40
  0
VERTEX
  5
34A
  8
10BY10
 10
581138.0
 20
3495244.0
 30
0.02
  0
VERTEX
  5
34B
  8
10BY10
 10
581148.0
 20
3495244.0
 30
0.02
  0
VERTEX
  5
34C
  8
10BY10
 10
581148.0
 20
3495254.0
 30
0.02
  0
VERTEX
  5
34D
  8
10BY10
 10
581138.0
 20
3495254.0
 30
0.02
  0
SEQEND
  5
34E
  8
10BY10
  0
POLYLINE
  5
A1
  8
10BY10
 66
     1
 10
0.0
 20
0.0
 30
0.12
 70
     1
1001
DCO15
1071
        2
1071
        2
1000
variablelink
1004
0000000000308C40
  0
VERTEX
  5
34F
  8
10BY10
 10
581128.0
 20
3495300.0
 30
0.12
  0
VERTEX
  5
350
  8
10BY10
 10
581138.0
 20
3495300.0
 30
0.12
  0
VERTEX
  5
351
  8
10BY10
 10
581138.0
 20
3495310.0
 30
0.12
  0
VERTEX
  5
352
  8
10BY10
 10
581128.0
 20
3495310.0
 30
0.12
  0
SEQEND
  5
353
  8
10BY10
  0
POLYLINE
  5
A2
  8
10BY10
 66
     1
 10
0.0
 20
0.0
 30
0.04
 70
     1
1001
DCO15
1071
        2
1071
        2
1000
variablelink
1004
0000000000388C40
  0
VERTEX
  5
354
  8
10BY10
 10
581116.0
 20
3495351.0
 30
0.04
  0
VERTEX
  5
355
  8
10BY10
 10
581126.0
 20
3495351.0
 30
0.04
  0
VERTEX
  5
356
  8
10BY10
 10
581126.0
 20
3495361.0
 30
0.04
  0
VERTEX
  5
357
  8
10BY10
 10
581116.0
 20
3495361.0
 30
0.04
  0
SEQEND
  5
358
  8
10BY10
  0
POLYLINE
  5
A3
  8
10BY10
 66
     1
 10
0.0
 20
0.0
 30
0.04
 70
     1
1001
DCO15
1071
        2
1071
        2
1000
variablelink
1004
0000000000408C40
  0
VERTEX
  5
359
  8
10BY10
 10
580998.0
 20
3495316.0
 30
0.04
  0
VERTEX
  5
35A
  8
10BY10
 10
581008.0
 20
3495316.0
 30
0.04
  0
VERTEX
  5
35B
  8
10BY10
 10
581008.0
 20
3495326.0
 30
0.04
  0
VERTEX
  5
35C
  8
10BY10
 10
580998.0
 20
3495326.0
 30
0.04
  0
SEQEND
  5
35D
  8
10BY10
  0
POLYLINE
  5
A4
  8
10BY10
 66
     1
 10
0.0
 20
0.0
 30
0.03
 70
     1
1001
DCO15
1071
        2
1071
        2
1000
variablelink
1004
0000000000488C40
  0
VERTEX
  5
35E
  8
10BY10
 10
580986.0
 20
3495389.0
 30
0.03
  0
VERTEX
  5
35F
  8
10BY10
 10
580996.0
 20
3495389.0
 30
0.03
  0
VERTEX
  5
360
  8
10BY10
 10
580996.0
 20
3495399.0
 30
0.03
  0
VERTEX
  5
361
  8
10BY10
 10
580986.0
 20
3495399.0
 30
0.03
  0
SEQEND
  5
362
  8
10BY10
  0
POLYLINE
  5
A5
  8
10BY10
 66
     1
 10
0.0
 20
0.0
 30
0.13
 70
     1
1001
DCO15
1071
        2
1071
        2
1000
variablelink
1004
0000000000508C40
  0
VERTEX
  5
363
  8
10BY10
 10
580956.0
 20
3495362.0
 30
0.13
  0
VERTEX
  5
364
  8
10BY10
 10
580966.0
 20
3495362.0
 30
0.13
  0
VERTEX
  5
365
  8
10BY10
 10
580966.0
 20
3495372.0
 30
0.13
  0
VERTEX
  5
366
  8
10BY10
 10
580956.0
 20
3495372.0
 30
0.13
  0
SEQEND
  5
367
  8
10BY10
  0
POLYLINE
  5
A6
  8
10BY10
 66
     1
 10
0.0
 20
0.0
 30
0.01
 70
     1
1001
DCO15
1071
        2
1071
        2
1000
variablelink
1004
0000000000588C40
  0
VERTEX
  5
368
  8
10BY10
 10
580970.0
 20
3495338.0
 30
0.01
  0
VERTEX
  5
369
  8
10BY10
 10
580980.0
 20
3495338.0
 30
0.01
  0
VERTEX
  5
36A
  8
10BY10
 10
580980.0
 20
3495348.0
 30
0.01
  0
VERTEX
  5
36B
  8
10BY10
 10
580970.0
 20
3495348.0
 30
0.01
  0
SEQEND
  5
36C
  8
10BY10
  0
POLYLINE
  5
A7
  8
10BY10
 66
     1
 10
0.0
 20
0.0
 30
0.01
 70
     1
1001
DCO15
1071
        2
1071
        2
1000
variablelink
1004
0000000000708C40
  0
VERTEX
  5
36D
  8
10BY10
 10
581117.0
 20
3495366.0
 30
0.01
  0
VERTEX
  5
36E
  8
10BY10
 10
581127.0
 20
3495366.0
 30
0.01
  0
VERTEX
  5
36F
  8
10BY10
 10
581127.0
 20
3495376.0
 30
0.01
  0
VERTEX
  5
370
  8
10BY10
 10
581117.0
 20
3495376.0
 30
0.01
  0
SEQEND
  5
371
  8
10BY10
  0
POLYLINE
  5
A8
  8
10BY10
 66
     1
 10
0.0
 20
0.0
 30
0.02
 70
     1
1001
DCO15
1071
        2
1071
        2
1000
variablelink
1004
0000000000788C40
  0
VERTEX
  5
372
  8
10BY10
 10
581101.0
 20
3495371.0
 30
0.02
  0
VERTEX
  5
373
  8
10BY10
 10
581111.0
 20
3495371.0
 30
0.02
  0
VERTEX
  5
374
  8
10BY10
 10
581111.0
 20
3495381.0
 30
0.02
  0
VERTEX
  5
375
  8
10BY10
 10
581101.0
 20
3495381.0
 30
0.02
  0
SEQEND
  5
376
  8
10BY10
  0
POLYLINE
  5
A9
  8
10BY10
 66
     1
 10
0.0
 20
0.0
 30
0.03
 70
     1
1001
DCO15
1071
        2
1071
        2
1000
variablelink
1004
0000000000808C40
  0
VERTEX
  5
377
  8
10BY10
 10
581090.0
 20
3495414.0
 30
0.03
  0
VERTEX
  5
378
  8
10BY10
 10
581100.0
 20
3495414.0
 30
0.03
  0
VERTEX
  5
379
  8
10BY10
 10
581100.0
 20
3495424.0
 30
0.03
  0
VERTEX
  5
37A
  8
10BY10
 10
581090.0
 20
3495424.0
 30
0.03
  0
SEQEND
  5
37B
  8
10BY10
  0
POLYLINE
  5
AA
  8
10BY10
 66
     1
 10
0.0
 20
0.0
 30
0.1
 70
     1
1001
DCO15
1071
        2
1071
        2
1000
variablelink
1004
0000000000888C40
  0
VERTEX
  5
37C
  8
10BY10
 10
581084.0
 20
3495435.0
 30
0.1
  0
VERTEX
  5
37D
  8
10BY10
 10
581094.0
 20
3495435.0
 30
0.1
  0
VERTEX
  5
37E
  8
10BY10
 10
581094.0
 20
3495445.0
 30
0.1
  0
VERTEX
  5
37F
  8
10BY10
 10
581084.0
 20
3495445.0
 30
0.1
  0
SEQEND
  5
380
  8
10BY10
  0
POLYLINE
  5
AB
  8
10BY10
 66
     1
 10
0.0
 20
0.0
 30
0.04
 70
     1
1001
DCO15
1071
        2
1071
        2
1000
variablelink
1004
0000000000908C40
  0
VERTEX
  5
381
  8
10BY10
 10
581082.0
 20
3495374.0
 30
0.04
  0
VERTEX
  5
382
  8
10BY10
 10
581092.0
 20
3495374.0
 30
0.04
  0
VERTEX
  5
383
  8
10BY10
 10
581092.0
 20
3495384.0
 30
0.04
  0
VERTEX
  5
384
  8
10BY10
 10
581082.0
 20
3495384.0
 30
0.04
  0
SEQEND
  5
385
  8
10BY10
  0
POLYLINE
  5
AC
  8
10BY10
 66
     1
 10
0.0
 20
0.0
 30
0.01
 70
     1
1001
DCO15
1071
        2
1071
        2
1000
variablelink
1004
0000000000A08C40
  0
VERTEX
  5
386
  8
10BY10
 10
581016.0
 20
3495332.0
 30
0.01
  0
VERTEX
  5
387
  8
10BY10
 10
581026.0
 20
3495332.0
 30
0.01
  0
VERTEX
  5
388
  8
10BY10
 10
581026.0
 20
3495342.0
 30
0.01
  0
VERTEX
  5
389
  8
10BY10
 10
581016.0
 20
3495342.0
 30
0.01
  0
SEQEND
  5
38A
  8
10BY10
  0
POLYLINE
  5
AD
  8
10BY10
 66
     1
 10
0.0
 20
0.0
 30
0.02
 70
     1
1001
DCO15
1071
        2
1071
        2
1000
variablelink
1004
0000000000B08C40
  0
VERTEX
  5
38B
  8
10BY10
 10
581000.0
 20
3495380.0
 30
0.02
  0
VERTEX
  5
38C
  8
10BY10
 10
581010.0
 20
3495380.0
 30
0.02
  0
VERTEX
  5
38D
  8
10BY10
 10
581010.0
 20
3495390.0
 30
0.02
  0
VERTEX
  5
38E
  8
10BY10
 10
581000.0
 20
3495390.0
 30
0.02
  0
SEQEND
  5
38F
  8
10BY10
  0
POLYLINE
  5
AE
  8
10BY10
 66
     1
 10
0.0
 20
0.0
 30
0.01
 70
     1
1001
DCO15
1071
        2
1071
        2
1000
variablelink
1004
0000000000C08C40
  0
VERTEX
  5
390
  8
10BY10
 10
581204.0
 20
3495639.0
 30
0.01
  0
VERTEX
  5
391
  8
10BY10
 10
581214.0
 20
3495639.0
 30
0.01
  0
VERTEX
  5
392
  8
10BY10
 10
581214.0
 20
3495649.0
 30
0.01
  0
VERTEX
  5
393
  8
10BY10
 10
581204.0
 20
3495649.0
 30
0.01
  0
SEQEND
  5
394
  8
10BY10
  0
POLYLINE
  5
AF
  8
10BY10
 66
     1
 10
0.0
 20
0.0
 30
0.06
 70
     1
1001
DCO15
1071
        2
1071
        2
1000
variablelink
1004
0000000000D08C40
  0
VERTEX
  5
395
  8
10BY10
 10
581100.0
 20
3495467.0
 30
0.06
  0
VERTEX
  5
396
  8
10BY10
 10
581110.0
 20
3495467.0
 30
0.06
  0
VERTEX
  5
397
  8
10BY10
 10
581110.0
 20
3495477.0
 30
0.06
  0
VERTEX
  5
398
  8
10BY10
 10
581100.0
 20
3495477.0
 30
0.06
  0
SEQEND
  5
399
  8
10BY10
  0
POLYLINE
  5
B0
  8
10BY10
 66
     1
 10
0.0
 20
0.0
 30
0.03
 70
     1
1001
DCO15
1071
        2
1071
        2
1000
variablelink
1004
0000000000E08C40
  0
VERTEX
  5
39A
  8
10BY10
 10
581130.0
 20
3495326.0
 30
0.03
  0
VERTEX
  5
39B
  8
10BY10
 10
581140.0
 20
3495326.0
 30
0.03
  0
VERTEX
  5
39C
  8
10BY10
 10
581140.0
 20
3495336.0
 30
0.03
  0
VERTEX
  5
39D
  8
10BY10
 10
581130.0
 20
3495336.0
 30
0.03
  0
SEQEND
  5
39E
  8
10BY10
  0
POLYLINE
  5
B1
  8
10BY10
 66
     1
 10
0.0
 20
0.0
 30
0.07
 70
     1
1001
DCO15
1071
        2
1071
        2
1000
variablelink
1004
0000000000E88C40
  0
VERTEX
  5
39F
  8
10BY10
 10
581083.0
 20
3495290.0
 30
0.07
  0
VERTEX
  5
3A0
  8
10BY10
 10
581093.0
 20
3495290.0
 30
0.07
  0
VERTEX
  5
3A1
  8
10BY10
 10
581093.0
 20
3495300.0
 30
0.07
  0
VERTEX
  5
3A2
  8
10BY10
 10
581083.0
 20
3495300.0
 30
0.07
  0
SEQEND
  5
3A3
  8
10BY10
  0
POLYLINE
  5
B2
  8
10BY10
 66
     1
 10
0.0
 20
0.0
 30
0.05
 70
     1
1001
DCO15
1071
        2
1071
        2
1000
variablelink
1004
0000000000F08C40
  0
VERTEX
  5
3A4
  8
10BY10
 10
581074.0
 20
3495321.0
 30
0.05
  0
VERTEX
  5
3A5
  8
10BY10
 10
581084.0
 20
3495321.0
 30
0.05
  0
VERTEX
  5
3A6
  8
10BY10
 10
581084.0
 20
3495331.0
 30
0.05
  0
VERTEX
  5
3A7
  8
10BY10
 10
581074.0
 20
3495331.0
 30
0.05
  0
SEQEND
  5
3A8
  8
10BY10
  0
POLYLINE
  5
B3
  8
10BY10
 66
     1
 10
0.0
 20
0.0
 30
0.04
 70
     1
1001
DCO15
1071
        2
1071
        2
1000
variablelink
1004
0000000000008D40
  0
VERTEX
  5
3A9
  8
10BY10
 10
581087.0
 20
3495404.0
 30
0.04
  0
VERTEX
  5
3AA
  8
10BY10
 10
581097.0
 20
3495404.0
 30
0.04
  0
VERTEX
  5
3AB
  8
10BY10
 10
581097.0
 20
3495414.0
 30
0.04
  0
VERTEX
  5
3AC
  8
10BY10
 10
581087.0
 20
3495414.0
 30
0.04
  0
SEQEND
  5
3AD
  8
10BY10
  0
POLYLINE
  5
B4
  8
10BY10
 66
     1
 10
0.0
 20
0.0
 30
0.19
 70
     1
1001
DCO15
1071
        2
1071
        2
1000
variablelink
1004
0000000000088D40
  0
VERTEX
  5
3AE
  8
10BY10
 10
581094.0
 20
3495427.0
 30
0.19
  0
VERTEX
  5
3AF
  8
10BY10
 10
581104.0
 20
3495427.0
 30
0.19
  0
VERTEX
  5
3B0
  8
10BY10
 10
581104.0
 20
3495437.0
 30
0.19
  0
VERTEX
  5
3B1
  8
10BY10
 10
581094.0
 20
3495437.0
 30
0.19
  0
SEQEND
  5
3B2
  8
10BY10
  0
POLYLINE
  5
B5
  8
10BY10
 66
     1
 10
0.0
 20
0.0
 30
0.03
 70
     1
1001
DCO15
1071
        2
1071
        2
1000
variablelink
1004
0000000000108D40
  0
VERTEX
  5
3B3
  8
10BY10
 10
581008.0
 20
3495308.0
 30
0.03
  0
VERTEX
  5
3B4
  8
10BY10
 10
581018.0
 20
3495308.0
 30
0.03
  0
VERTEX
  5
3B5
  8
10BY10
 10
581018.0
 20
3495318.0
 30
0.03
  0
VERTEX
  5
3B6
  8
10BY10
 10
581008.0
 20
3495318.0
 30
0.03
  0
SEQEND
  5
3B7
  8
10BY10
  0
POLYLINE
  5
B6
  8
10BY10
 66
     1
 10
0.0
 20
0.0
 30
0.01
 70
     1
1001
DCO15
1071
        2
1071
        2
1000
variablelink
1004
0000000000188D40
  0
VERTEX
  5
3B8
  8
10BY10
 10
581003.0
 20
3495335.0
 30
0.01
  0
VERTEX
  5
3B9
  8
10BY10
 10
581013.0
 20
3495335.0
 30
0.01
  0
VERTEX
  5
3BA
  8
10BY10
 10
581013.0
 20
3495345.0
 30
0.01
  0
VERTEX
  5
3BB
  8
10BY10
 10
581003.0
 20
3495345.0
 30
0.01
  0
SEQEND
  5
3BC
  8
10BY10
  0
POLYLINE
  5
B7
  8
10BY10
 66
     1
 10
0.0
 20
0.0
 30
0.02
 70
     1
1001
DCO15
1071
        2
1071
        2
1000
variablelink
1004
0000000000208D40
  0
VERTEX
  5
3BD
  8
10BY10
 10
580984.0
 20
3495414.0
 30
0.02
  0
VERTEX
  5
3BE
  8
10BY10
 10
580994.0
 20
3495414.0
 30
0.02
  0
VERTEX
  5
3BF
  8
10BY10
 10
580994.0
 20
3495424.0
 30
0.02
  0
VERTEX
  5
3C0
  8
10BY10
 10
580984.0
 20
3495424.0
 30
0.02
  0
SEQEND
  5
3C1
  8
10BY10
  0
POLYLINE
  5
B8
  8
10BY10
 66
     1
 10
0.0
 20
0.0
 30
0.05
 70
     1
1001
DCO15
1071
        2
1071
        2
1000
variablelink
1004
0000000000288D40
  0
VERTEX
  5
3C2
  8
10BY10
 10
580958.0
 20
3495398.0
 30
0.05
  0
VERTEX
  5
3C3
  8
10BY10
 10
580968.0
 20
3495398.0
 30
0.05
  0
VERTEX
  5
3C4
  8
10BY10
 10
580968.0
 20
3495408.0
 30
0.05
  0
VERTEX
  5
3C5
  8
10BY10
 10
580958.0
 20
3495408.0
 30
0.05
  0
SEQEND
  5
3C6
  8
10BY10
  0
POLYLINE
  5
B9
  8
10BY10
 66
     1
 10
0.0
 20
0.0
 30
0.07
 70
     1
1001
DCO15
1071
        2
1071
        2
1000
variablelink
1004
0000000000308D40
  0
VERTEX
  5
3C7
  8
10BY10
 10
580958.0
 20
3495376.0
 30
0.07
  0
VERTEX
  5
3C8
  8
10BY10
 10
580968.0
 20
3495376.0
 30
0.07
  0
VERTEX
  5
3C9
  8
10BY10
 10
580968.0
 20
3495386.0
 30
0.07
  0
VERTEX
  5
3CA
  8
10BY10
 10
580958.0
 20
3495386.0
 30
0.07
  0
SEQEND
  5
3CB
  8
10BY10
  0
POLYLINE
  5
BA
  8
10BY10
 66
     1
 10
0.0
 20
0.0
 30
0.05
 70
     1
1001
DCO15
1071
        2
1071
        2
1000
variablelink
1004
0000000000388D40
  0
VERTEX
  5
3CC
  8
10BY10
 10
581029.0
 20
3495367.0
 30
0.05
  0
VERTEX
  5
3CD
  8
10BY10
 10
581039.0
 20
3495367.0
 30
0.05
  0
VERTEX
  5
3CE
  8
10BY10
 10
581039.0
 20
3495377.0
 30
0.05
  0
VERTEX
  5
3CF
  8
10BY10
 10
581029.0
 20
3495377.0
 30
0.05
  0
SEQEND
  5
3D0
  8
10BY10
  0
POLYLINE
  5
BB
  8
10BY10
 66
     1
 10
0.0
 20
0.0
 30
0.02
 70
     1
1001
DCO15
1071
        2
1071
        2
1000
variablelink
1004
0000000000408D40
  0
VERTEX
  5
3D1
  8
10BY10
 10
581038.0
 20
3495337.0
 30
0.02
  0
VERTEX
  5
3D2
  8
10BY10
 10
581048.0
 20
3495337.0
 30
0.02
  0
VERTEX
  5
3D3
  8
10BY10
 10
581048.0
 20
3495347.0
 30
0.02
  0
VERTEX
  5
3D4
  8
10BY10
 10
581038.0
 20
3495347.0
 30
0.02
  0
SEQEND
  5
3D5
  8
10BY10
  0
POLYLINE
  5
BC
  8
10BY10
 66
     1
 10
0.0
 20
0.0
 30
0.07
 70
     1
1001
DCO15
1071
        2
1071
        2
1000
variablelink
1004
0000000000488D40
  0
VERTEX
  5
3D6
  8
10BY10
 10
581041.0
 20
3495319.0
 30
0.07
  0
VERTEX
  5
3D7
  8
10BY10
 10
581051.0
 20
3495319.0
 30
0.07
  0
VERTEX
  5
3D8
  8
10BY10
 10
581051.0
 20
3495329.0
 30
0.07
  0
VERTEX
  5
3D9
  8
10BY10
 10
581041.0
 20
3495329.0
 30
0.07
  0
SEQEND
  5
3DA
  8
10BY10
  0
POLYLINE
  5
BD
  8
10BY10
 66
     1
 10
0.0
 20
0.0
 30
0.06
 70
     1
1001
DCO15
1071
        2
1071
        2
1000
variablelink
1004
0000000000508D40
  0
VERTEX
  5
3DB
  8
10BY10
 10
581044.0
 20
3495302.0
 30
0.06
  0
VERTEX
  5
3DC
  8
10BY10
 10
581054.0
 20
3495302.0
 30
0.06
  0
VERTEX
  5
3DD
  8
10BY10
 10
581054.0
 20
3495312.0
 30
0.06
  0
VERTEX
  5
3DE
  8
10BY10
 10
581044.0
 20
3495312.0
 30
0.06
  0
SEQEND
  5
3DF
  8
10BY10
  0
POLYLINE
  5
BE
  8
10BY10
 66
     1
 10
0.0
 20
0.0
 30
0.03
 70
     1
1001
DCO15
1071
        2
1071
        2
1000
variablelink
1004
0000000000588D40
  0
VERTEX
  5
3E0
  8
10BY10
 10
581051.0
 20
3495278.0
 30
0.03
  0
VERTEX
  5
3E1
  8
10BY10
 10
581061.0
 20
3495278.0
 30
0.03
  0
VERTEX
  5
3E2
  8
10BY10
 10
581061.0
 20
3495288.0
 30
0.03
  0
VERTEX
  5
3E3
  8
10BY10
 10
581051.0
 20
3495288.0
 30
0.03
  0
SEQEND
  5
3E4
  8
10BY10
  0
POLYLINE
  5
BF
  8
10BY10
 66
     1
 10
0.0
 20
0.0
 30
0.11
 70
     1
1001
DCO15
1071
        2
1071
        2
1000
variablelink
1004
0000000000608D40
  0
VERTEX
  5
3E5
  8
10BY10
 10
581055.0
 20
3495292.0
 30
0.11
  0
VERTEX
  5
3E6
  8
10BY10
 10
581065.0
 20
3495292.0
 30
0.11
  0
VERTEX
  5
3E7
  8
10BY10
 10
581065.0
 20
3495302.0
 30
0.11
  0
VERTEX
  5
3E8
  8
10BY10
 10
581055.0
 20
3495302.0
 30
0.11
  0
SEQEND
  5
3E9
  8
10BY10
  0
POLYLINE
  5
C0
  8
10BY10
 66
     1
 10
0.0
 20
0.0
 30
0.13
 70
     1
1001
DCO15
1071
        2
1071
        2
1000
variablelink
1004
0000000000688D40
  0
VERTEX
  5
3EA
  8
10BY10
 10
581051.0
 20
3495321.0
 30
0.13
  0
VERTEX
  5
3EB
  8
10BY10
 10
581061.0
 20
3495321.0
 30
0.13
  0
VERTEX
  5
3EC
  8
10BY10
 10
581061.0
 20
3495331.0
 30
0.13
  0
VERTEX
  5
3ED
  8
10BY10
 10
581051.0
 20
3495331.0
 30
0.13
  0
SEQEND
  5
3EE
  8
10BY10
  0
POLYLINE
  5
C1
  8
10BY10
 66
     1
 10
0.0
 20
0.0
 30
0.04
 70
     1
1001
DCO15
1071
        2
1071
        2
1000
variablelink
1004
0000000000708D40
  0
VERTEX
  5
3EF
  8
10BY10
 10
581028.0
 20
3495333.0
 30
0.04
  0
VERTEX
  5
3F0
  8
10BY10
 10
581038.0
 20
3495333.0
 30
0.04
  0
VERTEX
  5
3F1
  8
10BY10
 10
581038.0
 20
3495343.0
 30
0.04
  0
VERTEX
  5
3F2
  8
10BY10
 10
581028.0
 20
3495343.0
 30
0.04
  0
SEQEND
  5
3F3
  8
10BY10
  0
POLYLINE
  5
C2
  8
10BY10
 66
     1
 10
0.0
 20
0.0
 30
0.06
 70
     1
1001
DCO15
1071
        2
1071
        2
1000
variablelink
1004
0000000000908D40
  0
VERTEX
  5
3F4
  8
10BY10
 10
581023.0
 20
3495343.0
 30
0.06
  0
VERTEX
  5
3F5
  8
10BY10
 10
581033.0
 20
3495343.0
 30
0.06
  0
VERTEX
  5
3F6
  8
10BY10
 10
581033.0
 20
3495353.0
 30
0.06
  0
VERTEX
  5
3F7
  8
10BY10
 10
581023.0
 20
3495353.0
 30
0.06
  0
SEQEND
  5
3F8
  8
10BY10
  0
POLYLINE
  5
C3
  8
10BY10
 66
     1
 10
0.0
 20
0.0
 30
0.01
 70
     1
1001
DCO15
1071
        2
1071
        2
1000
variablelink
1004
0000000000988D40
  0
VERTEX
  5
3F9
  8
10BY10
 10
581026.0
 20
3495322.0
 30
0.01
  0
VERTEX
  5
3FA
  8
10BY10
 10
581036.0
 20
3495322.0
 30
0.01
  0
VERTEX
  5
3FB
  8
10BY10
 10
581036.0
 20
3495332.0
 30
0.01
  0
VERTEX
  5
3FC
  8
10BY10
 10
581026.0
 20
3495332.0
 30
0.01
  0
SEQEND
  5
3FD
  8
10BY10
  0
POLYLINE
  5
C4
  8
10BY10
 66
     1
 10
0.0
 20
0.0
 30
0.01
 70
     1
1001
DCO15
1071
        2
1071
        2
1000
variablelink
1004
0000000000A08D40
  0
VERTEX
  5
3FE
  8
10BY10
 10
581036.0
 20
3495279.0
 30
0.01
  0
VERTEX
  5
3FF
  8
10BY10
 10
581046.0
 20
3495279.0
 30
0.01
  0
VERTEX
  5
400
  8
10BY10
 10
581046.0
 20
3495289.0
 30
0.01
  0
VERTEX
  5
401
  8
10BY10
 10
581036.0
 20
3495289.0
 30
0.01
  0
SEQEND
  5
402
  8
10BY10
  0
POLYLINE
  5
C5
  8
10BY10
 66
     1
 10
0.0
 20
0.0
 30
0.05
 70
     1
1001
DCO15
1071
        2
1071
        2
1000
variablelink
1004
0000000000A88D40
  0
VERTEX
  5
403
  8
10BY10
 10
581060.0
 20
3495353.0
 30
0.05
  0
VERTEX
  5
404
  8
10BY10
 10
581070.0
 20
3495353.0
 30
0.05
  0
VERTEX
  5
405
  8
10BY10
 10
581070.0
 20
3495363.0
 30
0.05
  0
VERTEX
  5
406
  8
10BY10
 10
581060.0
 20
3495363.0
 30
0.05
  0
SEQEND
  5
407
  8
10BY10
  0
POLYLINE
  5
C6
  8
10BY10
 66
     1
 10
0.0
 20
0.0
 30
0.01
 70
     1
1001
DCO15
1071
        2
1071
        2
1000
variablelink
1004
0000000000B08D40
  0
VERTEX
  5
408
  8
10BY10
 10
581034.0
 20
3495478.0
 30
0.01
  0
VERTEX
  5
409
  8
10BY10
 10
581044.0
 20
3495478.0
 30
0.01
  0
VERTEX
  5
40A
  8
10BY10
 10
581044.0
 20
3495488.0
 30
0.01
  0
VERTEX
  5
40B
  8
10BY10
 10
581034.0
 20
3495488.0
 30
0.01
  0
SEQEND
  5
40C
  8
10BY10
  0
POLYLINE
  5
C7
  8
10BY10
 66
     1
 10
0.0
 20
0.0
 30
0.02
 70
     1
1001
DCO15
1071
        2
1071
        2
1000
variablelink
1004
0000000000B88D40
  0
VERTEX
  5
40D
  8
10BY10
 10
581047.0
 20
3495396.0
 30
0.02
  0
VERTEX
  5
40E
  8
10BY10
 10
581057.0
 20
3495396.0
 30
0.02
  0
VERTEX
  5
40F
  8
10BY10
 10
581057.0
 20
3495406.0
 30
0.02
  0
VERTEX
  5
410
  8
10BY10
 10
581047.0
 20
3495406.0
 30
0.02
  0
SEQEND
  5
411
  8
10BY10
  0
POLYLINE
  5
C8
  8
10BY10
 66
     1
 10
0.0
 20
0.0
 30
0.17
 70
     1
1001
DCO15
1071
        2
1071
        2
1000
variablelink
1004
0000000000C08D40
  0
VERTEX
  5
412
  8
10BY10
 10
581056.0
 20
3495343.0
 30
0.17
  0
VERTEX
  5
413
  8
10BY10
 10
581066.0
 20
3495343.0
 30
0.17
  0
VERTEX
  5
414
  8
10BY10
 10
581066.0
 20
3495353.0
 30
0.17
  0
VERTEX
  5
415
  8
10BY10
 10
581056.0
 20
3495353.0
 30
0.17
  0
SEQEND
  5
416
  8
10BY10
  0
POLYLINE
  5
C9
  8
10BY10
 66
     1
 10
0.0
 20
0.0
 30
0.06
 70
     1
1001
DCO15
1071
        2
1071
        2
1000
variablelink
1004
0000000000C88D40
  0
VERTEX
  5
417
  8
10BY10
 10
581064.0
 20
3495316.0
 30
0.06
  0
VERTEX
  5
418
  8
10BY10
 10
581074.0
 20
3495316.0
 30
0.06
  0
VERTEX
  5
419
  8
10BY10
 10
581074.0
 20
3495326.0
 30
0.06
  0
VERTEX
  5
41A
  8
10BY10
 10
581064.0
 20
3495326.0
 30
0.06
  0
SEQEND
  5
41B
  8
10BY10
  0
POLYLINE
  5
CA
  8
10BY10
 66
     1
 10
0.0
 20
0.0
 30
0.34
 70
     1
1001
DCO15
1071
        2
1071
        2
1000
variablelink
1004
0000000000008E40
  0
VERTEX
  5
41C
  8
10BY10
 10
586715.0
 20
3490064.0
 30
0.34
  0
VERTEX
  5
41D
  8
10BY10
 10
586725.0
 20
3490064.0
 30
0.34
  0
VERTEX
  5
41E
  8
10BY10
 10
586725.0
 20
3490074.0
 30
0.34
  0
VERTEX
  5
41F
  8
10BY10
 10
586715.0
 20
3490074.0
 30
0.34
  0
SEQEND
  5
420
  8
10BY10
  0
POLYLINE
  5
CB
  8
10BY10
 66
     1
 10
0.0
 20
0.0
 30
0.02
 70
     1
1001
DCO15
1071
        2
1071
        2
1000
variablelink
1004
0000000000088E40
  0
VERTEX
  5
421
  8
10BY10
 10
586737.0
 20
3490035.0
 30
0.02
  0
VERTEX
  5
422
  8
10BY10
 10
586747.0
 20
3490035.0
 30
0.02
  0
VERTEX
  5
423
  8
10BY10
 10
586747.0
 20
3490045.0
 30
0.02
  0
VERTEX
  5
424
  8
10BY10
 10
586737.0
 20
3490045.0
 30
0.02
  0
SEQEND
  5
425
  8
10BY10
  0
POLYLINE
  5
CC
  8
10BY10
 66
     1
 10
0.0
 20
0.0
 30
0.864
 70
     1
1001
DCO15
1071
        2
1071
        2
1000
variablelink
1004
0000000000108E40
  0
VERTEX
  5
426
  8
10BY10
 10
586725.0
 20
3490021.0
 30
0.864
  0
VERTEX
  5
427
  8
10BY10
 10
586735.0
 20
3490021.0
 30
0.864
  0
VERTEX
  5
428
  8
10BY10
 10
586735.0
 20
3490031.0
 30
0.864
  0
VERTEX
  5
429
  8
10BY10
 10
586725.0
 20
3490031.0
 30
0.864
  0
SEQEND
  5
42A
  8
10BY10
  0
POLYLINE
  5
CD
  8
10BY10
 66
     1
 10
0.0
 20
0.0
 30
0.04
 70
     1
1001
DCO15
1071
        2
1071
        2
1000
variablelink
1004
0000000000188E40
  0
VERTEX
  5
42B
  8
10BY10
 10
586722.0
 20
3489990.0
 30
0.04
  0
VERTEX
  5
42C
  8
10BY10
 10
586732.0
 20
3489990.0
 30
0.04
  0
VERTEX
  5
42D
  8
10BY10
 10
586732.0
 20
3490000.0
 30
0.04
  0
VERTEX
  5
42E
  8
10BY10
 10
586722.0
 20
3490000.0
 30
0.04
  0
SEQEND
  5
42F
  8
10BY10
  0
POLYLINE
  5
CE
  8
10BY10
 66
     1
 10
0.0
 20
0.0
 30
0.01
 70
     1
1001
DCO15
1071
        2
1071
        2
1000
variablelink
1004
0000000000208E40
  0
VERTEX
  5
430
  8
10BY10
 10
586734.0
 20
3489969.0
 30
0.01
  0
VERTEX
  5
431
  8
10BY10
 10
586744.0
 20
3489969.0
 30
0.01
  0
VERTEX
  5
432
  8
10BY10
 10
586744.0
 20
3489979.0
 30
0.01
  0
VERTEX
  5
433
  8
10BY10
 10
586734.0
 20
3489979.0
 30
0.01
  0
SEQEND
  5
434
  8
10BY10
  0
POLYLINE
  5
CF
  8
10BY10
 66
     1
 10
0.0
 20
0.0
 30
0.06
 70
     1
1001
DCO15
1071
        2
1071
        2
1000
variablelink
1004
0000000000288E40
  0
VERTEX
  5
435
  8
10BY10
 10
586745.0
 20
3489954.0
 30
0.06
  0
VERTEX
  5
436
  8
10BY10
 10
586755.0
 20
3489954.0
 30
0.06
  0
VERTEX
  5
437
  8
10BY10
 10
586755.0
 20
3489964.0
 30
0.06
  0
VERTEX
  5
438
  8
10BY10
 10
586745.0
 20
3489964.0
 30
0.06
  0
SEQEND
  5
439
  8
10BY10
  0
POLYLINE
  5
D0
  8
10BY10
 66
     1
 10
0.0
 20
0.0
 30
0.02
 70
     1
1001
DCO15
1071
        2
1071
        2
1000
variablelink
1004
0000000000388E40
  0
VERTEX
  5
43A
  8
10BY10
 10
586659.0
 20
3490076.0
 30
0.02
  0
VERTEX
  5
43B
  8
10BY10
 10
586669.0
 20
3490076.0
 30
0.02
  0
VERTEX
  5
43C
  8
10BY10
 10
586669.0
 20
3490086.0
 30
0.02
  0
VERTEX
  5
43D
  8
10BY10
 10
586659.0
 20
3490086.0
 30
0.02
  0
SEQEND
  5
43E
  8
10BY10
  0
POLYLINE
  5
D1
  8
10BY10
 66
     1
 10
0.0
 20
0.0
 30
0.03
 70
     1
1001
DCO15
1071
        2
1071
        2
1000
variablelink
1004
0000000000488E40
  0
VERTEX
  5
43F
  8
10BY10
 10
586703.0
 20
3490099.0
 30
0.03
  0
VERTEX
  5
440
  8
10BY10
 10
586713.0
 20
3490099.0
 30
0.03
  0
VERTEX
  5
441
  8
10BY10
 10
586713.0
 20
3490109.0
 30
0.03
  0
VERTEX
  5
442
  8
10BY10
 10
586703.0
 20
3490109.0
 30
0.03
  0
SEQEND
  5
443
  8
10BY10
  0
POLYLINE
  5
D2
  8
10BY10
 66
     1
 10
0.0
 20
0.0
 30
0.03
 70
     1
1001
DCO15
1071
        2
1071
        2
1000
variablelink
1004
0000000000508E40
  0
VERTEX
  5
444
  8
10BY10
 10
586697.0
 20
3490082.0
 30
0.03
  0
VERTEX
  5
445
  8
10BY10
 10
586707.0
 20
3490082.0
 30
0.03
  0
VERTEX
  5
446
  8
10BY10
 10
586707.0
 20
3490092.0
 30
0.03
  0
VERTEX
  5
447
  8
10BY10
 10
586697.0
 20
3490092.0
 30
0.03
  0
SEQEND
  5
448
  8
10BY10
  0
POLYLINE
  5
D3
  8
10BY10
 66
     1
 10
0.0
 20
0.0
 30
0.01
 70
     1
1001
DCO15
1071
        2
1071
        2
1000
variablelink
1004
0000000000588E40
  0
VERTEX
  5
449
  8
10BY10
 10
586614.0
 20
3490046.0
 30
0.01
  0
VERTEX
  5
44A
  8
10BY10
 10
586624.0
 20
3490046.0
 30
0.01
  0
VERTEX
  5
44B
  8
10BY10
 10
586624.0
 20
3490056.0
 30
0.01
  0
VERTEX
  5
44C
  8
10BY10
 10
586614.0
 20
3490056.0
 30
0.01
  0
SEQEND
  5
44D
  8
10BY10
  0
POLYLINE
  5
D4
  8
10BY10
 66
     1
 10
0.0
 20
0.0
 30
0.02
 70
     1
1001
DCO15
1071
        2
1071
        2
1000
variablelink
1004
0000000000688E40
  0
VERTEX
  5
44E
  8
10BY10
 10
586699.0
 20
3490070.0
 30
0.02
  0
VERTEX
  5
44F
  8
10BY10
 10
586709.0
 20
3490070.0
 30
0.02
  0
VERTEX
  5
450
  8
10BY10
 10
586709.0
 20
3490080.0
 30
0.02
  0
VERTEX
  5
451
  8
10BY10
 10
586699.0
 20
3490080.0
 30
0.02
  0
SEQEND
  5
452
  8
10BY10
  0
POLYLINE
  5
D5
  8
10BY10
 66
     1
 10
0.0
 20
0.0
 30
0.192
 70
     1
1001
DCO15
1071
        2
1071
        2
1000
variablelink
1004
0000000000788E40
  0
VERTEX
  5
453
  8
10BY10
 10
586747.0
 20
3490016.0
 30
0.192
  0
VERTEX
  5
454
  8
10BY10
 10
586757.0
 20
3490016.0
 30
0.192
  0
VERTEX
  5
455
  8
10BY10
 10
586757.0
 20
3490026.0
 30
0.192
  0
VERTEX
  5
456
  8
10BY10
 10
586747.0
 20
3490026.0
 30
0.192
  0
SEQEND
  5
457
  8
10BY10
  0
POLYLINE
  5
D6
  8
10BY10
 66
     1
 10
0.0
 20
0.0
 30
0.04
 70
     1
1001
DCO15
1071
        2
1071
        2
1000
variablelink
1004
0000000000808E40
  0
VERTEX
  5
458
  8
10BY10
 10
586756.0
 20
3489999.0
 30
0.04
  0
VERTEX
  5
459
  8
10BY10
 10
586766.0
 20
3489999.0
 30
0.04
  0
VERTEX
  5
45A
  8
10BY10
 10
586766.0
 20
3490009.0
 30
0.04
  0
VERTEX
  5
45B
  8
10BY10
 10
586756.0
 20
3490009.0
 30
0.04
  0
SEQEND
  5
45C
  8
10BY10
  0
POLYLINE
  5
D7
  8
10BY10
 66
     1
 10
0.0
 20
0.0
 30
0.01
 70
     1
1001
DCO15
1071
        2
1071
        2
1000
variablelink
1004
0000000000589040
  0
VERTEX
  5
45D
  8
10BY10
 10
589985.0
 20
3483376.0
 30
0.01
  0
VERTEX
  5
45E
  8
10BY10
 10
589995.0
 20
3483376.0
 30
0.01
  0
VERTEX
  5
45F
  8
10BY10
 10
589995.0
 20
3483386.0
 30
0.01
  0
VERTEX
  5
460
  8
10BY10
 10
589985.0
 20
3483386.0
 30
0.01
  0
SEQEND
  5
461
  8
10BY10
  0
POLYLINE
  5
D8
  8
10BY10
 66
     1
 10
0.0
 20
0.0
 30
0.02
 70
     1
1001
DCO15
1071
        2
1071
        2
1000
variablelink
1004
00000000005C9040
  0
VERTEX
  5
462
  8
10BY10
 10
589975.0
 20
3483371.0
 30
0.02
  0
VERTEX
  5
463
  8
10BY10
 10
589985.0
 20
3483371.0
 30
0.02
  0
VERTEX
  5
464
  8
10BY10
 10
589985.0
 20
3483381.0
 30
0.02
  0
VERTEX
  5
465
  8
10BY10
 10
589975.0
 20
3483381.0
 30
0.02
  0
SEQEND
  5
466
  8
10BY10
  0
POLYLINE
  5
D9
  8
10BY10
 66
     1
 10
0.0
 20
0.0
 30
0.01
 70
     1
1001
DCO15
1071
        2
1071
        2
1000
variablelink
1004
0000000000689040
  0
VERTEX
  5
467
  8
10BY10
 10
589984.0
 20
3483325.0
 30
0.01
  0
VERTEX
  5
468
  8
10BY10
 10
589994.0
 20
3483325.0
 30
0.01
  0
VERTEX
  5
469
  8
10BY10
 10
589994.0
 20
3483335.0
 30
0.01
  0
VERTEX
  5
46A
  8
10BY10
 10
589984.0
 20
3483335.0
 30
0.01
  0
SEQEND
  5
46B
  8
10BY10
  0
POLYLINE
  5
DA
  8
10BY10
 66
     1
 10
0.0
 20
0.0
 30
0.02
 70
     1
1001
DCO15
1071
        2
1071
        2
1000
variablelink
1004
0000000000149140
  0
VERTEX
  5
46C
  8
10BY10
 10
587496.0
 20
3480878.0
 30
0.02
  0
VERTEX
  5
46D
  8
10BY10
 10
587506.0
 20
3480878.0
 30
0.02
  0
VERTEX
  5
46E
  8
10BY10
 10
587506.0
 20
3480888.0
 30
0.02
  0
VERTEX
  5
46F
  8
10BY10
 10
587496.0
 20
3480888.0
 30
0.02
  0
SEQEND
  5
470
  8
10BY10
  0
POLYLINE
  5
DB
  8
10BY10
 66
     1
 10
0.0
 20
0.0
 30
0.03
 70
     1
1001
DCO15
1071
        2
1071
        2
1000
variablelink
1004
0000000000209140
  0
VERTEX
  5
471
  8
10BY10
 10
587527.0
 20
3480842.0
 30
0.03
  0
VERTEX
  5
472
  8
10BY10
 10
587537.0
 20
3480842.0
 30
0.03
  0
VERTEX
  5
473
  8
10BY10
 10
587537.0
 20
3480852.0
 30
0.03
  0
VERTEX
  5
474
  8
10BY10
 10
587527.0
 20
3480852.0
 30
0.03
  0
SEQEND
  5
475
  8
10BY10
  0
POLYLINE
  5
DC
  8
10BY10
 66
     1
 10
0.0
 20
0.0
 30
0.034
 70
     1
1001
DCO15
1071
        2
1071
        2
1000
variablelink
1004
0000000000249140
  0
VERTEX
  5
476
  8
10BY10
 10
587489.0
 20
3480902.0
 30
0.034
  0
VERTEX
  5
477
  8
10BY10
 10
587499.0
 20
3480902.0
 30
0.034
  0
VERTEX
  5
478
  8
10BY10
 10
587499.0
 20
3480912.0
 30
0.034
  0
VERTEX
  5
479
  8
10BY10
 10
587489.0
 20
3480912.0
 30
0.034
  0
SEQEND
  5
47A
  8
10BY10
  0
POLYLINE
  5
DD
  8
10BY10
 66
     1
 10
0.0
 20
0.0
 30
0.01
 70
     1
1001
DCO15
1071
        2
1071
        2
1000
variablelink
1004
00000000003C9140
  0
VERTEX
  5
47B
  8
10BY10
 10
587539.0
 20
3480816.0
 30
0.01
  0
VERTEX
  5
47C
  8
10BY10
 10
587549.0
 20
3480816.0
 30
0.01
  0
VERTEX
  5
47D
  8
10BY10
 10
587549.0
 20
3480826.0
 30
0.01
  0
VERTEX
  5
47E
  8
10BY10
 10
587539.0
 20
3480826.0
 30
0.01
  0
SEQEND
  5
47F
  8
10BY10
  0
POLYLINE
  5
DE
  8
10BY10
 66
     1
 10
0.0
 20
0.0
 30
0.03
 70
     1
1001
DCO15
1071
        2
1071
        2
1000
variablelink
1004
0000000000489140
  0
VERTEX
  5
480
  8
10BY10
 10
587493.0
 20
3480892.0
 30
0.03
  0
VERTEX
  5
481
  8
10BY10
 10
587503.0
 20
3480892.0
 30
0.03
  0
VERTEX
  5
482
  8
10BY10
 10
587503.0
 20
3480902.0
 30
0.03
  0
VERTEX
  5
483
  8
10BY10
 10
587493.0
 20
3480902.0
 30
0.03
  0
SEQEND
  5
484
  8
10BY10
  0
POLYLINE
  5
DF
  8
10BY10
 66
     1
 10
0.0
 20
0.0
 30
0.016
 70
     1
1001
DCO15
1071
        2
1071
        2
1000
variablelink
1004
0000000000689340
  0
VERTEX
  5
485
  8
10BY10
 10
606624.0
 20
3493089.0
 30
0.016
  0
VERTEX
  5
486
  8
10BY10
 10
606634.0
 20
3493089.0
 30
0.016
  0
VERTEX
  5
487
  8
10BY10
 10
606634.0
 20
3493099.0
 30
0.016
  0
VERTEX
  5
488
  8
10BY10
 10
606624.0
 20
3493099.0
 30
0.016
  0
SEQEND
  5
489
  8
10BY10
  0
POLYLINE
  5
E0
  8
10BY10
 66
     1
 10
0.0
 20
0.0
 30
0.01
 70
     1
1001
DCO15
1071
        2
1071
        2
1000
variablelink
1004
00000000006C9340
  0
VERTEX
  5
48A
  8
10BY10
 10
606731.0
 20
3493084.0
 30
0.01
  0
VERTEX
  5
48B
  8
10BY10
 10
606741.0
 20
3493084.0
 30
0.01
  0
VERTEX
  5
48C
  8
10BY10
 10
606741.0
 20
3493094.0
 30
0.01
  0
VERTEX
  5
48D
  8
10BY10
 10
606731.0
 20
3493094.0
 30
0.01
  0
SEQEND
  5
48E
  8
10BY10
  0
POLYLINE
  5
E1
  8
10BY10
 66
     1
 10
0.0
 20
0.0
 30
0.016
 70
     1
1001
DCO15
1071
        2
1071
        2
1000
variablelink
1004
0000000000789340
  0
VERTEX
  5
48F
  8
10BY10
 10
606790.0
 20
3492895.0
 30
0.016
  0
VERTEX
  5
490
  8
10BY10
 10
606800.0
 20
3492895.0
 30
0.016
  0
VERTEX
  5
491
  8
10BY10
 10
606800.0
 20
3492905.0
 30
0.016
  0
VERTEX
  5
492
  8
10BY10
 10
606790.0
 20
3492905.0
 30
0.016
  0
SEQEND
  5
493
  8
10BY10
  0
POLYLINE
  5
E2
  8
10BY10
 66
     1
 10
0.0
 20
0.0
 30
0.01
 70
     1
1001
DCO15
1071
        2
1071
        2
1000
variablelink
1004
0000000000889340
  0
VERTEX
  5
494
  8
10BY10
 10
606769.0
 20
3492978.0
 30
0.01
  0
VERTEX
  5
495
  8
10BY10
 10
606779.0
 20
3492978.0
 30
0.01
  0
VERTEX
  5
496
  8
10BY10
 10
606779.0
 20
3492988.0
 30
0.01
  0
VERTEX
  5
497
  8
10BY10
 10
606769.0
 20
3492988.0
 30
0.01
  0
SEQEND
  5
498
  8
10BY10
  0
POLYLINE
  5
E3
  8
10BY10
 66
     1
 10
0.0
 20
0.0
 30
0.032
 70
     1
1001
DCO15
1071
        2
1071
        2
1000
variablelink
1004
0000000000A09340
  0
VERTEX
  5
499
  8
10BY10
 10
606763.0
 20
3492967.0
 30
0.032
  0
VERTEX
  5
49A
  8
10BY10
 10
606773.0
 20
3492967.0
 30
0.032
  0
VERTEX
  5
49B
  8
10BY10
 10
606773.0
 20
3492977.0
 30
0.032
  0
VERTEX
  5
49C
  8
10BY10
 10
606763.0
 20
3492977.0
 30
0.032
  0
SEQEND
  5
49D
  8
10BY10
  0
POLYLINE
  5
E4
  8
10BY10
 66
     1
 10
0.0
 20
0.0
 30
0.01
 70
     1
1001
DCO15
1071
        2
1071
        2
1000
variablelink
1004
0000000000A89340
  0
VERTEX
  5
49E
  8
10BY10
 10
606556.0
 20
3492850.0
 30
0.01
  0
VERTEX
  5
49F
  8
10BY10
 10
606566.0
 20
3492850.0
 30
0.01
  0
VERTEX
  5
4A0
  8
10BY10
 10
606566.0
 20
3492860.0
 30
0.01
  0
VERTEX
  5
4A1
  8
10BY10
 10
606556.0
 20
3492860.0
 30
0.01
  0
SEQEND
  5
4A2
  8
10BY10
  0
POLYLINE
  5
E5
  8
10BY10
 66
     1
 10
0.0
 20
0.0
 30
0.03
 70
     1
1001
DCO15
1071
        2
1071
        2
1000
variablelink
1004
0000000000C49340
  0
VERTEX
  5
4A3
  8
10BY10
 10
606790.0
 20
3492956.0
 30
0.03
  0
VERTEX
  5
4A4
  8
10BY10
 10
606800.0
 20
3492956.0
 30
0.03
  0
VERTEX
  5
4A5
  8
10BY10
 10
606800.0
 20
3492966.0
 30
0.03
  0
VERTEX
  5
4A6
  8
10BY10
 10
606790.0
 20
3492966.0
 30
0.03
  0
SEQEND
  5
4A7
  8
10BY10
  0
POLYLINE
  5
E6
  8
10BY10
 66
     1
 10
0.0
 20
0.0
 30
0.02
 70
     1
1001
DCO15
1071
        2
1071
        2
1000
variablelink
1004
0000000000F89340
  0
VERTEX
  5
4A8
  8
10BY10
 10
605812.0
 20
3492183.0
 30
0.02
  0
VERTEX
  5
4A9
  8
10BY10
 10
605822.0
 20
3492183.0
 30
0.02
  0
VERTEX
  5
4AA
  8
10BY10
 10
605822.0
 20
3492193.0
 30
0.02
  0
VERTEX
  5
4AB
  8
10BY10
 10
605812.0
 20
3492193.0
 30
0.02
  0
SEQEND
  5
4AC
  8
10BY10
  0
POLYLINE
  5
E7
  8
10BY10
 66
     1
 10
0.0
 20
0.0
 30
0.102
 70
     1
1001
DCO15
1071
        2
1071
        2
1000
variablelink
1004
0000000000409640
  0
VERTEX
  5
4AD
  8
10BY10
 10
608394.0
 20
3492787.0
 30
0.102
  0
VERTEX
  5
4AE
  8
10BY10
 10
608404.0
 20
3492787.0
 30
0.102
  0
VERTEX
  5
4AF
  8
10BY10
 10
608404.0
 20
3492797.0
 30
0.102
  0
VERTEX
  5
4B0
  8
10BY10
 10
608394.0
 20
3492797.0
 30
0.102
  0
SEQEND
  5
4B1
  8
10BY10
  0
POLYLINE
  5
E8
  8
10BY10
 66
     1
 10
0.0
 20
0.0
 30
0.032
 70
     1
1001
DCO15
1071
        2
1071
        2
1000
variablelink
1004
0000000000F09640
  0
VERTEX
  5
4B2
  8
10BY10
 10
610570.0
 20
3497452.0
 30
0.032
  0
VERTEX
  5
4B3
  8
10BY10
 10
610580.0
 20
3497452.0
 30
0.032
  0
VERTEX
  5
4B4
  8
10BY10
 10
610580.0
 20
3497462.0
 30
0.032
  0
VERTEX
  5
4B5
  8
10BY10
 10
610570.0
 20
3497462.0
 30
0.032
  0
SEQEND
  5
4B6
  8
10BY10
  0
POLYLINE
  5
E9
  8
10BY10
 66
     1
 10
0.0
 20
0.0
 30
0.016
 70
     1
1001
DCO15
1071
        2
1071
        2
1000
variablelink
1004
0000000000FC9640
  0
VERTEX
  5
4B7
  8
10BY10
 10
610627.0
 20
3497542.0
 30
0.016
  0
VERTEX
  5
4B8
  8
10BY10
 10
610637.0
 20
3497542.0
 30
0.016
  0
VERTEX
  5
4B9
  8
10BY10
 10
610637.0
 20
3497552.0
 30
0.016
  0
VERTEX
  5
4BA
  8
10BY10
 10
610627.0
 20
3497552.0
 30
0.016
  0
SEQEND
  5
4BB
  8
10BY10
  0
POLYLINE
  5
EA
  8
10BY10
 66
     1
 10
0.0
 20
0.0
 30
0.01
 70
     1
1001
DCO15
1071
        2
1071
        2
1000
variablelink
1004
0000000000589740
  0
VERTEX
  5
4BC
  8
10BY10
 10
609943.0
 20
3497811.0
 30
0.01
  0
VERTEX
  5
4BD
  8
10BY10
 10
609953.0
 20
3497811.0
 30
0.01
  0
VERTEX
  5
4BE
  8
10BY10
 10
609953.0
 20
3497821.0
 30
0.01
  0
VERTEX
  5
4BF
  8
10BY10
 10
609943.0
 20
3497821.0
 30
0.01
  0
SEQEND
  5
4C0
  8
10BY10
  0
POLYLINE
  5
EB
  8
10BY10
 66
     1
 10
0.0
 20
0.0
 30
0.01
 70
     1
1001
DCO15
1071
        2
1071
        2
1000
variablelink
1004
00000000005C9740
  0
VERTEX
  5
4C1
  8
10BY10
 10
607242.0
 20
3497538.0
 30
0.01
  0
VERTEX
  5
4C2
  8
10BY10
 10
607252.0
 20
3497538.0
 30
0.01
  0
VERTEX
  5
4C3
  8
10BY10
 10
607252.0
 20
3497548.0
 30
0.01
  0
VERTEX
  5
4C4
  8
10BY10
 10
607242.0
 20
3497548.0
 30
0.01
  0
SEQEND
  5
4C5
  8
10BY10
  0
POLYLINE
  5
EC
  8
10BY10
 66
     1
 10
0.0
 20
0.0
 30
0.01
 70
     1
1001
DCO15
1071
        2
1071
        2
1000
variablelink
1004
0000000000C49840
  0
VERTEX
  5
4C6
  8
10BY10
 10
608775.0
 20
3499831.0
 30
0.01
  0
VERTEX
  5
4C7
  8
10BY10
 10
608785.0
 20
3499831.0
 30
0.01
  0
VERTEX
  5
4C8
  8
10BY10
 10
608785.0
 20
3499841.0
 30
0.01
  0
VERTEX
  5
4C9
  8
10BY10
 10
608775.0
 20
3499841.0
 30
0.01
  0
SEQEND
  5
4CA
  8
10BY10
  0
POLYLINE
  5
ED
  8
10BY10
 66
     1
 10
0.0
 20
0.0
 30
0.01
 70
     1
1001
DCO15
1071
        2
1071
        2
1000
variablelink
1004
0000000000C89840
  0
VERTEX
  5
4CB
  8
10BY10
 10
608913.0
 20
3499799.0
 30
0.01
  0
VERTEX
  5
4CC
  8
10BY10
 10
608923.0
 20
3499799.0
 30
0.01
  0
VERTEX
  5
4CD
  8
10BY10
 10
608923.0
 20
3499809.0
 30
0.01
  0
VERTEX
  5
4CE
  8
10BY10
 10
608913.0
 20
3499809.0
 30
0.01
  0
SEQEND
  5
4CF
  8
10BY10
  0
POLYLINE
  5
EE
  8
10BY10
 66
     1
 10
0.0
 20
0.0
 30
0.03
 70
     1
1001
DCO15
1071
        2
1071
        2
1000
variablelink
1004
0000000000009940
  0
VERTEX
  5
4D0
  8
10BY10
 10
594426.0
 20
3483286.0
 30
0.03
  0
VERTEX
  5
4D1
  8
10BY10
 10
594436.0
 20
3483286.0
 30
0.03
  0
VERTEX
  5
4D2
  8
10BY10
 10
594436.0
 20
3483296.0
 30
0.03
  0
VERTEX
  5
4D3
  8
10BY10
 10
594426.0
 20
3483296.0
 30
0.03
  0
SEQEND
  5
4D4
  8
10BY10
  0
POLYLINE
  5
EF
  8
R10BY10
 66
     1
 10
0.0
 20
0.0
 30
0.01
 70
     1
1001
DCO15
1071
        2
1071
        2
1000
variablelink
1004
0000000000A88540
  0
VERTEX
  5
4D5
  8
R10BY10
 10
603141.0
 20
3478941.0
 30
0.01
  0
VERTEX
  5
4D6
  8
R10BY10
 10
603151.0
 20
3478941.0
 30
0.01
  0
VERTEX
  5
4D7
  8
R10BY10
 10
603151.0
 20
3478951.0
 30
0.01
  0
VERTEX
  5
4D8
  8
R10BY10
 10
603141.0
 20
3478951.0
 30
0.01
  0
SEQEND
  5
4D9
  8
R10BY10
  0
POLYLINE
  5
F1
  8
R10BY10
 66
     1
 10
0.0
 20
0.0
 30
0.01
 70
     1
1001
DCO15
1071
        2
1071
        2
1000
variablelink
1004
0000000000688740
  0
VERTEX
  5
4DA
  8
R10BY10
 10
593305.0
 20
3486037.0
 30
0.01
  0
VERTEX
  5
4DB
  8
R10BY10
 10
593315.0
 20
3486037.0
 30
0.01
  0
VERTEX
  5
4DC
  8
R10BY10
 10
593315.0
 20
3486047.0
 30
0.01
  0
VERTEX
  5
4DD
  8
R10BY10
 10
593305.0
 20
3486047.0
 30
0.01
  0
SEQEND
  5
4DE
  8
R10BY10
  0
POLYLINE
  5
F2
  8
R10BY10
 66
     1
 10
0.0
 20
0.0
 30
0.02
 70
     1
1001
DCO15
1071
        2
1071
        2
1000
variablelink
1004
0000000000D88B40
  0
VERTEX
  5
4DF
  8
R10BY10
 10
581086.0
 20
3495340.0
 30
0.02
  0
VERTEX
  5
4E0
  8
R10BY10
 10
581096.0
 20
3495340.0
 30
0.02
  0
VERTEX
  5
4E1
  8
R10BY10
 10
581096.0
 20
3495350.0
 30
0.02
  0
VERTEX
  5
4E2
  8
R10BY10
 10
581086.0
 20
3495350.0
 30
0.02
  0
SEQEND
  5
4E3
  8
R10BY10
  0
POLYLINE
  5
F3
  8
R10BY10
 66
     1
 10
0.0
 20
0.0
 30
0.01
 70
     1
1001
DCO15
1071
        2
1071
        2
1000
variablelink
1004
0000000000E08B40
  0
VERTEX
  5
4E4
  8
R10BY10
 10
581083.0
 20
3495360.0
 30
0.01
  0
VERTEX
  5
4E5
  8
R10BY10
 10
581093.0
 20
3495360.0
 30
0.01
  0
VERTEX
  5
4E6
  8
R10BY10
 10
581093.0
 20
3495370.0
 30
0.01
  0
VERTEX
  5
4E7
  8
R10BY10
 10
581083.0
 20
3495370.0
 30
0.01
  0
SEQEND
  5
4E8
  8
R10BY10
  0
POLYLINE
  5
F4
  8
1BY1
 66
     1
 10
0.0
 20
0.0
 30
1.0
 70
     1
1001
DCO15
1071
        2
1071
        2
1000
variablelink
1004
000000000000F03F
  0
VERTEX
  5
4E9
  8
1BY1
 10
599766.0
 20
3482407.0
 30
1.0
  0
VERTEX
  5
4EA
  8
1BY1
 10
599767.0
 20
3482407.0
 30
1.0
  0
VERTEX
  5
4EB
  8
1BY1
 10
599767.0
 20
3482408.0
 30
1.0
  0
VERTEX
  5
4EC
  8
1BY1
 10
599766.0
 20
3482408.0
 30
1.0
  0
SEQEND
  5
4ED
  8
1BY1
  0
POLYLINE
  5
F5
  8
1BY1
 66
     1
 10
0.0
 20
0.0
 30
1.0
 70
     1
1001
DCO15
1071
        2
1071
        2
1000
variablelink
1004
0000000000000040
  0
VERTEX
  5
4EE
  8
1BY1
 10
599783.0
 20
3482414.0
 30
1.0
  0
VERTEX
  5
4EF
  8
1BY1
 10
599784.0
 20
3482414.0
 30
1.0
  0
VERTEX
  5
4F0
  8
1BY1
 10
599784.0
 20
3482415.0
 30
1.0
  0
VERTEX
  5
4F1
  8
1BY1
 10
599783.0
 20
3482415.0
 30
1.0
  0
SEQEND
  5
4F2
  8
1BY1
  0
POLYLINE
  5
F6
  8
1BY1
 66
     1
 10
0.0
 20
0.0
 30
1.6000000000000001
 70
     1
1001
DCO15
1071
        2
1071
        2
1000
variablelink
1004
0000000000001840
  0
VERTEX
  5
4F3
  8
1BY1
 10
599748.0
 20
3482431.0
 30
1.6000000000000001
  0
VERTEX
  5
4F4
  8
1BY1
 10
599749.0
 20
3482431.0
 30
1.6000000000000001
  0
VERTEX
  5
4F5
  8
1BY1
 10
599749.0
 20
3482432.0
 30
1.6000000000000001
  0
VERTEX
  5
4F6
  8
1BY1
 10
599748.0
 20
3482432.0
 30
1.6000000000000001
  0
SEQEND
  5
4F7
  8
1BY1
  0
POLYLINE
  5
F7
  8
1BY1
 66
     1
 10
0.0
 20
0.0
 30
1.6000000000000001
 70
     1
1001
DCO15
1071
        2
1071
        2
1000
variablelink
1004
0000000000002040
  0
VERTEX
  5
4F8
  8
1BY1
 10
599748.0
 20
3482433.0
 30
1.6000000000000001
  0
VERTEX
  5
4F9
  8
1BY1
 10
599749.0
 20
3482433.0
 30
1.6000000000000001
  0
VERTEX
  5
4FA
  8
1BY1
 10
599749.0
 20
3482434.0
 30
1.6000000000000001
  0
VERTEX
  5
4FB
  8
1BY1
 10
599748.0
 20
3482434.0
 30
1.6000000000000001
  0
SEQEND
  5
4FC
  8
1BY1
  0
POLYLINE
  5
F8
  8
1BY1
 66
     1
 10
0.0
 20
0.0
 30
1.0
 70
     1
1001
DCO15
1071
        2
1071
        2
1000
variablelink
1004
0000000000002E40
  0
VERTEX
  5
4FD
  8
1BY1
 10
599684.0
 20
3482550.0
 30
1.0
  0
VERTEX
  5
4FE
  8
1BY1
 10
599685.0
 20
3482550.0
 30
1.0
  0
VERTEX
  5
4FF
  8
1BY1
 10
599685.0
 20
3482551.0
 30
1.0
  0
VERTEX
  5
500
  8
1BY1
 10
599684.0
 20
3482551.0
 30
1.0
  0
SEQEND
  5
501
  8
1BY1
  0
POLYLINE
  5
F9
  8
1BY1
 66
     1
 10
0.0
 20
0.0
 30
1.0
 70
     1
1001
DCO15
1071
        2
1071
        2
1000
variablelink
1004
0000000000003040
  0
VERTEX
  5
502
  8
1BY1
 10
599638.0
 20
3482615.0
 30
1.0
  0
VERTEX
  5
503
  8
1BY1
 10
599639.0
 20
3482615.0
 30
1.0
  0
VERTEX
  5
504
  8
1BY1
 10
599639.0
 20
3482616.0
 30
1.0
  0
VERTEX
  5
505
  8
1BY1
 10
599638.0
 20
3482616.0
 30
1.0
  0
SEQEND
  5
506
  8
1BY1
  0
POLYLINE
  5
FA
  8
1BY1
 66
     1
 10
0.0
 20
0.0
 30
1.0
 70
     1
1001
DCO15
1071
        2
1071
        2
1000
variablelink
1004
0000000000003140
  0
VERTEX
  5
507
  8
1BY1
 10
599647.0
 20
3482668.0
 30
1.0
  0
VERTEX
  5
508
  8
1BY1
 10
599648.0
 20
3482668.0
 30
1.0
  0
VERTEX
  5
509
  8
1BY1
 10
599648.0
 20
3482669.0
 30
1.0
  0
VERTEX
  5
50A
  8
1BY1
 10
599647.0
 20
3482669.0
 30
1.0
  0
SEQEND
  5
50B
  8
1BY1
  0
POLYLINE
  5
FB
  8
1BY1
 66
     1
 10
0.0
 20
0.0
 30
1.0
 70
     1
1001
DCO15
1071
        2
1071
        2
1000
variablelink
1004
0000000000003240
  0
VERTEX
  5
50C
  8
1BY1
 10
599637.0
 20
3482663.0
 30
1.0
  0
VERTEX
  5
50D
  8
1BY1
 10
599638.0
 20
3482663.0
 30
1.0
  0
VERTEX
  5
50E
  8
1BY1
 10
599638.0
 20
3482664.0
 30
1.0
  0
VERTEX
  5
50F
  8
1BY1
 10
599637.0
 20
3482664.0
 30
1.0
  0
SEQEND
  5
510
  8
1BY1
  0
POLYLINE
  5
FC
  8
1BY1
 66
     1
 10
0.0
 20
0.0
 30
1.0
 70
     1
1001
DCO15
1071
        2
1071
        2
1000
variablelink
1004
0000000000003340
  0
VERTEX
  5
511
  8
1BY1
 10
599889.0
 20
3482431.0
 30
1.0
  0
VERTEX
  5
512
  8
1BY1
 10
599890.0
 20
3482431.0
 30
1.0
  0
VERTEX
  5
513
  8
1BY1
 10
599890.0
 20
3482432.0
 30
1.0
  0
VERTEX
  5
514
  8
1BY1
 10
599889.0
 20
3482432.0
 30
1.0
  0
SEQEND
  5
515
  8
1BY1
  0
POLYLINE
  5
FD
  8
1BY1
 66
     1
 10
0.0
 20
0.0
 30
1.6000000000000001
 70
     1
1001
DCO15
1071
        2
1071
        2
1000
variablelink
1004
0000000000003540
  0
VERTEX
  5
516
  8
1BY1
 10
599733.0
 20
3482530.0
 30
1.6000000000000001
  0
VERTEX
  5
517
  8
1BY1
 10
599734.0
 20
3482530.0
 30
1.6000000000000001
  0
VERTEX
  5
518
  8
1BY1
 10
599734.0
 20
3482531.0
 30
1.6000000000000001
  0
VERTEX
  5
519
  8
1BY1
 10
599733.0
 20
3482531.0
 30
1.6000000000000001
  0
SEQEND
  5
51A
  8
1BY1
  0
POLYLINE
  5
FE
  8
1BY1
 66
     1
 10
0.0
 20
0.0
 30
1.6000000000000001
 70
     1
1001
DCO15
1071
        2
1071
        2
1000
variablelink
1004
0000000000003640
  0
VERTEX
  5
51B
  8
1BY1
 10
599735.0
 20
3482535.0
 30
1.6000000000000001
  0
VERTEX
  5
51C
  8
1BY1
 10
599736.0
 20
3482535.0
 30
1.6000000000000001
  0
VERTEX
  5
51D
  8
1BY1
 10
599736.0
 20
3482536.0
 30
1.6000000000000001
  0
VERTEX
  5
51E
  8
1BY1
 10
599735.0
 20
3482536.0
 30
1.6000000000000001
  0
SEQEND
  5
51F
  8
1BY1
  0
POLYLINE
  5
FF
  8
1BY1
 66
     1
 10
0.0
 20
0.0
 30
1.0
 70
     1
1001
DCO15
1071
        2
1071
        2
1000
variablelink
1004
0000000000003A40
  0
VERTEX
  5
520
  8
1BY1
 10
599694.0
 20
3482691.0
 30
1.0
  0
VERTEX
  5
521
  8
1BY1
 10
599695.0
 20
3482691.0
 30
1.0
  0
VERTEX
  5
522
  8
1BY1
 10
599695.0
 20
3482692.0
 30
1.0
  0
VERTEX
  5
523
  8
1BY1
 10
599694.0
 20
3482692.0
 30
1.0
  0
SEQEND
  5
524
  8
1BY1
  0
POLYLINE
  5
100
  8
1BY1
 66
     1
 10
0.0
 20
0.0
 30
1.0
 70
     1
1001
DCO15
1071
        2
1071
        2
1000
variablelink
1004
0000000000003B40
  0
VERTEX
  5
525
  8
1BY1
 10
599821.0
 20
3482448.0
 30
1.0
  0
VERTEX
  5
526
  8
1BY1
 10
599822.0
 20
3482448.0
 30
1.0
  0
VERTEX
  5
527
  8
1BY1
 10
599822.0
 20
3482449.0
 30
1.0
  0
VERTEX
  5
528
  8
1BY1
 10
599821.0
 20
3482449.0
 30
1.0
  0
SEQEND
  5
529
  8
1BY1
  0
POLYLINE
  5
101
  8
1BY1
 66
     1
 10
0.0
 20
0.0
 30
1.0
 70
     1
1001
DCO15
1071
        2
1071
        2
1000
variablelink
1004
0000000000003C40
  0
VERTEX
  5
52A
  8
1BY1
 10
600017.0
 20
3482757.0
 30
1.0
  0
VERTEX
  5
52B
  8
1BY1
 10
600018.0
 20
3482757.0
 30
1.0
  0
VERTEX
  5
52C
  8
1BY1
 10
600018.0
 20
3482758.0
 30
1.0
  0
VERTEX
  5
52D
  8
1BY1
 10
600017.0
 20
3482758.0
 30
1.0
  0
SEQEND
  5
52E
  8
1BY1
  0
POLYLINE
  5
102
  8
1BY1
 66
     1
 10
0.0
 20
0.0
 30
1.6000000000000001
 70
     1
1001
DCO15
1071
        2
1071
        2
1000
variablelink
1004
0000000000003D40
  0
VERTEX
  5
52F
  8
1BY1
 10
600006.0
 20
3482762.0
 30
1.6000000000000001
  0
VERTEX
  5
530
  8
1BY1
 10
600007.0
 20
3482762.0
 30
1.6000000000000001
  0
VERTEX
  5
531
  8
1BY1
 10
600007.0
 20
3482763.0
 30
1.6000000000000001
  0
VERTEX
  5
532
  8
1BY1
 10
600006.0
 20
3482763.0
 30
1.6000000000000001
  0
SEQEND
  5
533
  8
1BY1
  0
POLYLINE
  5
103
  8
1BY1
 66
     1
 10
0.0
 20
0.0
 30
1.0
 70
     1
1001
DCO15
1071
        2
1071
        2
1000
variablelink
1004
0000000000003E40
  0
VERTEX
  5
534
  8
1BY1
 10
599824.0
 20
3482339.0
 30
1.0
  0
VERTEX
  5
535
  8
1BY1
 10
599825.0
 20
3482339.0
 30
1.0
  0
VERTEX
  5
536
  8
1BY1
 10
599825.0
 20
3482340.0
 30
1.0
  0
VERTEX
  5
537
  8
1BY1
 10
599824.0
 20
3482340.0
 30
1.0
  0
SEQEND
  5
538
  8
1BY1
  0
POLYLINE
  5
104
  8
1BY1
 66
     1
 10
0.0
 20
0.0
 30
1.0
 70
     1
1001
DCO15
1071
        2
1071
        2
1000
variablelink
1004
0000000000004340
  0
VERTEX
  5
539
  8
1BY1
 10
599821.0
 20
3482252.0
 30
1.0
  0
VERTEX
  5
53A
  8
1BY1
 10
599822.0
 20
3482252.0
 30
1.0
  0
VERTEX
  5
53B
  8
1BY1
 10
599822.0
 20
3482253.0
 30
1.0
  0
VERTEX
  5
53C
  8
1BY1
 10
599821.0
 20
3482253.0
 30
1.0
  0
SEQEND
  5
53D
  8
1BY1
  0
POLYLINE
  5
105
  8
1BY1
 66
     1
 10
0.0
 20
0.0
 30
2.0
 70
     1
1001
DCO15
1071
        2
1071
        2
1000
variablelink
1004
0000000000804340
  0
VERTEX
  5
53E
  8
1BY1
 10
599823.0
 20
3482258.0
 30
2.0
  0
VERTEX
  5
53F
  8
1BY1
 10
599824.0
 20
3482258.0
 30
2.0
  0
VERTEX
  5
540
  8
1BY1
 10
599824.0
 20
3482259.0
 30
2.0
  0
VERTEX
  5
541
  8
1BY1
 10
599823.0
 20
3482259.0
 30
2.0
  0
SEQEND
  5
542
  8
1BY1
  0
POLYLINE
  5
106
  8
1BY1
 66
     1
 10
0.0
 20
0.0
 30
1.0
 70
     1
1001
DCO15
1071
        2
1071
        2
1000
variablelink
1004
0000000000004440
  0
VERTEX
  5
543
  8
1BY1
 10
599813.0
 20
3482279.0
 30
1.0
  0
VERTEX
  5
544
  8
1BY1
 10
599814.0
 20
3482279.0
 30
1.0
  0
VERTEX
  5
545
  8
1BY1
 10
599814.0
 20
3482280.0
 30
1.0
  0
VERTEX
  5
546
  8
1BY1
 10
599813.0
 20
3482280.0
 30
1.0
  0
SEQEND
  5
547
  8
1BY1
  0
POLYLINE
  5
107
  8
1BY1
 66
     1
 10
0.0
 20
0.0
 30
3.2000000000000002
 70
     1
1001
DCO15
1071
        2
1071
        2
1000
variablelink
1004
0000000000004740
  0
VERTEX
  5
548
  8
1BY1
 10
599838.0
 20
3482353.0
 30
3.2000000000000002
  0
VERTEX
  5
549
  8
1BY1
 10
599839.0
 20
3482353.0
 30
3.2000000000000002
  0
VERTEX
  5
54A
  8
1BY1
 10
599839.0
 20
3482354.0
 30
3.2000000000000002
  0
VERTEX
  5
54B
  8
1BY1
 10
599838.0
 20
3482354.0
 30
3.2000000000000002
  0
SEQEND
  5
54C
  8
1BY1
  0
POLYLINE
  5
108
  8
1BY1
 66
     1
 10
0.0
 20
0.0
 30
1.6000000000000001
 70
     1
1001
DCO15
1071
        2
1071
        2
1000
variablelink
1004
0000000000804B40
  0
VERTEX
  5
54D
  8
1BY1
 10
599969.0
 20
3482493.0
 30
1.6000000000000001
  0
VERTEX
  5
54E
  8
1BY1
 10
599970.0
 20
3482493.0
 30
1.6000000000000001
  0
VERTEX
  5
54F
  8
1BY1
 10
599970.0
 20
3482494.0
 30
1.6000000000000001
  0
VERTEX
  5
550
  8
1BY1
 10
599969.0
 20
3482494.0
 30
1.6000000000000001
  0
SEQEND
  5
551
  8
1BY1
  0
POLYLINE
  5
109
  8
1BY1
 66
     1
 10
0.0
 20
0.0
 30
1.6000000000000001
 70
     1
1001
DCO15
1071
        2
1071
        2
1000
variablelink
1004
0000000000004C40
  0
VERTEX
  5
552
  8
1BY1
 10
599881.0
 20
3482356.0
 30
1.6000000000000001
  0
VERTEX
  5
553
  8
1BY1
 10
599882.0
 20
3482356.0
 30
1.6000000000000001
  0
VERTEX
  5
554
  8
1BY1
 10
599882.0
 20
3482357.0
 30
1.6000000000000001
  0
VERTEX
  5
555
  8
1BY1
 10
599881.0
 20
3482357.0
 30
1.6000000000000001
  0
SEQEND
  5
556
  8
1BY1
  0
POLYLINE
  5
10A
  8
1BY1
 66
     1
 10
0.0
 20
0.0
 30
3.2000000000000002
 70
     1
1001
DCO15
1071
        2
1071
        2
1000
variablelink
1004
0000000000004D40
  0
VERTEX
  5
557
  8
1BY1
 10
599849.0
 20
3482248.0
 30
3.2000000000000002
  0
VERTEX
  5
558
  8
1BY1
 10
599850.0
 20
3482248.0
 30
3.2000000000000002
  0
VERTEX
  5
559
  8
1BY1
 10
599850.0
 20
3482249.0
 30
3.2000000000000002
  0
VERTEX
  5
55A
  8
1BY1
 10
599849.0
 20
3482249.0
 30
3.2000000000000002
  0
SEQEND
  5
55B
  8
1BY1
  0
POLYLINE
  5
10B
  8
1BY1
 66
     1
 10
0.0
 20
0.0
 30
1.6000000000000001
 70
     1
1001
DCO15
1071
        2
1071
        2
1000
variablelink
1004
0000000000805140
  0
VERTEX
  5
55C
  8
1BY1
 10
599882.0
 20
3482322.0
 30
1.6000000000000001
  0
VERTEX
  5
55D
  8
1BY1
 10
599883.0
 20
3482322.0
 30
1.6000000000000001
  0
VERTEX
  5
55E
  8
1BY1
 10
599883.0
 20
3482323.0
 30
1.6000000000000001
  0
VERTEX
  5
55F
  8
1BY1
 10
599882.0
 20
3482323.0
 30
1.6000000000000001
  0
SEQEND
  5
560
  8
1BY1
  0
POLYLINE
  5
10C
  8
1BY1
 66
     1
 10
0.0
 20
0.0
 30
1.6000000000000001
 70
     1
1001
DCO15
1071
        2
1071
        2
1000
variablelink
1004
0000000000C05240
  0
VERTEX
  5
561
  8
1BY1
 10
599885.0
 20
3482304.0
 30
1.6000000000000001
  0
VERTEX
  5
562
  8
1BY1
 10
599886.0
 20
3482304.0
 30
1.6000000000000001
  0
VERTEX
  5
563
  8
1BY1
 10
599886.0
 20
3482305.0
 30
1.6000000000000001
  0
VERTEX
  5
564
  8
1BY1
 10
599885.0
 20
3482305.0
 30
1.6000000000000001
  0
SEQEND
  5
565
  8
1BY1
  0
POLYLINE
  5
10D
  8
1BY1
 66
     1
 10
0.0
 20
0.0
 30
1.6000000000000001
 70
     1
1001
DCO15
1071
        2
1071
        2
1000
variablelink
1004
0000000000C05340
  0
VERTEX
  5
566
  8
1BY1
 10
599883.0
 20
3482341.0
 30
1.6000000000000001
  0
VERTEX
  5
567
  8
1BY1
 10
599884.0
 20
3482341.0
 30
1.6000000000000001
  0
VERTEX
  5
568
  8
1BY1
 10
599884.0
 20
3482342.0
 30
1.6000000000000001
  0
VERTEX
  5
569
  8
1BY1
 10
599883.0
 20
3482342.0
 30
1.6000000000000001
  0
SEQEND
  5
56A
  8
1BY1
  0
POLYLINE
  5
10E
  8
1BY1
 66
     1
 10
0.0
 20
0.0
 30
3.2000000000000002
 70
     1
1001
DCO15
1071
        2
1071
        2
1000
variablelink
1004
0000000000C05440
  0
VERTEX
  5
56B
  8
1BY1
 10
599884.0
 20
3482334.0
 30
3.2000000000000002
  0
VERTEX
  5
56C
  8
1BY1
 10
599885.0
 20
3482334.0
 30
3.2000000000000002
  0
VERTEX
  5
56D
  8
1BY1
 10
599885.0
 20
3482335.0
 30
3.2000000000000002
  0
VERTEX
  5
56E
  8
1BY1
 10
599884.0
 20
3482335.0
 30
3.2000000000000002
  0
SEQEND
  5
56F
  8
1BY1
  0
POLYLINE
  5
10F
  8
1BY1
 66
     1
 10
0.0
 20
0.0
 30
1.6000000000000001
 70
     1
1001
DCO15
1071
        2
1071
        2
1000
variablelink
1004
0000000000405540
  0
VERTEX
  5
570
  8
1BY1
 10
599628.0
 20
3482839.0
 30
1.6000000000000001
  0
VERTEX
  5
571
  8
1BY1
 10
599629.0
 20
3482839.0
 30
1.6000000000000001
  0
VERTEX
  5
572
  8
1BY1
 10
599629.0
 20
3482840.0
 30
1.6000000000000001
  0
VERTEX
  5
573
  8
1BY1
 10
599628.0
 20
3482840.0
 30
1.6000000000000001
  0
SEQEND
  5
574
  8
1BY1
  0
POLYLINE
  5
110
  8
1BY1
 66
     1
 10
0.0
 20
0.0
 30
1.0
 70
     1
1001
DCO15
1071
        2
1071
        2
1000
variablelink
1004
0000000000805540
  0
VERTEX
  5
575
  8
1BY1
 10
599615.0
 20
3482706.0
 30
1.0
  0
VERTEX
  5
576
  8
1BY1
 10
599616.0
 20
3482706.0
 30
1.0
  0
VERTEX
  5
577
  8
1BY1
 10
599616.0
 20
3482707.0
 30
1.0
  0
VERTEX
  5
578
  8
1BY1
 10
599615.0
 20
3482707.0
 30
1.0
  0
SEQEND
  5
579
  8
1BY1
  0
POLYLINE
  5
111
  8
1BY1
 66
     1
 10
0.0
 20
0.0
 30
1.7
 70
     1
1001
DCO15
1071
        2
1071
        2
1000
variablelink
1004
0000000000507940
  0
VERTEX
  5
57A
  8
1BY1
 10
599756.0
 20
3481986.0
 30
1.7
  0
VERTEX
  5
57B
  8
1BY1
 10
599757.0
 20
3481986.0
 30
1.7
  0
VERTEX
  5
57C
  8
1BY1
 10
599757.0
 20
3481987.0
 30
1.7
  0
VERTEX
  5
57D
  8
1BY1
 10
599756.0
 20
3481987.0
 30
1.7
  0
SEQEND
  5
57E
  8
1BY1
  0
POLYLINE
  5
112
  8
1BY1
 66
     1
 10
0.0
 20
0.0
 30
1.7
 70
     1
1001
DCO15
1071
        2
1071
        2
1000
variablelink
1004
0000000000607940
  0
VERTEX
  5
57F
  8
1BY1
 10
599779.0
 20
3482073.0
 30
1.7
  0
VERTEX
  5
580
  8
1BY1
 10
599780.0
 20
3482073.0
 30
1.7
  0
VERTEX
  5
581
  8
1BY1
 10
599780.0
 20
3482074.0
 30
1.7
  0
VERTEX
  5
582
  8
1BY1
 10
599779.0
 20
3482074.0
 30
1.7
  0
SEQEND
  5
583
  8
1BY1
  0
POLYLINE
  5
113
  8
1BY1
 66
     1
 10
0.0
 20
0.0
 30
1.6000000000000001
 70
     1
1001
DCO15
1071
        2
1071
        2
1000
variablelink
1004
0000000000707940
  0
VERTEX
  5
584
  8
1BY1
 10
599763.0
 20
3482381.0
 30
1.6000000000000001
  0
VERTEX
  5
585
  8
1BY1
 10
599764.0
 20
3482381.0
 30
1.6000000000000001
  0
VERTEX
  5
586
  8
1BY1
 10
599764.0
 20
3482382.0
 30
1.6000000000000001
  0
VERTEX
  5
587
  8
1BY1
 10
599763.0
 20
3482382.0
 30
1.6000000000000001
  0
SEQEND
  5
588
  8
1BY1
  0
POLYLINE
  5
114
  8
1BY1
 66
     1
 10
0.0
 20
0.0
 30
1.0
 70
     1
1001
DCO15
1071
        2
1071
        2
1000
variablelink
1004
0000000000807940
  0
VERTEX
  5
589
  8
1BY1
 10
599708.0
 20
3482422.0
 30
1.0
  0
VERTEX
  5
58A
  8
1BY1
 10
599709.0
 20
3482422.0
 30
1.0
  0
VERTEX
  5
58B
  8
1BY1
 10
599709.0
 20
3482423.0
 30
1.0
  0
VERTEX
  5
58C
  8
1BY1
 10
599708.0
 20
3482423.0
 30
1.0
  0
SEQEND
  5
58D
  8
1BY1
  0
POLYLINE
  5
115
  8
1BY1
 66
     1
 10
0.0
 20
0.0
 30
1.0
 70
     1
1001
DCO15
1071
        2
1071
        2
1000
variablelink
1004
0000000000A07940
  0
VERTEX
  5
58E
  8
1BY1
 10
599594.0
 20
3482033.0
 30
1.0
  0
VERTEX
  5
58F
  8
1BY1
 10
599595.0
 20
3482033.0
 30
1.0
  0
VERTEX
  5
590
  8
1BY1
 10
599595.0
 20
3482034.0
 30
1.0
  0
VERTEX
  5
591
  8
1BY1
 10
599594.0
 20
3482034.0
 30
1.0
  0
SEQEND
  5
592
  8
1BY1
  0
POLYLINE
  5
116
  8
1BY1
 66
     1
 10
0.0
 20
0.0
 30
1.6000000000000001
 70
     1
1001
DCO15
1071
        2
1071
        2
1000
variablelink
1004
0000000000B07940
  0
VERTEX
  5
593
  8
1BY1
 10
599608.0
 20
3482046.0
 30
1.6000000000000001
  0
VERTEX
  5
594
  8
1BY1
 10
599609.0
 20
3482046.0
 30
1.6000000000000001
  0
VERTEX
  5
595
  8
1BY1
 10
599609.0
 20
3482047.0
 30
1.6000000000000001
  0
VERTEX
  5
596
  8
1BY1
 10
599608.0
 20
3482047.0
 30
1.6000000000000001
  0
SEQEND
  5
597
  8
1BY1
  0
POLYLINE
  5
117
  8
1BY1
 66
     1
 10
0.0
 20
0.0
 30
1.6000000000000001
 70
     1
1001
DCO15
1071
        2
1071
        2
1000
variablelink
1004
0000000000C07940
  0
VERTEX
  5
598
  8
1BY1
 10
599605.0
 20
3482052.0
 30
1.6000000000000001
  0
VERTEX
  5
599
  8
1BY1
 10
599606.0
 20
3482052.0
 30
1.6000000000000001
  0
VERTEX
  5
59A
  8
1BY1
 10
599606.0
 20
3482053.0
 30
1.6000000000000001
  0
VERTEX
  5
59B
  8
1BY1
 10
599605.0
 20
3482053.0
 30
1.6000000000000001
  0
SEQEND
  5
59C
  8
1BY1
  0
POLYLINE
  5
118
  8
1BY1
 66
     1
 10
0.0
 20
0.0
 30
1.0
 70
     1
1001
DCO15
1071
        2
1071
        2
1000
variablelink
1004
0000000000D07940
  0
VERTEX
  5
59D
  8
1BY1
 10
599605.0
 20
3482055.0
 30
1.0
  0
VERTEX
  5
59E
  8
1BY1
 10
599606.0
 20
3482055.0
 30
1.0
  0
VERTEX
  5
59F
  8
1BY1
 10
599606.0
 20
3482056.0
 30
1.0
  0
VERTEX
  5
5A0
  8
1BY1
 10
599605.0
 20
3482056.0
 30
1.0
  0
SEQEND
  5
5A1
  8
1BY1
  0
POLYLINE
  5
119
  8
1BY1
 66
     1
 10
0.0
 20
0.0
 30
1.7
 70
     1
1001
DCO15
1071
        2
1071
        2
1000
variablelink
1004
0000000000F07940
  0
VERTEX
  5
5A2
  8
1BY1
 10
599622.0
 20
3482016.0
 30
1.7
  0
VERTEX
  5
5A3
  8
1BY1
 10
599623.0
 20
3482016.0
 30
1.7
  0
VERTEX
  5
5A4
  8
1BY1
 10
599623.0
 20
3482017.0
 30
1.7
  0
VERTEX
  5
5A5
  8
1BY1
 10
599622.0
 20
3482017.0
 30
1.7
  0
SEQEND
  5
5A6
  8
1BY1
  0
POLYLINE
  5
11A
  8
1BY1
 66
     1
 10
0.0
 20
0.0
 30
1.0
 70
     1
1001
DCO15
1071
        2
1071
        2
1000
variablelink
1004
0000000000007A40
  0
VERTEX
  5
5A7
  8
1BY1
 10
599621.0
 20
3482020.0
 30
1.0
  0
VERTEX
  5
5A8
  8
1BY1
 10
599622.0
 20
3482020.0
 30
1.0
  0
VERTEX
  5
5A9
  8
1BY1
 10
599622.0
 20
3482021.0
 30
1.0
  0
VERTEX
  5
5AA
  8
1BY1
 10
599621.0
 20
3482021.0
 30
1.0
  0
SEQEND
  5
5AB
  8
1BY1
  0
POLYLINE
  5
11B
  8
1BY1
 66
     1
 10
0.0
 20
0.0
 30
3.399999999999999
 70
     1
1001
DCO15
1071
        2
1071
        2
1000
variablelink
1004
0000000000107A40
  0
VERTEX
  5
5AC
  8
1BY1
 10
599620.0
 20
3482013.0
 30
3.399999999999999
  0
VERTEX
  5
5AD
  8
1BY1
 10
599621.0
 20
3482013.0
 30
3.399999999999999
  0
VERTEX
  5
5AE
  8
1BY1
 10
599621.0
 20
3482014.0
 30
3.399999999999999
  0
VERTEX
  5
5AF
  8
1BY1
 10
599620.0
 20
3482014.0
 30
3.399999999999999
  0
SEQEND
  5
5B0
  8
1BY1
  0
POLYLINE
  5
11C
  8
1BY1
 66
     1
 10
0.0
 20
0.0
 30
2.0
 70
     1
1001
DCO15
1071
        2
1071
        2
1000
variablelink
1004
0000000000407A40
  0
VERTEX
  5
5B1
  8
1BY1
 10
599563.0
 20
3482372.0
 30
2.0
  0
VERTEX
  5
5B2
  8
1BY1
 10
599564.0
 20
3482372.0
 30
2.0
  0
VERTEX
  5
5B3
  8
1BY1
 10
599564.0
 20
3482373.0
 30
2.0
  0
VERTEX
  5
5B4
  8
1BY1
 10
599563.0
 20
3482373.0
 30
2.0
  0
SEQEND
  5
5B5
  8
1BY1
  0
POLYLINE
  5
11D
  8
1BY1
 66
     1
 10
0.0
 20
0.0
 30
5.0
 70
     1
1001
DCO15
1071
        2
1071
        2
1000
variablelink
1004
0000000000507A40
  0
VERTEX
  5
5B6
  8
1BY1
 10
599599.0
 20
3482461.0
 30
5.0
  0
VERTEX
  5
5B7
  8
1BY1
 10
599600.0
 20
3482461.0
 30
5.0
  0
VERTEX
  5
5B8
  8
1BY1
 10
599600.0
 20
3482462.0
 30
5.0
  0
VERTEX
  5
5B9
  8
1BY1
 10
599599.0
 20
3482462.0
 30
5.0
  0
SEQEND
  5
5BA
  8
1BY1
  0
POLYLINE
  5
11E
  8
1BY1
 66
     1
 10
0.0
 20
0.0
 30
1.0
 70
     1
1001
DCO15
1071
        2
1071
        2
1000
variablelink
1004
0000000000607A40
  0
VERTEX
  5
5BB
  8
1BY1
 10
599625.0
 20
3482496.0
 30
1.0
  0
VERTEX
  5
5BC
  8
1BY1
 10
599626.0
 20
3482496.0
 30
1.0
  0
VERTEX
  5
5BD
  8
1BY1
 10
599626.0
 20
3482497.0
 30
1.0
  0
VERTEX
  5
5BE
  8
1BY1
 10
599625.0
 20
3482497.0
 30
1.0
  0
SEQEND
  5
5BF
  8
1BY1
  0
POLYLINE
  5
11F
  8
1BY1
 66
     1
 10
0.0
 20
0.0
 30
1.6000000000000001
 70
     1
1001
DCO15
1071
        2
1071
        2
1000
variablelink
1004
0000000000907A40
  0
VERTEX
  5
5C0
  8
1BY1
 10
599732.0
 20
3482028.0
 30
1.6000000000000001
  0
VERTEX
  5
5C1
  8
1BY1
 10
599733.0
 20
3482028.0
 30
1.6000000000000001
  0
VERTEX
  5
5C2
  8
1BY1
 10
599733.0
 20
3482029.0
 30
1.6000000000000001
  0
VERTEX
  5
5C3
  8
1BY1
 10
599732.0
 20
3482029.0
 30
1.6000000000000001
  0
SEQEND
  5
5C4
  8
1BY1
  0
POLYLINE
  5
120
  8
1BY1
 66
     1
 10
0.0
 20
0.0
 30
1.0
 70
     1
1001
DCO15
1071
        2
1071
        2
1000
variablelink
1004
0000000000A07A40
  0
VERTEX
  5
5C5
  8
1BY1
 10
599635.0
 20
3482409.0
 30
1.0
  0
VERTEX
  5
5C6
  8
1BY1
 10
599636.0
 20
3482409.0
 30
1.0
  0
VERTEX
  5
5C7
  8
1BY1
 10
599636.0
 20
3482410.0
 30
1.0
  0
VERTEX
  5
5C8
  8
1BY1
 10
599635.0
 20
3482410.0
 30
1.0
  0
SEQEND
  5
5C9
  8
1BY1
  0
POLYLINE
  5
121
  8
1BY1
 66
     1
 10
0.0
 20
0.0
 30
1.0
 70
     1
1001
DCO15
1071
        2
1071
        2
1000
variablelink
1004
0000000000C07A40
  0
VERTEX
  5
5CA
  8
1BY1
 10
599586.0
 20
3482419.0
 30
1.0
  0
VERTEX
  5
5CB
  8
1BY1
 10
599587.0
 20
3482419.0
 30
1.0
  0
VERTEX
  5
5CC
  8
1BY1
 10
599587.0
 20
3482420.0
 30
1.0
  0
VERTEX
  5
5CD
  8
1BY1
 10
599586.0
 20
3482420.0
 30
1.0
  0
SEQEND
  5
5CE
  8
1BY1
  0
POLYLINE
  5
122
  8
1BY1
 66
     1
 10
0.0
 20
0.0
 30
1.0
 70
     1
1001
DCO15
1071
        2
1071
        2
1000
variablelink
1004
0000000000D07A40
  0
VERTEX
  5
5CF
  8
1BY1
 10
599600.0
 20
3482373.0
 30
1.0
  0
VERTEX
  5
5D0
  8
1BY1
 10
599601.0
 20
3482373.0
 30
1.0
  0
VERTEX
  5
5D1
  8
1BY1
 10
599601.0
 20
3482374.0
 30
1.0
  0
VERTEX
  5
5D2
  8
1BY1
 10
599600.0
 20
3482374.0
 30
1.0
  0
SEQEND
  5
5D3
  8
1BY1
  0
POLYLINE
  5
123
  8
1BY1
 66
     1
 10
0.0
 20
0.0
 30
1.6000000000000001
 70
     1
1001
DCO15
1071
        2
1071
        2
1000
variablelink
1004
0000000000E07A40
  0
VERTEX
  5
5D4
  8
1BY1
 10
599595.0
 20
3482336.0
 30
1.6000000000000001
  0
VERTEX
  5
5D5
  8
1BY1
 10
599596.0
 20
3482336.0
 30
1.6000000000000001
  0
VERTEX
  5
5D6
  8
1BY1
 10
599596.0
 20
3482337.0
 30
1.6000000000000001
  0
VERTEX
  5
5D7
  8
1BY1
 10
599595.0
 20
3482337.0
 30
1.6000000000000001
  0
SEQEND
  5
5D8
  8
1BY1
  0
POLYLINE
  5
124
  8
1BY1
 66
     1
 10
0.0
 20
0.0
 30
1.0
 70
     1
1001
DCO15
1071
        2
1071
        2
1000
variablelink
1004
0000000000807B40
  0
VERTEX
  5
5D9
  8
1BY1
 10
599431.0
 20
3482092.0
 30
1.0
  0
VERTEX
  5
5DA
  8
1BY1
 10
599432.0
 20
3482092.0
 30
1.0
  0
VERTEX
  5
5DB
  8
1BY1
 10
599432.0
 20
3482093.0
 30
1.0
  0
VERTEX
  5
5DC
  8
1BY1
 10
599431.0
 20
3482093.0
 30
1.0
  0
SEQEND
  5
5DD
  8
1BY1
  0
POLYLINE
  5
125
  8
1BY1
 66
     1
 10
0.0
 20
0.0
 30
1.7
 70
     1
1001
DCO15
1071
        2
1071
        2
1000
variablelink
1004
0000000000A07B40
  0
VERTEX
  5
5DE
  8
1BY1
 10
599397.0
 20
3482102.0
 30
1.7
  0
VERTEX
  5
5DF
  8
1BY1
 10
599398.0
 20
3482102.0
 30
1.7
  0
VERTEX
  5
5E0
  8
1BY1
 10
599398.0
 20
3482103.0
 30
1.7
  0
VERTEX
  5
5E1
  8
1BY1
 10
599397.0
 20
3482103.0
 30
1.7
  0
SEQEND
  5
5E2
  8
1BY1
  0
POLYLINE
  5
126
  8
1BY1
 66
     1
 10
0.0
 20
0.0
 30
10.199999999999999
 70
     1
1001
DCO15
1071
        2
1071
        2
1000
variablelink
1004
0000000000C07B40
  0
VERTEX
  5
5E3
  8
1BY1
 10
599342.0
 20
3482097.0
 30
10.199999999999999
  0
VERTEX
  5
5E4
  8
1BY1
 10
599343.0
 20
3482097.0
 30
10.199999999999999
  0
VERTEX
  5
5E5
  8
1BY1
 10
599343.0
 20
3482098.0
 30
10.199999999999999
  0
VERTEX
  5
5E6
  8
1BY1
 10
599342.0
 20
3482098.0
 30
10.199999999999999
  0
SEQEND
  5
5E7
  8
1BY1
  0
POLYLINE
  5
127
  8
1BY1
 66
     1
 10
0.0
 20
0.0
 30
1.7
 70
     1
1001
DCO15
1071
        2
1071
        2
1000
variablelink
1004
0000000000D07B40
  0
VERTEX
  5
5E8
  8
1BY1
 10
599399.0
 20
3482101.0
 30
1.7
  0
VERTEX
  5
5E9
  8
1BY1
 10
599400.0
 20
3482101.0
 30
1.7
  0
VERTEX
  5
5EA
  8
1BY1
 10
599400.0
 20
3482102.0
 30
1.7
  0
VERTEX
  5
5EB
  8
1BY1
 10
599399.0
 20
3482102.0
 30
1.7
  0
SEQEND
  5
5EC
  8
1BY1
  0
POLYLINE
  5
128
  8
1BY1
 66
     1
 10
0.0
 20
0.0
 30
32.0
 70
     1
1001
DCO15
1071
        2
1071
        2
1000
variablelink
1004
0000000000E07B40
  0
VERTEX
  5
5ED
  8
1BY1
 10
599379.0
 20
3482104.0
 30
32.0
  0
VERTEX
  5
5EE
  8
1BY1
 10
599380.0
 20
3482104.0
 30
32.0
  0
VERTEX
  5
5EF
  8
1BY1
 10
599380.0
 20
3482105.0
 30
32.0
  0
VERTEX
  5
5F0
  8
1BY1
 10
599379.0
 20
3482105.0
 30
32.0
  0
SEQEND
  5
5F1
  8
1BY1
  0
POLYLINE
  5
129
  8
1BY1
 66
     1
 10
0.0
 20
0.0
 30
1.7
 70
     1
1001
DCO15
1071
        2
1071
        2
1000
variablelink
1004
0000000000007C40
  0
VERTEX
  5
5F2
  8
1BY1
 10
599362.0
 20
3482054.0
 30
1.7
  0
VERTEX
  5
5F3
  8
1BY1
 10
599363.0
 20
3482054.0
 30
1.7
  0
VERTEX
  5
5F4
  8
1BY1
 10
599363.0
 20
3482055.0
 30
1.7
  0
VERTEX
  5
5F5
  8
1BY1
 10
599362.0
 20
3482055.0
 30
1.7
  0
SEQEND
  5
5F6
  8
1BY1
  0
POLYLINE
  5
12A
  8
1BY1
 66
     1
 10
0.0
 20
0.0
 30
1.6000000000000001
 70
     1
1001
DCO15
1071
        2
1071
        2
1000
variablelink
1004
0000000000107C40
  0
VERTEX
  5
5F7
  8
1BY1
 10
599238.0
 20
3482011.0
 30
1.6000000000000001
  0
VERTEX
  5
5F8
  8
1BY1
 10
599239.0
 20
3482011.0
 30
1.6000000000000001
  0
VERTEX
  5
5F9
  8
1BY1
 10
599239.0
 20
3482012.0
 30
1.6000000000000001
  0
VERTEX
  5
5FA
  8
1BY1
 10
599238.0
 20
3482012.0
 30
1.6000000000000001
  0
SEQEND
  5
5FB
  8
1BY1
  0
POLYLINE
  5
12B
  8
1BY1
 66
     1
 10
0.0
 20
0.0
 30
8.0
 70
     1
1001
DCO15
1071
        2
1071
        2
1000
variablelink
1004
0000000000207C40
  0
VERTEX
  5
5FC
  8
1BY1
 10
599237.0
 20
3482019.0
 30
8.0
  0
VERTEX
  5
5FD
  8
1BY1
 10
599238.0
 20
3482019.0
 30
8.0
  0
VERTEX
  5
5FE
  8
1BY1
 10
599238.0
 20
3482020.0
 30
8.0
  0
VERTEX
  5
5FF
  8
1BY1
 10
599237.0
 20
3482020.0
 30
8.0
  0
SEQEND
  5
600
  8
1BY1
  0
POLYLINE
  5
12C
  8
1BY1
 66
     1
 10
0.0
 20
0.0
 30
1.0
 70
     1
1001
DCO15
1071
        2
1071
        2
1000
variablelink
1004
0000000000607C40
  0
VERTEX
  5
601
  8
1BY1
 10
599273.0
 20
3482800.0
 30
1.0
  0
VERTEX
  5
602
  8
1BY1
 10
599274.0
 20
3482800.0
 30
1.0
  0
VERTEX
  5
603
  8
1BY1
 10
599274.0
 20
3482801.0
 30
1.0
  0
VERTEX
  5
604
  8
1BY1
 10
599273.0
 20
3482801.0
 30
1.0
  0
SEQEND
  5
605
  8
1BY1
  0
POLYLINE
  5
12D
  8
1BY1
 66
     1
 10
0.0
 20
0.0
 30
1.0
 70
     1
1001
DCO15
1071
        2
1071
        2
1000
variablelink
1004
0000000000907C40
  0
VERTEX
  5
606
  8
1BY1
 10
599296.0
 20
3482189.0
 30
1.0
  0
VERTEX
  5
607
  8
1BY1
 10
599297.0
 20
3482189.0
 30
1.0
  0
VERTEX
  5
608
  8
1BY1
 10
599297.0
 20
3482190.0
 30
1.0
  0
VERTEX
  5
609
  8
1BY1
 10
599296.0
 20
3482190.0
 30
1.0
  0
SEQEND
  5
60A
  8
1BY1
  0
POLYLINE
  5
12E
  8
1BY1
 66
     1
 10
0.0
 20
0.0
 30
1.6000000000000001
 70
     1
1001
DCO15
1071
        2
1071
        2
1000
variablelink
1004
0000000000A07C40
  0
VERTEX
  5
60B
  8
1BY1
 10
599294.0
 20
3482174.0
 30
1.6000000000000001
  0
VERTEX
  5
60C
  8
1BY1
 10
599295.0
 20
3482174.0
 30
1.6000000000000001
  0
VERTEX
  5
60D
  8
1BY1
 10
599295.0
 20
3482175.0
 30
1.6000000000000001
  0
VERTEX
  5
60E
  8
1BY1
 10
599294.0
 20
3482175.0
 30
1.6000000000000001
  0
SEQEND
  5
60F
  8
1BY1
  0
POLYLINE
  5
12F
  8
1BY1
 66
     1
 10
0.0
 20
0.0
 30
1.6000000000000001
 70
     1
1001
DCO15
1071
        2
1071
        2
1000
variablelink
1004
0000000000B07C40
  0
VERTEX
  5
610
  8
1BY1
 10
599276.0
 20
3482219.0
 30
1.6000000000000001
  0
VERTEX
  5
611
  8
1BY1
 10
599277.0
 20
3482219.0
 30
1.6000000000000001
  0
VERTEX
  5
612
  8
1BY1
 10
599277.0
 20
3482220.0
 30
1.6000000000000001
  0
VERTEX
  5
613
  8
1BY1
 10
599276.0
 20
3482220.0
 30
1.6000000000000001
  0
SEQEND
  5
614
  8
1BY1
  0
POLYLINE
  5
130
  8
1BY1
 66
     1
 10
0.0
 20
0.0
 30
1.0
 70
     1
1001
DCO15
1071
        2
1071
        2
1000
variablelink
1004
0000000000D07C40
  0
VERTEX
  5
615
  8
1BY1
 10
599325.0
 20
3482171.0
 30
1.0
  0
VERTEX
  5
616
  8
1BY1
 10
599326.0
 20
3482171.0
 30
1.0
  0
VERTEX
  5
617
  8
1BY1
 10
599326.0
 20
3482172.0
 30
1.0
  0
VERTEX
  5
618
  8
1BY1
 10
599325.0
 20
3482172.0
 30
1.0
  0
SEQEND
  5
619
  8
1BY1
  0
POLYLINE
  5
131
  8
1BY1
 66
     1
 10
0.0
 20
0.0
 30
3.2000000000000002
 70
     1
1001
DCO15
1071
        2
1071
        2
1000
variablelink
1004
0000000000E07C40
  0
VERTEX
  5
61A
  8
1BY1
 10
599303.0
 20
3482097.0
 30
3.2000000000000002
  0
VERTEX
  5
61B
  8
1BY1
 10
599304.0
 20
3482097.0
 30
3.2000000000000002
  0
VERTEX
  5
61C
  8
1BY1
 10
599304.0
 20
3482098.0
 30
3.2000000000000002
  0
VERTEX
  5
61D
  8
1BY1
 10
599303.0
 20
3482098.0
 30
3.2000000000000002
  0
SEQEND
  5
61E
  8
1BY1
  0
POLYLINE
  5
132
  8
1BY1
 66
     1
 10
0.0
 20
0.0
 30
2.0
 70
     1
1001
DCO15
1071
        2
1071
        2
1000
variablelink
1004
0000000000007D40
  0
VERTEX
  5
61F
  8
1BY1
 10
599312.0
 20
3482331.0
 30
2.0
  0
VERTEX
  5
620
  8
1BY1
 10
599313.0
 20
3482331.0
 30
2.0
  0
VERTEX
  5
621
  8
1BY1
 10
599313.0
 20
3482332.0
 30
2.0
  0
VERTEX
  5
622
  8
1BY1
 10
599312.0
 20
3482332.0
 30
2.0
  0
SEQEND
  5
623
  8
1BY1
  0
POLYLINE
  5
133
  8
1BY1
 66
     1
 10
0.0
 20
0.0
 30
1.6000000000000001
 70
     1
1001
DCO15
1071
        2
1071
        2
1000
variablelink
1004
0000000000407D40
  0
VERTEX
  5
624
  8
1BY1
 10
599122.0
 20
3482171.0
 30
1.6000000000000001
  0
VERTEX
  5
625
  8
1BY1
 10
599123.0
 20
3482171.0
 30
1.6000000000000001
  0
VERTEX
  5
626
  8
1BY1
 10
599123.0
 20
3482172.0
 30
1.6000000000000001
  0
VERTEX
  5
627
  8
1BY1
 10
599122.0
 20
3482172.0
 30
1.6000000000000001
  0
SEQEND
  5
628
  8
1BY1
  0
POLYLINE
  5
134
  8
1BY1
 66
     1
 10
0.0
 20
0.0
 30
3.2000000000000002
 70
     1
1001
DCO15
1071
        2
1071
        2
1000
variablelink
1004
0000000000507D40
  0
VERTEX
  5
629
  8
1BY1
 10
599130.0
 20
3482135.0
 30
3.2000000000000002
  0
VERTEX
  5
62A
  8
1BY1
 10
599131.0
 20
3482135.0
 30
3.2000000000000002
  0
VERTEX
  5
62B
  8
1BY1
 10
599131.0
 20
3482136.0
 30
3.2000000000000002
  0
VERTEX
  5
62C
  8
1BY1
 10
599130.0
 20
3482136.0
 30
3.2000000000000002
  0
SEQEND
  5
62D
  8
1BY1
  0
POLYLINE
  5
135
  8
1BY1
 66
     1
 10
0.0
 20
0.0
 30
1.0
 70
     1
1001
DCO15
1071
        2
1071
        2
1000
variablelink
1004
0000000000607D40
  0
VERTEX
  5
62E
  8
1BY1
 10
599108.0
 20
3482167.0
 30
1.0
  0
VERTEX
  5
62F
  8
1BY1
 10
599109.0
 20
3482167.0
 30
1.0
  0
VERTEX
  5
630
  8
1BY1
 10
599109.0
 20
3482168.0
 30
1.0
  0
VERTEX
  5
631
  8
1BY1
 10
599108.0
 20
3482168.0
 30
1.0
  0
SEQEND
  5
632
  8
1BY1
  0
POLYLINE
  5
136
  8
1BY1
 66
     1
 10
0.0
 20
0.0
 30
3.2000000000000002
 70
     1
1001
DCO15
1071
        2
1071
        2
1000
variablelink
1004
0000000000707D40
  0
VERTEX
  5
633
  8
1BY1
 10
599088.0
 20
3482173.0
 30
3.2000000000000002
  0
VERTEX
  5
634
  8
1BY1
 10
599089.0
 20
3482173.0
 30
3.2000000000000002
  0
VERTEX
  5
635
  8
1BY1
 10
599089.0
 20
3482174.0
 30
3.2000000000000002
  0
VERTEX
  5
636
  8
1BY1
 10
599088.0
 20
3482174.0
 30
3.2000000000000002
  0
SEQEND
  5
637
  8
1BY1
  0
POLYLINE
  5
137
  8
1BY1
 66
     1
 10
0.0
 20
0.0
 30
1.0
 70
     1
1001
DCO15
1071
        2
1071
        2
1000
variablelink
1004
0000000000807D40
  0
VERTEX
  5
638
  8
1BY1
 10
599060.0
 20
3482168.0
 30
1.0
  0
VERTEX
  5
639
  8
1BY1
 10
599061.0
 20
3482168.0
 30
1.0
  0
VERTEX
  5
63A
  8
1BY1
 10
599061.0
 20
3482169.0
 30
1.0
  0
VERTEX
  5
63B
  8
1BY1
 10
599060.0
 20
3482169.0
 30
1.0
  0
SEQEND
  5
63C
  8
1BY1
  0
POLYLINE
  5
138
  8
1BY1
 66
     1
 10
0.0
 20
0.0
 30
2.0
 70
     1
1001
DCO15
1071
        2
1071
        2
1000
variablelink
1004
0000000000907D40
  0
VERTEX
  5
63D
  8
1BY1
 10
599144.0
 20
3482124.0
 30
2.0
  0
VERTEX
  5
63E
  8
1BY1
 10
599145.0
 20
3482124.0
 30
2.0
  0
VERTEX
  5
63F
  8
1BY1
 10
599145.0
 20
3482125.0
 30
2.0
  0
VERTEX
  5
640
  8
1BY1
 10
599144.0
 20
3482125.0
 30
2.0
  0
SEQEND
  5
641
  8
1BY1
  0
POLYLINE
  5
139
  8
1BY1
 66
     1
 10
0.0
 20
0.0
 30
1.6000000000000001
 70
     1
1001
DCO15
1071
        2
1071
        2
1000
variablelink
1004
0000000000A07D40
  0
VERTEX
  5
642
  8
1BY1
 10
599080.0
 20
3482172.0
 30
1.6000000000000001
  0
VERTEX
  5
643
  8
1BY1
 10
599081.0
 20
3482172.0
 30
1.6000000000000001
  0
VERTEX
  5
644
  8
1BY1
 10
599081.0
 20
3482173.0
 30
1.6000000000000001
  0
VERTEX
  5
645
  8
1BY1
 10
599080.0
 20
3482173.0
 30
1.6000000000000001
  0
SEQEND
  5
646
  8
1BY1
  0
POLYLINE
  5
13A
  8
1BY1
 66
     1
 10
0.0
 20
0.0
 30
1.6000000000000001
 70
     1
1001
DCO15
1071
        2
1071
        2
1000
variablelink
1004
0000000000B07D40
  0
VERTEX
  5
647
  8
1BY1
 10
599088.0
 20
3482226.0
 30
1.6000000000000001
  0
VERTEX
  5
648
  8
1BY1
 10
599089.0
 20
3482226.0
 30
1.6000000000000001
  0
VERTEX
  5
649
  8
1BY1
 10
599089.0
 20
3482227.0
 30
1.6000000000000001
  0
VERTEX
  5
64A
  8
1BY1
 10
599088.0
 20
3482227.0
 30
1.6000000000000001
  0
SEQEND
  5
64B
  8
1BY1
  0
POLYLINE
  5
13B
  8
1BY1
 66
     1
 10
0.0
 20
0.0
 30
3.2000000000000002
 70
     1
1001
DCO15
1071
        2
1071
        2
1000
variablelink
1004
0000000000C07D40
  0
VERTEX
  5
64C
  8
1BY1
 10
599082.0
 20
3482118.0
 30
3.2000000000000002
  0
VERTEX
  5
64D
  8
1BY1
 10
599083.0
 20
3482118.0
 30
3.2000000000000002
  0
VERTEX
  5
64E
  8
1BY1
 10
599083.0
 20
3482119.0
 30
3.2000000000000002
  0
VERTEX
  5
64F
  8
1BY1
 10
599082.0
 20
3482119.0
 30
3.2000000000000002
  0
SEQEND
  5
650
  8
1BY1
  0
POLYLINE
  5
13C
  8
1BY1
 66
     1
 10
0.0
 20
0.0
 30
1.0
 70
     1
1001
DCO15
1071
        2
1071
        2
1000
variablelink
1004
0000000000D07D40
  0
VERTEX
  5
651
  8
1BY1
 10
599631.0
 20
3482473.0
 30
1.0
  0
VERTEX
  5
652
  8
1BY1
 10
599632.0
 20
3482473.0
 30
1.0
  0
VERTEX
  5
653
  8
1BY1
 10
599632.0
 20
3482474.0
 30
1.0
  0
VERTEX
  5
654
  8
1BY1
 10
599631.0
 20
3482474.0
 30
1.0
  0
SEQEND
  5
655
  8
1BY1
  0
POLYLINE
  5
13D
  8
1BY1
 66
     1
 10
0.0
 20
0.0
 30
1.0
 70
     1
1001
DCO15
1071
        2
1071
        2
1000
variablelink
1004
0000000000F07D40
  0
VERTEX
  5
656
  8
1BY1
 10
600097.0
 20
3482080.0
 30
1.0
  0
VERTEX
  5
657
  8
1BY1
 10
600098.0
 20
3482080.0
 30
1.0
  0
VERTEX
  5
658
  8
1BY1
 10
600098.0
 20
3482081.0
 30
1.0
  0
VERTEX
  5
659
  8
1BY1
 10
600097.0
 20
3482081.0
 30
1.0
  0
SEQEND
  5
65A
  8
1BY1
  0
POLYLINE
  5
13E
  8
1BY1
 66
     1
 10
0.0
 20
0.0
 30
2.0
 70
     1
1001
DCO15
1071
        2
1071
        2
1000
variablelink
1004
0000000000007E40
  0
VERTEX
  5
65B
  8
1BY1
 10
599995.0
 20
3482057.0
 30
2.0
  0
VERTEX
  5
65C
  8
1BY1
 10
599996.0
 20
3482057.0
 30
2.0
  0
VERTEX
  5
65D
  8
1BY1
 10
599996.0
 20
3482058.0
 30
2.0
  0
VERTEX
  5
65E
  8
1BY1
 10
599995.0
 20
3482058.0
 30
2.0
  0
SEQEND
  5
65F
  8
1BY1
  0
POLYLINE
  5
13F
  8
1BY1
 66
     1
 10
0.0
 20
0.0
 30
1.0
 70
     1
1001
DCO15
1071
        2
1071
        2
1000
variablelink
1004
0000000000107E40
  0
VERTEX
  5
660
  8
1BY1
 10
600031.0
 20
3482046.0
 30
1.0
  0
VERTEX
  5
661
  8
1BY1
 10
600032.0
 20
3482046.0
 30
1.0
  0
VERTEX
  5
662
  8
1BY1
 10
600032.0
 20
3482047.0
 30
1.0
  0
VERTEX
  5
663
  8
1BY1
 10
600031.0
 20
3482047.0
 30
1.0
  0
SEQEND
  5
664
  8
1BY1
  0
POLYLINE
  5
140
  8
1BY1
 66
     1
 10
0.0
 20
0.0
 30
3.0
 70
     1
1001
DCO15
1071
        2
1071
        2
1000
variablelink
1004
0000000000307E40
  0
VERTEX
  5
665
  8
1BY1
 10
600065.0
 20
3482042.0
 30
3.0
  0
VERTEX
  5
666
  8
1BY1
 10
600066.0
 20
3482042.0
 30
3.0
  0
VERTEX
  5
667
  8
1BY1
 10
600066.0
 20
3482043.0
 30
3.0
  0
VERTEX
  5
668
  8
1BY1
 10
600065.0
 20
3482043.0
 30
3.0
  0
SEQEND
  5
669
  8
1BY1
  0
POLYLINE
  5
141
  8
1BY1
 66
     1
 10
0.0
 20
0.0
 30
4.0
 70
     1
1001
DCO15
1071
        2
1071
        2
1000
variablelink
1004
0000000000407E40
  0
VERTEX
  5
66A
  8
1BY1
 10
600142.0
 20
3482042.0
 30
4.0
  0
VERTEX
  5
66B
  8
1BY1
 10
600143.0
 20
3482042.0
 30
4.0
  0
VERTEX
  5
66C
  8
1BY1
 10
600143.0
 20
3482043.0
 30
4.0
  0
VERTEX
  5
66D
  8
1BY1
 10
600142.0
 20
3482043.0
 30
4.0
  0
SEQEND
  5
66E
  8
1BY1
  0
POLYLINE
  5
142
  8
1BY1
 66
     1
 10
0.0
 20
0.0
 30
5.0
 70
     1
1001
DCO15
1071
        2
1071
        2
1000
variablelink
1004
0000000000707E40
  0
VERTEX
  5
66F
  8
1BY1
 10
600156.0
 20
3482037.0
 30
5.0
  0
VERTEX
  5
670
  8
1BY1
 10
600157.0
 20
3482037.0
 30
5.0
  0
VERTEX
  5
671
  8
1BY1
 10
600157.0
 20
3482038.0
 30
5.0
  0
VERTEX
  5
672
  8
1BY1
 10
600156.0
 20
3482038.0
 30
5.0
  0
SEQEND
  5
673
  8
1BY1
  0
POLYLINE
  5
143
  8
1BY1
 66
     1
 10
0.0
 20
0.0
 30
1.0
 70
     1
1001
DCO15
1071
        2
1071
        2
1000
variablelink
1004
0000000000A07E40
  0
VERTEX
  5
674
  8
1BY1
 10
600248.0
 20
3482021.0
 30
1.0
  0
VERTEX
  5
675
  8
1BY1
 10
600249.0
 20
3482021.0
 30
1.0
  0
VERTEX
  5
676
  8
1BY1
 10
600249.0
 20
3482022.0
 30
1.0
  0
VERTEX
  5
677
  8
1BY1
 10
600248.0
 20
3482022.0
 30
1.0
  0
SEQEND
  5
678
  8
1BY1
  0
POLYLINE
  5
144
  8
1BY1
 66
     1
 10
0.0
 20
0.0
 30
2.0
 70
     1
1001
DCO15
1071
        2
1071
        2
1000
variablelink
1004
0000000000B07E40
  0
VERTEX
  5
679
  8
1BY1
 10
600372.0
 20
3482016.0
 30
2.0
  0
VERTEX
  5
67A
  8
1BY1
 10
600373.0
 20
3482016.0
 30
2.0
  0
VERTEX
  5
67B
  8
1BY1
 10
600373.0
 20
3482017.0
 30
2.0
  0
VERTEX
  5
67C
  8
1BY1
 10
600372.0
 20
3482017.0
 30
2.0
  0
SEQEND
  5
67D
  8
1BY1
  0
POLYLINE
  5
145
  8
1BY1
 66
     1
 10
0.0
 20
0.0
 30
1.0
 70
     1
1001
DCO15
1071
        2
1071
        2
1000
variablelink
1004
0000000000C07E40
  0
VERTEX
  5
67E
  8
1BY1
 10
600416.0
 20
3482191.0
 30
1.0
  0
VERTEX
  5
67F
  8
1BY1
 10
600417.0
 20
3482191.0
 30
1.0
  0
VERTEX
  5
680
  8
1BY1
 10
600417.0
 20
3482192.0
 30
1.0
  0
VERTEX
  5
681
  8
1BY1
 10
600416.0
 20
3482192.0
 30
1.0
  0
SEQEND
  5
682
  8
1BY1
  0
POLYLINE
  5
146
  8
1BY1
 66
     1
 10
0.0
 20
0.0
 30
1.0
 70
     1
1001
DCO15
1071
        2
1071
        2
1000
variablelink
1004
0000000000D07E40
  0
VERTEX
  5
683
  8
1BY1
 10
600125.0
 20
3482038.0
 30
1.0
  0
VERTEX
  5
684
  8
1BY1
 10
600126.0
 20
3482038.0
 30
1.0
  0
VERTEX
  5
685
  8
1BY1
 10
600126.0
 20
3482039.0
 30
1.0
  0
VERTEX
  5
686
  8
1BY1
 10
600125.0
 20
3482039.0
 30
1.0
  0
SEQEND
  5
687
  8
1BY1
  0
POLYLINE
  5
147
  8
1BY1
 66
     1
 10
0.0
 20
0.0
 30
1.0
 70
     1
1001
DCO15
1071
        2
1071
        2
1000
variablelink
1004
0000000000E07E40
  0
VERTEX
  5
688
  8
1BY1
 10
600134.0
 20
3482031.0
 30
1.0
  0
VERTEX
  5
689
  8
1BY1
 10
600135.0
 20
3482031.0
 30
1.0
  0
VERTEX
  5
68A
  8
1BY1
 10
600135.0
 20
3482032.0
 30
1.0
  0
VERTEX
  5
68B
  8
1BY1
 10
600134.0
 20
3482032.0
 30
1.0
  0
SEQEND
  5
68C
  8
1BY1
  0
POLYLINE
  5
148
  8
1BY1
 66
     1
 10
0.0
 20
0.0
 30
1.0
 70
     1
1001
DCO15
1071
        2
1071
        2
1000
variablelink
1004
0000000000F07E40
  0
VERTEX
  5
68D
  8
1BY1
 10
600170.0
 20
3482017.0
 30
1.0
  0
VERTEX
  5
68E
  8
1BY1
 10
600171.0
 20
3482017.0
 30
1.0
  0
VERTEX
  5
68F
  8
1BY1
 10
600171.0
 20
3482018.0
 30
1.0
  0
VERTEX
  5
690
  8
1BY1
 10
600170.0
 20
3482018.0
 30
1.0
  0
SEQEND
  5
691
  8
1BY1
  0
POLYLINE
  5
149
  8
1BY1
 66
     1
 10
0.0
 20
0.0
 30
1.0
 70
     1
1001
DCO15
1071
        2
1071
        2
1000
variablelink
1004
0000000000007F40
  0
VERTEX
  5
692
  8
1BY1
 10
600187.0
 20
3482002.0
 30
1.0
  0
VERTEX
  5
693
  8
1BY1
 10
600188.0
 20
3482002.0
 30
1.0
  0
VERTEX
  5
694
  8
1BY1
 10
600188.0
 20
3482003.0
 30
1.0
  0
VERTEX
  5
695
  8
1BY1
 10
600187.0
 20
3482003.0
 30
1.0
  0
SEQEND
  5
696
  8
1BY1
  0
POLYLINE
  5
14A
  8
1BY1
 66
     1
 10
0.0
 20
0.0
 30
1.0
 70
     1
1001
DCO15
1071
        2
1071
        2
1000
variablelink
1004
0000000000107F40
  0
VERTEX
  5
697
  8
1BY1
 10
600239.0
 20
3481989.0
 30
1.0
  0
VERTEX
  5
698
  8
1BY1
 10
600240.0
 20
3481989.0
 30
1.0
  0
VERTEX
  5
699
  8
1BY1
 10
600240.0
 20
3481990.0
 30
1.0
  0
VERTEX
  5
69A
  8
1BY1
 10
600239.0
 20
3481990.0
 30
1.0
  0
SEQEND
  5
69B
  8
1BY1
  0
POLYLINE
  5
14B
  8
1BY1
 66
     1
 10
0.0
 20
0.0
 30
1.0
 70
     1
1001
DCO15
1071
        2
1071
        2
1000
variablelink
1004
0000000000207F40
  0
VERTEX
  5
69C
  8
1BY1
 10
600190.0
 20
3482021.0
 30
1.0
  0
VERTEX
  5
69D
  8
1BY1
 10
600191.0
 20
3482021.0
 30
1.0
  0
VERTEX
  5
69E
  8
1BY1
 10
600191.0
 20
3482022.0
 30
1.0
  0
VERTEX
  5
69F
  8
1BY1
 10
600190.0
 20
3482022.0
 30
1.0
  0
SEQEND
  5
6A0
  8
1BY1
  0
POLYLINE
  5
14C
  8
1BY1
 66
     1
 10
0.0
 20
0.0
 30
1.6000000000000001
 70
     1
1001
DCO15
1071
        2
1071
        2
1000
variablelink
1004
0000000000607F40
  0
VERTEX
  5
6A1
  8
1BY1
 10
600081.0
 20
3482031.0
 30
1.6000000000000001
  0
VERTEX
  5
6A2
  8
1BY1
 10
600082.0
 20
3482031.0
 30
1.6000000000000001
  0
VERTEX
  5
6A3
  8
1BY1
 10
600082.0
 20
3482032.0
 30
1.6000000000000001
  0
VERTEX
  5
6A4
  8
1BY1
 10
600081.0
 20
3482032.0
 30
1.6000000000000001
  0
SEQEND
  5
6A5
  8
1BY1
  0
POLYLINE
  5
14D
  8
1BY1
 66
     1
 10
0.0
 20
0.0
 30
2.0
 70
     1
1001
DCO15
1071
        2
1071
        2
1000
variablelink
1004
0000000000A07F40
  0
VERTEX
  5
6A6
  8
1BY1
 10
600178.0
 20
3481988.0
 30
2.0
  0
VERTEX
  5
6A7
  8
1BY1
 10
600179.0
 20
3481988.0
 30
2.0
  0
VERTEX
  5
6A8
  8
1BY1
 10
600179.0
 20
3481989.0
 30
2.0
  0
VERTEX
  5
6A9
  8
1BY1
 10
600178.0
 20
3481989.0
 30
2.0
  0
SEQEND
  5
6AA
  8
1BY1
  0
POLYLINE
  5
14E
  8
1BY1
 66
     1
 10
0.0
 20
0.0
 30
1.0
 70
     1
1001
DCO15
1071
        2
1071
        2
1000
variablelink
1004
0000000000B07F40
  0
VERTEX
  5
6AB
  8
1BY1
 10
600187.0
 20
3481997.0
 30
1.0
  0
VERTEX
  5
6AC
  8
1BY1
 10
600188.0
 20
3481997.0
 30
1.0
  0
VERTEX
  5
6AD
  8
1BY1
 10
600188.0
 20
3481998.0
 30
1.0
  0
VERTEX
  5
6AE
  8
1BY1
 10
600187.0
 20
3481998.0
 30
1.0
  0
SEQEND
  5
6AF
  8
1BY1
  0
POLYLINE
  5
14F
  8
1BY1
 66
     1
 10
0.0
 20
0.0
 30
1.6000000000000001
 70
     1
1001
DCO15
1071
        2
1071
        2
1000
variablelink
1004
0000000000D07F40
  0
VERTEX
  5
6B0
  8
1BY1
 10
600210.0
 20
3482499.0
 30
1.6000000000000001
  0
VERTEX
  5
6B1
  8
1BY1
 10
600211.0
 20
3482499.0
 30
1.6000000000000001
  0
VERTEX
  5
6B2
  8
1BY1
 10
600211.0
 20
3482500.0
 30
1.6000000000000001
  0
VERTEX
  5
6B3
  8
1BY1
 10
600210.0
 20
3482500.0
 30
1.6000000000000001
  0
SEQEND
  5
6B4
  8
1BY1
  0
POLYLINE
  5
150
  8
1BY1
 66
     1
 10
0.0
 20
0.0
 30
3.2000000000000002
 70
     1
1001
DCO15
1071
        2
1071
        2
1000
variablelink
1004
0000000000B08040
  0
VERTEX
  5
6B5
  8
1BY1
 10
600621.0
 20
3481908.0
 30
3.2000000000000002
  0
VERTEX
  5
6B6
  8
1BY1
 10
600622.0
 20
3481908.0
 30
3.2000000000000002
  0
VERTEX
  5
6B7
  8
1BY1
 10
600622.0
 20
3481909.0
 30
3.2000000000000002
  0
VERTEX
  5
6B8
  8
1BY1
 10
600621.0
 20
3481909.0
 30
3.2000000000000002
  0
SEQEND
  5
6B9
  8
1BY1
  0
POLYLINE
  5
151
  8
1BY1
 66
     1
 10
0.0
 20
0.0
 30
1.0
 70
     1
1001
DCO15
1071
        2
1071
        2
1000
variablelink
1004
0000000000C88040
  0
VERTEX
  5
6BA
  8
1BY1
 10
599140.0
 20
3482141.0
 30
1.0
  0
VERTEX
  5
6BB
  8
1BY1
 10
599141.0
 20
3482141.0
 30
1.0
  0
VERTEX
  5
6BC
  8
1BY1
 10
599141.0
 20
3482142.0
 30
1.0
  0
VERTEX
  5
6BD
  8
1BY1
 10
599140.0
 20
3482142.0
 30
1.0
  0
SEQEND
  5
6BE
  8
1BY1
  0
POLYLINE
  5
152
  8
1BY1
 66
     1
 10
0.0
 20
0.0
 30
44.79999999999999
 70
     1
1001
DCO15
1071
        2
1071
        2
1000
variablelink
1004
0000000000D08040
  0
VERTEX
  5
6BF
  8
1BY1
 10
599719.0
 20
3482417.0
 30
44.79999999999999
  0
VERTEX
  5
6C0
  8
1BY1
 10
599720.0
 20
3482417.0
 30
44.79999999999999
  0
VERTEX
  5
6C1
  8
1BY1
 10
599720.0
 20
3482418.0
 30
44.79999999999999
  0
VERTEX
  5
6C2
  8
1BY1
 10
599719.0
 20
3482418.0
 30
44.79999999999999
  0
SEQEND
  5
6C3
  8
1BY1
  0
POLYLINE
  5
153
  8
1BY1
 66
     1
 10
0.0
 20
0.0
 30
12.800000000000001
 70
     1
1001
DCO15
1071
        2
1071
        2
1000
variablelink
1004
0000000000E88040
  0
VERTEX
  5
6C4
  8
1BY1
 10
599876.0
 20
3482357.0
 30
12.800000000000001
  0
VERTEX
  5
6C5
  8
1BY1
 10
599877.0
 20
3482357.0
 30
12.800000000000001
  0
VERTEX
  5
6C6
  8
1BY1
 10
599877.0
 20
3482358.0
 30
12.800000000000001
  0
VERTEX
  5
6C7
  8
1BY1
 10
599876.0
 20
3482358.0
 30
12.800000000000001
  0
SEQEND
  5
6C8
  8
1BY1
  0
POLYLINE
  5
154
  8
1BY1
 66
     1
 10
0.0
 20
0.0
 30
5.0
 70
     1
1001
DCO15
1071
        2
1071
        2
1000
variablelink
1004
0000000000F88040
  0
VERTEX
  5
6C9
  8
1BY1
 10
599309.0
 20
3482932.0
 30
5.0
  0
VERTEX
  5
6CA
  8
1BY1
 10
599310.0
 20
3482932.0
 30
5.0
  0
VERTEX
  5
6CB
  8
1BY1
 10
599310.0
 20
3482933.0
 30
5.0
  0
VERTEX
  5
6CC
  8
1BY1
 10
599309.0
 20
3482933.0
 30
5.0
  0
SEQEND
  5
6CD
  8
1BY1
  0
POLYLINE
  5
155
  8
1BY1
 66
     1
 10
0.0
 20
0.0
 30
1.6000000000000001
 70
     1
1001
DCO15
1071
        2
1071
        2
1000
variablelink
1004
0000000000088140
  0
VERTEX
  5
6CE
  8
1BY1
 10
600279.0
 20
3482017.0
 30
1.6000000000000001
  0
VERTEX
  5
6CF
  8
1BY1
 10
600280.0
 20
3482017.0
 30
1.6000000000000001
  0
VERTEX
  5
6D0
  8
1BY1
 10
600280.0
 20
3482018.0
 30
1.6000000000000001
  0
VERTEX
  5
6D1
  8
1BY1
 10
600279.0
 20
3482018.0
 30
1.6000000000000001
  0
SEQEND
  5
6D2
  8
1BY1
  0
POLYLINE
  5
156
  8
1BY1
 66
     1
 10
0.0
 20
0.0
 30
14.4
 70
     1
1001
DCO15
1071
        2
1071
        2
1000
variablelink
1004
0000000000108140
  0
VERTEX
  5
6D3
  8
1BY1
 10
599907.0
 20
3482197.0
 30
14.4
  0
VERTEX
  5
6D4
  8
1BY1
 10
599908.0
 20
3482197.0
 30
14.4
  0
VERTEX
  5
6D5
  8
1BY1
 10
599908.0
 20
3482198.0
 30
14.4
  0
VERTEX
  5
6D6
  8
1BY1
 10
599907.0
 20
3482198.0
 30
14.4
  0
SEQEND
  5
6D7
  8
1BY1
  0
POLYLINE
  5
157
  8
1BY1
 66
     1
 10
0.0
 20
0.0
 30
11.199999999999999
 70
     1
1001
DCO15
1071
        2
1071
        2
1000
variablelink
1004
0000000000188140
  0
VERTEX
  5
6D8
  8
1BY1
 10
599907.0
 20
3482200.0
 30
11.199999999999999
  0
VERTEX
  5
6D9
  8
1BY1
 10
599908.0
 20
3482200.0
 30
11.199999999999999
  0
VERTEX
  5
6DA
  8
1BY1
 10
599908.0
 20
3482201.0
 30
11.199999999999999
  0
VERTEX
  5
6DB
  8
1BY1
 10
599907.0
 20
3482201.0
 30
11.199999999999999
  0
SEQEND
  5
6DC
  8
1BY1
  0
POLYLINE
  5
158
  8
1BY1
 66
     1
 10
0.0
 20
0.0
 30
12.800000000000001
 70
     1
1001
DCO15
1071
        2
1071
        2
1000
variablelink
1004
0000000000208140
  0
VERTEX
  5
6DD
  8
1BY1
 10
599906.0
 20
3482199.0
 30
12.800000000000001
  0
VERTEX
  5
6DE
  8
1BY1
 10
599907.0
 20
3482199.0
 30
12.800000000000001
  0
VERTEX
  5
6DF
  8
1BY1
 10
599907.0
 20
3482200.0
 30
12.800000000000001
  0
VERTEX
  5
6E0
  8
1BY1
 10
599906.0
 20
3482200.0
 30
12.800000000000001
  0
SEQEND
  5
6E1
  8
1BY1
  0
POLYLINE
  5
159
  8
1BY1
 66
     1
 10
0.0
 20
0.0
 30
1.0
 70
     1
1001
DCO15
1071
        2
1071
        2
1000
variablelink
1004
0000000000408140
  0
VERTEX
  5
6E2
  8
1BY1
 10
599637.0
 20
3482652.0
 30
1.0
  0
VERTEX
  5
6E3
  8
1BY1
 10
599638.0
 20
3482652.0
 30
1.0
  0
VERTEX
  5
6E4
  8
1BY1
 10
599638.0
 20
3482653.0
 30
1.0
  0
VERTEX
  5
6E5
  8
1BY1
 10
599637.0
 20
3482653.0
 30
1.0
  0
SEQEND
  5
6E6
  8
1BY1
  0
POLYLINE
  5
15A
  8
1BY1
 66
     1
 10
0.0
 20
0.0
 30
8.0
 70
     1
1001
DCO15
1071
        2
1071
        2
1000
variablelink
1004
0000000000588140
  0
VERTEX
  5
6E7
  8
1BY1
 10
599903.0
 20
3482199.0
 30
8.0
  0
VERTEX
  5
6E8
  8
1BY1
 10
599904.0
 20
3482199.0
 30
8.0
  0
VERTEX
  5
6E9
  8
1BY1
 10
599904.0
 20
3482200.0
 30
8.0
  0
VERTEX
  5
6EA
  8
1BY1
 10
599903.0
 20
3482200.0
 30
8.0
  0
SEQEND
  5
6EB
  8
1BY1
  0
POLYLINE
  5
15B
  8
1BY1
 66
     1
 10
0.0
 20
0.0
 30
1.0
 70
     1
1001
DCO15
1071
        2
1071
        2
1000
variablelink
1004
0000000000688140
  0
VERTEX
  5
6EC
  8
1BY1
 10
600229.0
 20
3481873.0
 30
1.0
  0
VERTEX
  5
6ED
  8
1BY1
 10
600230.0
 20
3481873.0
 30
1.0
  0
VERTEX
  5
6EE
  8
1BY1
 10
600230.0
 20
3481874.0
 30
1.0
  0
VERTEX
  5
6EF
  8
1BY1
 10
600229.0
 20
3481874.0
 30
1.0
  0
SEQEND
  5
6F0
  8
1BY1
  0
POLYLINE
  5
15C
  8
1BY1
 66
     1
 10
0.0
 20
0.0
 30
1.0
 70
     1
1001
DCO15
1071
        2
1071
        2
1000
variablelink
1004
0000000000708140
  0
VERTEX
  5
6F1
  8
1BY1
 10
599193.0
 20
3482230.0
 30
1.0
  0
VERTEX
  5
6F2
  8
1BY1
 10
599194.0
 20
3482230.0
 30
1.0
  0
VERTEX
  5
6F3
  8
1BY1
 10
599194.0
 20
3482231.0
 30
1.0
  0
VERTEX
  5
6F4
  8
1BY1
 10
599193.0
 20
3482231.0
 30
1.0
  0
SEQEND
  5
6F5
  8
1BY1
  0
POLYLINE
  5
15D
  8
1BY1
 66
     1
 10
0.0
 20
0.0
 30
1.6000000000000001
 70
     1
1001
DCO15
1071
        2
1071
        2
1000
variablelink
1004
0000000000808140
  0
VERTEX
  5
6F6
  8
1BY1
 10
599024.0
 20
3482205.0
 30
1.6000000000000001
  0
VERTEX
  5
6F7
  8
1BY1
 10
599025.0
 20
3482205.0
 30
1.6000000000000001
  0
VERTEX
  5
6F8
  8
1BY1
 10
599025.0
 20
3482206.0
 30
1.6000000000000001
  0
VERTEX
  5
6F9
  8
1BY1
 10
599024.0
 20
3482206.0
 30
1.6000000000000001
  0
SEQEND
  5
6FA
  8
1BY1
  0
POLYLINE
  5
15E
  8
2BY2
 66
     1
 10
0.0
 20
0.0
 30
8.4000000000000004
 70
     1
1001
DCO15
1071
        2
1071
        2
1000
variablelink
1004
0000000000003F40
  0
VERTEX
  5
6FB
  8
2BY2
 10
599871.0
 20
3482361.0
 30
8.4000000000000004
  0
VERTEX
  5
6FC
  8
2BY2
 10
599873.0
 20
3482361.0
 30
8.4000000000000004
  0
VERTEX
  5
6FD
  8
2BY2
 10
599873.0
 20
3482363.0
 30
8.4000000000000004
  0
VERTEX
  5
6FE
  8
2BY2
 10
599871.0
 20
3482363.0
 30
8.4000000000000004
  0
SEQEND
  5
6FF
  8
2BY2
  0
POLYLINE
  5
160
  8
2BY2
 66
     1
 10
0.0
 20
0.0
 30
0.8
 70
     1
1001
DCO15
1071
        2
1071
        2
1000
variablelink
1004
0000000000004040
  0
VERTEX
  5
700
  8
2BY2
 10
599874.0
 20
3482364.0
 30
0.8
  0
VERTEX
  5
701
  8
2BY2
 10
599876.0
 20
3482364.0
 30
0.8
  0
VERTEX
  5
702
  8
2BY2
 10
599876.0
 20
3482366.0
 30
0.8
  0
VERTEX
  5
703
  8
2BY2
 10
599874.0
 20
3482366.0
 30
0.8
  0
SEQEND
  5
704
  8
2BY2
  0
POLYLINE
  5
161
  8
2BY2
 66
     1
 10
0.0
 20
0.0
 30
13.199999999999999
 70
     1
1001
DCO15
1071
        2
1071
        2
1000
variablelink
1004
0000000000804040
  0
VERTEX
  5
705
  8
2BY2
 10
599884.0
 20
3482362.0
 30
13.199999999999999
  0
VERTEX
  5
706
  8
2BY2
 10
599886.0
 20
3482362.0
 30
13.199999999999999
  0
VERTEX
  5
707
  8
2BY2
 10
599886.0
 20
3482364.0
 30
13.199999999999999
  0
VERTEX
  5
708
  8
2BY2
 10
599884.0
 20
3482364.0
 30
13.199999999999999
  0
SEQEND
  5
709
  8
2BY2
  0
POLYLINE
  5
162
  8
2BY2
 66
     1
 10
0.0
 20
0.0
 30
9.1999999999999993
 70
     1
1001
DCO15
1071
        2
1071
        2
1000
variablelink
1004
0000000000004140
  0
VERTEX
  5
70A
  8
2BY2
 10
599881.0
 20
3482357.0
 30
9.1999999999999993
  0
VERTEX
  5
70B
  8
2BY2
 10
599883.0
 20
3482357.0
 30
9.1999999999999993
  0
VERTEX
  5
70C
  8
2BY2
 10
599883.0
 20
3482359.0
 30
9.1999999999999993
  0
VERTEX
  5
70D
  8
2BY2
 10
599881.0
 20
3482359.0
 30
9.1999999999999993
  0
SEQEND
  5
70E
  8
2BY2
  0
POLYLINE
  5
163
  8
2BY2
 66
     1
 10
0.0
 20
0.0
 30
0.25
 70
     1
1001
DCO15
1071
        2
1071
        2
1000
variablelink
1004
0000000000004240
  0
VERTEX
  5
70F
  8
2BY2
 10
599886.0
 20
3482355.0
 30
0.25
  0
VERTEX
  5
710
  8
2BY2
 10
599888.0
 20
3482355.0
 30
0.25
  0
VERTEX
  5
711
  8
2BY2
 10
599888.0
 20
3482357.0
 30
0.25
  0
VERTEX
  5
712
  8
2BY2
 10
599886.0
 20
3482357.0
 30
0.25
  0
SEQEND
  5
713
  8
2BY2
  0
POLYLINE
  5
164
  8
2BY2
 66
     1
 10
0.0
 20
0.0
 30
2.0
 70
     1
1001
DCO15
1071
        2
1071
        2
1000
variablelink
1004
0000000000804740
  0
VERTEX
  5
714
  8
2BY2
 10
599878.0
 20
3482358.0
 30
2.0
  0
VERTEX
  5
715
  8
2BY2
 10
599880.0
 20
3482358.0
 30
2.0
  0
VERTEX
  5
716
  8
2BY2
 10
599880.0
 20
3482360.0
 30
2.0
  0
VERTEX
  5
717
  8
2BY2
 10
599878.0
 20
3482360.0
 30
2.0
  0
SEQEND
  5
718
  8
2BY2
  0
POLYLINE
  5
165
  8
2BY2
 66
     1
 10
0.0
 20
0.0
 30
4.4000000000000004
 70
     1
1001
DCO15
1071
        2
1071
        2
1000
variablelink
1004
0000000000004840
  0
VERTEX
  5
719
  8
2BY2
 10
599847.0
 20
3482357.0
 30
4.4000000000000004
  0
VERTEX
  5
71A
  8
2BY2
 10
599849.0
 20
3482357.0
 30
4.4000000000000004
  0
VERTEX
  5
71B
  8
2BY2
 10
599849.0
 20
3482359.0
 30
4.4000000000000004
  0
VERTEX
  5
71C
  8
2BY2
 10
599847.0
 20
3482359.0
 30
4.4000000000000004
  0
SEQEND
  5
71D
  8
2BY2
  0
POLYLINE
  5
166
  8
2BY2
 66
     1
 10
0.0
 20
0.0
 30
4.7999999999999989
 70
     1
1001
DCO15
1071
        2
1071
        2
1000
variablelink
1004
0000000000804840
  0
VERTEX
  5
71E
  8
2BY2
 10
599887.0
 20
3482351.0
 30
4.7999999999999989
  0
VERTEX
  5
71F
  8
2BY2
 10
599889.0
 20
3482351.0
 30
4.7999999999999989
  0
VERTEX
  5
720
  8
2BY2
 10
599889.0
 20
3482353.0
 30
4.7999999999999989
  0
VERTEX
  5
721
  8
2BY2
 10
599887.0
 20
3482353.0
 30
4.7999999999999989
  0
SEQEND
  5
722
  8
2BY2
  0
POLYLINE
  5
167
  8
2BY2
 66
     1
 10
0.0
 20
0.0
 30
2.399999999999999
 70
     1
1001
DCO15
1071
        2
1071
        2
1000
variablelink
1004
0000000000804940
  0
VERTEX
  5
723
  8
2BY2
 10
599885.0
 20
3482352.0
 30
2.399999999999999
  0
VERTEX
  5
724
  8
2BY2
 10
599887.0
 20
3482352.0
 30
2.399999999999999
  0
VERTEX
  5
725
  8
2BY2
 10
599887.0
 20
3482354.0
 30
2.399999999999999
  0
VERTEX
  5
726
  8
2BY2
 10
599885.0
 20
3482354.0
 30
2.399999999999999
  0
SEQEND
  5
727
  8
2BY2
  0
POLYLINE
  5
168
  8
2BY2
 66
     1
 10
0.0
 20
0.0
 30
5.2000000000000002
 70
     1
1001
DCO15
1071
        2
1071
        2
1000
variablelink
1004
0000000000004A40
  0
VERTEX
  5
728
  8
2BY2
 10
599883.0
 20
3482355.0
 30
5.2000000000000002
  0
VERTEX
  5
729
  8
2BY2
 10
599885.0
 20
3482355.0
 30
5.2000000000000002
  0
VERTEX
  5
72A
  8
2BY2
 10
599885.0
 20
3482357.0
 30
5.2000000000000002
  0
VERTEX
  5
72B
  8
2BY2
 10
599883.0
 20
3482357.0
 30
5.2000000000000002
  0
SEQEND
  5
72C
  8
2BY2
  0
POLYLINE
  5
169
  8
2BY2
 66
     1
 10
0.0
 20
0.0
 30
3.2000000000000002
 70
     1
1001
DCO15
1071
        2
1071
        2
1000
variablelink
1004
0000000000804D40
  0
VERTEX
  5
72D
  8
2BY2
 10
599882.0
 20
3482347.0
 30
3.2000000000000002
  0
VERTEX
  5
72E
  8
2BY2
 10
599884.0
 20
3482347.0
 30
3.2000000000000002
  0
VERTEX
  5
72F
  8
2BY2
 10
599884.0
 20
3482349.0
 30
3.2000000000000002
  0
VERTEX
  5
730
  8
2BY2
 10
599882.0
 20
3482349.0
 30
3.2000000000000002
  0
SEQEND
  5
731
  8
2BY2
  0
POLYLINE
  5
16A
  8
2BY2
 66
     1
 10
0.0
 20
0.0
 30
0.4
 70
     1
1001
DCO15
1071
        2
1071
        2
1000
variablelink
1004
0000000000004F40
  0
VERTEX
  5
732
  8
2BY2
 10
599885.0
 20
3482346.0
 30
0.4
  0
VERTEX
  5
733
  8
2BY2
 10
599887.0
 20
3482346.0
 30
0.4
  0
VERTEX
  5
734
  8
2BY2
 10
599887.0
 20
3482348.0
 30
0.4
  0
VERTEX
  5
735
  8
2BY2
 10
599885.0
 20
3482348.0
 30
0.4
  0
SEQEND
  5
736
  8
2BY2
  0
POLYLINE
  5
16B
  8
2BY2
 66
     1
 10
0.0
 20
0.0
 30
1.1999999999999991
 70
     1
1001
DCO15
1071
        2
1071
        2
1000
variablelink
1004
0000000000005040
  0
VERTEX
  5
737
  8
2BY2
 10
599885.0
 20
3482340.0
 30
1.1999999999999991
  0
VERTEX
  5
738
  8
2BY2
 10
599887.0
 20
3482340.0
 30
1.1999999999999991
  0
VERTEX
  5
739
  8
2BY2
 10
599887.0
 20
3482342.0
 30
1.1999999999999991
  0
VERTEX
  5
73A
  8
2BY2
 10
599885.0
 20
3482342.0
 30
1.1999999999999991
  0
SEQEND
  5
73B
  8
2BY2
  0
POLYLINE
  5
16C
  8
2BY2
 66
     1
 10
0.0
 20
0.0
 30
3.2000000000000002
 70
     1
1001
DCO15
1071
        2
1071
        2
1000
variablelink
1004
0000000000405040
  0
VERTEX
  5
73C
  8
2BY2
 10
599888.0
 20
3482331.0
 30
3.2000000000000002
  0
VERTEX
  5
73D
  8
2BY2
 10
599890.0
 20
3482331.0
 30
3.2000000000000002
  0
VERTEX
  5
73E
  8
2BY2
 10
599890.0
 20
3482333.0
 30
3.2000000000000002
  0
VERTEX
  5
73F
  8
2BY2
 10
599888.0
 20
3482333.0
 30
3.2000000000000002
  0
SEQEND
  5
740
  8
2BY2
  0
POLYLINE
  5
16D
  8
2BY2
 66
     1
 10
0.0
 20
0.0
 30
5.2000000000000002
 70
     1
1001
DCO15
1071
        2
1071
        2
1000
variablelink
1004
0000000000805040
  0
VERTEX
  5
741
  8
2BY2
 10
599885.0
 20
3482332.0
 30
5.2000000000000002
  0
VERTEX
  5
742
  8
2BY2
 10
599887.0
 20
3482332.0
 30
5.2000000000000002
  0
VERTEX
  5
743
  8
2BY2
 10
599887.0
 20
3482334.0
 30
5.2000000000000002
  0
VERTEX
  5
744
  8
2BY2
 10
599885.0
 20
3482334.0
 30
5.2000000000000002
  0
SEQEND
  5
745
  8
2BY2
  0
POLYLINE
  5
16E
  8
2BY2
 66
     1
 10
0.0
 20
0.0
 30
0.4
 70
     1
1001
DCO15
1071
        2
1071
        2
1000
variablelink
1004
0000000000C05040
  0
VERTEX
  5
746
  8
2BY2
 10
599885.0
 20
3482322.0
 30
0.4
  0
VERTEX
  5
747
  8
2BY2
 10
599887.0
 20
3482322.0
 30
0.4
  0
VERTEX
  5
748
  8
2BY2
 10
599887.0
 20
3482324.0
 30
0.4
  0
VERTEX
  5
749
  8
2BY2
 10
599885.0
 20
3482324.0
 30
0.4
  0
SEQEND
  5
74A
  8
2BY2
  0
POLYLINE
  5
16F
  8
2BY2
 66
     1
 10
0.0
 20
0.0
 30
0.4
 70
     1
1001
DCO15
1071
        2
1071
        2
1000
variablelink
1004
0000000000005140
  0
VERTEX
  5
74B
  8
2BY2
 10
599885.0
 20
3482325.0
 30
0.4
  0
VERTEX
  5
74C
  8
2BY2
 10
599887.0
 20
3482325.0
 30
0.4
  0
VERTEX
  5
74D
  8
2BY2
 10
599887.0
 20
3482327.0
 30
0.4
  0
VERTEX
  5
74E
  8
2BY2
 10
599885.0
 20
3482327.0
 30
0.4
  0
SEQEND
  5
74F
  8
2BY2
  0
POLYLINE
  5
170
  8
2BY2
 66
     1
 10
0.0
 20
0.0
 30
0.8
 70
     1
1001
DCO15
1071
        2
1071
        2
1000
variablelink
1004
0000000000405140
  0
VERTEX
  5
750
  8
2BY2
 10
599889.0
 20
3482320.0
 30
0.8
  0
VERTEX
  5
751
  8
2BY2
 10
599891.0
 20
3482320.0
 30
0.8
  0
VERTEX
  5
752
  8
2BY2
 10
599891.0
 20
3482322.0
 30
0.8
  0
VERTEX
  5
753
  8
2BY2
 10
599889.0
 20
3482322.0
 30
0.8
  0
SEQEND
  5
754
  8
2BY2
  0
POLYLINE
  5
171
  8
2BY2
 66
     1
 10
0.0
 20
0.0
 30
2.0
 70
     1
1001
DCO15
1071
        2
1071
        2
1000
variablelink
1004
0000000000005240
  0
VERTEX
  5
755
  8
2BY2
 10
599886.0
 20
3482312.0
 30
2.0
  0
VERTEX
  5
756
  8
2BY2
 10
599888.0
 20
3482312.0
 30
2.0
  0
VERTEX
  5
757
  8
2BY2
 10
599888.0
 20
3482314.0
 30
2.0
  0
VERTEX
  5
758
  8
2BY2
 10
599886.0
 20
3482314.0
 30
2.0
  0
SEQEND
  5
759
  8
2BY2
  0
POLYLINE
  5
172
  8
2BY2
 66
     1
 10
0.0
 20
0.0
 30
2.7999999999999989
 70
     1
1001
DCO15
1071
        2
1071
        2
1000
variablelink
1004
0000000000405240
  0
VERTEX
  5
75A
  8
2BY2
 10
599884.0
 20
3482309.0
 30
2.7999999999999989
  0
VERTEX
  5
75B
  8
2BY2
 10
599886.0
 20
3482309.0
 30
2.7999999999999989
  0
VERTEX
  5
75C
  8
2BY2
 10
599886.0
 20
3482311.0
 30
2.7999999999999989
  0
VERTEX
  5
75D
  8
2BY2
 10
599884.0
 20
3482311.0
 30
2.7999999999999989
  0
SEQEND
  5
75E
  8
2BY2
  0
POLYLINE
  5
173
  8
2BY2
 66
     1
 10
0.0
 20
0.0
 30
5.5999999999999988
 70
     1
1001
DCO15
1071
        2
1071
        2
1000
variablelink
1004
0000000000405340
  0
VERTEX
  5
75F
  8
2BY2
 10
599886.0
 20
3482348.0
 30
5.5999999999999988
  0
VERTEX
  5
760
  8
2BY2
 10
599888.0
 20
3482348.0
 30
5.5999999999999988
  0
VERTEX
  5
761
  8
2BY2
 10
599888.0
 20
3482350.0
 30
5.5999999999999988
  0
VERTEX
  5
762
  8
2BY2
 10
599886.0
 20
3482350.0
 30
5.5999999999999988
  0
SEQEND
  5
763
  8
2BY2
  0
POLYLINE
  5
174
  8
2BY2
 66
     1
 10
0.0
 20
0.0
 30
0.4
 70
     1
1001
DCO15
1071
        2
1071
        2
1000
variablelink
1004
0000000000805340
  0
VERTEX
  5
764
  8
2BY2
 10
599884.0
 20
3482343.0
 30
0.4
  0
VERTEX
  5
765
  8
2BY2
 10
599886.0
 20
3482343.0
 30
0.4
  0
VERTEX
  5
766
  8
2BY2
 10
599886.0
 20
3482345.0
 30
0.4
  0
VERTEX
  5
767
  8
2BY2
 10
599884.0
 20
3482345.0
 30
0.4
  0
SEQEND
  5
768
  8
2BY2
  0
POLYLINE
  5
175
  8
2BY2
 66
     1
 10
0.0
 20
0.0
 30
0.8
 70
     1
1001
DCO15
1071
        2
1071
        2
1000
variablelink
1004
0000000000F07A40
  0
VERTEX
  5
769
  8
2BY2
 10
599585.0
 20
3482332.0
 30
0.8
  0
VERTEX
  5
76A
  8
2BY2
 10
599587.0
 20
3482332.0
 30
0.8
  0
VERTEX
  5
76B
  8
2BY2
 10
599587.0
 20
3482334.0
 30
0.8
  0
VERTEX
  5
76C
  8
2BY2
 10
599585.0
 20
3482334.0
 30
0.8
  0
SEQEND
  5
76D
  8
2BY2
  0
POLYLINE
  5
176
  8
2BY2
 66
     1
 10
0.0
 20
0.0
 30
0.4
 70
     1
1001
DCO15
1071
        2
1071
        2
1000
variablelink
1004
0000000000507C40
  0
VERTEX
  5
76E
  8
2BY2
 10
599299.0
 20
3482770.0
 30
0.4
  0
VERTEX
  5
76F
  8
2BY2
 10
599301.0
 20
3482770.0
 30
0.4
  0
VERTEX
  5
770
  8
2BY2
 10
599301.0
 20
3482772.0
 30
0.4
  0
VERTEX
  5
771
  8
2BY2
 10
599299.0
 20
3482772.0
 30
0.4
  0
SEQEND
  5
772
  8
2BY2
  0
POLYLINE
  5
177
  8
2BY2
 66
     1
 10
0.0
 20
0.0
 30
8.25
 70
     1
1001
DCO15
1071
        2
1071
        2
1000
variablelink
1004
0000000000707C40
  0
VERTEX
  5
773
  8
2BY2
 10
599298.0
 20
3482920.0
 30
8.25
  0
VERTEX
  5
774
  8
2BY2
 10
599300.0
 20
3482920.0
 30
8.25
  0
VERTEX
  5
775
  8
2BY2
 10
599300.0
 20
3482922.0
 30
8.25
  0
VERTEX
  5
776
  8
2BY2
 10
599298.0
 20
3482922.0
 30
8.25
  0
SEQEND
  5
777
  8
2BY2
  0
POLYLINE
  5
178
  8
2BY2
 66
     1
 10
0.0
 20
0.0
 30
2.25
 70
     1
1001
DCO15
1071
        2
1071
        2
1000
variablelink
1004
0000000000807C40
  0
VERTEX
  5
778
  8
2BY2
 10
599294.0
 20
3482918.0
 30
2.25
  0
VERTEX
  5
779
  8
2BY2
 10
599296.0
 20
3482918.0
 30
2.25
  0
VERTEX
  5
77A
  8
2BY2
 10
599296.0
 20
3482920.0
 30
2.25
  0
VERTEX
  5
77B
  8
2BY2
 10
599294.0
 20
3482920.0
 30
2.25
  0
SEQEND
  5
77C
  8
2BY2
  0
POLYLINE
  5
179
  8
2BY2
 66
     1
 10
0.0
 20
0.0
 30
3.5
 70
     1
1001
DCO15
1071
        2
1071
        2
1000
variablelink
1004
0000000000507E40
  0
VERTEX
  5
77D
  8
2BY2
 10
600153.0
 20
3482042.0
 30
3.5
  0
VERTEX
  5
77E
  8
2BY2
 10
600155.0
 20
3482042.0
 30
3.5
  0
VERTEX
  5
77F
  8
2BY2
 10
600155.0
 20
3482044.0
 30
3.5
  0
VERTEX
  5
780
  8
2BY2
 10
600153.0
 20
3482044.0
 30
3.5
  0
SEQEND
  5
781
  8
2BY2
  0
POLYLINE
  5
17A
  8
2BY2
 66
     1
 10
0.0
 20
0.0
 30
3.75
 70
     1
1001
DCO15
1071
        2
1071
        2
1000
variablelink
1004
0000000000607E40
  0
VERTEX
  5
782
  8
2BY2
 10
600153.0
 20
3482036.0
 30
3.75
  0
VERTEX
  5
783
  8
2BY2
 10
600155.0
 20
3482036.0
 30
3.75
  0
VERTEX
  5
784
  8
2BY2
 10
600155.0
 20
3482038.0
 30
3.75
  0
VERTEX
  5
785
  8
2BY2
 10
600153.0
 20
3482038.0
 30
3.75
  0
SEQEND
  5
786
  8
2BY2
  0
POLYLINE
  5
17B
  8
2BY2
 66
     1
 10
0.0
 20
0.0
 30
2.399999999999999
 70
     1
1001
DCO15
1071
        2
1071
        2
1000
variablelink
1004
0000000000807E40
  0
VERTEX
  5
787
  8
2BY2
 10
600122.0
 20
3482047.0
 30
2.399999999999999
  0
VERTEX
  5
788
  8
2BY2
 10
600124.0
 20
3482047.0
 30
2.399999999999999
  0
VERTEX
  5
789
  8
2BY2
 10
600124.0
 20
3482049.0
 30
2.399999999999999
  0
VERTEX
  5
78A
  8
2BY2
 10
600122.0
 20
3482049.0
 30
2.399999999999999
  0
SEQEND
  5
78B
  8
2BY2
  0
POLYLINE
  5
17C
  8
2BY2
 66
     1
 10
0.0
 20
0.0
 30
0.8
 70
     1
1001
DCO15
1071
        2
1071
        2
1000
variablelink
1004
0000000000907E40
  0
VERTEX
  5
78C
  8
2BY2
 10
600166.0
 20
3482029.0
 30
0.8
  0
VERTEX
  5
78D
  8
2BY2
 10
600168.0
 20
3482029.0
 30
0.8
  0
VERTEX
  5
78E
  8
2BY2
 10
600168.0
 20
3482031.0
 30
0.8
  0
VERTEX
  5
78F
  8
2BY2
 10
600166.0
 20
3482031.0
 30
0.8
  0
SEQEND
  5
790
  8
2BY2
  0
POLYLINE
  5
17D
  8
2BY2
 66
     1
 10
0.0
 20
0.0
 30
14.0
 70
     1
1001
DCO15
1071
        2
1071
        2
1000
variablelink
1004
0000000000307F40
  0
VERTEX
  5
791
  8
2BY2
 10
600282.0
 20
3482011.0
 30
14.0
  0
VERTEX
  5
792
  8
2BY2
 10
600284.0
 20
3482011.0
 30
14.0
  0
VERTEX
  5
793
  8
2BY2
 10
600284.0
 20
3482013.0
 30
14.0
  0
VERTEX
  5
794
  8
2BY2
 10
600282.0
 20
3482013.0
 30
14.0
  0
SEQEND
  5
795
  8
2BY2
  0
POLYLINE
  5
17E
  8
2BY2
 66
     1
 10
0.0
 20
0.0
 30
0.25
 70
     1
1001
DCO15
1071
        2
1071
        2
1000
variablelink
1004
0000000000707F40
  0
VERTEX
  5
796
  8
2BY2
 10
600085.0
 20
3482030.0
 30
0.25
  0
VERTEX
  5
797
  8
2BY2
 10
600087.0
 20
3482030.0
 30
0.25
  0
VERTEX
  5
798
  8
2BY2
 10
600087.0
 20
3482032.0
 30
0.25
  0
VERTEX
  5
799
  8
2BY2
 10
600085.0
 20
3482032.0
 30
0.25
  0
SEQEND
  5
79A
  8
2BY2
  0
ENDSEC
  0
EOF
