  0
SECTION
  2
HEADER
  9
$ACADVER
  1
AC1009
  9
$INSBASE
 10
0.0
 20
0.0
 30
0.0
  9
$EXTMIN
 10
802179.7412594608031213
 20
560572.9302733149379492
 30
-0.0198931965323936
  9
$EXTMAX
 10
812640.8425877682166174
 20
575272.0376176373101771
 30
651.929896232224678
  9
$LIMMIN
 10
0.0
 20
0.0
  9
$LIMMAX
 10
12.0
 20
9.0
  9
$ORTHOMODE
 70
     0
  9
$REGENMODE
 70
     1
  9
$FILLMODE
 70
     1
  9
$QTEXTMODE
 70
     0
  9
$MIRRTEXT
 70
     1
  9
$DRAGMODE
 70
     2
  9
$LTSCALE
 40
1.0
  9
$OSMODE
 70
    37
  9
$ATTMODE
 70
     1
  9
$TEXTSIZE
 40
3.0
  9
$TRACEWID
 40
0.05
  9
$TEXTSTYLE
  7
STANDARD
  9
$CLAYER
  8
LOTS
  9
$CELTYPE
  6
BYLAYER
  9
$CECOLOR
 62
   256
  9
$DIMSCALE
 40
1.0
  9
$DIMASZ
 40
0.18
  9
$DIMEXO
 40
0.0625
  9
$DIMDLI
 40
0.38
  9
$DIMRND
 40
0.0
  9
$DIMDLE
 40
0.0
  9
$DIMEXE
 40
0.18
  9
$DIMTP
 40
0.0
  9
$DIMTM
 40
0.0
  9
$DIMTXT
 40
0.18
  9
$DIMCEN
 40
0.09
  9
$DIMTSZ
 40
0.0
  9
$DIMTOL
 70
     0
  9
$DIMLIM
 70
     0
  9
$DIMTIH
 70
     1
  9
$DIMTOH
 70
     1
  9
$DIMSE1
 70
     0
  9
$DIMSE2
 70
     0
  9
$DIMTAD
 70
     0
  9
$DIMZIN
 70
     0
  9
$DIMBLK
  1

  9
$DIMASO
 70
     1
  9
$DIMSHO
 70
     1
  9
$DIMPOST
  1

  9
$DIMAPOST
  1

  9
$DIMALT
 70
     0
  9
$DIMALTD
 70
     2
  9
$DIMALTF
 40
25.3999999999999986
  9
$DIMLFAC
 40
1.0
  9
$DIMTOFL
 70
     0
  9
$DIMTVP
 40
0.0
  9
$DIMTIX
 70
     0
  9
$DIMSOXD
 70
     0
  9
$DIMSAH
 70
     0
  9
$DIMBLK1
  1

  9
$DIMBLK2
  1

  9
$DIMSTYLE
  2
STANDARD
  9
$DIMCLRD
 70
     0
  9
$DIMCLRE
 70
     0
  9
$DIMCLRT
 70
     0
  9
$DIMTFAC
 40
1.0
  9
$DIMGAP
 40
0.09
  9
$LUNITS
 70
     2
  9
$LUPREC
 70
     4
  9
$SKETCHINC
 40
0.1
  9
$FILLETRAD
 40
0.5
  9
$AUNITS
 70
     0
  9
$AUPREC
 70
     0
  9
$MENU
  1
.
  9
$ELEVATION
 40
0.0
  9
$PELEVATION
 40
0.0
  9
$THICKNESS
 40
0.0
  9
$LIMCHECK
 70
     0
  9
$BLIPMODE
 70
     0
  9
$CHAMFERA
 40
0.5
  9
$CHAMFERB
 40
0.5
  9
$SKPOLY
 70
     0
  9
$TDCREATE
 40
2457466.4976041670888662
  9
$TDUPDATE
 40
2458140.7959490739740431
  9
$TDINDWG
 40
9.9005152315
  9
$TDUSRTIMER
 40
9.9005109143999999
  9
$USRTIMER
 70
     1
  9
$ANGBASE
 50
0.0
  9
$ANGDIR
 70
     0
  9
$PDMODE
 70
     2
  9
$PDSIZE
 40
-0.1
  9
$PLINEWID
 40
0.0
  9
$COORDS
 70
     1
  9
$SPLFRAME
 70
     0
  9
$SPLINETYPE
 70
     6
  9
$SPLINESEGS
 70
     8
  9
$ATTDIA
 70
     1
  9
$ATTREQ
 70
     1
  9
$HANDLING
 70
     1
  9
$HANDSEED
  5
1013785
  9
$SURFTAB1
 70
     6
  9
$SURFTAB2
 70
     6
  9
$SURFTYPE
 70
     6
  9
$SURFU
 70
     6
  9
$SURFV
 70
     6
  9
$UCSNAME
  2

  9
$UCSORG
 10
0.0
 20
0.0
 30
0.0
  9
$UCSXDIR
 10
1.0
 20
0.0
 30
0.0
  9
$UCSYDIR
 10
0.0
 20
1.0
 30
0.0
  9
$PUCSNAME
  2

  9
$PUCSORG
 10
0.0
 20
0.0
 30
0.0
  9
$PUCSXDIR
 10
1.0
 20
0.0
 30
0.0
  9
$PUCSYDIR
 10
0.0
 20
1.0
 30
0.0
  9
$USERI1
 70
     0
  9
$USERI2
 70
     0
  9
$USERI3
 70
     0
  9
$USERI4
 70
     0
  9
$USERI5
 70
     0
  9
$USERR1
 40
0.0
  9
$USERR2
 40
0.0
  9
$USERR3
 40
0.0
  9
$USERR4
 40
0.0
  9
$USERR5
 40
0.0
  9
$WORLDVIEW
 70
     1
  9
$SHADEDGE
 70
     3
  9
$SHADEDIF
 70
    70
  9
$TILEMODE
 70
     1
  9
$MAXACTVP
 70
    64
  9
$PLIMCHECK
 70
     0
  9
$PEXTMIN
 10
1.0000000000000000E+20
 20
1.0000000000000000E+20
 30
1.0000000000000000E+20
  9
$PEXTMAX
 10
-1.0000000000000000E+20
 20
-1.0000000000000000E+20
 30
-1.0000000000000000E+20
  9
$PLIMMIN
 10
0.0
 20
0.0
  9
$PLIMMAX
 10
12.0
 20
9.0
  9
$UNITMODE
 70
     0
  9
$VISRETAIN
 70
     1
  9
$PLINEGEN
 70
     0
  9
$PSLTSCALE
 70
     1
  0
ENDSEC
  0
SECTION
  2
TABLES
  0
TABLE
  2
VPORT
 70
     1
  0
VPORT
  2
*ACTIVE
 70
     0
 10
0.0
 20
0.0
 11
1.0
 21
1.0
 12
807410.2919236144516617
 22
567922.4839454761240631
 13
0.0
 23
0.0
 14
0.5
 24
0.5
 15
0.5
 25
0.5
 16
0.0
 26
0.0
 36
1.0
 17
0.0
 27
0.0
 37
0.0
 40
14893.7975078234394459
 41
2.9203539823008842
 42
50.0
 43
0.0
 44
0.0
 50
0.0
 51
0.0
 71
     0
 72
   100
 73
     1
 74
     3
 75
     0
 76
     0
 77
     0
 78
     0
  0
ENDTAB
  0
TABLE
  2
LTYPE
 70
     1
  0
LTYPE
  2
CONTINUOUS
 70
     0
  3
Solid line
 72
    65
 73
     0
 40
0.0
  0
ENDTAB
  0
TABLE
  2
LAYER
 70
     8
  0
LAYER
  2
0
 70
     0
 62
     7
  6
CONTINUOUS
  0
LAYER
  2
LOTS
 70
     0
 62
     7
  6
CONTINUOUS
  0
LAYER
  2
TEXT_LOTS
 70
     0
 62
     6
  6
CONTINUOUS
  0
ENDTAB
  0
TABLE
  2
STYLE
 70
     3
  0
STYLE
  2
STANDARD
 70
     0
 40
0.0
 41
1.0
 50
0.0
 71
     0
 42
3.0
  3
txt
  4

  0
ENDTAB
  0
TABLE
  2
VIEW
 70
     1
  0
ENDTAB
  0
TABLE
  2
UCS
 70
     0
  0
ENDTAB
  0
TABLE
  2
APPID
 70
    14
  0
APPID
  2
ACAD
 70
     0
  0
APPID
  2
ACADANNOTATIVE
 70
     0
  0
APPID
  2
ACAD_NAV_VCDISPLAY
 70
     0
  0
APPID
  2
ADE
 70
     0
  0
APPID
  2
ACAECLAYERSTANDARD
 70
     0
  0
APPID
  2
ACCMTRANSPARENCY
 70
     0
  0
APPID
  2
ACAD_PSEXT
 70
     0
  0
APPID
  2
ADE_PROJECTION
 70
     0
  0
APPID
  2
ACMAPDMDISPLAYSTYLEREGAPP
 70
     0
  0
APPID
  2
DCO15
 70
     0
  0
APPID
  2
MAPGWS
 70
     0
  0
APPID
  2
ACAD_EXEMPT_FROM_CAD_STANDARDS
 70
     0
  0
APPID
  2
ACAD_MLEADERVER
 70
     0
  0
APPID
  2
MAPMANAGEMENTAPPNAME
 70
     0
  0
ENDTAB
  0
TABLE
  2
DIMSTYLE
 70
     2
  0
DIMSTYLE
  2
STANDARD
 70
     0
  3

  4

  5

  6

  7

 40
1.0
 41
0.18
 42
0.0625
 43
0.38
 44
0.18
 45
0.0
 46
0.0
 47
0.0
 48
0.0
140
0.18
141
0.09
142
0.0
143
25.3999999999999986
144
1.0
145
0.0
146
1.0
147
0.09
 71
     0
 72
     0
 73
     1
 74
     1
 75
     0
 76
     0
 77
     0
 78
     0
170
     0
171
     2
172
     0
173
     0
174
     0
175
     0
176
     0
177
     0
178
     0
  0
ENDTAB
  0
ENDSEC
  0
SECTION
  2
BLOCKS
  0
BLOCK
  8
0
  2
$MODEL_SPACE
 70
     0
 10
0.0
 20
0.0
 30
0.0
  3
$MODEL_SPACE
  1

  0
ENDBLK
  5
1318B
  8
0
  0
BLOCK
 67
     1
  8
0
  2
$PAPER_SPACE
 70
     0
 10
0.0
 20
0.0
 30
0.0
  3
$PAPER_SPACE
  1

  0
ENDBLK
  5
13187
 67
     1
  8
0
  0
ENDSEC
  0
SECTION
  2
ENTITIES
  0
TEXT
  5
4D
  8
TEXT_LOTS
 10
806620.6031346269883215
 20
568644.0222840149654076
 30
651.9099999999998545
 40
2.990400915391541
  1
CA-CT-LT-21
  0
TEXT
  5
4F
  8
TEXT_LOTS
 10
806549.0616121497005224
 20
568727.613898808718659
 30
651.9099999999998545
 40
2.990400915391541
  1
CA-CT-LT-20
  0
TEXT
  5
50
  8
TEXT_LOTS
 10
806671.4052738158497959
 20
568754.127298250910826
 30
651.9099999999998545
 40
2.990400915391541
  1
CA-CT-LT-18
  0
TEXT
  5
51
  8
TEXT_LOTS
 10
806610.375516819418408
 20
568728.3018561153439805
 30
651.9099999999998545
 40
2.990400915391541
  1
CA-CT-LT-17
  0
TEXT
  5
52
  8
TEXT_LOTS
 10
806603.533213670947589
 20
568838.6081774762133136
 30
651.9099999999998545
 40
2.990400915391541
  1
CA-CT-LT-19
  0
TEXT
  5
53
  8
TEXT_LOTS
 10
806703.1552520632976666
 20
568797.1233662093291059
 30
651.9099999999998545
 40
2.990400915391541
  1
CA-CT-LT-15
  0
TEXT
  5
54
  8
TEXT_LOTS
 10
806658.2716388590633869
 20
568837.1439303582301363
 30
651.9099999999998545
 40
2.990400915391541
  1
CA-CT-LT-16
  0
TEXT
  5
55
  8
TEXT_LOTS
 10
806729.2593026618706062
 20
568871.6064338468713686
 30
651.9099999999998545
 40
2.990400915391541
  1
CA-CT-LT-14
  0
TEXT
  5
56
  8
TEXT_LOTS
 10
806674.0775867217453197
 20
568896.5457076115999371
 30
651.9099999999998545
 40
2.990400915391541
  1
CA-CT-LT-13
  0
TEXT
  5
57
  8
TEXT_LOTS
 10
806791.5910776278469712
 20
569038.31249098922126
 30
651.9099999999998545
 40
2.990400915391541
  1
CA-CT-LT-22
  0
TEXT
  5
58
  8
TEXT_LOTS
 10
806761.5867477884748951
 20
568972.5879892878001556
 30
651.9099999999998545
 40
2.990400915391541
  1
CA-CT-LT-12
  0
TEXT
  5
59
  8
TEXT_LOTS
 10
806705.1313776933820918
 20
569000.77781077765394
 30
651.9099999999998545
 40
2.990400915391541
  1
CA-CT-LT-11
  0
TEXT
  5
5A
  8
TEXT_LOTS
 10
806649.1413779654540122
 20
569017.4333532092859969
 30
651.9099999999998545
 40
2.990400915391541
  1
CA-CT-LT-10
  0
TEXT
  5
5B
  8
TEXT_LOTS
 10
806700.6357980370521545
 20
569075.7728657459374517
 30
651.9099999999998545
 40
2.990400915391541
  1
CA-CT-LT-09
  0
TEXT
  5
5C
  8
TEXT_LOTS
 10
806777.0815429093781859
 20
569115.5727250020718202
 30
651.9099999999998545
 40
2.990400915391541
  1
CA-CT-LT-08
  0
TEXT
  5
5D
  8
TEXT_LOTS
 10
806791.5012305751442909
 20
569176.2598097067093477
 30
651.9099999999998545
 40
2.990400915391541
  1
CA-CT-LT-07
  0
TEXT
  5
5E
  8
TEXT_LOTS
 10
806696.0442569726146758
 20
569183.3588239663513377
 30
651.9099999999998545
 40
2.990400915391541
  1
CA-CT-LT-06
  0
TEXT
  5
5F
  8
TEXT_LOTS
 10
806851.0786583699518815
 20
569250.8633709688438103
 30
651.9099999999998545
 40
2.990400915391541
  1
CA-CT-LT-05
  0
TEXT
  5
60
  8
TEXT_LOTS
 10
806774.2348010368878022
 20
569269.038889609510079
 30
651.9099999999998545
 40
2.990400915391541
  1
CA-CT-LT-04
  0
TEXT
  5
61
  8
TEXT_LOTS
 10
806710.9687186279334128
 20
569290.6763095014030114
 30
651.9099999999998545
 40
2.990400915391541
  1
CA-CT-LT-03
  0
TEXT
  5
62
  8
TEXT_LOTS
 10
806711.3972330214455724
 20
569358.7075659185647964
 30
651.9099999999998545
 40
2.990400915391541
  1
CA-CT-LT-02
  0
TEXT
  5
63
  8
TEXT_LOTS
 10
806655.6380502023966983
 20
569314.7840066577773541
 30
651.9099999999998545
 40
2.990400915391541
  1
CA-CT-LT-01
  0
TEXT
  5
64
  8
TEXT_LOTS
 10
806945.0580161634134129
 20
568068.6284500161418691
 30
651.9099999999998545
 40
2.990400915391541
  1
CA-CT2-LT-02
  0
TEXT
  5
65
  8
TEXT_LOTS
 10
806948.7123919430887327
 20
568021.1912313656648621
 30
651.9099999999998545
 40
2.990400915391541
  1
CA-CT2-LT-01
  0
POLYLINE
  5
66
  8
LOTS
 66
     1
 10
0.0
 20
0.0
 30
3.6000000000000001
 70
     1
  0
VERTEX
  5
10134D1
  8
LOTS
 10
807042.8979146858910099
 20
568077.9209135699784383
 30
3.6000000000000001
  0
VERTEX
  5
10134D2
  8
LOTS
 10
807057.9663510211976245
 20
568015.2432239239569753
 30
3.6000000000000001
  0
VERTEX
  5
10134D3
  8
LOTS
 10
806874.032618009368889
 20
567967.9916279371827841
 30
3.6000000000000001
  0
VERTEX
  5
10134D4
  8
LOTS
 10
806874.032618009368889
 20
567967.9916279371827841
 30
3.6000000000000001
  0
VERTEX
  5
10134D5
  8
LOTS
 10
806870.7162412207107991
 20
568021.0137077025137842
 30
3.6000000000000001
  0
SEQEND
  5
10134D6
  8
LOTS
  0
POLYLINE
  5
67
  8
LOTS
 66
     1
 10
0.0
 20
0.0
 30
3.2000000000000002
 70
     1
  0
VERTEX
  5
10134D7
  8
LOTS
 10
806867.0131800218950957
 20
568085.6593429059721529
 30
3.2000000000000002
  0
VERTEX
  5
10134D8
  8
LOTS
 10
807025.7991540652001277
 20
568114.6809400011552498
 30
3.2000000000000002
  0
VERTEX
  5
10134D9
  8
LOTS
 10
807042.8979146858910099
 20
568077.9209135699784383
 30
3.2000000000000002
  0
VERTEX
  5
10134DA
  8
LOTS
 10
806870.7162412207107991
 20
568021.0137077093822882
 30
3.2000000000000002
  0
SEQEND
  5
10134DB
  8
LOTS
  0
TEXT
  5
68
  8
TEXT_LOTS
 10
804791.125701644923538
 20
569438.2250041583320126
 30
651.9099999999998545
 40
2.990400915391541
  1
CA-EV-LT-02
  0
TEXT
  5
69
  8
TEXT_LOTS
 10
804871.268470857758075
 20
569454.93167402560357
 30
651.9099999999998545
 40
2.990400915391541
  1
CA-EV-LT-01
  0
POLYLINE
  5
6A
  8
LOTS
 66
     1
 10
0.0
 20
0.0
 30
0.0
 70
     1
  0
VERTEX
  5
10134DC
  8
LOTS
 10
804807.83479578664992
 20
569502.1717570670880377
 30
0.0
  0
VERTEX
  5
10134DD
  8
LOTS
 10
804884.045639508869499
 20
569529.9003133564256132
 30
0.0
  0
VERTEX
  5
10134DE
  8
LOTS
 10
804944.8936758622294292
 20
569440.8137727837311104
 30
0.0
  0
VERTEX
  5
10134DF
  8
LOTS
 10
804960.4818606919143349
 20
569417.9913853493053466
 30
0.0
  0
VERTEX
  5
10134E0
  8
LOTS
 10
804889.3626751168631017
 20
569391.2561467295745388
 30
0.0
  0
SEQEND
  5
10134E1
  8
LOTS
  0
POLYLINE
  5
6B
  8
LOTS
 66
     1
 10
0.0
 20
0.0
 30
0.0
 70
     1
  0
VERTEX
  5
10134E2
  8
LOTS
 10
804807.83479578664992
 20
569502.1717570670880377
 30
0.0
  0
VERTEX
  5
10134E3
  8
LOTS
 10
804766.4825566640356556
 20
569480.931389291305095
 30
0.0
  0
VERTEX
  5
10134E4
  8
LOTS
 10
804757.6208306499756873
 20
569463.8230168897425756
 30
0.0
  0
VERTEX
  5
10134E5
  8
LOTS
 10
804817.2885446730069816
 20
569369.4270769640570506
 30
0.0
  0
VERTEX
  5
10134E6
  8
LOTS
 10
804889.3626751168631017
 20
569391.2561467295745388
 30
0.0
  0
VERTEX
  5
10134E7
  8
LOTS
 10
804807.83479578664992
 20
569502.1717570670880377
 30
0.0
  0
SEQEND
  5
10134E8
  8
LOTS
  0
POLYLINE
  5
D7
  8
LOTS
 66
     1
 10
0.0
 20
0.0
 30
20.6000000000000014
 70
     1
  0
VERTEX
  5
10134E9
  8
LOTS
 10
806843.8684753326233476
 20
573660.9329871545778587
 30
20.6000000000000014
  0
VERTEX
  5
10134EA
  8
LOTS
 10
806841.0461272994289175
 20
573673.8193274063523859
 30
20.6000000000000014
  0
VERTEX
  5
10134EB
  8
LOTS
 10
806828.1444967784918845
 20
573692.7450574783142656
 30
20.6000000000000014
  0
VERTEX
  5
10134EC
  8
LOTS
 10
806814.4348853570409119
 20
573703.2156418019440025
 30
20.6000000000000014
  0
VERTEX
  5
10134ED
  8
LOTS
 10
806795.5921496034134179
 20
573717.6066006361506879
 30
20.6000000000000014
  0
VERTEX
  5
10134EE
  8
LOTS
 10
806775.404153857845813
 20
573733.0249888952821493
 30
20.6000000000000014
  0
VERTEX
  5
10134EF
  8
LOTS
 10
806751.1256721555255353
 20
573738.6513460176065564
 30
20.6000000000000014
  0
VERTEX
  5
10134F0
  8
LOTS
 10
806728.9490166348405182
 20
573731.4026930523104966
 30
20.6000000000000014
  0
VERTEX
  5
10134F1
  8
LOTS
 10
806719.6777150485431775
 20
573716.5036845875438303
 30
20.6000000000000014
  0
VERTEX
  5
10134F2
  8
LOTS
 10
806718.4676054042065516
 20
573700.0
 30
20.6000000000000014
  0
VERTEX
  5
10134F3
  8
LOTS
 10
806716.9965011171298102
 20
573679.9368253526045009
 30
20.6000000000000014
  0
VERTEX
  5
10134F4
  8
LOTS
 10
806722.9021918246289715
 20
573662.947040548780933
 30
20.6000000000000014
  0
VERTEX
  5
10134F5
  8
LOTS
 10
806751.5315243132645264
 20
573652.4764562252676114
 30
20.6000000000000014
  0
VERTEX
  5
10134F6
  8
LOTS
 10
806780.5629855452571064
 20
573649.2559100482612848
 30
20.6000000000000014
  0
VERTEX
  5
10134F7
  8
LOTS
 10
806807.1742274878779426
 20
573642.0072570827323943
 30
20.6000000000000014
  0
VERTEX
  5
10134F8
  8
LOTS
 10
806834.5934503318276256
 20
573644.4230130107607692
 30
20.6000000000000014
  0
VERTEX
  5
10134F9
  8
LOTS
 10
806842.2562369444640353
 20
573652.4764562252676114
 30
20.6000000000000014
  0
SEQEND
  5
10134FA
  8
LOTS
  0
POLYLINE
  5
115
  8
LOTS
 66
     1
 10
0.0
 20
0.0
 30
2.0
 70
     1
  0
VERTEX
  5
10134FB
  8
LOTS
 10
808305.9266715769190341
 20
569343.39952312852256
 30
2.0
  0
VERTEX
  5
10134FC
  8
LOTS
 10
808312.2490290438290685
 20
569354.672127338941209
 30
2.0
  0
VERTEX
  5
10134FD
  8
LOTS
 10
808334.824089894653298
 20
569364.5927947453455999
 30
2.0
  0
VERTEX
  5
10134FE
  8
LOTS
 10
808367.379503411357291
 20
569370.4044919580919668
 30
2.0
  0
VERTEX
  5
10134FF
  8
LOTS
 10
808398.9375605821842328
 20
569353.3201905352761969
 30
2.0
  0
VERTEX
  5
1013500
  8
LOTS
 10
808403.0035289884544909
 20
569325.8146484112367034
 30
2.0
  0
VERTEX
  5
1013501
  8
LOTS
 10
808387.968382078805007
 20
569304.0271340804174542
 30
2.0
  0
VERTEX
  5
1013502
  8
LOTS
 10
808364.6225744705880061
 20
569296.5069856094196439
 30
2.0
  0
VERTEX
  5
1013503
  8
LOTS
 10
808340.2416576886316761
 20
569303.7210090460721403
 30
2.0
  0
VERTEX
  5
1013504
  8
LOTS
 10
808313.1538187165278941
 20
569317.6988720452645794
 30
2.0
  0
SEQEND
  5
1013505
  8
LOTS
  0
TEXT
  5
116
  8
TEXT_LOTS
 10
807315.2401065269950777
 20
567023.3298150268383324
 30
651.9099999999998545
 40
2.990400915391541
  1
CA-BR-LT-02
  0
TEXT
  5
117
  8
TEXT_LOTS
 10
807255.3378174038371071
 20
567090.3767382992664352
 30
651.9099999999998545
 40
2.990400915391541
  1
CA-BR-LT-01
  0
POLYLINE
  5
118
  8
LOTS
 66
     1
 10
0.0
 20
0.0
 30
1.6000000000000001
 70
     1
  0
VERTEX
  5
1013506
  8
LOTS
 10
807360.7409390090033412
 20
567076.9973518059123307
 30
1.6000000000000001
  0
VERTEX
  5
1013507
  8
LOTS
 10
807396.1096232861746103
 20
567049.8758904620772228
 30
1.6000000000000001
  0
VERTEX
  5
1013508
  8
LOTS
 10
807432.3950616846559569
 20
567031.9117210370022804
 30
1.6000000000000001
  0
VERTEX
  5
1013509
  8
LOTS
 10
807320.294227606151253
 20
566978.9271568139083683
 30
1.6000000000000001
  0
VERTEX
  5
101350A
  8
LOTS
 10
807267.0047222642460838
 20
567010.5702350370120257
 30
1.6000000000000001
  0
VERTEX
  5
101350B
  8
LOTS
 10
807243.9493409697897732
 20
567023.7820928592700511
 30
1.6000000000000001
  0
SEQEND
  5
101350C
  8
LOTS
  0
POLYLINE
  5
119
  8
LOTS
 66
     1
 10
0.0
 20
0.0
 30
2.3500000000000001
 70
     1
  0
VERTEX
  5
101350D
  8
LOTS
 10
807243.9493409697897732
 20
567023.7820928592700511
 30
2.3500000000000001
  0
VERTEX
  5
101350E
  8
LOTS
 10
807230.087268654955551
 20
567027.3148450360167772
 30
2.3500000000000001
  0
VERTEX
  5
101350F
  8
LOTS
 10
807213.4923765013227239
 20
567044.7031607259996235
 30
2.3500000000000001
  0
VERTEX
  5
1013510
  8
LOTS
 10
807193.3352550618583336
 20
567079.1547705584671348
 30
2.3500000000000001
  0
VERTEX
  5
1013511
  8
LOTS
 10
807217.5093760848976672
 20
567098.8866148896049708
 30
2.3500000000000001
  0
VERTEX
  5
1013512
  8
LOTS
 10
807270.9500534868566319
 20
567124.1291811963310465
 30
2.3500000000000001
  0
VERTEX
  5
1013513
  8
LOTS
 10
807310.2888777737971395
 20
567106.3189584383508191
 30
2.3500000000000001
  0
VERTEX
  5
1013514
  8
LOTS
 10
807323.7272155829705298
 20
567099.7495827466482297
 30
2.3500000000000001
  0
VERTEX
  5
1013515
  8
LOTS
 10
807337.1203367901034653
 20
567094.8862117242533714
 30
2.3500000000000001
  0
VERTEX
  5
1013516
  8
LOTS
 10
807360.7409390090033412
 20
567076.9973518059123307
 30
2.3500000000000001
  0
SEQEND
  5
1013517
  8
LOTS
  0
TEXT
  5
11A
  8
TEXT_LOTS
 10
807302.3137044989271089
 20
567667.3047560293925926
 30
651.9099999999998545
 40
2.990400915391541
  1
CA-CT3-LT-01
  0
POLYLINE
  5
11B
  8
LOTS
 66
     1
 10
0.0
 20
0.0
 30
0.0
 70
     1
  0
VERTEX
  5
1013518
  8
LOTS
 10
807318.1160302455537021
 20
567690.5390400972682983
 30
0.0
  0
VERTEX
  5
1013519
  8
LOTS
 10
807298.9329998143948615
 20
567681.1128823619801551
 30
0.0
  0
VERTEX
  5
101351A
  8
LOTS
 10
807316.2059187140548602
 20
567650.1249948234762996
 30
0.0
  0
VERTEX
  5
101351B
  8
LOTS
 10
807339.7043863083235919
 20
567662.259181709960103
 30
0.0
  0
SEQEND
  5
101351C
  8
LOTS
  0
TEXT
  5
11F
  8
TEXT_LOTS
 10
806768.9027350875549018
 20
573685.4670726918848231
 30
651.9099999999998545
 40
2.990400915391541
  1
CA-ER-LT-01
  0
TEXT
  5
120
  8
TEXT_LOTS
 10
802269.6592003451660275
 20
573603.7485468096565455
 30
651.9099999999998545
 40
2.990400915391541
  1
CA-TC-PS-04
  0
TEXT
  5
121
  8
TEXT_LOTS
 10
802306.4950015880167484
 20
573564.9675630963174626
 30
651.9099999999998545
 40
2.990400915391541
  1
CA-TC-PS-03
  0
TEXT
  5
122
  8
TEXT_LOTS
 10
802364.9936646148562431
 20
573518.6650327327661216
 30
651.9099999999998545
 40
2.990400915391541
  1
CA-TC-PS-02
  0
TEXT
  5
123
  8
TEXT_LOTS
 10
802404.6518187671899796
 20
573468.9881952536525205
 30
651.9099999999998545
 40
2.990400915391541
  1
CA-TC-PS-01
  0
POLYLINE
  5
124
  8
LOTS
 66
     1
 10
0.0
 20
0.0
 30
6.25
 70
     1
  0
VERTEX
  5
101351D
  8
LOTS
 10
802448.5631457818672061
 20
573522.601636819774285
 30
6.25
  0
VERTEX
  5
101351E
  8
LOTS
 10
802342.7417176828021184
 20
573491.0761655868263915
 30
6.25
  0
VERTEX
  5
101351F
  8
LOTS
 10
802359.9442759094526991
 20
573479.4623349367175251
 30
6.25
  0
VERTEX
  5
1013520
  8
LOTS
 10
802366.8698231395101175
 20
573462.2509161130292341
 30
6.25
  0
VERTEX
  5
1013521
  8
LOTS
 10
802378.4825463802553713
 20
573446.4505239489953965
 30
6.25
  0
VERTEX
  5
1013522
  8
LOTS
 10
802388.0640127134975046
 20
573430.0365443448536098
 30
6.25
  0
VERTEX
  5
1013523
  8
LOTS
 10
802402.1465858181472868
 20
573419.2500579246552661
 30
6.25
  0
VERTEX
  5
1013524
  8
LOTS
 10
802413.1291101443348452
 20
573437.0650945313973352
 30
6.25
  0
VERTEX
  5
1013525
  8
LOTS
 10
802426.9148581959307194
 20
573447.8892388192471117
 30
6.25
  0
VERTEX
  5
1013526
  8
LOTS
 10
802445.2493385629495606
 20
573460.3569954908452928
 30
6.25
  0
VERTEX
  5
1013527
  8
LOTS
 10
802455.3591085942462087
 20
573480.6219456183025613
 30
6.25
  0
VERTEX
  5
1013528
  8
LOTS
 10
802452.8615701891249046
 20
573501.3343486397061497
 30
6.25
  0
SEQEND
  5
1013529
  8
LOTS
  0
POLYLINE
  5
125
  8
LOTS
 66
     1
 10
0.0
 20
0.0
 30
14.4000000000000004
 70
     1
  0
VERTEX
  5
101352A
  8
LOTS
 10
802401.9793448528507724
 20
573585.0234861306380481
 30
14.4000000000000004
  0
VERTEX
  5
101352B
  8
LOTS
 10
802418.9216274943901226
 20
573573.2800710625015199
 30
14.4000000000000004
  0
VERTEX
  5
101352C
  8
LOTS
 10
802425.8936918693361804
 20
573554.7041440441971645
 30
14.4000000000000004
  0
VERTEX
  5
101352D
  8
LOTS
 10
802440.376092653721571
 20
573539.7111594364978373
 30
14.4000000000000004
  0
VERTEX
  5
101352E
  8
LOTS
 10
802448.5631457818672061
 20
573522.601636819774285
 30
14.4000000000000004
  0
VERTEX
  5
101352F
  8
LOTS
 10
802342.7417176828021184
 20
573491.0761655868263915
 30
14.4000000000000004
  0
VERTEX
  5
1013530
  8
LOTS
 10
802322.401453800033778
 20
573495.2815547145437449
 30
14.4000000000000004
  0
VERTEX
  5
1013531
  8
LOTS
 10
802301.0123343896120787
 20
573502.0575825036503375
 30
14.4000000000000004
  0
SEQEND
  5
1013532
  8
LOTS
  0
POLYLINE
  5
126
  8
LOTS
 66
     1
 10
0.0
 20
0.0
 30
30.3999999999999986
 70
     1
  0
VERTEX
  5
1013533
  8
LOTS
 10
802366.3215827683452517
 20
573651.3350728921359405
 30
30.3999999999999986
  0
VERTEX
  5
1013534
  8
LOTS
 10
802374.3701915418496355
 20
573639.2671442303108051
 30
30.3999999999999986
  0
VERTEX
  5
1013535
  8
LOTS
 10
802386.3085364466533065
 20
573622.9096514279954135
 30
30.3999999999999986
  0
VERTEX
  5
1013536
  8
LOTS
 10
802395.1933497170684859
 20
573603.6182420828845352
 30
30.3999999999999986
  0
VERTEX
  5
1013537
  8
LOTS
 10
802401.9793448528507724
 20
573585.0234861306380481
 30
30.3999999999999986
  0
VERTEX
  5
1013538
  8
LOTS
 10
802301.0123343896120787
 20
573502.0575825036503375
 30
30.3999999999999986
  0
VERTEX
  5
1013539
  8
LOTS
 10
802301.0123343896120787
 20
573502.0575825036503375
 30
30.3999999999999986
  0
VERTEX
  5
101353A
  8
LOTS
 10
802290.3089142523240298
 20
573520.6623054724186659
 30
30.3999999999999986
  0
VERTEX
  5
101353B
  8
LOTS
 10
802268.1400754962814972
 20
573521.8595740216551349
 30
30.3999999999999986
  0
VERTEX
  5
101353C
  8
LOTS
 10
802249.400428538909182
 20
573531.5583795201964676
 30
30.3999999999999986
  0
SEQEND
  5
101353D
  8
LOTS
  0
POLYLINE
  5
127
  8
LOTS
 66
     1
 10
0.0
 20
0.0
 30
9.0
 70
     1
  0
VERTEX
  5
101353E
  8
LOTS
 10
802249.4004285363480449
 20
573531.5583795215934515
 30
9.0
  0
VERTEX
  5
101353F
  8
LOTS
 10
802366.3215827683452517
 20
573651.3350728921359405
 30
9.0
  0
VERTEX
  5
1013540
  8
LOTS
 10
802366.3215827683452517
 20
573651.3350728921359405
 30
9.0
  0
VERTEX
  5
1013541
  8
LOTS
 10
802348.3027560580521822
 20
573651.2708345530554652
 30
9.0
  0
VERTEX
  5
1013542
  8
LOTS
 10
802333.2732223122147843
 20
573662.7816638970980421
 30
9.0
  0
VERTEX
  5
1013543
  8
LOTS
 10
802315.8380777018610388
 20
573669.224316174746491
 30
9.0
  0
VERTEX
  5
1013544
  8
LOTS
 10
802299.8427553713554516
 20
573656.3024614913156256
 30
9.0
  0
VERTEX
  5
1013545
  8
LOTS
 10
802285.0458086698781699
 20
573663.2180407148553059
 30
9.0
  0
VERTEX
  5
1013546
  8
LOTS
 10
802265.3368514409521595
 20
573661.3617766405222937
 30
9.0
  0
VERTEX
  5
1013547
  8
LOTS
 10
802252.683025200269185
 20
573644.9666272904723883
 30
9.0
  0
VERTEX
  5
1013548
  8
LOTS
 10
802244.4948646619450301
 20
573626.1215630996739492
 30
9.0
  0
VERTEX
  5
1013549
  8
LOTS
 10
802226.7640024081338197
 20
573614.9352486699353904
 30
9.0
  0
VERTEX
  5
101354A
  8
LOTS
 10
802215.3550689407857135
 20
573599.4781990337651223
 30
9.0
  0
VERTEX
  5
101354B
  8
LOTS
 10
802222.4467493966221809
 20
573562.7250639470294118
 30
9.0
  0
VERTEX
  5
101354C
  8
LOTS
 10
802230.1520156422629952
 20
573541.901905441773124
 30
9.0
  0
SEQEND
  5
101354D
  8
LOTS
  0
TEXT
  5
36A
  8
TEXT_LOTS
 10
810020.5765617721481249
 20
568903.4975941062439233
 30
651.9099999999998545
 40
2.990400915391541
  1
CA-TL-LT-10
  0
TEXT
  5
36B
  8
TEXT_LOTS
 10
809958.0854637419106439
 20
568970.0753433322533965
 30
651.9099999999998545
 40
2.990400915391541
  1
CA-TL-LT-09
  0
TEXT
  5
36C
  8
TEXT_LOTS
 10
809831.1007344473619014
 20
568961.8788568143500015
 30
651.9099999999998545
 40
2.990400915391541
  1
CA-TL-LT-08
  0
TEXT
  5
36D
  8
TEXT_LOTS
 10
809871.639853366650641
 20
568887.6788397768978029
 30
651.9099999999998545
 40
2.990400915391541
  1
CA-TL-LT-07
  0
TEXT
  5
36E
  8
TEXT_LOTS
 10
809912.5468005628790706
 20
568836.9851178327808157
 30
651.9099999999998545
 40
2.990400915391541
  1
CA-TL-LT-06
  0
TEXT
  5
36F
  8
TEXT_LOTS
 10
810398.0632098733913153
 20
568840.3318913195980713
 30
651.9099999999998545
 40
2.990400915391541
  1
CA-TL-LT-05
  0
TEXT
  5
370
  8
TEXT_LOTS
 10
810410.8885277644731104
 20
568916.4001368513563648
 30
651.9099999999998545
 40
2.990400915391541
  1
CA-TL-LT-04
  0
TEXT
  5
371
  8
TEXT_LOTS
 10
810477.4893069699173793
 20
568901.9387386506423354
 30
651.9099999999998545
 40
2.990400915391541
  1
CA-TL-LT-03
  0
TEXT
  5
372
  8
TEXT_LOTS
 10
810548.4590634354390204
 20
568867.09206849464681
 30
651.9099999999998545
 40
2.990400915391541
  1
CA-TL-LT-02
  0
TEXT
  5
373
  8
TEXT_LOTS
 10
810661.3401573166484013
 20
568803.74778699176386
 30
651.9099999999998545
 40
2.990400915391541
  1
CA-TL-LT-01
  0
POLYLINE
  5
374
  8
LOTS
 66
     1
 10
0.0
 20
0.0
 30
53.1000000000000014
 70
     1
  0
VERTEX
  5
101354E
  8
LOTS
 10
810376.9246506706112996
 20
568903.0169767009792849
 30
53.1000000000000014
  0
VERTEX
  5
101354F
  8
LOTS
 10
810415.3662251431960613
 20
568959.3502755824010819
 30
53.1000000000000014
  0
VERTEX
  5
1013550
  8
LOTS
 10
810513.6258227387443185
 20
568955.343282365007326
 30
53.1000000000000014
  0
VERTEX
  5
1013551
  8
LOTS
 10
810433.9324150655884296
 20
568879.6033634355990216
 30
53.1000000000000014
  0
SEQEND
  5
1013552
  8
LOTS
  0
POLYLINE
  5
375
  8
LOTS
 66
     1
 10
0.0
 20
0.0
 30
12.0
 70
     1
  0
VERTEX
  5
1013553
  8
LOTS
 10
810513.6258227387443185
 20
568955.343282365007326
 30
12.0
  0
VERTEX
  5
1013554
  8
LOTS
 10
810433.9324150655884296
 20
568879.6033634355990216
 30
12.0
  0
VERTEX
  5
1013555
  8
LOTS
 10
810490.2984941096510738
 20
568856.4532962470548227
 30
12.0
  0
VERTEX
  5
1013556
  8
LOTS
 10
810527.6680492947343737
 20
568906.2788895167177543
 30
12.0
  0
VERTEX
  5
1013557
  8
LOTS
 10
810550.6877565479371697
 20
568933.2845353403827175
 30
12.0
  0
SEQEND
  5
1013558
  8
LOTS
  0
POLYLINE
  5
376
  8
LOTS
 66
     1
 10
0.0
 20
0.0
 30
92.2999999999999972
 70
     1
  0
VERTEX
  5
1013559
  8
LOTS
 10
810450.5904908096417785
 20
568787.8834798811003566
 30
92.2999999999999972
  0
VERTEX
  5
101355A
  8
LOTS
 10
810490.2984941096510738
 20
568856.4532962470548227
 30
92.2999999999999972
  0
VERTEX
  5
101355B
  8
LOTS
 10
810376.9246506706112996
 20
568903.0169767009792849
 30
92.2999999999999972
  0
VERTEX
  5
101355C
  8
LOTS
 10
810337.2572388099506497
 20
568844.8873033245326951
 30
92.2999999999999972
  0
SEQEND
  5
101355D
  8
LOTS
  0
POLYLINE
  5
377
  8
LOTS
 66
     1
 10
0.0
 20
0.0
 30
18.75
 70
     1
  0
VERTEX
  5
101355E
  8
LOTS
 10
810626.7947480337461457
 20
568876.2807118970667943
 30
18.75
  0
VERTEX
  5
101355F
  8
LOTS
 10
810527.6680492947343737
 20
568906.2788895167177543
 30
18.75
  0
VERTEX
  5
1013560
  8
LOTS
 10
810490.2984941096510738
 20
568856.4532962470548227
 30
18.75
  0
VERTEX
  5
1013561
  8
LOTS
 10
810564.7510002973722294
 20
568846.5395856620743871
 30
18.75
  0
VERTEX
  5
1013562
  8
LOTS
 10
810621.8312476213322952
 20
568831.6690225445199758
 30
18.75
  0
SEQEND
  5
1013563
  8
LOTS
  0
POLYLINE
  5
378
  8
LOTS
 66
     1
 10
0.0
 20
0.0
 30
1.25
 70
     1
  0
VERTEX
  5
1013564
  8
LOTS
 10
810683.8750101970508695
 20
568760.62078267254401
 30
1.25
  0
VERTEX
  5
1013565
  8
LOTS
 10
810769.9090173476142809
 20
568783.7527685174718499
 30
1.25
  0
VERTEX
  5
1013566
  8
LOTS
 10
810673.1207518837181851
 20
568840.7565919609041885
 30
1.25
  0
VERTEX
  5
1013567
  8
LOTS
 10
810626.7947480337461457
 20
568876.2807118970667943
 30
1.25
  0
VERTEX
  5
1013568
  8
LOTS
 10
810621.8312476213322952
 20
568831.6690225445199758
 30
1.25
  0
SEQEND
  5
1013569
  8
LOTS
  0
POLYLINE
  5
379
  8
LOTS
 66
     1
 10
0.0
 20
0.0
 30
0.0
 70
     1
  0
VERTEX
  5
101356A
  8
LOTS
 10
809827.7469067466445267
 20
568841.8364810653729364
 30
0.0
  0
VERTEX
  5
101356B
  8
LOTS
 10
809803.6600463010836393
 20
568898.3083516840124503
 30
0.0
  0
VERTEX
  5
101356C
  8
LOTS
 10
809940.5299089760519564
 20
568944.8222263302886859
 30
0.0
  0
VERTEX
  5
101356D
  8
LOTS
 10
809979.7338813395472243
 20
568883.4303801247151569
 30
0.0
  0
SEQEND
  5
101356E
  8
LOTS
  0
POLYLINE
  5
37A
  8
LOTS
 66
     1
 10
0.0
 20
0.0
 30
0.0
 70
     1
  0
VERTEX
  5
101356F
  8
LOTS
 10
809898.3751425362424925
 20
569010.8348975492408499
 30
0.0
  0
VERTEX
  5
1013570
  8
LOTS
 10
809774.7660368845099583
 20
568960.2779520264593884
 30
0.0
  0
VERTEX
  5
1013571
  8
LOTS
 10
809803.3999463956570253
 20
568898.2199592931428924
 30
0.0
  0
VERTEX
  5
1013572
  8
LOTS
 10
809940.5299089760519564
 20
568944.8222263302886859
 30
0.0
  0
VERTEX
  5
1013573
  8
LOTS
 10
809898.3751425362424925
 20
569010.8348975492408499
 30
0.0
  0
SEQEND
  5
1013574
  8
LOTS
  0
POLYLINE
  5
37B
  8
LOTS
 66
     1
 10
0.0
 20
0.0
 30
0.0
 70
     1
  0
VERTEX
  5
1013575
  8
LOTS
 10
809898.3751425362424925
 20
569010.8348975492408499
 30
0.0
  0
VERTEX
  5
1013576
  8
LOTS
 10
809934.709975732723251
 20
569025.6960857507074252
 30
0.0
  0
VERTEX
  5
1013577
  8
LOTS
 10
810034.9722896034363657
 20
568982.467026045313105
 30
0.0
  0
VERTEX
  5
1013578
  8
LOTS
 10
809979.7338813395472243
 20
568883.4303801247151569
 30
0.0
  0
SEQEND
  5
1013579
  8
LOTS
  0
POLYLINE
  5
37C
  8
LOTS
 66
     1
 10
0.0
 20
0.0
 30
0.0
 70
     1
  0
VERTEX
  5
101357A
  8
LOTS
 10
809979.7338813395472243
 20
568883.4303801247151569
 30
0.0
  0
VERTEX
  5
101357B
  8
LOTS
 10
809827.7469067466445267
 20
568841.8364810653729364
 30
0.0
  0
VERTEX
  5
101357C
  8
LOTS
 10
809852.6292449138127267
 20
568783.4996054547373205
 30
0.0
  0
VERTEX
  5
101357D
  8
LOTS
 10
810016.5190483746118844
 20
568836.0644597889622673
 30
0.0
  0
SEQEND
  5
101357E
  8
LOTS
  0
POLYLINE
  5
37D
  8
LOTS
 66
     1
 10
0.0
 20
0.0
 30
17.0100000000000016
 70
     1
  0
VERTEX
  5
101357F
  8
LOTS
 10
810034.9722896034363657
 20
568982.467026045313105
 30
17.0100000000000016
  0
VERTEX
  5
1013580
  8
LOTS
 10
810094.2751090270467103
 20
568924.4708764164242893
 30
17.0100000000000016
  0
VERTEX
  5
1013581
  8
LOTS
 10
810016.5190483746118844
 20
568836.0644597889622673
 30
17.0100000000000016
  0
VERTEX
  5
1013582
  8
LOTS
 10
809979.7338813395472243
 20
568883.4303801247151569
 30
17.0100000000000016
  0
VERTEX
  5
1013583
  8
LOTS
 10
810034.9722896034363657
 20
568982.467026045313105
 30
17.0100000000000016
  0
SEQEND
  5
1013584
  8
LOTS
  0
TEXT
  5
37E
  8
TEXT_LOTS
 10
812401.5273607516428456
 20
560675.4593192817410454
 30
651.9099999999998545
 40
2.990400915391541
  1
CA-SJ-LT-08
  0
POLYLINE
  5
37F
  8
LOTS
 66
     1
 10
0.0
 20
0.0
 30
0.0
 70
     1
  0
VERTEX
  5
1013585
  8
LOTS
 10
812407.8969744975911453
 20
560602.9098269357345998
 30
0.0
  0
VERTEX
  5
1013586
  8
LOTS
 10
812364.4562704365234822
 20
560653.9476122396299616
 30
0.0
  0
VERTEX
  5
1013587
  8
LOTS
 10
812411.0909789997385815
 20
560712.6411980809643865
 30
0.0
  0
VERTEX
  5
1013588
  8
LOTS
 10
812431.2620476719457656
 20
560682.4291728945681825
 30
0.0
  0
SEQEND
  5
1013589
  8
LOTS
  0
TEXT
  5
380
  8
TEXT_LOTS
 10
812493.4082575666252524
 20
561077.6808799238642678
 30
651.9099999999998545
 40
2.990400915391541
  1
CA-SJ-LT-07
  0
POLYLINE
  5
381
  8
LOTS
 66
     1
 10
0.0
 20
0.0
 30
2.799999999999998
 70
     1
  0
VERTEX
  5
101358A
  8
LOTS
 10
812476.9753501863451675
 20
561143.6488114725798368
 30
2.799999999999998
  0
VERTEX
  5
101358B
  8
LOTS
 10
812557.1813892404315993
 20
561068.8313297460554168
 30
2.799999999999998
  0
VERTEX
  5
101358C
  8
LOTS
 10
812446.8330940873129293
 20
561029.8994365924736485
 30
2.799999999999998
  0
VERTEX
  5
101358D
  8
LOTS
 10
812421.4477909153793007
 20
561059.3303290037438273
 30
2.799999999999998
  0
SEQEND
  5
101358E
  8
LOTS
  0
POLYLINE
  5
382
  8
LOTS
 66
     1
 10
0.0
 20
0.0
 30
2.799999999999998
 70
     1
  0
VERTEX
  5
101358F
  8
LOTS
 10
812557.1813892404315993
 20
561068.8313297460554168
 30
2.799999999999998
  0
VERTEX
  5
1013590
  8
LOTS
 10
812446.8330940873129293
 20
561029.8994365924736485
 30
2.799999999999998
  0
VERTEX
  5
1013591
  8
LOTS
 10
812487.6237309782300144
 20
560982.6081027999753132
 30
2.799999999999998
  0
VERTEX
  5
1013592
  8
LOTS
 10
812615.4124562512151897
 20
561014.5124549659667537
 30
2.799999999999998
  0
SEQEND
  5
1013593
  8
LOTS
  0
TEXT
  5
383
  8
TEXT_LOTS
 10
812520.5394550785422325
 20
561035.7545060989214107
 30
651.9099999999998545
 40
2.990400915391541
  1
CA-SJ-LT-06
  0
TEXT
  5
384
  8
TEXT_LOTS
 10
812570.441653739544563
 20
560913.2782006977358833
 30
651.9099999999998545
 40
2.990400915391541
  1
CA-SJ-LT-05
  0
TEXT
  5
385
  8
TEXT_LOTS
 10
812513.0504167540930212
 20
560847.2999177840538323
 30
651.9099999999998545
 40
2.990400915391541
  1
CA-SJ-LT-04
  0
TEXT
  5
386
  8
TEXT_LOTS
 10
812510.3291401356691495
 20
560884.8507570754736662
 30
651.9099999999998545
 40
2.990400915391541
  1
CA-SJ-LT-03
  0
TEXT
  5
387
  8
TEXT_LOTS
 10
812424.4420237536542118
 20
560904.3270225217565894
 30
651.9099999999998545
 40
2.990400915391541
  1
CA-SJ-LT-02
  0
TEXT
  5
388
  8
TEXT_LOTS
 10
812455.9467544006183743
 20
560816.2303232217673212
 30
651.9099999999998545
 40
2.990400915391541
  1
CA-SJ-LT-01
  0
POLYLINE
  5
389
  8
LOTS
 66
     1
 10
0.0
 20
0.0
 30
22.5
 70
     1
  0
VERTEX
  5
1013594
  8
LOTS
 10
812437.1782375995535403
 20
560860.9436043332098052
 30
22.5
  0
VERTEX
  5
1013595
  8
LOTS
 10
812408.8246936477953568
 20
560925.1664637323701754
 30
22.5
  0
VERTEX
  5
1013596
  8
LOTS
 10
812452.002374037518166
 20
560941.915850393474102
 30
22.5
  0
VERTEX
  5
1013597
  8
LOTS
 10
812467.362752533168532
 20
560889.7061427840963006
 30
22.5
  0
SEQEND
  5
1013598
  8
LOTS
  0
POLYLINE
  5
38A
  8
LOTS
 66
     1
 10
0.0
 20
0.0
 30
55.2000000000000028
 70
     1
  0
VERTEX
  5
1013599
  8
LOTS
 10
812467.362752533168532
 20
560889.7061427840963006
 30
55.2000000000000028
  0
VERTEX
  5
101359A
  8
LOTS
 10
812478.6788872184697539
 20
560833.9067119960673153
 30
55.2000000000000028
  0
VERTEX
  5
101359B
  8
LOTS
 10
812497.6372059617424384
 20
560800.6468727984465659
 30
55.2000000000000028
  0
VERTEX
  5
101359C
  8
LOTS
 10
812482.4652047157287598
 20
560775.2844275761162862
 30
55.2000000000000028
  0
VERTEX
  5
101359D
  8
LOTS
 10
812450.7463850344065577
 20
560777.4799804006470367
 30
55.2000000000000028
  0
VERTEX
  5
101359E
  8
LOTS
 10
812444.6193422896321863
 20
560817.2791303527774289
 30
55.2000000000000028
  0
VERTEX
  5
101359F
  8
LOTS
 10
812437.1782375995535403
 20
560860.9436043332098052
 30
55.2000000000000028
  0
SEQEND
  5
10135A0
  8
LOTS
  0
POLYLINE
  5
38B
  8
LOTS
 66
     1
 10
0.0
 20
0.0
 30
41.0
 70
     1
  0
VERTEX
  5
10135A1
  8
LOTS
 10
812478.6788872184697539
 20
560833.9067119960673153
 30
41.0
  0
VERTEX
  5
10135A2
  8
LOTS
 10
812472.5924320291960612
 20
560864.246199339046143
 30
41.0
  0
VERTEX
  5
10135A3
  8
LOTS
 10
812554.6774360818089917
 20
560926.2234693847130984
 30
41.0
  0
VERTEX
  5
10135A4
  8
LOTS
 10
812562.2426052301889285
 20
560898.6697127521038055
 30
41.0
  0
SEQEND
  5
10135A5
  8
LOTS
  0
POLYLINE
  5
38C
  8
LOTS
 66
     1
 10
0.0
 20
0.0
 30
16.6999999999999993
 70
     1
  0
VERTEX
  5
10135A6
  8
LOTS
 10
812574.3832848652964458
 20
560854.4510937797604129
 30
16.6999999999999993
  0
VERTEX
  5
10135A7
  8
LOTS
 10
812497.6372059617424384
 20
560800.6468727984465659
 30
16.6999999999999993
  0
VERTEX
  5
10135A8
  8
LOTS
 10
812478.6788872184697539
 20
560833.9067119960673153
 30
16.6999999999999993
  0
VERTEX
  5
10135A9
  8
LOTS
 10
812562.2426052301889285
 20
560898.6697127521038055
 30
16.6999999999999993
  0
SEQEND
  5
10135AA
  8
LOTS
  0
POLYLINE
  5
38D
  8
LOTS
 66
     1
 10
0.0
 20
0.0
 30
2.0
 70
     1
  0
VERTEX
  5
10135AB
  8
LOTS
 10
812619.9929222811479121
 20
560927.0018771907780319
 30
2.0
  0
VERTEX
  5
10135AC
  8
LOTS
 10
812606.17274503945373
 20
560795.4625671044923365
 30
2.0
  0
VERTEX
  5
10135AD
  8
LOTS
 10
812592.9565554662840441
 20
560786.8037790935486555
 30
2.0
  0
VERTEX
  5
10135AE
  8
LOTS
 10
812554.6774360818089917
 20
560926.2234693847130984
 30
2.0
  0
SEQEND
  5
10135AF
  8
LOTS
  0
TEXT
  5
38E
  8
TEXT_LOTS
 10
802555.6682822129223496
 20
572307.2617597002536058
 30
651.9099999999998545
 40
2.990400915391541
  1
CA-COR-LT-10
  0
TEXT
  5
38F
  8
TEXT_LOTS
 10
802540.5462723617674783
 20
572244.0237008032854646
 30
651.9099999999998545
 40
2.990400915391541
  1
CA-COR-LT-09
  0
TEXT
  5
390
  8
TEXT_LOTS
 10
802623.71641546767205
 20
572278.9461780060082674
 30
651.9099999999998545
 40
2.990400915391541
  1
CA-COR-LT-08
  0
TEXT
  5
391
  8
TEXT_LOTS
 10
802794.7824436413357034
 20
572284.6093282925430685
 30
651.9099999999998545
 40
2.990400915391541
  1
CA-COR-LT-06
  0
TEXT
  5
392
  8
TEXT_LOTS
 10
802712.5575400354573503
 20
572287.4409034358104691
 30
651.9099999999998545
 40
2.990400915391541
  1
CA-COR-LT-07
  0
TEXT
  5
393
  8
TEXT_LOTS
 10
802695.5455067218281329
 20
572229.8658250870648772
 30
651.9099999999998545
 40
2.990400915391541
  1
CA-COR-LT-05
  0
TEXT
  5
394
  8
TEXT_LOTS
 10
802617.1006500417133793
 20
572200.6064981709932908
 30
651.9099999999998545
 40
2.990400915391541
  1
CA-COR-LT-04
  0
TEXT
  5
395
  8
TEXT_LOTS
 10
802524.4794785481644794
 20
572173.2348314374685287
 30
651.9099999999998545
 40
2.990400915391541
  1
CA-COR-LT-03
  0
TEXT
  5
396
  8
TEXT_LOTS
 10
802659.6309610947500914
 20
572132.6492039482109249
 30
651.9099999999998545
 40
2.990400915391541
  1
CA-COR-LT-02
  0
TEXT
  5
397
  8
TEXT_LOTS
 10
802668.137205519946292
 20
572054.3093543746508658
 30
651.9099999999998545
 40
2.990400915391541
  1
CA-COR-LT-01
  0
POLYLINE
  5
398
  8
LOTS
 66
     1
 10
0.0
 20
0.0
 30
1.149999999999999
 70
     1
  0
VERTEX
  5
10135B0
  8
LOTS
 10
802774.6565798048395663
 20
572309.7413411807501689
 30
1.149999999999999
  0
VERTEX
  5
10135B1
  8
LOTS
 10
802821.7609389632707462
 20
572329.5199325960129499
 30
1.149999999999999
  0
VERTEX
  5
10135B2
  8
LOTS
 10
802862.9765699212439358
 20
572286.2208678547758609
 30
1.149999999999999
  0
VERTEX
  5
10135B3
  8
LOTS
 10
802785.2359736105427146
 20
572230.971374629996717
 30
1.149999999999999
  0
VERTEX
  5
10135B4
  8
LOTS
 10
802758.4197375285439193
 20
572243.3232321167597547
 30
1.149999999999999
  0
SEQEND
  5
10135B5
  8
LOTS
  0
POLYLINE
  5
399
  8
LOTS
 66
     1
 10
0.0
 20
0.0
 30
2.5
 70
     1
  0
VERTEX
  5
10135B6
  8
LOTS
 10
802681.9652555962093174
 20
572278.5390193798812106
 30
2.5
  0
VERTEX
  5
10135B7
  8
LOTS
 10
802699.1836472200229764
 20
572327.9162446716800332
 30
2.5
  0
VERTEX
  5
10135B8
  8
LOTS
 10
802774.6565798048395663
 20
572309.7413411807501689
 30
2.5
  0
VERTEX
  5
10135B9
  8
LOTS
 10
802758.4197375285439193
 20
572243.3232321167597547
 30
2.5
  0
SEQEND
  5
10135BA
  8
LOTS
  0
POLYLINE
  5
39A
  8
LOTS
 66
     1
 10
0.0
 20
0.0
 30
41.0
 70
     1
  0
VERTEX
  5
10135BB
  8
LOTS
 10
802735.1979554740246385
 20
572172.7801460733171552
 30
41.0
  0
VERTEX
  5
10135BC
  8
LOTS
 10
802785.2359736105427146
 20
572230.971374629996717
 30
41.0
  0
VERTEX
  5
10135BD
  8
LOTS
 10
802681.9652555962093174
 20
572278.5390193798812106
 30
41.0
  0
VERTEX
  5
10135BE
  8
LOTS
 10
802649.0171676189638674
 20
572239.4985200844239444
 30
41.0
  0
SEQEND
  5
10135BF
  8
LOTS
  0
POLYLINE
  5
39B
  8
LOTS
 66
     1
 10
0.0
 20
0.0
 30
18.3000000000000007
 70
     1
  0
VERTEX
  5
10135C0
  8
LOTS
 10
802597.8462286937283352
 20
572284.7757155486615375
 30
18.3000000000000007
  0
VERTEX
  5
10135C1
  8
LOTS
 10
802609.0811360195511952
 20
572316.9861805788241327
 30
18.3000000000000007
  0
VERTEX
  5
10135C2
  8
LOTS
 10
802653.5556838301708922
 20
572290.0313240584218875
 30
18.3000000000000007
  0
VERTEX
  5
10135C3
  8
LOTS
 10
802681.9652555962093174
 20
572278.5390193798812106
 30
18.3000000000000007
  0
VERTEX
  5
10135C4
  8
LOTS
 10
802649.0171676189638674
 20
572239.4985200844239444
 30
18.3000000000000007
  0
SEQEND
  5
10135C5
  8
LOTS
  0
POLYLINE
  5
39C
  8
LOTS
 66
     1
 10
0.0
 20
0.0
 30
0.0
 70
     1
  0
VERTEX
  5
10135C6
  8
LOTS
 10
802597.8462286937283352
 20
572284.7757155486615375
 30
0.0
  0
VERTEX
  5
10135C7
  8
LOTS
 10
802609.0811360195511952
 20
572316.9861805788241327
 30
0.0
  0
VERTEX
  5
10135C8
  8
LOTS
 10
802570.3814408902544528
 20
572351.3280854541808367
 30
0.0
  0
VERTEX
  5
10135C9
  8
LOTS
 10
802515.4673535459442064
 20
572270.8929856966715306
 30
0.0
  0
SEQEND
  5
10135CA
  8
LOTS
  0
POLYLINE
  5
39D
  8
LOTS
 66
     1
 10
0.0
 20
0.0
 30
17.1999999999999993
 70
     1
  0
VERTEX
  5
10135CB
  8
LOTS
 10
802484.3468804473523051
 20
572200.4162651551887393
 30
17.1999999999999993
  0
VERTEX
  5
10135CC
  8
LOTS
 10
802484.575104538584128
 20
572244.1556311745662242
 30
17.1999999999999993
  0
VERTEX
  5
10135CD
  8
LOTS
 10
802515.4673535459442064
 20
572270.8929856966715306
 30
17.1999999999999993
  0
VERTEX
  5
10135CE
  8
LOTS
 10
802597.8462286937283352
 20
572284.7757155486615375
 30
17.1999999999999993
  0
VERTEX
  5
10135CF
  8
LOTS
 10
802649.0171676189638674
 20
572239.4985200844239444
 30
17.1999999999999993
  0
VERTEX
  5
10135D0
  8
LOTS
 10
802552.9594241793965921
 20
572215.6431529952678829
 30
17.1999999999999993
  0
SEQEND
  5
10135D1
  8
LOTS
  0
POLYLINE
  5
39E
  8
LOTS
 66
     1
 10
0.0
 20
0.0
 30
40.9500000000000028
 70
     1
  0
VERTEX
  5
10135D2
  8
LOTS
 10
802735.1979554740246385
 20
572172.7801460733171552
 30
40.9500000000000028
  0
VERTEX
  5
10135D3
  8
LOTS
 10
802649.0171676189638674
 20
572239.4985200844239444
 30
40.9500000000000028
  0
VERTEX
  5
10135D4
  8
LOTS
 10
802552.9594241793965921
 20
572215.6431529952678829
 30
40.9500000000000028
  0
VERTEX
  5
10135D5
  8
LOTS
 10
802610.2746476226020604
 20
572169.2730122999055311
 30
40.9500000000000028
  0
SEQEND
  5
10135D6
  8
LOTS
  0
POLYLINE
  5
39F
  8
LOTS
 66
     1
 10
0.0
 20
0.0
 30
5.599999999999997
 70
     1
  0
VERTEX
  5
10135D7
  8
LOTS
 10
802610.2746476226020604
 20
572169.2730122999055311
 30
5.599999999999997
  0
VERTEX
  5
10135D8
  8
LOTS
 10
802547.3686172477900982
 20
572130.3728866194142029
 30
5.599999999999997
  0
VERTEX
  5
10135D9
  8
LOTS
 10
802495.0201148972846568
 20
572160.3189748969161883
 30
5.599999999999997
  0
VERTEX
  5
10135DA
  8
LOTS
 10
802484.3468804473523051
 20
572200.4162651551887393
 30
5.599999999999997
  0
VERTEX
  5
10135DB
  8
LOTS
 10
802552.9594241793965921
 20
572215.6431529952678829
 30
5.599999999999997
  0
SEQEND
  5
10135DC
  8
LOTS
  0
POLYLINE
  5
3A0
  8
LOTS
 66
     1
 10
0.0
 20
0.0
 30
37.2000000000000099
 70
     1
  0
VERTEX
  5
10135DD
  8
LOTS
 10
802623.4109712182544172
 20
572082.0337810718920082
 30
37.2000000000000099
  0
VERTEX
  5
10135DE
  8
LOTS
 10
802610.2746476226020604
 20
572169.2730122999055311
 30
37.2000000000000099
  0
VERTEX
  5
10135DF
  8
LOTS
 10
802735.1979554740246385
 20
572172.7801460733171552
 30
37.2000000000000099
  0
VERTEX
  5
10135E0
  8
LOTS
 10
802739.3018892836989835
 20
572104.3862848163116723
 30
37.2000000000000099
  0
SEQEND
  5
10135E1
  8
LOTS
  0
POLYLINE
  5
3A1
  8
LOTS
 66
     1
 10
0.0
 20
0.0
 30
15.5999999999999996
 70
     1
  0
VERTEX
  5
10135E2
  8
LOTS
 10
802638.2510035991435871
 20
571987.4204369963845238
 30
15.5999999999999996
  0
VERTEX
  5
10135E3
  8
LOTS
 10
802623.4109712182544172
 20
572082.0337810718920082
 30
15.5999999999999996
  0
VERTEX
  5
10135E4
  8
LOTS
 10
802739.3018892836989835
 20
572104.3862848163116723
 30
15.5999999999999996
  0
VERTEX
  5
10135E5
  8
LOTS
 10
802744.7728899557841942
 20
572021.9307894870871678
 30
15.5999999999999996
  0
SEQEND
  5
10135E6
  8
LOTS
  0
POLYLINE
  5
3A2
  8
LOTS
 66
     1
 10
0.0
 20
0.0
 30
2.549999999999998
 70
     1
  0
VERTEX
  5
10135E7
  8
LOTS
 10
803292.8564510970609263
 20
575110.7176315173273906
 30
2.549999999999998
  0
VERTEX
  5
10135E8
  8
LOTS
 10
803317.9149659804534167
 20
575093.7256742338649929
 30
2.549999999999998
  0
VERTEX
  5
10135E9
  8
LOTS
 10
803361.4291626419872046
 20
575045.8114732489921153
 30
2.549999999999998
  0
VERTEX
  5
10135EA
  8
LOTS
 10
803329.647543182130903
 20
575006.4999878340167925
 30
2.549999999999998
  0
VERTEX
  5
10135EB
  8
LOTS
 10
803284.7153715183958411
 20
575000.2387057492742315
 30
2.549999999999998
  0
VERTEX
  5
10135EC
  8
LOTS
 10
803265.6164652452571318
 20
575065.5877190788742155
 30
2.549999999999998
  0
SEQEND
  5
10135ED
  8
LOTS
  0
TEXT
  5
3A3
  8
TEXT_LOTS
 10
803142.6250838283449411
 20
575005.1671053225873038
 30
651.9099999999998545
 40
2.990400915391541
  1
CA-PS-LT-19
  0
TEXT
  5
3A4
  8
TEXT_LOTS
 10
803181.5897441687993705
 20
575133.4680973029462621
 30
651.9099999999998545
 40
2.990400915391541
  1
CA-PS-LT-21
  0
TEXT
  5
3A5
  8
TEXT_LOTS
 10
803224.7668002205900848
 20
575076.6775881127687171
 30
651.9099999999998545
 40
2.990400915391541
  1
CA-PS-LT-20
  0
TEXT
  5
3A6
  8
TEXT_LOTS
 10
803274.2624498415971175
 20
575043.0257460958091542
 30
651.9099999999998545
 40
2.990400915391541
  1
CA-PS-LT-18
  0
TEXT
  5
3A7
  8
TEXT_LOTS
 10
803366.9283172093564644
 20
575086.1435223217122257
 30
651.9099999999998545
 40
2.990400915391541
  1
CA-PS-LT-13
  0
TEXT
  5
3A8
  8
TEXT_LOTS
 10
803281.6341423378325999
 20
575151.3476290235994384
 30
651.9099999999998545
 40
2.990400915391541
  1
CA-PS-LT-17
  0
TEXT
  5
3A9
  8
TEXT_LOTS
 10
803227.9260970051400363
 20
575187.1015964032849297
 30
651.9099999999998545
 40
2.990400915391541
  1
CA-PS-LT-22
  0
TEXT
  5
3AA
  8
TEXT_LOTS
 10
803326.9173962469212711
 20
575201.8266660649096593
 30
651.9099999999998545
 40
2.990400915391541
  1
CA-PS-LT-16
  0
TEXT
  5
3AB
  8
TEXT_LOTS
 10
803373.2469107786891982
 20
575158.7088898390065879
 30
651.9099999999998545
 40
2.990400915391541
  1
CA-PS-LT-15
  0
TEXT
  5
3AC
  8
TEXT_LOTS
 10
803410.1053732618456706
 20
575182.8973456782987341
 30
651.9099999999998545
 40
2.990400915391541
  1
CA-PS-LT-14
  0
TEXT
  5
3AD
  8
TEXT_LOTS
 10
803446.9638357454678044
 20
575110.3319781607715413
 30
651.9099999999998545
 40
2.990400915391541
  1
CA-PS-LT-12
  0
TEXT
  5
3AE
  8
TEXT_LOTS
 10
803524.1135896858759224
 20
575075.7806812913622707
 30
651.9099999999998545
 40
2.990400915391541
  1
CA-PS-LT-11
  0
TEXT
  5
3AF
  8
TEXT_LOTS
 10
803597.2355821407400072
 20
575009.3942883246345446
 30
651.9099999999998545
 40
2.990400915391541
  1
CA-PS-LT-10
  0
TEXT
  5
3B0
  8
TEXT_LOTS
 10
803738.4944429057650268
 20
575019.3519924663705751
 30
651.9099999999998545
 40
2.990400915391541
  1
CA-PS-LT-09
  0
TEXT
  5
3B1
  8
TEXT_LOTS
 10
803768.4120260903146118
 20
574941.3491273442050442
 30
651.9099999999998545
 40
2.990400915391541
  1
CA-PS-LT-08
  0
TEXT
  5
3B2
  8
TEXT_LOTS
 10
803838.2106024490203708
 20
574936.3702752735698596
 30
651.9099999999998545
 40
2.990400915391541
  1
CA-PS-LT-07
  0
TEXT
  5
3B3
  8
TEXT_LOTS
 10
803901.3623466107528657
 20
574934.7089592291740701
 30
651.9099999999998545
 40
2.990400915391541
  1
CA-PS-LT-06
  0
TEXT
  5
3B4
  8
TEXT_LOTS
 10
803969.4992149198660627
 20
574944.6666633709101006
 30
651.9099999999998545
 40
2.990400915391541
  1
CA-PS-LT-05
  0
TEXT
  5
3B5
  8
TEXT_LOTS
 10
803951.2204263820312917
 20
574851.7272420356748626
 30
651.9099999999998545
 40
2.990400915391541
  1
CA-PS-LT-03
  0
TEXT
  5
3B6
  8
TEXT_LOTS
 10
803874.7681795243406668
 20
574833.470601765322499
 30
651.9099999999998545
 40
2.990400915391541
  1
CA-PS-LT-04
  0
TEXT
  5
3B7
  8
TEXT_LOTS
 10
803912.9943029533606023
 20
574767.0842087984783575
 30
651.9099999999998545
 40
2.990400915391541
  1
CA-PS-LT-02
  0
TEXT
  5
3B8
  8
TEXT_LOTS
 10
803905.0755460779182613
 20
574678.7771073532057926
 30
651.9099999999998545
 40
2.990400915391541
  1
CA-PS-LT-01
  0
POLYLINE
  5
3B9
  8
LOTS
 66
     1
 10
0.0
 20
0.0
 30
6.25
 70
     1
  0
VERTEX
  5
10135EE
  8
LOTS
 10
803815.2391215965617448
 20
574879.7905256251106039
 30
6.25
  0
VERTEX
  5
10135EF
  8
LOTS
 10
803775.488145385752432
 20
574878.5767176892841235
 30
6.25
  0
VERTEX
  5
10135F0
  8
LOTS
 10
803725.7074775027576834
 20
574954.74393378442619
 30
6.25
  0
VERTEX
  5
10135F1
  8
LOTS
 10
803747.9889277655165642
 20
574985.4632095885463059
 30
6.25
  0
VERTEX
  5
10135F2
  8
LOTS
 10
803790.0682184426113963
 20
575024.6877688487293199
 30
6.25
  0
VERTEX
  5
10135F3
  8
LOTS
 10
803811.9293957120971754
 20
574966.1373344410676509
 30
6.25
  0
SEQEND
  5
10135F4
  8
LOTS
  0
POLYLINE
  5
3BA
  8
LOTS
 66
     1
 10
0.0
 20
0.0
 30
1.7
 70
     1
  0
VERTEX
  5
10135F5
  8
LOTS
 10
803704.435257415054366
 20
574988.9520113017642871
 30
1.7
  0
VERTEX
  5
10135F6
  8
LOTS
 10
803743.9755142881767824
 20
575051.8917931475443766
 30
1.7
  0
VERTEX
  5
10135F7
  8
LOTS
 10
803790.0682184426113963
 20
575024.6877688487293199
 30
1.7
  0
VERTEX
  5
10135F8
  8
LOTS
 10
803747.9889277655165642
 20
574985.4632095885463059
 30
1.7
  0
VERTEX
  5
10135F9
  8
LOTS
 10
803725.7074775027576834
 20
574954.74393378442619
 30
1.7
  0
SEQEND
  5
10135FA
  8
LOTS
  0
POLYLINE
  5
3BB
  8
LOTS
 66
     1
 10
0.0
 20
0.0
 30
0.0
 70
     1
  0
VERTEX
  5
10135FB
  8
LOTS
 10
803704.435257415054366
 20
574988.9520113017642871
 30
0.0
  0
VERTEX
  5
10135FC
  8
LOTS
 10
803612.5802597380243242
 20
575069.1561416934709996
 30
0.0
  0
VERTEX
  5
10135FD
  8
LOTS
 10
803540.5664463506545871
 20
575014.2755194624187425
 30
0.0
  0
VERTEX
  5
10135FE
  8
LOTS
 10
803588.9845429888227955
 20
574959.9556582741206512
 30
0.0
  0
SEQEND
  5
10135FF
  8
LOTS
  0
POLYLINE
  5
3BC
  8
LOTS
 66
     1
 10
0.0
 20
0.0
 30
0.0
 70
     1
  0
VERTEX
  5
1013600
  8
LOTS
 10
803474.2122665055794641
 20
575088.7177236940478906
 30
0.0
  0
VERTEX
  5
1013601
  8
LOTS
 10
803527.4984931673388928
 20
575128.5676218833541498
 30
0.0
  0
VERTEX
  5
1013602
  8
LOTS
 10
803612.5802597380243242
 20
575069.1561416934709996
 30
0.0
  0
VERTEX
  5
1013603
  8
LOTS
 10
803540.5664463506545871
 20
575014.2755194624187425
 30
0.0
  0
SEQEND
  5
1013604
  8
LOTS
  0
POLYLINE
  5
3BD
  8
LOTS
 66
     1
 10
0.0
 20
0.0
 30
0.0
 70
     1
  0
VERTEX
  5
1013605
  8
LOTS
 10
803484.3550308094127104
 20
575158.6941350309643894
 30
0.0
  0
VERTEX
  5
1013606
  8
LOTS
 10
803527.4984931673388928
 20
575128.5676218833541498
 30
0.0
  0
VERTEX
  5
1013607
  8
LOTS
 10
803446.5314987015444785
 20
575068.0167687216307968
 30
0.0
  0
VERTEX
  5
1013608
  8
LOTS
 10
803395.5479080528020859
 20
575113.8411596408113837
 30
0.0
  0
VERTEX
  5
1013609
  8
LOTS
 10
803452.8227081906516105
 20
575145.4006081799743697
 30
0.0
  0
SEQEND
  5
101360A
  8
LOTS
  0
POLYLINE
  5
3BE
  8
LOTS
 66
     1
 10
0.0
 20
0.0
 30
3.5
 70
     1
  0
VERTEX
  5
101360B
  8
LOTS
 10
803870.6918071922846138
 20
574712.1894071517745033
 30
3.5
  0
VERTEX
  5
101360C
  8
LOTS
 10
803897.4828576141735539
 20
574609.4286402172874659
 30
3.5
  0
VERTEX
  5
101360D
  8
LOTS
 10
803940.7577557362383232
 20
574618.280069645261392
 30
3.5
  0
VERTEX
  5
101360E
  8
LOTS
 10
803980.6416773701785132
 20
574740.0662110776174814
 30
3.5
  0
SEQEND
  5
101360F
  8
LOTS
  0
POLYLINE
  5
3BF
  8
LOTS
 66
     1
 10
0.0
 20
0.0
 30
29.0
 70
     1
  0
VERTEX
  5
1013610
  8
LOTS
 10
803861.0812377936672419
 20
574779.693571382202208
 30
29.0
  0
VERTEX
  5
1013611
  8
LOTS
 10
803870.6918071922846138
 20
574712.1894071517745033
 30
29.0
  0
VERTEX
  5
1013612
  8
LOTS
 10
803980.6416773701785132
 20
574740.0662110776174814
 30
29.0
  0
VERTEX
  5
1013613
  8
LOTS
 10
803969.8212527495343238
 20
574785.6054098738823086
 30
29.0
  0
VERTEX
  5
1013614
  8
LOTS
 10
804021.5108287723269314
 20
574795.413294461206533
 30
29.0
  0
VERTEX
  5
1013615
  8
LOTS
 10
804013.603436209843494
 20
574824.6562128722434863
 30
29.0
  0
VERTEX
  5
1013616
  8
LOTS
 10
803956.2513015209697187
 20
574810.5042970010545105
 30
29.0
  0
SEQEND
  5
1013617
  8
LOTS
  0
POLYLINE
  5
3C0
  8
LOTS
 66
     1
 10
0.0
 20
0.0
 30
0.0
 70
     1
  0
VERTEX
  5
1013618
  8
LOTS
 10
803960.6069416285026819
 20
574899.3312116302549839
 30
0.0
  0
VERTEX
  5
1013619
  8
LOTS
 10
804027.5809590137796476
 20
574909.6002935563446954
 30
0.0
  0
VERTEX
  5
101361A
  8
LOTS
 10
804014.4195397329749539
 20
574984.7082593434024602
 30
0.0
  0
VERTEX
  5
101361B
  8
LOTS
 10
803925.0343807941535488
 20
574988.5061565225478262
 30
0.0
  0
SEQEND
  5
101361C
  8
LOTS
  0
POLYLINE
  5
3C1
  8
LOTS
 66
     1
 10
0.0
 20
0.0
 30
29.6499999999999986
 70
     1
  0
VERTEX
  5
101361D
  8
LOTS
 10
803960.6069416285026819
 20
574899.3312116302549839
 30
29.6499999999999986
  0
VERTEX
  5
101361E
  8
LOTS
 10
804013.603436209843494
 20
574824.6562128722434863
 30
29.6499999999999986
  0
VERTEX
  5
101361F
  8
LOTS
 10
803956.2513015209697187
 20
574810.5042970010545105
 30
29.6499999999999986
  0
VERTEX
  5
1013620
  8
LOTS
 10
803909.3089961785590276
 20
574885.4397764857858419
 30
29.6499999999999986
  0
SEQEND
  5
1013621
  8
LOTS
  0
POLYLINE
  5
3C2
  8
LOTS
 66
     1
 10
0.0
 20
0.0
 30
88.0
 70
     1
  0
VERTEX
  5
1013622
  8
LOTS
 10
803874.7446793273556978
 20
574976.7056670092279091
 30
88.0
  0
VERTEX
  5
1013623
  8
LOTS
 10
803925.0343807941535488
 20
574988.5061565225478262
 30
88.0
  0
VERTEX
  5
1013624
  8
LOTS
 10
803960.6069416285026819
 20
574899.3312116302549839
 30
88.0
  0
VERTEX
  5
1013625
  8
LOTS
 10
803909.3089961785590276
 20
574885.4397764857858419
 30
88.0
  0
VERTEX
  5
1013626
  8
LOTS
 10
803888.9524347720434889
 20
574917.9355961638502777
 30
88.0
  0
SEQEND
  5
1013627
  8
LOTS
  0
POLYLINE
  5
3C3
  8
LOTS
 66
     1
 10
0.0
 20
0.0
 30
93.2999999999999972
  0
VERTEX
  5
1013628
  8
LOTS
 10
803861.0812377936672419
 20
574779.693571382202208
 30
93.2999999999999972
  0
VERTEX
  5
1013629
  8
LOTS
 10
803956.2513015209697187
 20
574810.5042970010545105
 30
93.2999999999999972
  0
VERTEX
  5
101362A
  8
LOTS
 10
803888.9524347720434889
 20
574917.9355961638502777
 30
93.2999999999999972
  0
VERTEX
  5
101362B
  8
LOTS
 10
803844.6626957338303328
 20
574895.0165989438537508
 30
93.2999999999999972
  0
VERTEX
  5
101362C
  8
LOTS
 10
803861.0812377936672419
 20
574779.693571382202208
 30
93.2999999999999972
  0
SEQEND
  5
101362D
  8
LOTS
  0
POLYLINE
  5
3C4
  8
LOTS
 66
     1
 10
0.0
 20
0.0
 30
0.0
 70
     1
  0
VERTEX
  5
101362E
  8
LOTS
 10
803190.4802882689982653
 20
575053.6374025815166533
 30
0.0
  0
VERTEX
  5
101362F
  8
LOTS
 10
803137.1922508729621768
 20
575048.262357271509245
 30
0.0
  0
VERTEX
  5
1013630
  8
LOTS
 10
803091.9680923679843545
 20
575006.1777165571693331
 30
0.0
  0
VERTEX
  5
1013631
  8
LOTS
 10
803122.8029704896034673
 20
574957.4212104175239801
 30
0.0
  0
VERTEX
  5
1013632
  8
LOTS
 10
803174.5246646320447326
 20
574954.9915106291882694
 30
0.0
  0
VERTEX
  5
1013633
  8
LOTS
 10
803229.0093337475555018
 20
575004.9387654378078878
 30
0.0
  0
SEQEND
  5
1013634
  8
LOTS
  0
POLYLINE
  5
3C5
  8
LOTS
 66
     1
 10
0.0
 20
0.0
 30
2.6000000000000001
 70
     1
  0
VERTEX
  5
1013635
  8
LOTS
 10
803329.9237459851428866
 20
575164.3184399077435955
 30
2.6000000000000001
  0
VERTEX
  5
1013636
  8
LOTS
 10
803370.8363204773049802
 20
575203.0790997156873345
 30
2.6000000000000001
  0
VERTEX
  5
1013637
  8
LOTS
 10
803389.4201209869934246
 20
575224.9859357490204275
 30
2.6000000000000001
  0
VERTEX
  5
1013638
  8
LOTS
 10
803349.828806174104102
 20
575242.4954783553257585
 30
2.6000000000000001
  0
VERTEX
  5
1013639
  8
LOTS
 10
803279.5752007478149608
 20
575215.6519151451066136
 30
2.6000000000000001
  0
SEQEND
  5
101363A
  8
LOTS
  0
POLYLINE
  5
3C6
  8
LOTS
 66
     1
 10
0.0
 20
0.0
 30
0.0
 70
     1
  0
VERTEX
  5
101363B
  8
LOTS
 10
803247.9653997907880694
 20
575141.1578563172370195
 30
0.0
  0
VERTEX
  5
101363C
  8
LOTS
 10
803207.0878771954448894
 20
575149.984818750526756
 30
0.0
  0
VERTEX
  5
101363D
  8
LOTS
 10
803199.6318884058855474
 20
575186.7825779765844345
 30
0.0
  0
VERTEX
  5
101363E
  8
LOTS
 10
803279.5752007478149608
 20
575215.6519151451066136
 30
0.0
  0
SEQEND
  5
101363F
  8
LOTS
  0
TEXT
  5
3C7
  8
TEXT_LOTS
 10
804537.5161596755497158
 20
571157.0036763646639884
 30
651.9099999999998545
 40
2.990400915391541
  1
CA-EA-LT-10
  0
TEXT
  5
3C8
  8
TEXT_LOTS
 10
804488.4786756362300366
 20
571156.6596922081662342
 30
651.9099999999998545
 40
2.990400915391541
  1
CA-EA-LT-09
  0
TEXT
  5
3C9
  8
TEXT_LOTS
 10
804449.4251166699687019
 20
571186.1098320324672386
 30
651.9099999999998545
 40
2.990400915391541
  1
CA-EA-LT-08
  0
TEXT
  5
3CA
  8
TEXT_LOTS
 10
804500.958581977058202
 20
571215.0197893300792202
 30
651.9099999999998545
 40
2.990400915391541
  1
CA-EA-LT-07
  0
TEXT
  5
3CB
  8
TEXT_LOTS
 10
804447.1274462421424687
 20
571257.1209020068636164
 30
651.9099999999998545
 40
2.990400915391541
  1
CA-EA-LT-06
  0
TEXT
  5
3CC
  8
TEXT_LOTS
 10
804395.29993382608518
 20
571200.3940926189534366
 30
651.9099999999998545
 40
2.990400915391541
  1
CA-EA-LT-05
  0
TEXT
  5
3CD
  8
TEXT_LOTS
 10
804350.543228619499132
 20
571177.1229274503421038
 30
651.9099999999998545
 40
2.990400915391541
  1
CA-EA-LT-04
  0
TEXT
  5
3CE
  8
TEXT_LOTS
 10
804272.5523618687875569
 20
571229.905385181773454
 30
651.9099999999998545
 40
2.990400915391541
  1
CA-EA-LT-03
  0
TEXT
  5
3CF
  8
TEXT_LOTS
 10
804376.063782298238948
 20
571254.3257122345967218
 30
651.9099999999998545
 40
2.990400915391541
  1
CA-EA-LT-02
  0
TEXT
  5
3D0
  8
TEXT_LOTS
 10
804301.5741276281187311
 20
571315.315377127728425
 30
651.9099999999998545
 40
2.990400915391541
  1
CA-EA-LT-01
  0
POLYLINE
  5
3D1
  8
LOTS
 66
     1
 10
0.0
 20
0.0
 30
40.2999999999999972
 70
     1
  0
VERTEX
  5
1013640
  8
LOTS
 10
804341.1575173670426011
 20
571215.372321548871696
 30
40.2999999999999972
  0
VERTEX
  5
1013641
  8
LOTS
 10
804376.881855136831291
 20
571210.2648190057370812
 30
40.2999999999999972
  0
VERTEX
  5
1013642
  8
LOTS
 10
804397.0857687229290605
 20
571160.8042702665552497
 30
40.2999999999999972
  0
VERTEX
  5
1013643
  8
LOTS
 10
804390.2506487554637715
 20
571144.0345705625368282
 30
40.2999999999999972
  0
VERTEX
  5
1013644
  8
LOTS
 10
804348.0833395243389532
 20
571155.5138624350074679
 30
40.2999999999999972
  0
VERTEX
  5
1013645
  8
LOTS
 10
804335.4256209065206349
 20
571170.4515207558870316
 30
40.2999999999999972
  0
SEQEND
  5
1013646
  8
LOTS
  0
POLYLINE
  5
3D2
  8
LOTS
 66
     1
 10
0.0
 20
0.0
 30
7.7000000000000002
 70
     1
  0
VERTEX
  5
1013647
  8
LOTS
 10
804520.6366962165338919
 20
571186.324486424215138
 30
7.7000000000000002
  0
VERTEX
  5
1013648
  8
LOTS
 10
804534.5803409507498145
 20
571149.8597542006755248
 30
7.7000000000000002
  0
VERTEX
  5
1013649
  8
LOTS
 10
804554.4968289788812399
 20
571129.9685103335650638
 30
7.7000000000000002
  0
VERTEX
  5
101364A
  8
LOTS
 10
804490.6563582477392629
 20
571112.6486699874512851
 30
7.7000000000000002
  0
VERTEX
  5
101364B
  8
LOTS
 10
804477.356749601312913
 20
571151.3515174672938883
 30
7.7000000000000002
  0
SEQEND
  5
101364C
  8
LOTS
  0
POLYLINE
  5
3D3
  8
LOTS
 66
     1
 10
0.0
 20
0.0
 30
12.9000000000000004
 70
     1
  0
VERTEX
  5
101364D
  8
LOTS
 10
804277.8860502727329731
 20
571287.5268326965160668
 30
12.9000000000000004
  0
VERTEX
  5
101364E
  8
LOTS
 10
804264.8738060677424073
 20
571325.8925583325326443
 30
12.9000000000000004
  0
VERTEX
  5
101364F
  8
LOTS
 10
804326.2172772934427485
 20
571372.9214878359343857
 30
12.9000000000000004
  0
VERTEX
  5
1013650
  8
LOTS
 10
804360.8658324510324746
 20
571323.6334643486188725
 30
12.9000000000000004
  0
VERTEX
  5
1013651
  8
LOTS
 10
804345.6646354290423915
 20
571250.6945493664825335
 30
12.9000000000000004
  0
SEQEND
  5
1013652
  8
LOTS
  0
POLYLINE
  5
3D4
  8
LOTS
 66
     1
 10
0.0
 20
0.0
 30
4.0
 70
     1
  0
VERTEX
  5
1013653
  8
LOTS
 10
804335.4256209065206349
 20
571170.4515207558870316
 30
4.0
  0
VERTEX
  5
1013654
  8
LOTS
 10
804249.8416452278615907
 20
571203.8603324021678418
 30
4.0
  0
VERTEX
  5
1013655
  8
LOTS
 10
804246.8615936869755387
 20
571237.1922563647385687
 30
4.0
  0
VERTEX
  5
1013656
  8
LOTS
 10
804277.8860502727329731
 20
571287.5268326965160668
 30
4.0
  0
VERTEX
  5
1013657
  8
LOTS
 10
804345.6646354290423915
 20
571250.6945493664825335
 30
4.0
  0
SEQEND
  5
1013658
  8
LOTS
  0
POLYLINE
  5
3D5
  8
LOTS
 66
     1
 10
0.0
 20
0.0
 30
68.75
 70
     1
  0
VERTEX
  5
1013659
  8
LOTS
 10
804504.0571488084970042
 20
571267.2170737367123365
 30
68.75
  0
VERTEX
  5
101365A
  8
LOTS
 10
804464.178277600207366
 20
571281.850638626026921
 30
68.75
  0
VERTEX
  5
101365B
  8
LOTS
 10
804411.929467904032208
 20
571313.9610235685249791
 30
68.75
  0
VERTEX
  5
101365C
  8
LOTS
 10
804398.4219986844109371
 20
571297.0426733953645453
 30
68.75
  0
VERTEX
  5
101365D
  8
LOTS
 10
804412.7329356633126736
 20
571252.5649276650510728
 30
68.75
  0
VERTEX
  5
101365E
  8
LOTS
 10
804417.289682308328338
 20
571227.8346532955765724
 30
68.75
  0
VERTEX
  5
101365F
  8
LOTS
 10
804440.7534223408438265
 20
571207.6605593040585518
 30
68.75
  0
VERTEX
  5
1013660
  8
LOTS
 10
804469.5099988599540666
 20
571227.4320378034608439
 30
68.75
  0
SEQEND
  5
1013661
  8
LOTS
  0
POLYLINE
  5
3D6
  8
LOTS
 66
     1
 10
0.0
 20
0.0
 30
1.25
 70
     1
  0
VERTEX
  5
1013662
  8
LOTS
 10
804520.6366962165338919
 20
571186.324486424215138
 30
1.25
  0
VERTEX
  5
1013663
  8
LOTS
 10
804551.4473139160545543
 20
571209.8953301049768925
 30
1.25
  0
VERTEX
  5
1013664
  8
LOTS
 10
804611.6196718253195286
 20
571163.2136357915587723
 30
1.25
  0
VERTEX
  5
1013665
  8
LOTS
 10
804571.1023139229509979
 20
571154.8432716736570001
 30
1.25
  0
VERTEX
  5
1013666
  8
LOTS
 10
804554.4968289788812399
 20
571129.9685103335650638
 30
1.25
  0
VERTEX
  5
1013667
  8
LOTS
 10
804534.5803409507498145
 20
571149.8597542006755248
 30
1.25
  0
SEQEND
  5
1013668
  8
LOTS
  0
POLYLINE
  5
3D7
  8
LOTS
 66
     1
 10
0.0
 20
0.0
 30
29.75
 70
     1
  0
VERTEX
  5
1013669
  8
LOTS
 10
804446.333684385754168
 20
571113.1529430421069264
 30
29.75
  0
VERTEX
  5
101366A
  8
LOTS
 10
804386.5732578880852088
 20
571123.7911511013517156
 30
29.75
  0
VERTEX
  5
101366B
  8
LOTS
 10
804390.2506487554637715
 20
571144.0345705625368282
 30
29.75
  0
VERTEX
  5
101366C
  8
LOTS
 10
804397.0857687229290605
 20
571160.8042702665552497
 30
29.75
  0
VERTEX
  5
101366D
  8
LOTS
 10
804414.6818211517529562
 20
571187.4864653130061924
 30
29.75
  0
VERTEX
  5
101366E
  8
LOTS
 10
804428.373092225054279
 20
571189.4383859895169735
 30
29.75
  0
VERTEX
  5
101366F
  8
LOTS
 10
804440.7534223408438265
 20
571207.6605593040585518
 30
29.75
  0
VERTEX
  5
1013670
  8
LOTS
 10
804469.5099988599540666
 20
571227.4320378034608439
 30
29.75
  0
VERTEX
  5
1013671
  8
LOTS
 10
804520.6366962165338919
 20
571186.324486424215138
 30
29.75
  0
VERTEX
  5
1013672
  8
LOTS
 10
804477.356749601312913
 20
571151.3515174672938883
 30
29.75
  0
SEQEND
  5
1013673
  8
LOTS
  0
POLYLINE
  5
3D8
  8
LOTS
 66
     1
 10
0.0
 20
0.0
 30
1.6000000000000001
 70
     1
  0
VERTEX
  5
1013674
  8
LOTS
 10
806583.1296141812345013
 20
568683.7788019877625629
 30
1.6000000000000001
  0
VERTEX
  5
1013675
  8
LOTS
 10
806562.8624192745191976
 20
568658.4408927434124053
 30
1.6000000000000001
  0
VERTEX
  5
1013676
  8
LOTS
 10
806553.6514555094763637
 20
568625.6416606907732785
 30
1.6000000000000001
  0
VERTEX
  5
1013677
  8
LOTS
 10
806560.4606727871578187
 20
568610.4419986630091444
 30
1.6000000000000001
  0
VERTEX
  5
1013678
  8
LOTS
 10
806664.1968125080456957
 20
568598.0416175138670951
 30
1.6000000000000001
  0
VERTEX
  5
1013679
  8
LOTS
 10
806691.0317486538551748
 20
568613.6413865647045895
 30
1.6000000000000001
  0
VERTEX
  5
101367A
  8
LOTS
 10
806676.9129169570514932
 20
568690.6729333478724584
 30
1.6000000000000001
  0
SEQEND
  5
101367B
  8
LOTS
  0
POLYLINE
  5
3D9
  8
LOTS
 66
     1
 10
0.0
 20
0.0
 30
0.0
 70
     1
  0
VERTEX
  5
101367C
  8
LOTS
 10
806583.1296141812345013
 20
568683.7788019877625629
 30
0.0
  0
VERTEX
  5
101367D
  8
LOTS
 10
806591.2575026116101071
 20
568791.7825371735962108
 30
0.0
  0
VERTEX
  5
101367E
  8
LOTS
 10
806632.1456332429079339
 20
568792.0017618271522224
 30
0.0
  0
VERTEX
  5
101367F
  8
LOTS
 10
806645.812408824567683
 20
568789.7351738476427272
 30
0.0
  0
VERTEX
  5
1013680
  8
LOTS
 10
806676.9129169570514932
 20
568690.6729333478724584
 30
0.0
  0
SEQEND
  5
1013681
  8
LOTS
  0
POLYLINE
  5
3DA
  8
LOTS
 66
     1
 10
0.0
 20
0.0
 30
0.0
 70
     1
  0
VERTEX
  5
1013682
  8
LOTS
 10
806750.8549577425001189
 20
568731.9623919343575835
 30
0.0
  0
VERTEX
  5
1013683
  8
LOTS
 10
806734.9567168204812333
 20
568779.9317384734749794
 30
0.0
  0
VERTEX
  5
1013684
  8
LOTS
 10
806744.0887275862041861
 20
568832.2679130203323439
 30
0.0
  0
VERTEX
  5
1013685
  8
LOTS
 10
806706.5851593113038689
 20
568853.3331237643724307
 30
0.0
  0
VERTEX
  5
1013686
  8
LOTS
 10
806690.487073601456359
 20
568790.3059387654066086
 30
0.0
  0
SEQEND
  5
1013687
  8
LOTS
  0
POLYLINE
  5
3DB
  8
LOTS
 66
     1
 10
0.0
 20
0.0
 30
70.5999999999999943
 70
     1
  0
VERTEX
  5
1013688
  8
LOTS
 10
806690.487073601456359
 20
568790.3059387654066086
 30
70.5999999999999943
  0
VERTEX
  5
1013689
  8
LOTS
 10
806706.5851593113038689
 20
568853.3331237643724307
 30
70.5999999999999943
  0
VERTEX
  5
101368A
  8
LOTS
 10
806676.10600900137797
 20
568870.4528207455296069
 30
70.5999999999999943
  0
VERTEX
  5
101368B
  8
LOTS
 10
806647.1898012176388875
 20
568895.2530660408083349
 30
70.5999999999999943
  0
VERTEX
  5
101368C
  8
LOTS
 10
806647.8277102862484753
 20
568850.0352346416329965
 30
70.5999999999999943
  0
VERTEX
  5
101368D
  8
LOTS
 10
806632.1456332429079339
 20
568792.0017618271522224
 30
70.5999999999999943
  0
VERTEX
  5
101368E
  8
LOTS
 10
806645.812408824567683
 20
568789.7351738476427272
 30
70.5999999999999943
  0
VERTEX
  5
101368F
  8
LOTS
 10
806645.812408824567683
 20
568789.7351738476427272
 30
70.5999999999999943
  0
SEQEND
  5
1013690
  8
LOTS
  0
POLYLINE
  5
3DC
  8
LOTS
 66
     1
 10
0.0
 20
0.0
 30
42.7000000000000028
 70
     1
  0
VERTEX
  5
1013691
  8
LOTS
 10
806728.7840578790055588
 20
568923.0636900933459401
 30
42.7000000000000028
  0
VERTEX
  5
1013692
  8
LOTS
 10
806789.3866438145050779
 20
568900.252886948408559
 30
42.7000000000000028
  0
VERTEX
  5
1013693
  8
LOTS
 10
806744.0887275862041861
 20
568832.2679130203323439
 30
42.7000000000000028
  0
VERTEX
  5
1013694
  8
LOTS
 10
806706.5851593113038689
 20
568853.3331237643724307
 30
42.7000000000000028
  0
SEQEND
  5
1013695
  8
LOTS
  0
POLYLINE
  5
3DD
  8
LOTS
 66
     1
 10
0.0
 20
0.0
 30
240.0
 70
     1
  0
VERTEX
  5
1013696
  8
LOTS
 10
806706.5851593113038689
 20
568853.3331237643724307
 30
240.0
  0
VERTEX
  5
1013697
  8
LOTS
 10
806728.7840578790055588
 20
568923.0636900933459401
 30
240.0
  0
VERTEX
  5
1013698
  8
LOTS
 10
806673.4022244863444939
 20
568956.1101290120277554
 30
240.0
  0
VERTEX
  5
1013699
  8
LOTS
 10
806647.1898012176388875
 20
568895.2530660408083349
 30
240.0
  0
VERTEX
  5
101369A
  8
LOTS
 10
806676.10600900137797
 20
568870.4528207455296069
 30
240.0
  0
SEQEND
  5
101369B
  8
LOTS
  0
POLYLINE
  5
3DE
  8
LOTS
 66
     1
 10
0.0
 20
0.0
 30
82.5
 70
     1
  0
VERTEX
  5
101369C
  8
LOTS
 10
806728.7840578790055588
 20
568923.0636900933459401
 30
82.5
  0
VERTEX
  5
101369D
  8
LOTS
 10
806768.76912764494773
 20
569018.7403137518558651
 30
82.5
  0
VERTEX
  5
101369E
  8
LOTS
 10
806810.9506311740260571
 20
568993.2906556960660964
 30
82.5
  0
VERTEX
  5
101369F
  8
LOTS
 10
806789.3866438145050779
 20
568900.252886948408559
 30
82.5
  0
SEQEND
  5
10136A0
  8
LOTS
  0
POLYLINE
  5
3DF
  8
LOTS
 66
     1
 10
0.0
 20
0.0
 30
154.4000000000000057
 70
     1
  0
VERTEX
  5
10136A1
  8
LOTS
 10
806768.76912764494773
 20
569018.7403137518558651
 30
154.4000000000000057
  0
VERTEX
  5
10136A2
  8
LOTS
 10
806728.7840578790055588
 20
568923.0636900933459401
 30
154.4000000000000057
  0
VERTEX
  5
10136A3
  8
LOTS
 10
806673.4022244863444939
 20
568956.1101290120277554
 30
154.4000000000000057
  0
VERTEX
  5
10136A4
  8
LOTS
 10
806696.2125389113789424
 20
569009.0685574299423024
 30
154.4000000000000057
  0
VERTEX
  5
10136A5
  8
LOTS
 10
806705.1734301605029032
 20
569044.6098650804487988
 30
154.4000000000000057
  0
VERTEX
  5
10136A6
  8
LOTS
 10
806747.3625549699645489
 20
569031.6556891927029938
 30
154.4000000000000057
  0
SEQEND
  5
10136A7
  8
LOTS
  0
POLYLINE
  5
3E0
  8
LOTS
 66
     1
 10
0.0
 20
0.0
 30
55.4699999999999989
 70
     1
  0
VERTEX
  5
10136A8
  8
LOTS
 10
806722.5052563678473234
 20
569128.360979249002412
 30
55.4699999999999989
  0
VERTEX
  5
10136A9
  8
LOTS
 10
806729.8223341746488586
 20
569168.1368660401785746
 30
55.4699999999999989
  0
VERTEX
  5
10136AA
  8
LOTS
 10
806809.3811610667034984
 20
569139.8289259922457859
 30
55.4699999999999989
  0
VERTEX
  5
10136AB
  8
LOTS
 10
806860.3711646521696821
 20
569095.934506677207537
 30
55.4699999999999989
  0
VERTEX
  5
10136AC
  8
LOTS
 10
806847.675508517306298
 20
569048.4397450604010373
 30
55.4699999999999989
  0
SEQEND
  5
10136AD
  8
LOTS
  0
POLYLINE
  5
3E1
  8
LOTS
 66
     1
 10
0.0
 20
0.0
 30
35.1000000000000014
 70
     1
  0
VERTEX
  5
10136AE
  8
LOTS
 10
806877.1104555433848873
 20
569158.5566052959766239
 30
35.1000000000000014
  0
VERTEX
  5
10136AF
  8
LOTS
 10
806809.9260192792862654
 20
569204.6921090399846435
 30
35.1000000000000014
  0
VERTEX
  5
10136B0
  8
LOTS
 10
806740.5194655192317441
 20
569226.286840196698904
 30
35.1000000000000014
  0
VERTEX
  5
10136B1
  8
LOTS
 10
806729.8223341746488586
 20
569168.1368660401785746
 30
35.1000000000000014
  0
VERTEX
  5
10136B2
  8
LOTS
 10
806809.3811610667034984
 20
569139.8289259922457859
 30
35.1000000000000014
  0
VERTEX
  5
10136B3
  8
LOTS
 10
806860.3711646521696821
 20
569095.934506677207537
 30
35.1000000000000014
  0
SEQEND
  5
10136B4
  8
LOTS
  0
POLYLINE
  5
3E2
  8
LOTS
 66
     1
 10
0.0
 20
0.0
 30
160.9399999999999977
 70
     1
  0
VERTEX
  5
10136B5
  8
LOTS
 10
806722.5052563678473234
 20
569128.360979249002412
 30
160.9399999999999977
  0
VERTEX
  5
10136B6
  8
LOTS
 10
806740.5194655192317441
 20
569226.286840196698904
 30
160.9399999999999977
  0
VERTEX
  5
10136B7
  8
LOTS
 10
806692.9396189847029746
 20
569244.3420857404125854
 30
160.9399999999999977
  0
VERTEX
  5
10136B8
  8
LOTS
 10
806686.4318099471274763
 20
569119.7528331563808024
 30
160.9399999999999977
  0
SEQEND
  5
10136B9
  8
LOTS
  0
POLYLINE
  5
3E3
  8
LOTS
 66
     1
 10
0.0
 20
0.0
 30
0.0
 70
     1
  0
VERTEX
  5
10136BA
  8
LOTS
 10
806847.2982049485435709
 20
569313.0244540207786486
 30
0.0
  0
VERTEX
  5
10136BB
  8
LOTS
 10
806915.2582018487155437
 20
569287.4214216618565843
 30
0.0
  0
VERTEX
  5
10136BC
  8
LOTS
 10
806877.1104555433848873
 20
569158.5566052959766239
 30
0.0
  0
VERTEX
  5
10136BD
  8
LOTS
 10
806809.9260192792862654
 20
569204.6921090399846435
 30
0.0
  0
SEQEND
  5
10136BE
  8
LOTS
  0
POLYLINE
  5
3E4
  8
LOTS
 66
     1
 10
0.0
 20
0.0
 30
3.649999999999999
 70
     1
  0
VERTEX
  5
10136BF
  8
LOTS
 10
806772.3609292845940217
 20
569341.2560841153608635
 30
3.649999999999999
  0
VERTEX
  5
10136C0
  8
LOTS
 10
806847.2982049485435709
 20
569313.0244540207786486
 30
3.649999999999999
  0
VERTEX
  5
10136C1
  8
LOTS
 10
806809.9260192792862654
 20
569204.6921090399846435
 30
3.649999999999999
  0
VERTEX
  5
10136C2
  8
LOTS
 10
806740.5194655192317441
 20
569226.286840196698904
 30
3.649999999999999
  0
SEQEND
  5
10136C3
  8
LOTS
  0
POLYLINE
  5
3E5
  8
LOTS
 66
     1
 10
0.0
 20
0.0
 30
2.0
 70
     1
  0
VERTEX
  5
10136C4
  8
LOTS
 10
806766.2255965416552499
 20
569320.0576604092493653
 30
2.0
  0
VERTEX
  5
10136C5
  8
LOTS
 10
806783.391399608575739
 20
569379.3678856105543673
 30
2.0
  0
VERTEX
  5
10136C6
  8
LOTS
 10
806724.6519334793556482
 20
569399.9376020672498271
 30
2.0
  0
VERTEX
  5
10136C7
  8
LOTS
 10
806688.4735017888015136
 20
569380.2095645332010463
 30
2.0
  0
VERTEX
  5
10136C8
  8
LOTS
 10
806690.3661378445103765
 20
569322.6321034155553207
 30
2.0
  0
SEQEND
  5
10136C9
  8
LOTS
  0
POLYLINE
  5
3E6
  8
LOTS
 66
     1
 10
0.0
 20
0.0
 30
34.3999999999999986
 70
     1
  0
VERTEX
  5
10136CA
  8
LOTS
 10
806692.9396189847029746
 20
569244.3420857404125854
 30
34.3999999999999986
  0
VERTEX
  5
10136CB
  8
LOTS
 10
806690.3661378445103765
 20
569322.6321034155553207
 30
34.3999999999999986
  0
VERTEX
  5
10136CC
  8
LOTS
 10
806688.4735017888015136
 20
569380.2095645332010463
 30
34.3999999999999986
  0
VERTEX
  5
10136CD
  8
LOTS
 10
806671.6975909154862165
 20
569370.0661049447953701
 30
34.3999999999999986
  0
VERTEX
  5
10136CE
  8
LOTS
 10
806648.1291398465400562
 20
569355.0831972125452012
 30
34.3999999999999986
  0
VERTEX
  5
10136CF
  8
LOTS
 10
806651.2626052717678249
 20
569289.2923481912584975
 30
34.3999999999999986
  0
SEQEND
  5
10136D0
  8
LOTS
  0
POLYLINE
  5
3E7
  8
LOTS
 66
     1
 10
0.0
 20
0.0
 30
2.3500000000000001
 70
     1
  0
VERTEX
  5
10136D1
  8
LOTS
 10
806692.9396189847029746
 20
569244.3420857404125854
 30
2.3500000000000001
  0
VERTEX
  5
10136D2
  8
LOTS
 10
806740.5194655192317441
 20
569226.286840196698904
 30
2.3500000000000001
  0
VERTEX
  5
10136D3
  8
LOTS
 10
806766.2255965416552499
 20
569320.0576604092493653
 30
2.3500000000000001
  0
VERTEX
  5
10136D4
  8
LOTS
 10
806690.3661378445103765
 20
569322.6321034155553207
 30
2.3500000000000001
  0
SEQEND
  5
10136D5
  8
LOTS
  0
POLYLINE
  5
3E8
  8
LOTS
 66
     1
 10
0.0
 20
0.0
 30
4.0
 70
     1
  0
VERTEX
  5
10136D6
  8
LOTS
 10
803361.4291626419872046
 20
575045.8114732489921153
 30
4.0
  0
VERTEX
  5
10136D7
  8
LOTS
 10
803385.9717297181487083
 20
575026.6315862217452377
 30
4.0
  0
VERTEX
  5
10136D8
  8
LOTS
 10
803446.5314987015444785
 20
575068.0167687216307968
 30
4.0
  0
VERTEX
  5
10136D9
  8
LOTS
 10
803395.5479080528020859
 20
575113.8411596408113837
 30
4.0
  0
VERTEX
  5
10136DA
  8
LOTS
 10
803370.2246586898108944
 20
575133.3194846219848841
 30
4.0
  0
VERTEX
  5
10136DB
  8
LOTS
 10
803317.9149659804534167
 20
575093.7256742338649929
 30
4.0
  0
SEQEND
  5
10136DC
  8
LOTS
  0
POLYLINE
  5
3E9
  8
LOTS
 66
     1
 10
0.0
 20
0.0
 30
9.1500000000000004
 70
     1
  0
VERTEX
  5
10136DD
  8
LOTS
 10
803190.4802882689982653
 20
575053.6374025815166533
 30
9.1500000000000004
  0
VERTEX
  5
10136DE
  8
LOTS
 10
803229.0093337475555018
 20
575004.9387654378078878
 30
9.1500000000000004
  0
VERTEX
  5
10136DF
  8
LOTS
 10
803292.8564510970609263
 20
575110.7176315173273906
 30
9.1500000000000004
  0
VERTEX
  5
10136E0
  8
LOTS
 10
803247.9653997907880694
 20
575141.1578563172370195
 30
9.1500000000000004
  0
SEQEND
  5
10136E1
  8
LOTS
  0
POLYLINE
  5
3EA
  8
LOTS
 66
     1
 10
0.0
 20
0.0
 30
5.299999999999998
 70
     1
  0
VERTEX
  5
10136E2
  8
LOTS
 10
803247.9653997907880694
 20
575141.1578563172370195
 30
5.299999999999998
  0
VERTEX
  5
10136E3
  8
LOTS
 10
803279.5752007478149608
 20
575215.6519151451066136
 30
5.299999999999998
  0
VERTEX
  5
10136E4
  8
LOTS
 10
803329.9237459851428866
 20
575164.3184399077435955
 30
5.299999999999998
  0
VERTEX
  5
10136E5
  8
LOTS
 10
803370.2246586898108944
 20
575133.3194846219848841
 30
5.299999999999998
  0
VERTEX
  5
10136E6
  8
LOTS
 10
803317.9149659804534167
 20
575093.7256742338649929
 30
5.299999999999998
  0
SEQEND
  5
10136E7
  8
LOTS
  0
POLYLINE
  5
3EB
  8
LOTS
 66
     1
 10
0.0
 20
0.0
 30
1.8
 70
     1
  0
VERTEX
  5
10136E8
  8
LOTS
 10
803154.3063861994305626
 20
575158.5949102324666455
 30
1.8
  0
VERTEX
  5
10136E9
  8
LOTS
 10
803190.4802882689982653
 20
575053.6374025815166533
 30
1.8
  0
VERTEX
  5
10136EA
  8
LOTS
 10
803247.9653997907880694
 20
575141.1578563172370195
 30
1.8
  0
VERTEX
  5
10136EB
  8
LOTS
 10
803207.0878771954448894
 20
575149.984818750526756
 30
1.8
  0
VERTEX
  5
10136EC
  8
LOTS
 10
803203.3598828006070107
 20
575168.3836983635555953
 30
1.8
  0
VERTEX
  5
10136ED
  8
LOTS
 10
803182.9974568166071549
 20
575165.0536615685559809
 30
1.8
  0
SEQEND
  5
10136EE
  8
LOTS
  0
POLYLINE
  5
3EC
  8
LOTS
 66
     1
 10
0.0
 20
0.0
 30
2.8999999999999999
 70
     1
  0
VERTEX
  5
10136EF
  8
LOTS
 10
803395.5479080528020859
 20
575113.8411596408113837
 30
2.8999999999999999
  0
VERTEX
  5
10136F0
  8
LOTS
 10
803329.9237459851428866
 20
575164.3184399077435955
 30
2.8999999999999999
  0
VERTEX
  5
10136F1
  8
LOTS
 10
803370.8363204773049802
 20
575203.0790997156873345
 30
2.8999999999999999
  0
VERTEX
  5
10136F2
  8
LOTS
 10
803452.8227081906516105
 20
575145.4006081799743697
 30
2.8999999999999999
  0
SEQEND
  5
10136F3
  8
LOTS
  0
POLYLINE
  5
3ED
  8
LOTS
 66
     1
 10
0.0
 20
0.0
 30
46.8999999999999986
 70
     1
  0
VERTEX
  5
10136F4
  8
LOTS
 10
803888.9524347720434889
 20
574917.9355961638502777
 30
46.8999999999999986
  0
VERTEX
  5
10136F5
  8
LOTS
 10
803815.2391215965617448
 20
574879.7905256251106039
 30
46.8999999999999986
  0
VERTEX
  5
10136F6
  8
LOTS
 10
803811.9293957120971754
 20
574966.1373344410676509
 30
46.8999999999999986
  0
VERTEX
  5
10136F7
  8
LOTS
 10
803868.4330541101517156
 20
575002.8135672077769414
 30
46.8999999999999986
  0
SEQEND
  5
10136F8
  8
LOTS
  0
POLYLINE
  5
3EE
  8
LOTS
 66
     1
 10
0.0
 20
0.0
 30
25.0
 70
     1
  0
VERTEX
  5
10136F9
  8
LOTS
 10
804520.6366962165338919
 20
571186.324486424215138
 30
25.0
  0
VERTEX
  5
10136FA
  8
LOTS
 10
804551.4473139160545543
 20
571209.8953301049768925
 30
25.0
  0
VERTEX
  5
10136FB
  8
LOTS
 10
804522.746820432250388
 20
571235.889511335757561
 30
25.0
  0
VERTEX
  5
10136FC
  8
LOTS
 10
804529.1922778806183487
 20
571272.7435285373358056
 30
25.0
  0
VERTEX
  5
10136FD
  8
LOTS
 10
804504.0571488084970042
 20
571267.2170737367123365
 30
25.0
  0
VERTEX
  5
10136FE
  8
LOTS
 10
804469.5099988599540666
 20
571227.4320378034608439
 30
25.0
  0
VERTEX
  5
10136FF
  8
LOTS
 10
804520.6366962165338919
 20
571186.324486424215138
 30
25.0
  0
SEQEND
  5
1013700
  8
LOTS
  0
POLYLINE
  5
3EF
  8
LOTS
 66
     1
 10
0.0
 20
0.0
 30
59.3999999999999986
 70
     1
  0
VERTEX
  5
1013701
  8
LOTS
 10
804417.289682308328338
 20
571227.8346532955765724
 30
59.3999999999999986
  0
VERTEX
  5
1013702
  8
LOTS
 10
804440.7534223408438265
 20
571207.6605593040585518
 30
59.3999999999999986
  0
VERTEX
  5
1013703
  8
LOTS
 10
804428.373092225054279
 20
571189.4383859895169735
 30
59.3999999999999986
  0
VERTEX
  5
1013704
  8
LOTS
 10
804414.6818211517529562
 20
571187.4864653130061924
 30
59.3999999999999986
  0
VERTEX
  5
1013705
  8
LOTS
 10
804397.0857687229290605
 20
571160.8042702665552497
 30
59.3999999999999986
  0
VERTEX
  5
1013706
  8
LOTS
 10
804376.881855136831291
 20
571210.2648190059699118
 30
59.3999999999999986
  0
SEQEND
  5
1013707
  8
LOTS
  0
POLYLINE
  5
3F0
  8
LOTS
 66
     1
 10
0.0
 20
0.0
 30
79.7999999999999829
 70
     1
  0
VERTEX
  5
1013708
  8
LOTS
 10
804345.6646354290423915
 20
571250.6945493664825335
 30
79.7999999999999829
  0
VERTEX
  5
1013709
  8
LOTS
 10
804360.8658324510324746
 20
571323.6334643486188725
 30
79.7999999999999829
  0
VERTEX
  5
101370A
  8
LOTS
 10
804398.4219986844109371
 20
571297.0426733953645453
 30
79.7999999999999829
  0
VERTEX
  5
101370B
  8
LOTS
 10
804412.7329356633126736
 20
571252.5649276650510728
 30
79.7999999999999829
  0
VERTEX
  5
101370C
  8
LOTS
 10
804417.289682308328338
 20
571227.8346532955765724
 30
79.7999999999999829
  0
VERTEX
  5
101370D
  8
LOTS
 10
804376.881855136831291
 20
571210.2648190059699118
 30
79.7999999999999829
  0
VERTEX
  5
101370E
  8
LOTS
 10
804349.7742809740593657
 20
571214.1403843098087236
 30
79.7999999999999829
  0
VERTEX
  5
101370F
  8
LOTS
 10
804341.1575173676246777
 20
571215.372321548871696
 30
79.7999999999999829
  0
SEQEND
  5
1013710
  8
LOTS
  0
POLYLINE
  5
3F1
  8
LOTS
 66
     1
 10
0.0
 20
0.0
 30
0.0
 70
     1
  0
VERTEX
  5
1013711
  8
LOTS
 10
806583.1296141812345013
 20
568683.7788019877625629
 30
0.0
  0
VERTEX
  5
1013712
  8
LOTS
 10
806558.8880775438155979
 20
568702.7172862585866824
 30
0.0
  0
VERTEX
  5
1013713
  8
LOTS
 10
806538.0391182102030143
 20
568719.0053497713524848
 30
0.0
  0
VERTEX
  5
1013714
  8
LOTS
 10
806557.1348745335126296
 20
568775.9284658189862967
 30
0.0
  0
VERTEX
  5
1013715
  8
LOTS
 10
806600.2036148066399619
 20
568910.658865355886519
 30
0.0
  0
SEQEND
  5
1013716
  8
LOTS
  0
POLYLINE
  5
3F2
  8
LOTS
 66
     1
 10
0.0
 20
0.0
 30
0.0
 70
     1
  0
VERTEX
  5
1013717
  8
LOTS
 10
806750.8549577425001189
 20
568731.9623919343575835
 30
0.0
  0
VERTEX
  5
1013718
  8
LOTS
 10
806676.9129169570514932
 20
568690.6729333478724584
 30
0.0
  0
VERTEX
  5
1013719
  8
LOTS
 10
806645.812408824567683
 20
568789.7351738476427272
 30
0.0
  0
VERTEX
  5
101371A
  8
LOTS
 10
806690.487073601456359
 20
568790.3059387654066086
 30
0.0
  0
SEQEND
  5
101371B
  8
LOTS
  0
POLYLINE
  5
3F3
  8
LOTS
 66
     1
 10
0.0
 20
0.0
 30
48.2100000000000009
 70
     1
  0
VERTEX
  5
101371C
  8
LOTS
 10
806600.2036148066399619
 20
568910.658865355886519
 30
48.2100000000000009
  0
VERTEX
  5
101371D
  8
LOTS
 10
806591.2575026116101071
 20
568791.7825371735962108
 30
48.2100000000000009
  0
VERTEX
  5
101371E
  8
LOTS
 10
806632.1456332429079339
 20
568792.0017618271522224
 30
48.2100000000000009
  0
VERTEX
  5
101371F
  8
LOTS
 10
806647.8277102862484753
 20
568850.0352346416329965
 30
48.2100000000000009
  0
VERTEX
  5
1013720
  8
LOTS
 10
806647.1898012176388875
 20
568895.2530660408083349
 30
48.2100000000000009
  0
SEQEND
  5
1013721
  8
LOTS
  0
POLYLINE
  5
3F4
  8
LOTS
 66
     1
 10
0.0
 20
0.0
 30
163.0
 70
     1
  0
VERTEX
  5
1013722
  8
LOTS
 10
806658.1760219078278169
 20
569059.0404249825514853
 30
163.0
  0
VERTEX
  5
1013723
  8
LOTS
 10
806620.6227174578234553
 20
568991.0405913089634851
 30
163.0
  0
VERTEX
  5
1013724
  8
LOTS
 10
806600.2036148066399619
 20
568910.658865355886519
 30
163.0
  0
VERTEX
  5
1013725
  8
LOTS
 10
806647.1898012176388875
 20
568895.2530660408083349
 30
163.0
  0
VERTEX
  5
1013726
  8
LOTS
 10
806696.2125389113789424
 20
569009.0685574299423024
 30
163.0
  0
VERTEX
  5
1013727
  8
LOTS
 10
806705.1734301605029032
 20
569044.6098650804487988
 30
163.0
  0
SEQEND
  5
1013728
  8
LOTS
  0
POLYLINE
  5
3F5
  8
LOTS
 66
     1
 10
0.0
 20
0.0
 30
118.75
 70
     1
  0
VERTEX
  5
1013729
  8
LOTS
 10
806747.3625549699645489
 20
569031.6556891927029938
 30
118.75
  0
VERTEX
  5
101372A
  8
LOTS
 10
806773.3454064939869568
 20
569095.8995319430250674
 30
118.75
  0
VERTEX
  5
101372B
  8
LOTS
 10
806847.675508517306298
 20
569048.4397450604010373
 30
118.75
  0
VERTEX
  5
101372C
  8
LOTS
 10
806810.9506311740260571
 20
568993.2906556960660964
 30
118.75
  0
SEQEND
  5
101372D
  8
LOTS
  0
POLYLINE
  5
3F6
  8
LOTS
 66
     1
 10
0.0
 20
0.0
 30
96.0
 70
     1
  0
VERTEX
  5
101372E
  8
LOTS
 10
806686.4318099471274763
 20
569119.7528331563808024
 30
96.0
  0
VERTEX
  5
101372F
  8
LOTS
 10
806658.1760219078278169
 20
569059.0404249825514853
 30
96.0
  0
VERTEX
  5
1013730
  8
LOTS
 10
806747.3625549699645489
 20
569031.6556891927029938
 30
96.0
  0
VERTEX
  5
1013731
  8
LOTS
 10
806773.3454064939869568
 20
569095.8995319430250674
 30
96.0
  0
VERTEX
  5
1013732
  8
LOTS
 10
806722.5052563678473234
 20
569128.360979249002412
 30
96.0
  0
SEQEND
  5
1013733
  8
LOTS
  0
POLYLINE
  5
3FA
  8
LOTS
 66
     1
 10
0.0
 20
0.0
 30
5.4000000000000004
 70
     1
  0
VERTEX
  5
1013734
  8
LOTS
 10
803484.3550308094127104
 20
575158.6941350309643894
 30
5.4000000000000004
  0
VERTEX
  5
1013735
  8
LOTS
 10
803389.4201209869934246
 20
575224.9859357490204275
 30
5.4000000000000004
  0
VERTEX
  5
1013736
  8
LOTS
 10
803370.8363204773049802
 20
575203.0790997156873345
 30
5.4000000000000004
  0
VERTEX
  5
1013737
  8
LOTS
 10
803452.8227081906516105
 20
575145.4006081799743697
 30
5.4000000000000004
  0
SEQEND
  5
1013738
  8
LOTS
  0
POLYLINE
  5
38E0
  8
LOTS
  6
CONTINUOUS
 66
     1
 10
0.0
 20
0.0
 30
3.149999999999999
 70
     1
  0
VERTEX
  5
1013739
  8
LOTS
  6
CONTINUOUS
 10
808377.3508235465269536
 20
568310.6687289470573887
 30
3.149999999999999
  0
VERTEX
  5
101373A
  8
LOTS
  6
CONTINUOUS
 10
808359.4169141929596663
 20
568318.8041579731507227
 30
3.149999999999999
  0
VERTEX
  5
101373B
  8
LOTS
  6
CONTINUOUS
 10
808345.5835953898495063
 20
568340.7496138928690925
 30
3.149999999999999
  0
VERTEX
  5
101373C
  8
LOTS
  6
CONTINUOUS
 10
808339.9020540154306218
 20
568362.7134326768573374
 30
3.149999999999999
  0
VERTEX
  5
101373D
  8
LOTS
  6
CONTINUOUS
 10
808350.4746618471108377
 20
568390.3518519684439525
 30
3.149999999999999
  0
VERTEX
  5
101373E
  8
LOTS
  6
CONTINUOUS
 10
808356.9960834600497037
 20
568405.8146753180772066
 30
3.149999999999999
  0
VERTEX
  5
101373F
  8
LOTS
  6
CONTINUOUS
 10
808378.9811790322419256
 20
568409.8732064184732735
 30
3.149999999999999
  0
VERTEX
  5
1013740
  8
LOTS
  6
CONTINUOUS
 10
808400.9662746042013168
 20
568396.0448153404286131
 30
3.149999999999999
  0
VERTEX
  5
1013741
  8
LOTS
  6
CONTINUOUS
 10
808413.1692379219457507
 20
568374.9073928040452302
 30
3.149999999999999
  0
VERTEX
  5
1013742
  8
LOTS
  6
CONTINUOUS
 10
808422.9513705064309761
 20
568350.5194725503679365
 30
3.149999999999999
  0
VERTEX
  5
1013743
  8
LOTS
  6
CONTINUOUS
 10
808427.8424366336548701
 20
568331.8061514833243564
 30
3.149999999999999
  0
VERTEX
  5
1013744
  8
LOTS
  6
CONTINUOUS
 10
808431.893622852046974
 20
568306.6101978465449065
 30
3.149999999999999
  0
VERTEX
  5
1013745
  8
LOTS
  6
CONTINUOUS
 10
808416.4299488930264488
 20
568296.0323044856777415
 30
3.149999999999999
  0
VERTEX
  5
1013746
  8
LOTS
  6
CONTINUOUS
 10
808387.132956131012179
 20
568307.4182312296470627
 30
3.149999999999999
  0
SEQEND
  5
1013747
  8
LOTS
  6
CONTINUOUS
  0
TEXT
  5
38E1
  8
TEXT_LOTS
 10
808340.0309215686284006
 20
569342.722299259272404
 30
651.9099999999998545
 40
2.990400915391541
  1
CA-LE-LT-01
  0
TEXT
  5
38E4
  8
TEXT_LOTS
 10
808374.3898507797857746
 20
568355.2640591923845932
 30
651.9099999999998545
 40
2.990400915391541
  1
CA-LE-LT-02
  0
ENDSEC
  0
EOF
