  0
SECTION
  2
HEADER
  9
$ACADVER
  1
AC1009
  9
$INSBASE
 10
0.0
 20
0.0
 30
0.0
  9
$EXTMIN
 10
799353.0088695444865152
 20
557450.0714477095752954
 30
-652.9099999999998545
  9
$EXTMAX
 10
832788.075451223179698
 20
576887.6773977547418326
 30
250.0
  9
$LIMMIN
 10
0.0
 20
0.0
  9
$LIMMAX
 10
12.0
 20
9.0
  9
$ORTHOMODE
 70
     0
  9
$REGENMODE
 70
     1
  9
$FILLMODE
 70
     1
  9
$QTEXTMODE
 70
     0
  9
$MIRRTEXT
 70
     1
  9
$DRAGMODE
 70
     2
  9
$LTSCALE
 40
1.0
  9
$OSMODE
 70
    37
  9
$ATTMODE
 70
     1
  9
$TEXTSIZE
 40
3.0
  9
$TRACEWID
 40
0.05
  9
$TEXTSTYLE
  7
STANDARD
  9
$CLAYER
  8
HYDRO
  9
$CELTYPE
  6
BYLAYER
  9
$CECOLOR
 62
   256
  9
$DIMSCALE
 40
1.0
  9
$DIMASZ
 40
0.18
  9
$DIMEXO
 40
0.0625
  9
$DIMDLI
 40
0.38
  9
$DIMRND
 40
0.0
  9
$DIMDLE
 40
0.0
  9
$DIMEXE
 40
0.18
  9
$DIMTP
 40
0.0
  9
$DIMTM
 40
0.0
  9
$DIMTXT
 40
0.18
  9
$DIMCEN
 40
0.09
  9
$DIMTSZ
 40
0.0
  9
$DIMTOL
 70
     0
  9
$DIMLIM
 70
     0
  9
$DIMTIH
 70
     1
  9
$DIMTOH
 70
     1
  9
$DIMSE1
 70
     0
  9
$DIMSE2
 70
     0
  9
$DIMTAD
 70
     0
  9
$DIMZIN
 70
     0
  9
$DIMBLK
  1

  9
$DIMASO
 70
     1
  9
$DIMSHO
 70
     1
  9
$DIMPOST
  1

  9
$DIMAPOST
  1

  9
$DIMALT
 70
     0
  9
$DIMALTD
 70
     2
  9
$DIMALTF
 40
25.3999999999999986
  9
$DIMLFAC
 40
1.0
  9
$DIMTOFL
 70
     0
  9
$DIMTVP
 40
0.0
  9
$DIMTIX
 70
     0
  9
$DIMSOXD
 70
     0
  9
$DIMSAH
 70
     0
  9
$DIMBLK1
  1

  9
$DIMBLK2
  1

  9
$DIMSTYLE
  2
STANDARD
  9
$DIMCLRD
 70
     0
  9
$DIMCLRE
 70
     0
  9
$DIMCLRT
 70
     0
  9
$DIMTFAC
 40
1.0
  9
$DIMGAP
 40
0.09
  9
$LUNITS
 70
     2
  9
$LUPREC
 70
     4
  9
$SKETCHINC
 40
0.1
  9
$FILLETRAD
 40
0.5
  9
$AUNITS
 70
     0
  9
$AUPREC
 70
     0
  9
$MENU
  1
.
  9
$ELEVATION
 40
0.0
  9
$PELEVATION
 40
0.0
  9
$THICKNESS
 40
0.0
  9
$LIMCHECK
 70
     0
  9
$BLIPMODE
 70
     0
  9
$CHAMFERA
 40
0.5
  9
$CHAMFERB
 40
0.5
  9
$SKPOLY
 70
     0
  9
$TDCREATE
 40
2457466.5392708331346512
  9
$TDUPDATE
 40
2457947.7103703701868653
  9
$TDINDWG
 40
11.2384943403000008
  9
$TDUSRTIMER
 40
11.2384896759000004
  9
$USRTIMER
 70
     1
  9
$ANGBASE
 50
0.0
  9
$ANGDIR
 70
     0
  9
$PDMODE
 70
     2
  9
$PDSIZE
 40
-0.1
  9
$PLINEWID
 40
0.0
  9
$COORDS
 70
     1
  9
$SPLFRAME
 70
     0
  9
$SPLINETYPE
 70
     6
  9
$SPLINESEGS
 70
     8
  9
$ATTDIA
 70
     1
  9
$ATTREQ
 70
     1
  9
$HANDLING
 70
     1
  9
$HANDSEED
  5
669
  9
$SURFTAB1
 70
     6
  9
$SURFTAB2
 70
     6
  9
$SURFTYPE
 70
     6
  9
$SURFU
 70
     6
  9
$SURFV
 70
     6
  9
$UCSNAME
  2

  9
$UCSORG
 10
0.0
 20
0.0
 30
0.0
  9
$UCSXDIR
 10
1.0
 20
0.0
 30
0.0
  9
$UCSYDIR
 10
0.0
 20
1.0
 30
0.0
  9
$PUCSNAME
  2

  9
$PUCSORG
 10
0.0
 20
0.0
 30
0.0
  9
$PUCSXDIR
 10
1.0
 20
0.0
 30
0.0
  9
$PUCSYDIR
 10
0.0
 20
1.0
 30
0.0
  9
$USERI1
 70
     0
  9
$USERI2
 70
     0
  9
$USERI3
 70
     0
  9
$USERI4
 70
     0
  9
$USERI5
 70
     0
  9
$USERR1
 40
0.0
  9
$USERR2
 40
0.0
  9
$USERR3
 40
0.0
  9
$USERR4
 40
0.0
  9
$USERR5
 40
0.0
  9
$WORLDVIEW
 70
     1
  9
$SHADEDGE
 70
     3
  9
$SHADEDIF
 70
    70
  9
$TILEMODE
 70
     1
  9
$MAXACTVP
 70
    64
  9
$PLIMCHECK
 70
     0
  9
$PEXTMIN
 10
1.0000000000000000E+20
 20
1.0000000000000000E+20
 30
1.0000000000000000E+20
  9
$PEXTMAX
 10
-1.0000000000000000E+20
 20
-1.0000000000000000E+20
 30
-1.0000000000000000E+20
  9
$PLIMMIN
 10
0.0
 20
0.0
  9
$PLIMMAX
 10
12.0
 20
9.0
  9
$UNITMODE
 70
     0
  9
$VISRETAIN
 70
     1
  9
$PLINEGEN
 70
     0
  9
$PSLTSCALE
 70
     1
  0
ENDSEC
  0
SECTION
  2
TABLES
  0
TABLE
  2
VPORT
 70
     1
  0
VPORT
  2
*ACTIVE
 70
     0
 10
0.0
 20
0.0
 11
1.0
 21
1.0
 12
467.4084831920480951
 22
-613.0769492248964525
 13
0.0
 23
0.0
 14
0.5
 24
0.5
 15
0.5
 25
0.5
 16
0.0
 26
0.0
 36
143469.5042805626871996
 17
816070.5421142578125
 27
567168.8748779296875
 37
-201.4549865722655966
 40
24701.2710296925797593
 41
2.9203539823008842
 42
50.0
 43
0.0
 44
0.0
 50
0.0
 51
0.0
 71
     0
 72
   100
 73
     1
 74
     3
 75
     0
 76
     0
 77
     0
 78
     0
  0
ENDTAB
  0
TABLE
  2
LTYPE
 70
     1
  0
LTYPE
  2
CONTINUOUS
 70
     0
  3
Solid line
 72
    65
 73
     0
 40
0.0
  0
ENDTAB
  0
TABLE
  2
LAYER
 70
     2
  0
LAYER
  2
0
 70
     0
 62
     7
  6
CONTINUOUS
  0
LAYER
  2
HYDRO
 70
     0
 62
     5
  6
CONTINUOUS
  0
ENDTAB
  0
TABLE
  2
STYLE
 70
     1
  0
STYLE
  2
STANDARD
 70
     0
 40
0.0
 41
1.0
 50
0.0
 71
     0
 42
3.0
  3
txt
  4

  0
ENDTAB
  0
TABLE
  2
VIEW
 70
     0
  0
ENDTAB
  0
TABLE
  2
UCS
 70
     0
  0
ENDTAB
  0
TABLE
  2
APPID
 70
     5
  0
APPID
  2
ACAD
 70
     0
  0
APPID
  2
ACAD_NAV_VCDISPLAY
 70
     0
  0
APPID
  2
ACAECLAYERSTANDARD
 70
     0
  0
APPID
  2
ACCMTRANSPARENCY
 70
     0
  0
APPID
  2
ACAD_PSEXT
 70
     0
  0
ENDTAB
  0
TABLE
  2
DIMSTYLE
 70
     1
  0
DIMSTYLE
  2
STANDARD
 70
     0
  3

  4

  5

  6

  7

 40
1.0
 41
0.18
 42
0.0625
 43
0.38
 44
0.18
 45
0.0
 46
0.0
 47
0.0
 48
0.0
140
0.18
141
0.09
142
0.0
143
25.3999999999999986
144
1.0
145
0.0
146
1.0
147
0.09
 71
     0
 72
     0
 73
     1
 74
     1
 75
     0
 76
     0
 77
     0
 78
     0
170
     0
171
     2
172
     0
173
     0
174
     0
175
     0
176
     0
177
     0
178
     0
  0
ENDTAB
  0
ENDSEC
  0
SECTION
  2
BLOCKS
  0
BLOCK
  8
0
  2
$MODEL_SPACE
 70
     0
 10
0.0
 20
0.0
 30
0.0
  3
$MODEL_SPACE
  1

  0
ENDBLK
  5
16
  8
0
  0
BLOCK
 67
     1
  8
0
  2
$PAPER_SPACE
 70
     0
 10
0.0
 20
0.0
 30
0.0
  3
$PAPER_SPACE
  1

  0
ENDBLK
  5
1E
 67
     1
  8
0
  0
ENDSEC
  0
SECTION
  2
ENTITIES
  0
POLYLINE
  5
65
  8
HYDRO
  6
CONTINUOUS
 66
     1
 10
0.0
 20
0.0
 30
-0.9999999999999538
  0
VERTEX
  5
B3
  8
HYDRO
  6
CONTINUOUS
 10
813987.335788068594411
 20
574091.0987639160593972
 30
-0.9999999999999538
  0
VERTEX
  5
B4
  8
HYDRO
  6
CONTINUOUS
 10
814138.1625813490245491
 20
573927.924282867112197
 30
-0.9999999999999538
  0
VERTEX
  5
B5
  8
HYDRO
  6
CONTINUOUS
 10
814330.1492820825660601
 20
573832.0988547636661679
 30
-0.9999999999999538
  0
VERTEX
  5
B6
  8
HYDRO
  6
CONTINUOUS
 10
814669.7572545013390481
 20
573758.3657973010558635
 30
-0.9999999999999538
  0
VERTEX
  5
B7
  8
HYDRO
  6
CONTINUOUS
 10
814891.2385667480994016
 20
573809.9697553273290396
 30
-0.9999999999999538
  0
VERTEX
  5
B8
  8
HYDRO
  6
CONTINUOUS
 10
815157.0359033248387277
 20
573957.4175058518303558
 30
-0.9999999999999538
  0
VERTEX
  5
B9
  8
HYDRO
  6
CONTINUOUS
 10
815334.2505959420232102
 20
574091.0987639167578891
 30
-0.9999999999999538
  0
SEQEND
  5
BA
  8
HYDRO
  6
CONTINUOUS
  0
POLYLINE
  5
66
  8
HYDRO
  6
CONTINUOUS
 66
     1
 10
0.0
 20
0.0
 30
-0.9999999999999538
  0
VERTEX
  5
BB
  8
HYDRO
  6
CONTINUOUS
 10
811996.6660476627293974
 20
573552.7579987115459517
 30
-0.9999999999999538
  0
VERTEX
  5
BC
  8
HYDRO
  6
CONTINUOUS
 10
812196.40928777505178
 20
573596.1897996810730547
 30
-0.9999999999999538
  0
VERTEX
  5
BD
  8
HYDRO
  6
CONTINUOUS
 10
812395.7572902060346678
 20
573677.2869806915987283
 30
-0.9999999999999538
  0
VERTEX
  5
BE
  8
HYDRO
  6
CONTINUOUS
 10
812521.2946567954495549
 20
573758.3657973010558635
 30
-0.9999999999999538
  0
VERTEX
  5
BF
  8
HYDRO
  6
CONTINUOUS
 10
812683.6879365905188024
 20
573935.2884064151439816
 30
-0.9999999999999538
  0
VERTEX
  5
C0
  8
HYDRO
  6
CONTINUOUS
 10
812816.5866048836614937
 20
574031.1321989162825048
 30
-0.9999999999999538
  0
VERTEX
  5
C1
  8
HYDRO
  6
CONTINUOUS
 10
812912.5799552432727069
 20
574053.242933954927139
 30
-0.9999999999999538
  0
VERTEX
  5
C2
  8
HYDRO
  6
CONTINUOUS
 10
812970.4507689013844356
 20
574091.0987639160593972
 30
-0.9999999999999538
  0
SEQEND
  5
C3
  8
HYDRO
  6
CONTINUOUS
  0
POLYLINE
  5
67
  8
HYDRO
  6
CONTINUOUS
 66
     1
 10
0.0
 20
0.0
 30
-0.9999999999999538
  0
VERTEX
  5
C4
  8
HYDRO
  6
CONTINUOUS
 10
815994.0361857414245605
 20
569354.9872040254995227
 30
-0.9999999999999538
  0
VERTEX
  5
C5
  8
HYDRO
  6
CONTINUOUS
 10
815864.5113419404951856
 20
569389.6591872113058344
 30
-0.9999999999999538
  0
VERTEX
  5
C6
  8
HYDRO
  6
CONTINUOUS
 10
815656.1716823977185413
 20
569479.7916519740829244
 30
-0.9999999999999538
  0
VERTEX
  5
C7
  8
HYDRO
  6
CONTINUOUS
 10
815524.2117035882547498
 20
569729.4372766639571637
 30
-0.9999999999999538
  0
VERTEX
  5
C8
  8
HYDRO
  6
CONTINUOUS
 10
815399.1683840974001214
 20
569833.4532262184657156
 30
-0.9999999999999538
  0
VERTEX
  5
C9
  8
HYDRO
  6
CONTINUOUS
 10
815218.6435759464511648
 20
569722.4955342663452029
 30
-0.9999999999999538
  0
VERTEX
  5
CA
  8
HYDRO
  6
CONTINUOUS
 10
815176.9460012101335451
 20
569493.675136766047217
 30
-0.9999999999999538
  0
VERTEX
  5
CB
  8
HYDRO
  6
CONTINUOUS
 10
815058.8687457419000566
 20
569348.0454616280039772
 30
-0.9999999999999538
  0
VERTEX
  5
CC
  8
HYDRO
  6
CONTINUOUS
 10
814850.529086199356243
 20
569354.9872040254995227
 30
-0.9999999999999538
  0
VERTEX
  5
CD
  8
HYDRO
  6
CONTINUOUS
 10
814683.8870013930136338
 20
569389.6591872113058344
 30
-0.9999999999999538
  0
VERTEX
  5
CE
  8
HYDRO
  6
CONTINUOUS
 10
814551.9270225851796567
 20
569576.8842235290212557
 30
-0.9999999999999538
  0
VERTEX
  5
CF
  8
HYDRO
  6
CONTINUOUS
 10
814503.3127885316498578
 20
569729.4372766639571637
 30
-0.9999999999999538
  0
VERTEX
  5
D0
  8
HYDRO
  6
CONTINUOUS
 10
814343.587363037513569
 20
569972.1411589561030269
 30
-0.9999999999999538
  0
VERTEX
  5
D1
  8
HYDRO
  6
CONTINUOUS
 10
814169.9298094980185851
 20
570048.4085033248411492
 30
-0.9999999999999538
  0
VERTEX
  5
D2
  8
HYDRO
  6
CONTINUOUS
 10
813982.4389373179292306
 20
570110.810727298958227
 30
-0.9999999999999538
  0
SEQEND
  5
D3
  8
HYDRO
  6
CONTINUOUS
  0
POLYLINE
  5
68
  8
HYDRO
  6
CONTINUOUS
 66
     1
 10
0.0
 20
0.0
 30
-0.9999999999999538
  0
VERTEX
  5
D4
  8
HYDRO
  6
CONTINUOUS
 10
814881.2049185704672709
 20
570658.565622667898424
 30
-0.9999999999999538
  0
VERTEX
  5
D5
  8
HYDRO
  6
CONTINUOUS
 10
815091.9204963294323534
 20
570328.6492148741381243
 30
-0.9999999999999538
  0
VERTEX
  5
D6
  8
HYDRO
  6
CONTINUOUS
 10
815392.6469624551245943
 20
570221.4011312908260152
 30
-0.9999999999999538
  0
VERTEX
  5
D7
  8
HYDRO
  6
CONTINUOUS
 10
815661.1615580513607711
 20
570167.7954538982594386
 30
-0.9999999999999538
  0
VERTEX
  5
D8
  8
HYDRO
  6
CONTINUOUS
 10
815897.4642831122037023
 20
570167.7954538982594386
 30
-0.9999999999999538
  0
VERTEX
  5
D9
  8
HYDRO
  6
CONTINUOUS
 10
816037.0819918812485412
 20
570202.1418082156451419
 30
-0.9999999999999538
  0
SEQEND
  5
DA
  8
HYDRO
  6
CONTINUOUS
  0
POLYLINE
  5
69
  8
HYDRO
  6
CONTINUOUS
 66
     1
 10
0.0
 20
0.0
 30
-0.9999999999999538
  0
VERTEX
  5
DB
  8
HYDRO
  6
CONTINUOUS
 10
802969.9315930530428886
 20
566768.4535855520516634
 30
-0.9999999999999538
  0
VERTEX
  5
DC
  8
HYDRO
  6
CONTINUOUS
 10
802919.9340271431719884
 20
566743.9003855958580971
 30
-0.9999999999999538
  0
VERTEX
  5
DD
  8
HYDRO
  6
CONTINUOUS
 10
802868.2567011093487963
 20
566700.5787710127187893
 30
-0.9999999999999538
  0
VERTEX
  5
DE
  8
HYDRO
  6
CONTINUOUS
 10
802810.4037863988196477
 20
566710.8811982196057215
 30
-0.9999999999999538
  0
VERTEX
  5
DF
  8
HYDRO
  6
CONTINUOUS
 10
802727.7497075749561191
 20
566756.2779897629516199
 30
-0.9999999999999538
  0
VERTEX
  5
E0
  8
HYDRO
  6
CONTINUOUS
 10
802715.349125514854677
 20
566832.6371561200357974
 30
-0.9999999999999538
  0
VERTEX
  5
E1
  8
HYDRO
  6
CONTINUOUS
 10
802634.7206397716654465
 20
566890.4115518303588033
 30
-0.9999999999999538
  0
VERTEX
  5
E2
  8
HYDRO
  6
CONTINUOUS
 10
802539.665978881646879
 20
566913.1099476021481678
 30
-0.9999999999999538
  0
VERTEX
  5
E3
  8
HYDRO
  6
CONTINUOUS
 10
802450.7869066707789898
 20
566894.5435413499362767
 30
-0.9999999999999538
  0
VERTEX
  5
E4
  8
HYDRO
  6
CONTINUOUS
 10
802329.5971545152133331
 20
566856.7496105280006304
 30
-0.9999999999999538
  0
VERTEX
  5
E5
  8
HYDRO
  6
CONTINUOUS
 10
802279.3031603418057784
 20
566844.2067267814418301
 30
-0.9999999999999538
  0
VERTEX
  5
E6
  8
HYDRO
  6
CONTINUOUS
 10
802214.3853721864288673
 20
566881.8537424216046929
 30
-0.9999999999999538
  0
VERTEX
  5
E7
  8
HYDRO
  6
CONTINUOUS
 10
802097.0491873607970774
 20
566940.4178072401555255
 30
-0.9999999999999538
  0
VERTEX
  5
E8
  8
HYDRO
  6
CONTINUOUS
 10
801998.5856015254976228
 20
566940.4178072401555255
 30
-0.9999999999999538
  0
VERTEX
  5
E9
  8
HYDRO
  6
CONTINUOUS
 10
801898.6892791157588363
 20
566984.8780144907068461
 30
-0.9999999999999538
  0
VERTEX
  5
EA
  8
HYDRO
  6
CONTINUOUS
 10
801781.4024990021716803
 20
567038.4285986898466945
 30
-0.9999999999999538
  0
VERTEX
  5
EB
  8
HYDRO
  6
CONTINUOUS
 10
801680.8145106618758291
 20
567035.0679138774285093
 30
-0.9999999999999538
  0
VERTEX
  5
EC
  8
HYDRO
  6
CONTINUOUS
 10
801626.6669491585344076
 20
566980.8011181610636413
 30
-0.9999999999999538
  0
VERTEX
  5
ED
  8
HYDRO
  6
CONTINUOUS
 10
801562.0949939740821719
 20
566980.8011181610636413
 30
-0.9999999999999538
  0
VERTEX
  5
EE
  8
HYDRO
  6
CONTINUOUS
 10
801501.574224955867976
 20
566998.2656605412485078
 30
-0.9999999999999538
  0
VERTEX
  5
EF
  8
HYDRO
  6
CONTINUOUS
 10
801420.7975250852759928
 20
567043.9562824480235577
 30
-0.9999999999999538
  0
VERTEX
  5
F0
  8
HYDRO
  6
CONTINUOUS
 10
801410.076703144935891
 20
567064.1020269157597795
 30
-0.9999999999999538
  0
VERTEX
  5
F1
  8
HYDRO
  6
CONTINUOUS
 10
801356.4231887320056558
 20
567065.6630007338244468
 30
-0.9999999999999538
  0
VERTEX
  5
F2
  8
HYDRO
  6
CONTINUOUS
 10
801273.5220863645663485
 20
567113.5940791863249615
 30
-0.9999999999999538
  0
VERTEX
  5
F3
  8
HYDRO
  6
CONTINUOUS
 10
801232.0221304681617767
 20
567170.248246623785235
 30
-0.9999999999999538
  0
VERTEX
  5
F4
  8
HYDRO
  6
CONTINUOUS
 10
801218.9298824744764715
 20
567263.9434045738307759
 30
-0.9999999999999538
  0
VERTEX
  5
F5
  8
HYDRO
  6
CONTINUOUS
 10
801214.582268048892729
 20
567348.9338379305554554
 30
-0.9999999999999538
  0
VERTEX
  5
F6
  8
HYDRO
  6
CONTINUOUS
 10
801122.9365321084624156
 20
567418.6450922598596662
 30
-0.9999999999999538
  0
VERTEX
  5
F7
  8
HYDRO
  6
CONTINUOUS
 10
801029.0675842456985265
 20
567423.0158189525827765
 30
-0.9999999999999538
  0
VERTEX
  5
F8
  8
HYDRO
  6
CONTINUOUS
 10
800948.3402890851721168
 20
567431.720543546252884
 30
-0.9999999999999538
  0
VERTEX
  5
F9
  8
HYDRO
  6
CONTINUOUS
 10
800891.6236826934618875
 20
567470.9468974020564929
 30
-0.9999999999999538
  0
VERTEX
  5
FA
  8
HYDRO
  6
CONTINUOUS
 10
800882.8790491271065548
 20
567540.6765161259099841
 30
-0.9999999999999538
  0
VERTEX
  5
FB
  8
HYDRO
  6
CONTINUOUS
 10
800898.14510433585383
 20
567645.2617620158707723
 30
-0.9999999999999538
  0
VERTEX
  5
FC
  8
HYDRO
  6
CONTINUOUS
 10
800924.6754332826239988
 20
567735.0269388214219362
 30
-0.9999999999999538
  0
VERTEX
  5
FD
  8
HYDRO
  6
CONTINUOUS
 10
800916.3260373971424997
 20
567805.913514613523148
 30
-0.9999999999999538
  0
VERTEX
  5
FE
  8
HYDRO
  6
CONTINUOUS
 10
800875.9623898097779602
 20
567865.6896296901395544
 30
-0.9999999999999538
  0
VERTEX
  5
FF
  8
HYDRO
  6
CONTINUOUS
 10
800828.632678207824938
 20
567896.2663521488429978
 30
-0.9999999999999538
  0
VERTEX
  5
100
  8
HYDRO
  6
CONTINUOUS
 10
800759.021442663972266
 20
568070.0119204306975007
 30
-0.9999999999999538
  0
VERTEX
  5
101
  8
HYDRO
  6
CONTINUOUS
 10
800717.2744632154935971
 20
568069.5711748788598925
 30
-0.9999999999999538
  0
VERTEX
  5
102
  8
HYDRO
  6
CONTINUOUS
 10
800662.237616948550567
 20
568087.898843958042562
 30
-0.9999999999999538
  0
VERTEX
  5
103
  8
HYDRO
  6
CONTINUOUS
 10
800595.9364969320595264
 20
568142.8451223957818002
 30
-0.9999999999999538
  0
VERTEX
  5
104
  8
HYDRO
  6
CONTINUOUS
 10
800552.1639244011603296
 20
568207.6530824891524389
 30
-0.9999999999999538
  0
VERTEX
  5
105
  8
HYDRO
  6
CONTINUOUS
 10
800504.1919515724293888
 20
568293.598464536247775
 30
-0.9999999999999538
  0
VERTEX
  5
106
  8
HYDRO
  6
CONTINUOUS
 10
800403.9992009088164195
 20
568352.7869188828626648
 30
-0.9999999999999538
  0
VERTEX
  5
107
  8
HYDRO
  6
CONTINUOUS
 10
800313.7862015411956236
 20
568396.6227366050006822
 30
-0.9999999999999538
  0
VERTEX
  5
108
  8
HYDRO
  6
CONTINUOUS
 10
800288.4909903291845694
 20
568457.9414611051324755
 30
-0.9999999999999538
  0
VERTEX
  5
109
  8
HYDRO
  6
CONTINUOUS
 10
800234.2940241154283285
 20
568555.3094986287178472
 30
-0.9999999999999538
  0
VERTEX
  5
10A
  8
HYDRO
  6
CONTINUOUS
 10
800180.0970579016720876
 20
568573.3433373409789056
 30
-0.9999999999999538
  0
VERTEX
  5
10B
  8
HYDRO
  6
CONTINUOUS
 10
800078.9656177586875856
 20
568584.1599676900077611
 30
-0.9999999999999538
  0
VERTEX
  5
10C
  8
HYDRO
  6
CONTINUOUS
 10
800006.7359326195437461
 20
568649.0964785704854876
 30
-0.9999999999999538
  0
VERTEX
  5
10D
  8
HYDRO
  6
CONTINUOUS
 10
799938.1127912583760917
 20
568670.7297392655164003
 30
-0.9999999999999538
  0
VERTEX
  5
10E
  8
HYDRO
  6
CONTINUOUS
 10
799771.9153488371521235
 20
568717.614047035924159
 30
-0.9999999999999538
  0
VERTEX
  5
10F
  8
HYDRO
  6
CONTINUOUS
 10
799457.3555640787817538
 20
568862.6560614380287006
 30
-0.9999999999999538
  0
VERTEX
  5
110
  8
HYDRO
  6
CONTINUOUS
 10
799380.6977669013431296
 20
568883.2058226587250829
 30
-0.9999999999999538
  0
SEQEND
  5
111
  8
HYDRO
  6
CONTINUOUS
  0
POLYLINE
  5
6A
  8
HYDRO
  6
CONTINUOUS
 66
     1
 10
0.0
 20
0.0
 30
-0.9999999999999538
  0
VERTEX
  5
112
  8
HYDRO
  6
CONTINUOUS
 10
808856.1568851883057505
 20
563015.5398180234478787
 30
-0.9999999999999538
  0
VERTEX
  5
113
  8
HYDRO
  6
CONTINUOUS
 10
808909.5139713421231136
 20
563154.7257364316610619
 30
-0.9999999999999538
  0
VERTEX
  5
114
  8
HYDRO
  6
CONTINUOUS
 10
808835.7033354938030243
 20
563388.908538113697432
 30
-0.9999999999999538
  0
VERTEX
  5
115
  8
HYDRO
  6
CONTINUOUS
 10
808661.9469725305680186
 20
563545.0242844360182062
 30
-0.9999999999999538
  0
VERTEX
  5
116
  8
HYDRO
  6
CONTINUOUS
 10
808566.3982645560754463
 20
563545.0242844360182062
 30
-0.9999999999999538
  0
VERTEX
  5
117
  8
HYDRO
  6
CONTINUOUS
 10
808453.459098860155791
 20
563610.0709817026508972
 30
-0.9999999999999538
  0
VERTEX
  5
118
  8
HYDRO
  6
CONTINUOUS
 10
808453.459098860155791
 20
563770.5390903198858723
 30
-0.9999999999999538
  0
VERTEX
  5
119
  8
HYDRO
  6
CONTINUOUS
 10
808414.3799737271619961
 20
563839.9197854842059314
 30
-0.9999999999999538
  0
VERTEX
  5
11A
  8
HYDRO
  6
CONTINUOUS
 10
808305.7884224648587406
 20
563883.2964932636823505
 30
-0.9999999999999538
  0
VERTEX
  5
11B
  8
HYDRO
  6
CONTINUOUS
 10
808049.5261948005063459
 20
563952.6771884278859943
 30
-0.9999999999999538
  0
VERTEX
  5
11C
  8
HYDRO
  6
CONTINUOUS
 10
807867.1240076964022592
 20
564000.3878941015573218
 30
-0.9999999999999538
  0
VERTEX
  5
11D
  8
HYDRO
  6
CONTINUOUS
 10
807815.0020392753649503
 20
564160.8376383214490488
 30
-0.9999999999999538
  0
VERTEX
  5
11E
  8
HYDRO
  6
CONTINUOUS
 10
807741.1419987218687311
 20
564303.9513909476809204
 30
-0.9999999999999538
  0
VERTEX
  5
11F
  8
HYDRO
  6
CONTINUOUS
 10
807610.8617800321662799
 20
564447.0651435775216669
 30
-0.9999999999999538
  0
VERTEX
  5
120
  8
HYDRO
  6
CONTINUOUS
 10
807337.2090946604730561
 20
564542.4681905274046585
 30
-0.9999999999999538
  0
VERTEX
  5
121
  8
HYDRO
  6
CONTINUOUS
 10
807211.2764903982169926
 20
564754.9626383213326335
 30
-0.9999999999999538
  0
VERTEX
  5
122
  8
HYDRO
  6
CONTINUOUS
 10
807204.7550687607144937
 20
564861.0904936316655949
 30
-0.9999999999999538
  0
VERTEX
  5
123
  8
HYDRO
  6
CONTINUOUS
 10
807133.8593107715714723
 20
565082.3998524022754282
 30
-0.9999999999999538
  0
VERTEX
  5
124
  8
HYDRO
  6
CONTINUOUS
 10
807058.4677242214092985
 20
565126.6580512782093138
 30
-0.9999999999999538
  0
VERTEX
  5
125
  8
HYDRO
  6
CONTINUOUS
 10
806921.0732273811008781
 20
565219.6002689158776775
 30
-0.9999999999999538
  0
VERTEX
  5
126
  8
HYDRO
  6
CONTINUOUS
 10
806805.8120403466746211
 20
565263.8768321861280128
 30
-0.9999999999999538
  0
VERTEX
  5
127
  8
HYDRO
  6
CONTINUOUS
 10
806686.1044294709572569
 20
565184.1937098151538521
 30
-0.9999999999999538
  0
VERTEX
  5
128
  8
HYDRO
  6
CONTINUOUS
 10
806597.4723808055277914
 20
565157.6387904897565022
 30
-0.9999999999999538
  0
VERTEX
  5
129
  8
HYDRO
  6
CONTINUOUS
 10
806504.3445035852491856
 20
565210.748629140551202
 30
-0.9999999999999538
  0
VERTEX
  5
12A
  8
HYDRO
  6
CONTINUOUS
 10
806371.3964305880945176
 20
565170.9162501506507397
 30
-0.9999999999999538
  0
VERTEX
  5
12B
  8
HYDRO
  6
CONTINUOUS
 10
806335.9238492385484278
 20
565201.8969893654575571
 30
-0.9999999999999538
  0
VERTEX
  5
12C
  8
HYDRO
  6
CONTINUOUS
 10
806402.4225880879675969
 20
565286.0059316259576008
 30
-0.9999999999999538
  0
VERTEX
  5
12D
  8
HYDRO
  6
CONTINUOUS
 10
806429.0023217467823997
 20
565396.6514288106700405
 30
-0.9999999999999538
  0
VERTEX
  5
12E
  8
HYDRO
  6
CONTINUOUS
 10
806353.6601399132050574
 20
565538.2960296077653766
 30
-0.9999999999999538
  0
VERTEX
  5
12F
  8
HYDRO
  6
CONTINUOUS
 10
806202.9263715293491259
 20
565551.5734892721520737
 30
-0.9999999999999538
  0
VERTEX
  5
130
  8
HYDRO
  6
CONTINUOUS
 10
806053.2301020448794588
 20
565562.022831660695374
 30
-0.9999999999999538
  0
VERTEX
  5
131
  8
HYDRO
  6
CONTINUOUS
 10
805836.0469995215535164
 20
565607.1992504283552989
 30
-0.9999999999999538
  0
VERTEX
  5
132
  8
HYDRO
  6
CONTINUOUS
 10
805718.4143864371581003
 20
565665.9285948291653767
 30
-0.9999999999999538
  0
VERTEX
  5
133
  8
HYDRO
  6
CONTINUOUS
 10
805600.7817733541596681
 20
565769.8343579942593351
 30
-0.9999999999999538
  0
VERTEX
  5
134
  8
HYDRO
  6
CONTINUOUS
 10
805514.8175789962988347
 20
565882.7570405205478892
 30
-0.9999999999999538
  0
VERTEX
  5
135
  8
HYDRO
  6
CONTINUOUS
 10
805410.7218562903581187
 20
565941.4863849182147533
 30
-0.9999999999999538
  0
VERTEX
  5
136
  8
HYDRO
  6
CONTINUOUS
 10
805198.0839870262425393
 20
565982.1451618082355708
 30
-0.9999999999999538
  0
VERTEX
  5
137
  8
HYDRO
  6
CONTINUOUS
 10
805039.7418934009037912
 20
566022.803938701399602
 30
-0.9999999999999538
  0
VERTEX
  5
138
  8
HYDRO
  6
CONTINUOUS
 10
804881.3997997696278617
 20
566108.6391343621071428
 30
-0.9999999999999538
  0
VERTEX
  5
139
  8
HYDRO
  6
CONTINUOUS
 10
804763.7177819792414084
 20
566176.4037625150522217
 30
-0.9999999999999538
  0
VERTEX
  5
13A
  8
HYDRO
  6
CONTINUOUS
 10
804573.0650084028020501
 20
566193.6112033211393282
 30
-0.9999999999999538
  0
VERTEX
  5
13B
  8
HYDRO
  6
CONTINUOUS
 10
804497.5252077293116599
 20
566179.1033290005289018
 30
-0.9999999999999538
  0
VERTEX
  5
13C
  8
HYDRO
  6
CONTINUOUS
 10
804366.7509419424459338
 20
566173.3001792735885829
 30
-0.9999999999999538
  0
VERTEX
  5
13D
  8
HYDRO
  6
CONTINUOUS
 10
804302.8212479811627418
 20
566205.2175027779303491
 30
-0.9999999999999538
  0
VERTEX
  5
13E
  8
HYDRO
  6
CONTINUOUS
 10
804169.1815090453019366
 20
566266.1505749196512625
 30
-0.9999999999999538
  0
VERTEX
  5
13F
  8
HYDRO
  6
CONTINUOUS
 10
804041.3221211193595082
 20
566356.0810313075780869
 30
-0.9999999999999538
  0
VERTEX
  5
140
  8
HYDRO
  6
CONTINUOUS
 10
803896.0228707711212337
 20
566446.0298520900541916
 30
-0.9999999999999538
  0
VERTEX
  5
141
  8
HYDRO
  6
CONTINUOUS
 10
803773.993238550494425
 20
566501.1597745050676167
 30
-0.9999999999999538
  0
VERTEX
  5
142
  8
HYDRO
  6
CONTINUOUS
 10
803705.1230736492434517
 20
566512.7293451663572341
 30
-0.9999999999999538
  0
VERTEX
  5
143
  8
HYDRO
  6
CONTINUOUS
 10
803642.0826644531916827
 20
566571.9545283088227734
 30
-0.9999999999999538
  0
VERTEX
  5
144
  8
HYDRO
  6
CONTINUOUS
 10
803573.5089278023224324
 20
566627.4701030787546188
 30
-0.9999999999999538
  0
VERTEX
  5
145
  8
HYDRO
  6
CONTINUOUS
 10
803488.2363993766484782
 20
566681.1492380617419258
 30
-0.9999999999999538
  0
VERTEX
  5
146
  8
HYDRO
  6
CONTINUOUS
 10
803411.2144574248231947
 20
566716.6292547532357275
 30
-0.9999999999999538
  0
VERTEX
  5
147
  8
HYDRO
  6
CONTINUOUS
 10
803348.9151188696268946
 20
566729.5761552556650713
 30
-0.9999999999999538
  0
VERTEX
  5
148
  8
HYDRO
  6
CONTINUOUS
 10
803275.7467442478518933
 20
566750.8604923909297213
 30
-0.9999999999999538
  0
VERTEX
  5
149
  8
HYDRO
  6
CONTINUOUS
 10
803105.1028779710177332
 20
566772.1631939240032807
 30
-0.9999999999999538
  0
VERTEX
  5
14A
  8
HYDRO
  6
CONTINUOUS
 10
802969.9315930530428886
 20
566768.4535855520516634
 30
-0.9999999999999538
  0
VERTEX
  5
14B
  8
HYDRO
  6
CONTINUOUS
 10
802902.0001176272053272
 20
566848.6509110650513321
 30
-0.9999999999999538
  0
VERTEX
  5
14C
  8
HYDRO
  6
CONTINUOUS
 10
802834.0192374925827608
 20
566901.0812669947044924
 30
-0.9999999999999538
  0
VERTEX
  5
14D
  8
HYDRO
  6
CONTINUOUS
 10
802769.1508540490176529
 20
567067.6463557054521516
 30
-0.9999999999999538
  0
VERTEX
  5
14E
  8
HYDRO
  6
CONTINUOUS
 10
802623.9504131197463721
 20
567166.3549942745594308
 30
-0.9999999999999538
  0
VERTEX
  5
14F
  8
HYDRO
  6
CONTINUOUS
 10
802614.7117324644932523
 20
567302.0678945579566061
 30
-0.9999999999999538
  0
VERTEX
  5
150
  8
HYDRO
  6
CONTINUOUS
 10
802451.6267867308342829
 20
567416.9188388591865078
 30
-0.9999999999999538
  0
VERTEX
  5
151
  8
HYDRO
  6
CONTINUOUS
 10
802347.5804687354248017
 20
567568.0211045624455437
 30
-0.9999999999999538
  0
VERTEX
  5
152
  8
HYDRO
  6
CONTINUOUS
 10
802265.6180558354826644
 20
567577.4604050673078746
 30
-0.9999999999999538
  0
VERTEX
  5
153
  8
HYDRO
  6
CONTINUOUS
 10
802193.0919424388557673
 20
567608.9553474213462323
 30
-0.9999999999999538
  0
VERTEX
  5
154
  8
HYDRO
  6
CONTINUOUS
 10
801949.6255345090758055
 20
567594.006727552623488
 30
-0.9999999999999538
  0
VERTEX
  5
155
  8
HYDRO
  6
CONTINUOUS
 10
801869.7381194104673341
 20
567526.9950397120555863
 30
-0.9999999999999538
  0
VERTEX
  5
156
  8
HYDRO
  6
CONTINUOUS
 10
801761.047758731758222
 20
567479.1190544557757676
 30
-0.9999999999999538
  0
VERTEX
  5
157
  8
HYDRO
  6
CONTINUOUS
 10
801681.160343625000678
 20
567405.7165561552392319
 30
-0.9999999999999538
  0
VERTEX
  5
158
  8
HYDRO
  6
CONTINUOUS
 10
801585.2658026812132448
 20
567412.1073666150914505
 30
-0.9999999999999538
  0
VERTEX
  5
159
  8
HYDRO
  6
CONTINUOUS
 10
801572.4699829464079812
 20
567440.8292848892742768
 30
-0.9999999999999538
  0
VERTEX
  5
15A
  8
HYDRO
  6
CONTINUOUS
 10
801508.5402889786055312
 20
567437.6338796593481675
 30
-0.9999999999999538
  0
SEQEND
  5
15B
  8
HYDRO
  6
CONTINUOUS
  0
POLYLINE
  5
6B
  8
HYDRO
  6
CONTINUOUS
 66
     1
 10
0.0
 20
0.0
 30
-0.9999999999999538
  0
VERTEX
  5
15C
  8
HYDRO
  6
CONTINUOUS
 10
811125.7592332006897777
 20
561571.7402880764566362
 30
-0.9999999999999538
  0
VERTEX
  5
15D
  8
HYDRO
  6
CONTINUOUS
 10
810998.6909177725901827
 20
561515.023743515717797
 30
-0.9999999999999538
  0
VERTEX
  5
15E
  8
HYDRO
  6
CONTINUOUS
 10
810906.6005394471576437
 20
561461.9873624555766582
 30
-0.9999999999999538
  0
VERTEX
  5
15F
  8
HYDRO
  6
CONTINUOUS
 10
810828.68931272206828
 20
561423.0915677614975721
 30
-0.9999999999999538
  0
VERTEX
  5
160
  8
HYDRO
  6
CONTINUOUS
 10
810757.8923641506116837
 20
561416.021274580154568
 30
-0.9999999999999538
  0
VERTEX
  5
161
  8
HYDRO
  6
CONTINUOUS
 10
810679.9811374269193038
 20
561469.057655637152493
 30
-0.9999999999999538
  0
VERTEX
  5
162
  8
HYDRO
  6
CONTINUOUS
 10
810573.7116075044032186
 20
561518.5680723051773384
 30
-0.9999999999999538
  0
VERTEX
  5
163
  8
HYDRO
  6
CONTINUOUS
 10
810456.2567128039663658
 20
561555.7507556129712611
 30
-0.9999999999999538
  0
SEQEND
  5
164
  8
HYDRO
  6
CONTINUOUS
  0
POLYLINE
  5
6C
  8
HYDRO
  6
CONTINUOUS
 66
     1
 10
0.0
 20
0.0
 30
-0.9999999999999538
  0
VERTEX
  5
165
  8
HYDRO
  6
CONTINUOUS
 10
815994.0361857414245605
 20
559250.491477353614755
 30
-0.9999999999999538
  0
VERTEX
  5
166
  8
HYDRO
  6
CONTINUOUS
 10
815873.7006178904557601
 20
559305.4010269959690049
 30
-0.9999999999999538
  0
VERTEX
  5
167
  8
HYDRO
  6
CONTINUOUS
 10
815761.9471652248175815
 20
559334.9309787758393213
 30
-0.9999999999999538
  0
VERTEX
  5
168
  8
HYDRO
  6
CONTINUOUS
 10
815732.3537442975211889
 20
559423.5208341152174398
 30
-0.9999999999999538
  0
VERTEX
  5
169
  8
HYDRO
  6
CONTINUOUS
 10
815692.9287861939519644
 20
559492.4240549356909469
 30
-0.9999999999999538
  0
VERTEX
  5
16A
  8
HYDRO
  6
CONTINUOUS
 10
815495.7545909731416032
 20
559663.0476755781564862
 30
-0.9999999999999538
  0
VERTEX
  5
16B
  8
HYDRO
  6
CONTINUOUS
 10
815400.5023112479830161
 20
559768.0369382209610194
 30
-0.9999999999999538
  0
VERTEX
  5
16C
  8
HYDRO
  6
CONTINUOUS
 10
815301.8905112849315628
 20
559951.7727389421779662
 30
-0.9999999999999538
  0
VERTEX
  5
16D
  8
HYDRO
  6
CONTINUOUS
 10
815177.0448106259573251
 20
560046.9186843240167946
 30
-0.9999999999999538
  0
VERTEX
  5
16E
  8
HYDRO
  6
CONTINUOUS
 10
815006.1539208114845678
 20
560109.2658151052892208
 30
-0.9999999999999538
  0
VERTEX
  5
16F
  8
HYDRO
  6
CONTINUOUS
 10
814822.1213782946579158
 20
560197.8556704446673393
 30
-0.9999999999999538
  0
VERTEX
  5
170
  8
HYDRO
  6
CONTINUOUS
 10
814647.1793023087084293
 20
560294.5993184427497908
 30
-0.9999999999999538
  0
VERTEX
  5
171
  8
HYDRO
  6
CONTINUOUS
 10
814583.8424648571526632
 20
560378.8735402825986966
 30
-0.9999999999999538
  0
VERTEX
  5
172
  8
HYDRO
  6
CONTINUOUS
 10
814514.1818246010225266
 20
560505.3124196433927864
 30
-0.9999999999999538
  0
VERTEX
  5
173
  8
HYDRO
  6
CONTINUOUS
 10
814433.9979812448145822
 20
560614.8927817514631897
 30
-0.9999999999999538
  0
VERTEX
  5
174
  8
HYDRO
  6
CONTINUOUS
 10
814351.6897353818640113
 20
560694.9615564808482304
 30
-0.9999999999999538
  0
VERTEX
  5
175
  8
HYDRO
  6
CONTINUOUS
 10
814265.1820892216637731
 20
560749.742555336211808
 30
-0.9999999999999538
  0
VERTEX
  5
176
  8
HYDRO
  6
CONTINUOUS
 10
814079.4697865850757807
 20
560781.3660484737483785
 30
-0.9999999999999538
  0
VERTEX
  5
177
  8
HYDRO
  6
CONTINUOUS
 10
813849.3920549048343673
 20
560848.7817530671600252
 30
-0.9999999999999538
  0
VERTEX
  5
178
  8
HYDRO
  6
CONTINUOUS
 10
813777.6564168544718996
 20
560876.1814346937462687
 30
-0.9999999999999538
  0
VERTEX
  5
179
  8
HYDRO
  6
CONTINUOUS
 10
813735.4647950273938477
 20
560888.8345048296032473
 30
-0.9999999999999538
  0
SEQEND
  5
17A
  8
HYDRO
  6
CONTINUOUS
  0
POLYLINE
  5
6D
  8
HYDRO
  6
CONTINUOUS
 66
     1
 10
0.0
 20
0.0
 30
-0.9999999999999538
  0
VERTEX
  5
17B
  8
HYDRO
  6
CONTINUOUS
 10
814885.4088110359152779
 20
558745.7092730080476031
 30
-0.9999999999999538
  0
VERTEX
  5
17C
  8
HYDRO
  6
CONTINUOUS
 10
815045.2330459473887458
 20
558744.7359599202172831
 30
-0.9999999999999538
  0
VERTEX
  5
17D
  8
HYDRO
  6
CONTINUOUS
 10
815173.1418385854922235
 20
558749.8412625308847055
 30
-0.9999999999999538
  0
VERTEX
  5
17E
  8
HYDRO
  6
CONTINUOUS
 10
815280.5970815309556201
 20
558836.6865000720135868
 30
-0.9999999999999538
  0
VERTEX
  5
17F
  8
HYDRO
  6
CONTINUOUS
 10
815321.5041809191461653
 20
558933.7607072322862223
 30
-0.9999999999999538
  0
VERTEX
  5
180
  8
HYDRO
  6
CONTINUOUS
 10
815388.0523244827054441
 20
559025.7112473843153566
 30
-0.9999999999999538
  0
VERTEX
  5
181
  8
HYDRO
  6
CONTINUOUS
 10
815623.366955355508253
 20
559071.6956996575463563
 30
-0.9999999999999538
  0
VERTEX
  5
182
  8
HYDRO
  6
CONTINUOUS
 10
815843.41553102619946
 20
559127.8907571521122009
 30
-0.9999999999999538
  0
VERTEX
  5
183
  8
HYDRO
  6
CONTINUOUS
 10
815971.3243236656999215
 20
559224.9465999115491286
 30
-0.9999999999999538
  0
VERTEX
  5
184
  8
HYDRO
  6
CONTINUOUS
 10
815994.0361857414245605
 20
559250.491477353614755
 30
-0.9999999999999538
  0
SEQEND
  5
185
  8
HYDRO
  6
CONTINUOUS
  0
POLYLINE
  5
6E
  8
HYDRO
  6
CONTINUOUS
 66
     1
 10
0.0
 20
0.0
 30
-0.9999999999999538
  0
VERTEX
  5
186
  8
HYDRO
  6
CONTINUOUS
 10
814885.4088110359152779
 20
558745.7092730080476031
 30
-0.9999999999999538
  0
VERTEX
  5
187
  8
HYDRO
  6
CONTINUOUS
 10
814777.311306870658882
 20
558696.6763306865468621
 30
-0.9999999999999538
  0
VERTEX
  5
188
  8
HYDRO
  6
CONTINUOUS
 10
814649.6495377779938281
 20
558730.9993903130525723
 30
-0.9999999999999538
  0
VERTEX
  5
189
  8
HYDRO
  6
CONTINUOUS
 10
814389.2867192381527275
 20
558853.6001105144387111
 30
-0.9999999999999538
  0
VERTEX
  5
18A
  8
HYDRO
  6
CONTINUOUS
 10
814241.9618758042342961
 20
558956.6060181856155396
 30
-0.9999999999999538
  0
VERTEX
  5
18B
  8
HYDRO
  6
CONTINUOUS
 10
814232.1303386342478916
 20
559098.8199153183959424
 30
-0.9999999999999538
  0
VERTEX
  5
18C
  8
HYDRO
  6
CONTINUOUS
 10
814276.3475535437464714
 20
559177.290987430838868
 30
-0.9999999999999538
  0
VERTEX
  5
18D
  8
HYDRO
  6
CONTINUOUS
 10
814261.5755454320460558
 20
559304.7950018651317805
 30
-0.9999999999999538
  0
VERTEX
  5
18E
  8
HYDRO
  6
CONTINUOUS
 10
814124.0822391759138554
 20
559442.1239691626979038
 30
-0.9999999999999538
  0
VERTEX
  5
18F
  8
HYDRO
  6
CONTINUOUS
 10
814011.0936687759822235
 20
559510.7884528097929433
 30
-0.9999999999999538
  0
SEQEND
  5
190
  8
HYDRO
  6
CONTINUOUS
  0
POLYLINE
  5
6F
  8
HYDRO
  6
CONTINUOUS
 66
     1
 10
0.0
 20
0.0
 30
-0.9999999999999538
  0
VERTEX
  5
191
  8
HYDRO
  6
CONTINUOUS
 10
812780.089710830594413
 20
559646.7218332347692922
 30
-0.9999999999999538
  0
VERTEX
  5
192
  8
HYDRO
  6
CONTINUOUS
 10
812554.9392638910794631
 20
559677.518821103265509
 30
-0.9999999999999538
  0
VERTEX
  5
193
  8
HYDRO
  6
CONTINUOUS
 10
812446.3971173404715955
 20
559662.0376336947083473
 30
-0.9999999999999538
  0
VERTEX
  5
194
  8
HYDRO
  6
CONTINUOUS
 10
812337.8549707850906998
 20
559723.9807477231370285
 30
-0.9999999999999538
  0
VERTEX
  5
195
  8
HYDRO
  6
CONTINUOUS
 10
812167.3099139381665736
 20
559716.230971819953993
 30
-0.9999999999999538
  0
VERTEX
  5
196
  8
HYDRO
  6
CONTINUOUS
 10
811973.4952389569953084
 20
559631.075258880853653
 30
-0.9999999999999538
  0
VERTEX
  5
197
  8
HYDRO
  6
CONTINUOUS
 10
811779.6805639807134867
 20
559584.6316966585582122
 30
-0.9999999999999538
  0
VERTEX
  5
198
  8
HYDRO
  6
CONTINUOUS
 10
811554.8397314960602671
 20
559592.3814725616248325
 30
-0.9999999999999538
  0
VERTEX
  5
199
  8
HYDRO
  6
CONTINUOUS
 10
811337.804843095713295
 20
559654.3062221893342212
 30
-0.9999999999999538
  0
VERTEX
  5
19A
  8
HYDRO
  6
CONTINUOUS
 10
811244.7263705858495086
 20
559631.075258880853653
 30
-0.9999999999999538
  0
VERTEX
  5
19B
  8
HYDRO
  6
CONTINUOUS
 10
811128.4770893653621897
 20
559677.518821103265509
 30
-0.9999999999999538
  0
VERTEX
  5
19C
  8
HYDRO
  6
CONTINUOUS
 10
811027.6914821920217946
 20
559747.1933466338086873
 30
-0.9999999999999538
  0
VERTEX
  5
19D
  8
HYDRO
  6
CONTINUOUS
 10
810934.6624143891967833
 20
559778.1557214476633817
 30
-0.9999999999999538
  0
VERTEX
  5
19E
  8
HYDRO
  6
CONTINUOUS
 10
810833.8768072091042995
 20
559793.6369088561041281
 30
-0.9999999999999538
  0
VERTEX
  5
19F
  8
HYDRO
  6
CONTINUOUS
 10
810733.0912000307580456
 20
559902.0052207059925422
 30
-0.9999999999999538
  0
VERTEX
  5
1A0
  8
HYDRO
  6
CONTINUOUS
 10
810616.7925141014857218
 20
560049.0856832728022709
 30
-0.9999999999999538
  0
VERTEX
  5
1A1
  8
HYDRO
  6
CONTINUOUS
 10
810484.9807494231499732
 20
560149.7225836203433573
 30
-0.9999999999999538
  0
VERTEX
  5
1A2
  8
HYDRO
  6
CONTINUOUS
 10
810456.2567128039663658
 20
560153.1991405073786154
 30
-0.9999999999999538
  0
SEQEND
  5
1A3
  8
HYDRO
  6
CONTINUOUS
  0
POLYLINE
  5
70
  8
HYDRO
  6
CONTINUOUS
 66
     1
 10
0.0
 20
0.0
 30
-0.9999999999999538
  0
VERTEX
  5
1A4
  8
HYDRO
  6
CONTINUOUS
 10
813555.7480304155033082
 20
558889.808649015147239
 30
-0.9999999999999538
  0
VERTEX
  5
1A5
  8
HYDRO
  6
CONTINUOUS
 10
813462.3555614586221054
 20
559082.7877959752222523
 30
-0.9999999999999538
  0
VERTEX
  5
1A6
  8
HYDRO
  6
CONTINUOUS
 10
813212.3183271812740713
 20
559097.0569331223377958
 30
-0.9999999999999538
  0
VERTEX
  5
1A7
  8
HYDRO
  6
CONTINUOUS
 10
812990.8370149346301332
 20
559232.6045538261532784
 30
-0.9999999999999538
  0
VERTEX
  5
1A8
  8
HYDRO
  6
CONTINUOUS
 10
812912.2341222804971039
 20
559382.402947279275395
 30
-0.9999999999999538
  0
VERTEX
  5
1A9
  8
HYDRO
  6
CONTINUOUS
 10
812833.6312296267133206
 20
559546.4888422769727185
 30
-0.9999999999999538
  0
VERTEX
  5
1AA
  8
HYDRO
  6
CONTINUOUS
 10
812776.4699808477889746
 20
559653.4981886836467311
 30
-0.9999999999999538
  0
VERTEX
  5
1AB
  8
HYDRO
  6
CONTINUOUS
 10
812769.3557026907801628
 20
559846.1039935810258612
 30
-0.9999999999999538
  0
VERTEX
  5
1AC
  8
HYDRO
  6
CONTINUOUS
 10
812726.4724149336107075
 20
560088.6609606916317716
 30
-0.9999999999999538
  0
VERTEX
  5
1AD
  8
HYDRO
  6
CONTINUOUS
 10
812469.271497790236026
 20
560267.0159928363282233
 30
-0.9999999999999538
  0
VERTEX
  5
1AE
  8
HYDRO
  6
CONTINUOUS
 10
812226.3485416700132191
 20
560288.4105163611238822
 30
-0.9999999999999538
  0
VERTEX
  5
1AF
  8
HYDRO
  6
CONTINUOUS
 10
811997.7035465623484924
 20
560281.2851299834437668
 30
-0.9999999999999538
  0
VERTEX
  5
1B0
  8
HYDRO
  6
CONTINUOUS
 10
811761.894868592149578
 20
560331.2179278021212667
 30
-0.9999999999999538
  0
VERTEX
  5
1B1
  8
HYDRO
  6
CONTINUOUS
 10
811526.1355953341117129
 20
560466.7655485057039186
 30
-0.9999999999999538
  0
VERTEX
  5
1B2
  8
HYDRO
  6
CONTINUOUS
 10
811461.8600684052798897
 20
560580.9002812870312482
 30
-0.9999999999999538
  0
VERTEX
  5
1B3
  8
HYDRO
  6
CONTINUOUS
 10
811411.8130977789405733
 20
560766.3806998097570613
 30
-0.9999999999999538
  0
VERTEX
  5
1B4
  8
HYDRO
  6
CONTINUOUS
 10
811333.2102051234105602
 20
560851.9771582970861346
 30
-0.9999999999999538
  0
VERTEX
  5
1B5
  8
HYDRO
  6
CONTINUOUS
 10
811290.4751314936438575
 20
561047.8334616174688563
 30
-0.9999999999999538
  0
VERTEX
  5
1B6
  8
HYDRO
  6
CONTINUOUS
 10
811308.7054692590609193
 20
561170.7096477878512815
 30
-0.9999999999999538
  0
VERTEX
  5
1B7
  8
HYDRO
  6
CONTINUOUS
 10
811381.6268203370273113
 20
561307.2122171787777916
 30
-0.9999999999999538
  0
VERTEX
  5
1B8
  8
HYDRO
  6
CONTINUOUS
 10
811340.620911531150341
 20
561430.0884033490438014
 30
-0.9999999999999538
  0
VERTEX
  5
1B9
  8
HYDRO
  6
CONTINUOUS
 10
811276.7900269872043282
 20
561530.1927361567504704
 30
-0.9999999999999538
  0
VERTEX
  5
1BA
  8
HYDRO
  6
CONTINUOUS
 10
811126.4020915710134432
 20
561571.1453434162540361
 30
-0.9999999999999538
  0
VERTEX
  5
1BB
  8
HYDRO
  6
CONTINUOUS
 10
811061.4348987113917246
 20
561631.2703820526367053
 30
-0.9999999999999538
  0
VERTEX
  5
1BC
  8
HYDRO
  6
CONTINUOUS
 10
811026.3081503246212378
 20
561718.9420175001723692
 30
-0.9999999999999538
  0
VERTEX
  5
1BD
  8
HYDRO
  6
CONTINUOUS
 10
810982.4367683761520311
 20
561800.7737744253827259
 30
-0.9999999999999538
  0
VERTEX
  5
1BE
  8
HYDRO
  6
CONTINUOUS
 10
810932.6368213000241667
 20
561853.3877743318444118
 30
-0.9999999999999538
  0
VERTEX
  5
1BF
  8
HYDRO
  6
CONTINUOUS
 10
810868.2624849551357329
 20
561888.4637742706108838
 30
-0.9999999999999538
  0
VERTEX
  5
1C0
  8
HYDRO
  6
CONTINUOUS
 10
810803.8881486022146419
 20
561882.6055313475662842
 30
-0.9999999999999538
  0
VERTEX
  5
1C1
  8
HYDRO
  6
CONTINUOUS
 10
810745.3435679612448439
 20
561847.547895806375891
 30
-0.9999999999999538
  0
VERTEX
  5
1C2
  8
HYDRO
  6
CONTINUOUS
 10
810660.4168725028866902
 20
561827.0899565775180236
 30
-0.9999999999999538
  0
VERTEX
  5
1C3
  8
HYDRO
  6
CONTINUOUS
 10
810569.7098260464845225
 20
561838.7697136250790209
 30
-0.9999999999999538
  0
VERTEX
  5
1C4
  8
HYDRO
  6
CONTINUOUS
 10
810508.2503675508778542
 20
561847.547895806375891
 30
-0.9999999999999538
  0
VERTEX
  5
1C5
  8
HYDRO
  6
CONTINUOUS
 10
810449.7057869116542861
 20
561818.3117743931943551
 30
-0.9999999999999538
  0
SEQEND
  5
1C6
  8
HYDRO
  6
CONTINUOUS
  0
POLYLINE
  5
71
  8
HYDRO
  6
CONTINUOUS
 66
     1
 10
0.0
 20
0.0
 30
-0.9999999999999538
  0
VERTEX
  5
1C7
  8
HYDRO
  6
CONTINUOUS
 10
801161.8794154680799693
 20
575284.4930811378872022
 30
-0.9999999999999538
  0
VERTEX
  5
1C8
  8
HYDRO
  6
CONTINUOUS
 10
801221.8447603287640959
 20
575322.8655809283955023
 30
-0.9999999999999538
  0
VERTEX
  5
1C9
  8
HYDRO
  6
CONTINUOUS
 10
801275.8441077010938898
 20
575384.4965001926757395
 30
-0.9999999999999538
  0
VERTEX
  5
1CA
  8
HYDRO
  6
CONTINUOUS
 10
801347.8761740071931854
 20
575407.6172771148849279
 30
-0.9999999999999538
  0
VERTEX
  5
1CB
  8
HYDRO
  6
CONTINUOUS
 10
801443.029644314898178
 20
575430.7380540370941162
 30
-0.9999999999999538
  0
VERTEX
  5
1CC
  8
HYDRO
  6
CONTINUOUS
 10
801533.0450248427223414
 20
575515.4897502233507112
 30
-0.9999999999999538
  0
VERTEX
  5
1CD
  8
HYDRO
  6
CONTINUOUS
 10
801535.6634744446491823
 20
575607.9361291164532304
 30
-0.9999999999999538
  0
VERTEX
  5
1CE
  8
HYDRO
  6
CONTINUOUS
 10
801522.7688452878501266
 20
575697.8298567060846835
 30
-0.9999999999999538
  0
VERTEX
  5
1CF
  8
HYDRO
  6
CONTINUOUS
 10
801396.7374316076748073
 20
575780.0105371909448877
 30
-0.9999999999999538
  0
VERTEX
  5
1D0
  8
HYDRO
  6
CONTINUOUS
 10
801271.9905403726734221
 20
575829.7596910293214023
 30
-0.9999999999999538
  0
VERTEX
  5
1D1
  8
HYDRO
  6
CONTINUOUS
 10
801208.0114416929427534
 20
575905.1271799005335197
 30
-0.9999999999999538
  0
VERTEX
  5
1D2
  8
HYDRO
  6
CONTINUOUS
 10
801152.1841200729832053
 20
576018.1600488129770383
 30
-0.9999999999999538
  0
VERTEX
  5
1D3
  8
HYDRO
  6
CONTINUOUS
 10
801155.4942356053506956
 20
576131.1929177225101739
 30
-0.9999999999999538
  0
VERTEX
  5
1D4
  8
HYDRO
  6
CONTINUOUS
 10
801227.9709442915627733
 20
576241.2323897796450183
 30
-0.9999999999999538
  0
VERTEX
  5
1D5
  8
HYDRO
  6
CONTINUOUS
 10
801297.63158454594668
 20
576324.1660105769988149
 30
-0.9999999999999538
  0
VERTEX
  5
1D6
  8
HYDRO
  6
CONTINUOUS
 10
801391.4017229926539585
 20
576417.8060753307072446
 30
-0.9999999999999538
  0
VERTEX
  5
1D7
  8
HYDRO
  6
CONTINUOUS
 10
801420.8469297972042114
 20
576519.4713819596217945
 30
-0.9999999999999538
  0
VERTEX
  5
1D8
  8
HYDRO
  6
CONTINUOUS
 10
801439.6207193668233231
 20
576629.1435660595307127
 30
-0.9999999999999538
  0
VERTEX
  5
1D9
  8
HYDRO
  6
CONTINUOUS
 10
801439.6207193668233231
 20
576752.2217606046469882
 30
-0.9999999999999538
  0
VERTEX
  5
1DA
  8
HYDRO
  6
CONTINUOUS
 10
801458.3945089395856485
 20
576816.4236955703236163
 30
-0.9999999999999538
  0
VERTEX
  5
1DB
  8
HYDRO
  6
CONTINUOUS
 10
801506.4652911857701838
 20
576859.9885003891540691
 30
-0.9999999999999538
  0
SEQEND
  5
1DC
  8
HYDRO
  6
CONTINUOUS
  0
POLYLINE
  5
72
  8
HYDRO
  6
CONTINUOUS
 66
     1
 10
0.0
 20
0.0
 30
-0.9999999999999538
  0
VERTEX
  5
1DD
  8
HYDRO
  6
CONTINUOUS
 10
802371.8511722970288247
 20
574310.420561337377876
 30
-0.9999999999999538
  0
VERTEX
  5
1DE
  8
HYDRO
  6
CONTINUOUS
 10
802364.8227123130345717
 20
574399.485291458084248
 30
-0.9999999999999538
  0
VERTEX
  5
1DF
  8
HYDRO
  6
CONTINUOUS
 10
802346.0489227450452745
 20
574454.7988578535150737
 30
-0.9999999999999538
  0
VERTEX
  5
1E0
  8
HYDRO
  6
CONTINUOUS
 10
802298.1757593340007588
 20
574512.9038127259118482
 30
-0.9999999999999538
  0
VERTEX
  5
1E1
  8
HYDRO
  6
CONTINUOUS
 10
802275.6472118467791006
 20
574565.3892618451500311
 30
-0.9999999999999538
  0
VERTEX
  5
1E2
  8
HYDRO
  6
CONTINUOUS
 10
802260.6281801897566766
 20
574608.0864869029028341
 30
-0.9999999999999538
  0
VERTEX
  5
1E3
  8
HYDRO
  6
CONTINUOUS
 10
802224.9579799986677244
 20
574653.2078124776016921
 30
-0.9999999999999538
  0
VERTEX
  5
1E4
  8
HYDRO
  6
CONTINUOUS
 10
802158.1628128917654976
 20
574716.6751715284772217
 30
-0.9999999999999538
  0
VERTEX
  5
1E5
  8
HYDRO
  6
CONTINUOUS
 10
802140.5747363448608667
 20
574737.2800259423675016
 30
-0.9999999999999538
  0
VERTEX
  5
1E6
  8
HYDRO
  6
CONTINUOUS
 10
802140.5747363448608667
 20
574773.6415337303187698
 30
-0.9999999999999538
  0
VERTEX
  5
1E7
  8
HYDRO
  6
CONTINUOUS
 10
802115.0819062913069502
 20
574799.718978711985983
 30
-0.9999999999999538
  0
VERTEX
  5
1E8
  8
HYDRO
  6
CONTINUOUS
 10
802114.1432168155442923
 20
574881.1650832791347057
 30
-0.9999999999999538
  0
VERTEX
  5
1E9
  8
HYDRO
  6
CONTINUOUS
 10
802150.5544876443454996
 20
574931.2815250749699771
 30
-0.9999999999999538
  0
VERTEX
  5
1EA
  8
HYDRO
  6
CONTINUOUS
 10
802184.9895700940396637
 20
574987.3296673848526552
 30
-0.9999999999999538
  0
SEQEND
  5
1EB
  8
HYDRO
  6
CONTINUOUS
  0
POLYLINE
  5
73
  8
HYDRO
  6
CONTINUOUS
 66
     1
 10
0.0
 20
0.0
 30
-0.9999999999999538
  0
VERTEX
  5
1EC
  8
HYDRO
  6
CONTINUOUS
 10
801159.8691879903199151
 20
575340.6685358664253727
 30
-0.9999999999999538
  0
VERTEX
  5
1ED
  8
HYDRO
  6
CONTINUOUS
 10
801019.0384282344020903
 20
575361.0818929040106013
 30
-0.9999999999999538
  0
VERTEX
  5
1EE
  8
HYDRO
  6
CONTINUOUS
 10
800965.3355091193225235
 20
575387.8939137974521145
 30
-0.9999999999999538
  0
VERTEX
  5
1EF
  8
HYDRO
  6
CONTINUOUS
 10
800938.5087519151857123
 20
575593.373161603230983
 30
-0.9999999999999538
  0
VERTEX
  5
1F0
  8
HYDRO
  6
CONTINUOUS
 10
800902.6903375963447616
 20
575816.7393329363549128
 30
-0.9999999999999538
  0
VERTEX
  5
1F1
  8
HYDRO
  6
CONTINUOUS
 10
800714.8042277479544282
 20
575986.4998268770286813
 30
-0.9999999999999538
  0
VERTEX
  5
1F2
  8
HYDRO
  6
CONTINUOUS
 10
800491.099703582120128
 20
576084.7860842954833061
 30
-0.9999999999999538
  0
VERTEX
  5
1F3
  8
HYDRO
  6
CONTINUOUS
 10
800249.5106746120145544
 20
576066.9175251659471542
 30
-0.9999999999999538
  0
VERTEX
  5
1F4
  8
HYDRO
  6
CONTINUOUS
 10
800088.4019172557163984
 20
576066.9175251659471542
 30
-0.9999999999999538
  0
VERTEX
  5
1F5
  8
HYDRO
  6
CONTINUOUS
 10
799927.3425646112300456
 20
576156.2603208208456635
 30
-0.9999999999999538
  0
VERTEX
  5
1F6
  8
HYDRO
  6
CONTINUOUS
 10
799759.3171479373704642
 20
576228.2120316863292828
 30
-0.9999999999999538
  0
VERTEX
  5
1F7
  8
HYDRO
  6
CONTINUOUS
 10
799679.3803281264845282
 20
576205.4034495283849537
 30
-0.9999999999999538
  0
VERTEX
  5
1F8
  8
HYDRO
  6
CONTINUOUS
 10
799605.1744546084664762
 20
576114.224214086541906
 30
-0.9999999999999538
  0
VERTEX
  5
1F9
  8
HYDRO
  6
CONTINUOUS
 10
799502.4620637651532888
 20
576005.9293598276562989
 30
-0.9999999999999538
  0
VERTEX
  5
1FA
  8
HYDRO
  6
CONTINUOUS
 10
799411.112756080343388
 20
575920.4430877265986055
 30
-0.9999999999999538
  0
VERTEX
  5
1FB
  8
HYDRO
  6
CONTINUOUS
 10
799380.6977669077459723
 20
575922.1509767294628546
 30
-0.9999999999999538
  0
SEQEND
  5
1FC
  8
HYDRO
  6
CONTINUOUS
  0
POLYLINE
  5
74
  8
HYDRO
  6
CONTINUOUS
 66
     1
 10
0.0
 20
0.0
 30
-0.9999999999999538
  0
VERTEX
  5
1FD
  8
HYDRO
  6
CONTINUOUS
 10
802129.2557094469666481
 20
573759.8772531155264005
 30
-0.9999999999999538
  0
VERTEX
  5
1FE
  8
HYDRO
  6
CONTINUOUS
 10
802192.9931330166291445
 20
573733.133114623487927
 30
-0.9999999999999538
  0
VERTEX
  5
1FF
  8
HYDRO
  6
CONTINUOUS
 10
802268.6811478175222874
 20
573776.3078140249708667
 30
-0.9999999999999538
  0
VERTEX
  5
200
  8
HYDRO
  6
CONTINUOUS
 10
802355.1393892725463957
 20
573754.7296465230174363
 30
-0.9999999999999538
  0
VERTEX
  5
201
  8
HYDRO
  6
CONTINUOUS
 10
802457.8517801176058128
 20
573652.1828487977618352
 30
-0.9999999999999538
  0
VERTEX
  5
202
  8
HYDRO
  6
CONTINUOUS
 10
802555.1790576342027634
 20
573582.012484525796026
 30
-0.9999999999999538
  0
VERTEX
  5
203
  8
HYDRO
  6
CONTINUOUS
 10
802641.6372990892268717
 20
573474.0665538233006373
 30
-0.9999999999999538
  0
VERTEX
  5
204
  8
HYDRO
  6
CONTINUOUS
 10
802701.1205692058429122
 20
573414.6944554995279759
 30
-0.9999999999999538
  0
VERTEX
  5
205
  8
HYDRO
  6
CONTINUOUS
 10
802782.1936973336851224
 20
573414.6944554995279759
 30
-0.9999999999999538
  0
VERTEX
  5
206
  8
HYDRO
  6
CONTINUOUS
 10
802906.5453508957289159
 20
573511.8421202505705878
 30
-0.9999999999999538
  0
VERTEX
  5
207
  8
HYDRO
  6
CONTINUOUS
 10
802933.5697269379161298
 20
573635.9854498753556982
 30
-0.9999999999999538
  0
VERTEX
  5
208
  8
HYDRO
  6
CONTINUOUS
 10
803047.0523444283753633
 20
573770.9086810508742929
 30
-0.9999999999999538
  0
VERTEX
  5
209
  8
HYDRO
  6
CONTINUOUS
 10
803068.6916071453597397
 20
573889.6528776986524463
 30
-0.9999999999999538
  0
VERTEX
  5
20A
  8
HYDRO
  6
CONTINUOUS
 10
803030.8475997442146763
 20
573938.2267100739991292
 30
-0.9999999999999538
  0
VERTEX
  5
20B
  8
HYDRO
  6
CONTINUOUS
 10
802911.9304642145289108
 20
573943.6258430480957031
 30
-0.9999999999999538
  0
VERTEX
  5
20C
  8
HYDRO
  6
CONTINUOUS
 10
802765.9889526495244354
 20
573986.8189068473875523
 30
-0.9999999999999538
  0
VERTEX
  5
20D
  8
HYDRO
  6
CONTINUOUS
 10
802695.6860511685954407
 20
574062.3700396986678243
 30
-0.9999999999999538
  0
VERTEX
  5
20E
  8
HYDRO
  6
CONTINUOUS
 10
802609.2278097199741751
 20
574148.7378028965322301
 30
-0.9999999999999538
  0
VERTEX
  5
20F
  8
HYDRO
  6
CONTINUOUS
 10
802479.4910428328439593
 20
574256.6837335956515744
 30
-0.9999999999999538
  0
VERTEX
  5
210
  8
HYDRO
  6
CONTINUOUS
 10
802306.52515522565227
 20
574343.0331323955906555
 30
-0.9999999999999538
  0
VERTEX
  5
211
  8
HYDRO
  6
CONTINUOUS
 10
802133.5098628981504589
 20
574450.9790630949428305
 30
-0.9999999999999538
  0
VERTEX
  5
212
  8
HYDRO
  6
CONTINUOUS
 10
801955.1588619637768716
 20
574510.3511614189483225
 30
-0.9999999999999538
  0
VERTEX
  5
213
  8
HYDRO
  6
CONTINUOUS
 10
801857.8315844456665218
 20
574585.920658668037504
 30
-0.9999999999999538
  0
VERTEX
  5
214
  8
HYDRO
  6
CONTINUOUS
 10
801841.6268397612730041
 20
574731.6421557947760448
 30
-0.9999999999999538
  0
VERTEX
  5
215
  8
HYDRO
  6
CONTINUOUS
 10
801844.6405270315008238
 20
574940.2617156341439113
 30
-0.9999999999999538
  0
VERTEX
  5
216
  8
HYDRO
  6
CONTINUOUS
 10
801778.8828588224714622
 20
575109.8752943930448964
 30
-0.9999999999999538
  0
VERTEX
  5
217
  8
HYDRO
  6
CONTINUOUS
 10
801784.3667815652443096
 20
575235.7081486231181771
 30
-0.9999999999999538
  0
VERTEX
  5
218
  8
HYDRO
  6
CONTINUOUS
 10
801828.188758801901713
 20
575339.6690049815224484
 30
-0.9999999999999538
  0
VERTEX
  5
219
  8
HYDRO
  6
CONTINUOUS
 10
801729.5769588369876146
 20
575454.5750424759462476
 30
-0.9999999999999538
  0
SEQEND
  5
21A
  8
HYDRO
  6
CONTINUOUS
  0
POLYLINE
  5
75
  8
HYDRO
  6
CONTINUOUS
 66
     1
 10
0.0
 20
0.0
 30
-0.9999999999999538
  0
VERTEX
  5
21B
  8
HYDRO
  6
CONTINUOUS
 10
804189.2557946455199271
 20
573226.8169864388182759
 30
-0.9999999999999538
  0
VERTEX
  5
21C
  8
HYDRO
  6
CONTINUOUS
 10
803965.4858921888517216
 20
573240.6366924567846581
 30
-0.9999999999999538
  0
VERTEX
  5
21D
  8
HYDRO
  6
CONTINUOUS
 10
803752.2057617057580501
 20
573442.975628225482069
 30
-0.9999999999999538
  0
VERTEX
  5
21E
  8
HYDRO
  6
CONTINUOUS
 10
803597.5196165742818266
 20
573549.4524070953484625
 30
-0.9999999999999538
  0
VERTEX
  5
21F
  8
HYDRO
  6
CONTINUOUS
 10
803389.5751947079552338
 20
573677.2502518960973248
 30
-0.9999999999999538
  0
VERTEX
  5
220
  8
HYDRO
  6
CONTINUOUS
 10
803186.9170767428586259
 20
573890.2221740336390212
 30
-0.9999999999999538
  0
VERTEX
  5
221
  8
HYDRO
  6
CONTINUOUS
 10
803155.1992533057928085
 20
573916.6485425721621141
 30
-0.9999999999999538
  0
SEQEND
  5
222
  8
HYDRO
  6
CONTINUOUS
  0
POLYLINE
  5
76
  8
HYDRO
  6
CONTINUOUS
 66
     1
 10
0.0
 20
0.0
 30
-0.9999999999999538
  0
VERTEX
  5
223
  8
HYDRO
  6
CONTINUOUS
 10
810913.5171987627400085
 20
573540.9129620845196769
 30
-0.9999999999999538
  0
VERTEX
  5
224
  8
HYDRO
  6
CONTINUOUS
 10
810913.7148176040500402
 20
573725.4384319167584181
 30
-0.9999999999999538
  0
VERTEX
  5
225
  8
HYDRO
  6
CONTINUOUS
 10
810879.2797351479530334
 20
573768.4111229402478784
 30
-0.9999999999999538
  0
VERTEX
  5
226
  8
HYDRO
  6
CONTINUOUS
 10
810798.9476776618976146
 20
573822.8431982358451933
 30
-0.9999999999999538
  0
VERTEX
  5
227
  8
HYDRO
  6
CONTINUOUS
 10
810684.1311330143362284
 20
573845.7619667800609022
 30
-0.9999999999999538
  0
VERTEX
  5
228
  8
HYDRO
  6
CONTINUOUS
 10
810643.9651042748009786
 20
573857.2213510551955551
 30
-0.9999999999999538
  0
VERTEX
  5
229
  8
HYDRO
  6
CONTINUOUS
 10
810623.9067922603571787
 20
573885.8881761331576854
 30
-0.9999999999999538
  0
VERTEX
  5
22A
  8
HYDRO
  6
CONTINUOUS
 10
810523.4670180431567132
 20
573888.7530222043860704
 30
-0.9999999999999538
  0
VERTEX
  5
22B
  8
HYDRO
  6
CONTINUOUS
 10
810463.1932725769001991
 20
573871.563945793081075
 30
-0.9999999999999538
  0
VERTEX
  5
22C
  8
HYDRO
  6
CONTINUOUS
 10
810397.1885808175429702
 20
573920.2663289526244625
 30
-0.9999999999999538
  0
VERTEX
  5
22D
  8
HYDRO
  6
CONTINUOUS
 10
810377.1302688030991703
 20
573946.0499435679521412
 30
-0.9999999999999538
  0
VERTEX
  5
22E
  8
HYDRO
  6
CONTINUOUS
 10
810351.291605782113038
 20
574029.1304795468458906
 30
-0.9999999999999538
  0
VERTEX
  5
22F
  8
HYDRO
  6
CONTINUOUS
 10
810342.6951863466529176
 20
574046.319555955240503
 30
-0.9999999999999538
  0
VERTEX
  5
230
  8
HYDRO
  6
CONTINUOUS
 10
810305.3946307477308437
 20
574095.0219391180435196
 30
-0.9999999999999538
  0
VERTEX
  5
231
  8
HYDRO
  6
CONTINUOUS
 10
810236.5244658462470397
 20
574072.1031705705681816
 30
-0.9999999999999538
  0
VERTEX
  5
232
  8
HYDRO
  6
CONTINUOUS
 10
810159.0578815096523613
 20
574049.1844020229764283
 30
-0.9999999999999538
  0
VERTEX
  5
233
  8
HYDRO
  6
CONTINUOUS
 10
810133.2192184868035838
 20
574086.4274009105283767
 30
-0.9999999999999538
  0
VERTEX
  5
234
  8
HYDRO
  6
CONTINUOUS
 10
810101.6496091856388375
 20
574152.3372248791856691
 30
-0.9999999999999538
  0
VERTEX
  5
235
  8
HYDRO
  6
CONTINUOUS
 10
810107.3805554738501087
 20
574201.039608038845472
 30
-0.9999999999999538
  0
VERTEX
  5
236
  8
HYDRO
  6
CONTINUOUS
 10
810227.878641698975116
 20
574238.2826069262810051
 30
-0.9999999999999538
  0
VERTEX
  5
237
  8
HYDRO
  6
CONTINUOUS
 10
810302.5291576056042686
 20
574232.5529147901106626
 30
-0.9999999999999538
  0
VERTEX
  5
238
  8
HYDRO
  6
CONTINUOUS
 10
810354.157078929245472
 20
574309.9037586330669001
 30
-0.9999999999999538
  0
VERTEX
  5
239
  8
HYDRO
  6
CONTINUOUS
 10
810288.7946483887499198
 20
574477.4972536251880229
 30
-0.9999999999999538
  0
VERTEX
  5
23A
  8
HYDRO
  6
CONTINUOUS
 10
810201.002479784656316
 20
574629.8115695865126327
 30
-0.9999999999999538
  0
VERTEX
  5
23B
  8
HYDRO
  6
CONTINUOUS
 10
810169.5316798979183659
 20
574866.1246414219494909
 30
-0.9999999999999538
  0
VERTEX
  5
23C
  8
HYDRO
  6
CONTINUOUS
 10
810141.272186121204868
 20
575040.4211416379548609
 30
-0.9999999999999538
  0
VERTEX
  5
23D
  8
HYDRO
  6
CONTINUOUS
 10
810051.6026385561563075
 20
575200.5770554911578074
 30
-0.9999999999999538
  0
VERTEX
  5
23E
  8
HYDRO
  6
CONTINUOUS
 10
809947.8033441074658185
 20
575266.5236082520568743
 30
-0.9999999999999538
  0
VERTEX
  5
23F
  8
HYDRO
  6
CONTINUOUS
 10
809858.1832012546947226
 20
575214.7176418511662632
 30
-0.9999999999999538
  0
VERTEX
  5
240
  8
HYDRO
  6
CONTINUOUS
 10
809754.3839068042580038
 20
575139.3317885820288211
 30
-0.9999999999999538
  0
VERTEX
  5
241
  8
HYDRO
  6
CONTINUOUS
 10
809608.145966975367628
 20
575101.6480441464809701
 30
-0.9999999999999538
  0
VERTEX
  5
242
  8
HYDRO
  6
CONTINUOUS
 10
809438.2925760543439537
 20
575177.0338974153855816
 30
-0.9999999999999538
  0
VERTEX
  5
243
  8
HYDRO
  6
CONTINUOUS
 10
809249.5665861472953111
 20
575266.5236082520568743
 30
-0.9999999999999538
  0
VERTEX
  5
244
  8
HYDRO
  6
CONTINUOUS
 10
809098.6351989300455898
 20
575398.4167137801414356
 30
-0.9999999999999538
  0
VERTEX
  5
245
  8
HYDRO
  6
CONTINUOUS
 10
808928.7818080089055002
 20
575563.2922778858337551
 30
-0.9999999999999538
  0
VERTEX
  5
246
  8
HYDRO
  6
CONTINUOUS
 10
808796.6736150700598955
 20
575624.5375447948463261
 30
-0.9999999999999538
  0
VERTEX
  5
247
  8
HYDRO
  6
CONTINUOUS
 10
808593.8178782730828971
 20
575652.8003531200811267
 30
-0.9999999999999538
  0
VERTEX
  5
248
  8
HYDRO
  6
CONTINUOUS
 10
808356.7740825684741139
 20
575523.9557376434095204
 30
-0.9999999999999538
  0
VERTEX
  5
249
  8
HYDRO
  6
CONTINUOUS
 10
808160.8844097945839167
 20
575475.0513461059890687
 30
-0.9999999999999538
  0
VERTEX
  5
24A
  8
HYDRO
  6
CONTINUOUS
 10
807940.490001154365018
 20
575572.8417647802270949
 30
-0.9999999999999538
  0
VERTEX
  5
24B
  8
HYDRO
  6
CONTINUOUS
 10
807573.2153914720984176
 20
575743.9795885618077591
 30
-0.9999999999999538
  0
VERTEX
  5
24C
  8
HYDRO
  6
CONTINUOUS
 10
807389.5780866270652041
 20
575878.4437097910558805
 30
-0.9999999999999538
  0
VERTEX
  5
24D
  8
HYDRO
  6
CONTINUOUS
 10
807426.2857857112539932
 20
575951.7911148986313492
 30
-0.9999999999999538
  0
VERTEX
  5
24E
  8
HYDRO
  6
CONTINUOUS
 10
807928.28703793277964
 20
576208.5070327698485926
 30
-0.9999999999999538
  0
VERTEX
  5
24F
  8
HYDRO
  6
CONTINUOUS
 10
808099.6719748444156721
 20
576428.5308836880140007
 30
-0.9999999999999538
  0
VERTEX
  5
250
  8
HYDRO
  6
CONTINUOUS
 10
808111.9243427780456841
 20
576709.6898151292698458
 30
-0.9999999999999538
  0
VERTEX
  5
251
  8
HYDRO
  6
CONTINUOUS
 10
808146.8040676130913198
 20
576859.988500390201807
 30
-0.9999999999999538
  0
SEQEND
  5
252
  8
HYDRO
  6
CONTINUOUS
  0
POLYLINE
  5
77
  8
HYDRO
  6
CONTINUOUS
 66
     1
 10
0.0
 20
0.0
 30
-0.9999999999999538
  0
VERTEX
  5
253
  8
HYDRO
  6
CONTINUOUS
 10
811996.6660476627293974
 20
573552.7579987115459517
 30
-0.9999999999999538
  0
VERTEX
  5
254
  8
HYDRO
  6
CONTINUOUS
 10
811937.3803963874233887
 20
573461.9644156250869855
 30
-0.9999999999999538
  0
VERTEX
  5
255
  8
HYDRO
  6
CONTINUOUS
 10
811830.6662240780424327
 20
573296.1889960221014917
 30
-0.9999999999999538
  0
VERTEX
  5
256
  8
HYDRO
  6
CONTINUOUS
 10
811731.8074005680391565
 20
573126.465230876696296
 30
-0.9999999999999538
  0
VERTEX
  5
257
  8
HYDRO
  6
CONTINUOUS
 10
811613.2360980093944818
 20
573071.2067576779518276
 30
-0.9999999999999538
  0
VERTEX
  5
258
  8
HYDRO
  6
CONTINUOUS
 10
811530.2361862161196768
 20
573051.4650299629429355
 30
-0.9999999999999538
  0
VERTEX
  5
259
  8
HYDRO
  6
CONTINUOUS
 10
811391.8535951802041382
 20
573181.7237040789332241
 30
-0.9999999999999538
  0
VERTEX
  5
25A
  8
HYDRO
  6
CONTINUOUS
 10
811332.5679439031518996
 20
573296.1889960221014917
 30
-0.9999999999999538
  0
VERTEX
  5
25B
  8
HYDRO
  6
CONTINUOUS
 10
811257.4727856102399528
 20
573379.0858880239538848
 30
-0.9999999999999538
  0
VERTEX
  5
25C
  8
HYDRO
  6
CONTINUOUS
 10
811103.2806875709211454
 20
573450.1193789978278801
 30
-0.9999999999999538
  0
VERTEX
  5
25D
  8
HYDRO
  6
CONTINUOUS
 10
811051.8997897972585633
 20
573414.6026335109490901
 30
-0.9999999999999538
  0
VERTEX
  5
25E
  8
HYDRO
  6
CONTINUOUS
 10
810953.0409662837628275
 20
573477.7577977976761758
 30
-0.9999999999999538
  0
VERTEX
  5
25F
  8
HYDRO
  6
CONTINUOUS
 10
810913.5171987627400085
 20
573540.9129620845196769
 30
-0.9999999999999538
  0
SEQEND
  5
260
  8
HYDRO
  6
CONTINUOUS
  0
POLYLINE
  5
78
  8
HYDRO
  6
CONTINUOUS
 66
     1
 10
0.0
 20
0.0
 30
-0.9999999999999538
  0
VERTEX
  5
261
  8
HYDRO
  6
CONTINUOUS
 10
814881.2049185704672709
 20
570658.565622667898424
 30
-0.9999999999999538
  0
VERTEX
  5
262
  8
HYDRO
  6
CONTINUOUS
 10
814771.5803605760447681
 20
570766.2177230007946491
 30
-0.9999999999999538
  0
VERTEX
  5
263
  8
HYDRO
  6
CONTINUOUS
 10
814645.7959704413078725
 20
570798.5206988600548357
 30
-0.9999999999999538
  0
VERTEX
  5
264
  8
HYDRO
  6
CONTINUOUS
 10
814466.1110423565842211
 20
570852.3467490279581398
 30
-0.9999999999999538
  0
VERTEX
  5
265
  8
HYDRO
  6
CONTINUOUS
 10
814261.2791171747958288
 20
570845.1662694572005421
 30
-0.9999999999999538
  0
VERTEX
  5
266
  8
HYDRO
  6
CONTINUOUS
 10
814106.6917814606567845
 20
570855.9278066131519154
 30
-0.9999999999999538
  0
VERTEX
  5
267
  8
HYDRO
  6
CONTINUOUS
 10
813952.1538504600757733
 20
570820.0437731686979532
 30
-0.9999999999999538
  0
VERTEX
  5
268
  8
HYDRO
  6
CONTINUOUS
 10
813826.3694603253388777
 20
570759.0372434330638498
 30
-0.9999999999999538
  0
VERTEX
  5
269
  8
HYDRO
  6
CONTINUOUS
 10
813707.7981577587779611
 20
570744.6946486919187009
 30
-0.9999999999999538
  0
VERTEX
  5
26A
  8
HYDRO
  6
CONTINUOUS
 10
813553.2602267565671355
 20
570759.0372434330638498
 30
-0.9999999999999538
  0
VERTEX
  5
26B
  8
HYDRO
  6
CONTINUOUS
 10
813380.7389815278584138
 20
570877.4692453163443133
 30
-0.9999999999999538
  0
VERTEX
  5
26C
  8
HYDRO
  6
CONTINUOUS
 10
813254.954591394867748
 20
570920.5153939337469637
 30
-0.9999999999999538
  0
VERTEX
  5
26D
  8
HYDRO
  6
CONTINUOUS
 10
813024.9262644248083234
 20
571143.0184385650791228
 30
-0.9999999999999538
  0
VERTEX
  5
26E
  8
HYDRO
  6
CONTINUOUS
 10
812805.5693546845577657
 20
571390.7174370818538591
 30
-0.9999999999999538
  0
VERTEX
  5
26F
  8
HYDRO
  6
CONTINUOUS
 10
812691.8397136407438666
 20
571581.1562430300982669
 30
-0.9999999999999538
  0
VERTEX
  5
270
  8
HYDRO
  6
CONTINUOUS
 10
812552.469028424937278
 20
571731.3219244406791404
 30
-0.9999999999999538
  0
VERTEX
  5
271
  8
HYDRO
  6
CONTINUOUS
 10
812310.3859523626742885
 20
571969.3796140713384375
 30
-0.9999999999999538
  0
VERTEX
  5
272
  8
HYDRO
  6
CONTINUOUS
 10
812233.364010404329747
 20
572038.9623176135355607
 30
-0.9999999999999538
  0
VERTEX
  5
273
  8
HYDRO
  6
CONTINUOUS
 10
812167.3099139381665736
 20
572027.9804076850414276
 30
-0.9999999999999538
  0
VERTEX
  5
274
  8
HYDRO
  6
CONTINUOUS
 10
812081.7903619607677683
 20
572098.0956787669565529
 30
-0.9999999999999538
  0
VERTEX
  5
275
  8
HYDRO
  6
CONTINUOUS
 10
812011.1416275233495981
 20
572157.5045058862306178
 30
-0.9999999999999538
  0
VERTEX
  5
276
  8
HYDRO
  6
CONTINUOUS
 10
811788.0299598658457398
 20
572198.3469267563195899
 30
-0.9999999999999538
  0
VERTEX
  5
277
  8
HYDRO
  6
CONTINUOUS
 10
811676.4247213329654187
 20
572227.0872094281949103
 30
-0.9999999999999538
  0
VERTEX
  5
278
  8
HYDRO
  6
CONTINUOUS
 10
811483.4499264103360474
 20
572377.6385431938106194
 30
-0.9999999999999538
  0
VERTEX
  5
279
  8
HYDRO
  6
CONTINUOUS
 10
811338.7435325781116262
 20
572504.0774225513450801
 30
-0.9999999999999538
  0
VERTEX
  5
27A
  8
HYDRO
  6
CONTINUOUS
 10
811230.1519813155755401
 20
572588.3883731896057725
 30
-0.9999999999999538
  0
VERTEX
  5
27B
  8
HYDRO
  6
CONTINUOUS
 10
811187.9603594819782302
 20
572696.7750494369538501
 30
-0.9999999999999538
  0
VERTEX
  5
27C
  8
HYDRO
  6
CONTINUOUS
 10
811079.4182129330001771
 20
572781.0860000721877441
 30
-0.9999999999999538
  0
VERTEX
  5
27D
  8
HYDRO
  6
CONTINUOUS
 10
810988.9581900202902034
 20
572738.9213425572961569
 30
-0.9999999999999538
  0
VERTEX
  5
27E
  8
HYDRO
  6
CONTINUOUS
 10
810884.0225872530136257
 20
572716.6269635384669527
 30
-0.9999999999999538
  0
VERTEX
  5
27F
  8
HYDRO
  6
CONTINUOUS
 10
810780.1244833805831149
 20
572720.4651226946152747
 30
-0.9999999999999538
  0
VERTEX
  5
280
  8
HYDRO
  6
CONTINUOUS
 10
810672.4222168897977099
 20
572747.3506011789431795
 30
-0.9999999999999538
  0
VERTEX
  5
281
  8
HYDRO
  6
CONTINUOUS
 10
810599.3032469737809151
 20
572766.5597613571444526
 30
-0.9999999999999538
  0
VERTEX
  5
282
  8
HYDRO
  6
CONTINUOUS
 10
810510.8194124362198636
 20
572854.9108795232605189
 30
-0.9999999999999538
  0
VERTEX
  5
283
  8
HYDRO
  6
CONTINUOUS
 10
810433.8962799003347754
 20
572889.472676322911866
 30
-0.9999999999999538
  0
VERTEX
  5
284
  8
HYDRO
  6
CONTINUOUS
 10
810387.7522813226096332
 20
572954.776475160731934
 30
-0.9999999999999538
  0
SEQEND
  5
285
  8
HYDRO
  6
CONTINUOUS
  0
POLYLINE
  5
79
  8
HYDRO
  6
CONTINUOUS
 66
     1
 10
0.0
 20
0.0
 30
-0.9999999999999538
  0
VERTEX
  5
286
  8
HYDRO
  6
CONTINUOUS
 10
809452.9823849737877026
 20
572372.6695263473084196
 30
-0.9999999999999538
  0
VERTEX
  5
287
  8
HYDRO
  6
CONTINUOUS
 10
809473.4193244425114244
 20
572541.7611669870093465
 30
-0.9999999999999538
  0
VERTEX
  5
288
  8
HYDRO
  6
CONTINUOUS
 10
809504.3466725270263851
 20
572739.5824608812108636
 30
-0.9999999999999538
  0
VERTEX
  5
289
  8
HYDRO
  6
CONTINUOUS
 10
809529.1478366466471925
 20
572819.9450659739086404
 30
-0.9999999999999538
  0
VERTEX
  5
28A
  8
HYDRO
  6
CONTINUOUS
 10
809594.1644342194776982
 20
572915.7521296795457602
 30
-0.9999999999999538
  0
VERTEX
  5
28B
  8
HYDRO
  6
CONTINUOUS
 10
809544.6115106887882575
 20
573002.3035368573619053
 30
-0.9999999999999538
  0
VERTEX
  5
28C
  8
HYDRO
  6
CONTINUOUS
 10
809515.4627321418374777
 20
573179.9056286899140105
 30
-0.9999999999999538
  0
VERTEX
  5
28D
  8
HYDRO
  6
CONTINUOUS
 10
809411.9104612387018278
 20
573352.2187739341752604
 30
-0.9999999999999538
  0
VERTEX
  5
28E
  8
HYDRO
  6
CONTINUOUS
 10
809239.3398113043513149
 20
573474.4154773828340694
 30
-0.9999999999999538
  0
VERTEX
  5
28F
  8
HYDRO
  6
CONTINUOUS
 10
809005.2602981579257175
 20
573659.9142603032523766
 30
-0.9999999999999538
  0
VERTEX
  5
290
  8
HYDRO
  6
CONTINUOUS
 10
809014.0049317245138809
 20
573734.6206308506662026
 30
-0.9999999999999538
  0
VERTEX
  5
291
  8
HYDRO
  6
CONTINUOUS
 10
808932.5859706319170073
 20
573927.7222744892351329
 30
-0.9999999999999538
  0
VERTEX
  5
292
  8
HYDRO
  6
CONTINUOUS
 10
808698.5064574935240671
 20
574202.1231075130635872
 30
-0.9999999999999538
  0
VERTEX
  5
293
  8
HYDRO
  6
CONTINUOUS
 10
808437.1061400541802868
 20
574509.9471446659881622
 30
-0.9999999999999538
  0
VERTEX
  5
294
  8
HYDRO
  6
CONTINUOUS
 10
808225.7527932364027947
 20
574615.450610447791405
 30
-0.9999999999999538
  0
VERTEX
  5
295
  8
HYDRO
  6
CONTINUOUS
 10
807895.5811203063931316
 20
574997.8708317652344704
 30
-0.9999999999999538
  0
VERTEX
  5
296
  8
HYDRO
  6
CONTINUOUS
 10
807578.6005047908984125
 20
575340.7341400582809001
 30
-0.9999999999999538
  0
VERTEX
  5
297
  8
HYDRO
  6
CONTINUOUS
 10
807459.7327739750035107
 20
575485.7945188609883189
 30
-0.9999999999999538
  0
VERTEX
  5
298
  8
HYDRO
  6
CONTINUOUS
 10
807076.7474666984053329
 20
575683.5974483544705436
 30
-0.9999999999999538
  0
VERTEX
  5
299
  8
HYDRO
  6
CONTINUOUS
 10
806905.0166968243429437
 20
575775.9152764636091888
 30
-0.9999999999999538
  0
VERTEX
  5
29A
  8
HYDRO
  6
CONTINUOUS
 10
806627.7080629578558728
 20
575855.0291025025071576
 30
-0.9999999999999538
  0
VERTEX
  5
29B
  8
HYDRO
  6
CONTINUOUS
 10
806508.8403321402147412
 20
576013.2751189781120047
 30
-0.9999999999999538
  0
VERTEX
  5
29C
  8
HYDRO
  6
CONTINUOUS
 10
806296.0542487497441471
 20
576296.1786682173842564
 30
-0.9999999999999538
  0
VERTEX
  5
29D
  8
HYDRO
  6
CONTINUOUS
 10
806165.3293876793468371
 20
576473.725666856742464
 30
-0.9999999999999538
  0
VERTEX
  5
29E
  8
HYDRO
  6
CONTINUOUS
 10
806086.8747091467957944
 20
576588.5949755527544767
 30
-0.9999999999999538
  0
VERTEX
  5
29F
  8
HYDRO
  6
CONTINUOUS
 10
805905.6088303598808125
 20
576671.7489691255614161
 30
-0.9999999999999538
  0
VERTEX
  5
2A0
  8
HYDRO
  6
CONTINUOUS
 10
805617.1841368784662336
 20
576688.6993083604611456
 30
-0.9999999999999538
  0
VERTEX
  5
2A1
  8
HYDRO
  6
CONTINUOUS
 10
805379.6956987886223942
 20
576680.2333209405187517
 30
-0.9999999999999538
  0
VERTEX
  5
2A2
  8
HYDRO
  6
CONTINUOUS
 10
805023.4383393004536629
 20
576705.6312832005787641
 30
-0.9999999999999538
  0
VERTEX
  5
2A3
  8
HYDRO
  6
CONTINUOUS
 10
804879.2259925588732585
 20
576595.5367179502500221
 30
-0.9999999999999538
  0
VERTEX
  5
2A4
  8
HYDRO
  6
CONTINUOUS
 10
804726.5654405100503936
 20
576570.1203912921482697
 30
-0.9999999999999538
  0
VERTEX
  5
2A5
  8
HYDRO
  6
CONTINUOUS
 10
804658.6833697912516072
 20
576383.7952104686992243
 30
-0.9999999999999538
  0
VERTEX
  5
2A6
  8
HYDRO
  6
CONTINUOUS
 10
804489.027597708045505
 20
576222.8679919054266065
 30
-0.9999999999999538
  0
VERTEX
  5
2A7
  8
HYDRO
  6
CONTINUOUS
 10
804353.3128609876148403
 20
576070.4251251599052921
 30
-0.9999999999999538
  0
VERTEX
  5
2A8
  8
HYDRO
  6
CONTINUOUS
 10
804192.1546989192720503
 20
575985.7285221667261794
 30
-0.9999999999999538
  0
VERTEX
  5
2A9
  8
HYDRO
  6
CONTINUOUS
 10
803963.1638708488317207
 20
575977.2625347465509549
 30
-0.9999999999999538
  0
VERTEX
  5
2AA
  8
HYDRO
  6
CONTINUOUS
 10
803700.1826027090428397
 20
575977.2625347465509549
 30
-0.9999999999999538
  0
VERTEX
  5
2AB
  8
HYDRO
  6
CONTINUOUS
 10
803539.0244406404672191
 20
576095.8414518147474155
 30
-0.9999999999999538
  0
VERTEX
  5
2AC
  8
HYDRO
  6
CONTINUOUS
 10
803352.4228532369015738
 20
576282.1666326384292915
 30
-0.9999999999999538
  0
VERTEX
  5
2AD
  8
HYDRO
  6
CONTINUOUS
 10
803199.7128964775474742
 20
576460.0258260418195277
 30
-0.9999999999999538
  0
VERTEX
  5
2AE
  8
HYDRO
  6
CONTINUOUS
 10
803199.7128964775474742
 20
576646.3510068652685732
 30
-0.9999999999999538
  0
VERTEX
  5
2AF
  8
HYDRO
  6
CONTINUOUS
 10
803140.8901400081813335
 20
576859.9885003898525611
 30
-0.9999999999999538
  0
SEQEND
  5
2B0
  8
HYDRO
  6
CONTINUOUS
  0
POLYLINE
  5
7A
  8
HYDRO
 66
     1
 10
0.0
 20
0.0
 30
-0.9999999999999538
  0
VERTEX
  5
2B1
  8
HYDRO
 10
808219.0246306208427995
 20
567119.9917431476060301
 30
-0.9999999999999538
  0
VERTEX
  5
2B2
  8
HYDRO
 10
808530.0358343458501622
 20
566973.0791714527877048
 30
-0.9999999999999538
  0
VERTEX
  5
2B3
  8
HYDRO
 10
808782.2181775460485369
 20
566868.1468655910575762
 30
-0.9999999999999538
  0
VERTEX
  5
2B4
  8
HYDRO
 10
808849.4722768890205771
 20
566700.250280553707853
 30
-0.9999999999999538
  0
VERTEX
  5
2B5
  8
HYDRO
 10
808979.7596444309456274
 20
566507.1716555880848318
 30
-0.9999999999999538
  0
VERTEX
  5
2B6
  8
HYDRO
 10
809164.6878882866585627
 20
566351.8691503000445664
 30
-0.9999999999999538
  0
VERTEX
  5
2B7
  8
HYDRO
 10
809387.455801228294149
 20
566171.3784855122212321
 30
-0.9999999999999538
  0
VERTEX
  5
2B8
  8
HYDRO
 10
809639.6381444283761084
 20
565982.497887130943127
 30
-0.9999999999999538
  0
VERTEX
  5
2B9
  8
HYDRO
 10
809740.5110817112727091
 20
565948.9197940380545333
 30
-0.9999999999999538
  0
VERTEX
  5
2BA
  8
HYDRO
 10
809824.5663882859516889
 20
566037.066113140550442
 30
-0.9999999999999538
  0
VERTEX
  5
2BB
  8
HYDRO
 10
809944.3920070414897054
 20
566057.7502674420829862
 30
-0.9999999999999538
  0
SEQEND
  5
2BC
  8
HYDRO
  0
POLYLINE
  5
7B
  8
HYDRO
 66
     1
 10
0.0
 20
0.0
 30
-0.9999999999999538
  0
VERTEX
  5
2BD
  8
HYDRO
 10
809253.8016228495398536
 20
567959.4257117599481717
 30
-0.9999999999999538
  0
VERTEX
  5
2BE
  8
HYDRO
 10
809259.303484458127059
 20
567827.3837007026886567
 30
-0.9999999999999538
  0
VERTEX
  5
2BF
  8
HYDRO
 10
809336.4280877580167726
 20
567695.3478092176374048
 30
-0.9999999999999538
  0
VERTEX
  5
2C0
  8
HYDRO
 10
809374.9903894069138914
 20
567623.8283679962623864
 30
-0.9999999999999538
  0
VERTEX
  5
2C1
  8
HYDRO
 10
809369.4885278017027304
 20
567535.7983207671204582
 30
-0.9999999999999538
  0
VERTEX
  5
2C2
  8
HYDRO
 10
809584.3403294138843194
 20
567293.7325197112513706
 30
-0.9999999999999538
  0
VERTEX
  5
2C3
  8
HYDRO
 10
809662.5653050342807546
 20
567176.9098849113797769
 30
-0.9999999999999538
  0
VERTEX
  5
2C4
  8
HYDRO
 10
809712.5583400535397232
 20
567029.2690841158619151
 30
-0.9999999999999538
  0
VERTEX
  5
2C5
  8
HYDRO
 10
809706.038223460665904
 20
566762.2109498742502183
 30
-0.9999999999999538
  0
VERTEX
  5
2C6
  8
HYDRO
 10
809743.7300813337787986
 20
566607.844739145017229
 30
-0.9999999999999538
  0
VERTEX
  5
2C7
  8
HYDRO
 10
809823.0225823449436575
 20
566528.6635934313526377
 30
-0.9999999999999538
  0
VERTEX
  5
2C8
  8
HYDRO
 10
809987.2736806415487081
 20
566322.7522253976203501
 30
-0.9999999999999538
  0
VERTEX
  5
2C9
  8
HYDRO
 10
809980.3101304288720712
 20
566189.2721148560522124
 30
-0.9999999999999538
  0
VERTEX
  5
2CA
  8
HYDRO
 10
809972.3283252322580665
 20
566093.6170805678702891
 30
-0.9999999999999538
  0
VERTEX
  5
2CB
  8
HYDRO
 10
809944.3920070414897054
 20
566057.7502674420829862
 30
-0.9999999999999538
  0
VERTEX
  5
2CC
  8
HYDRO
 10
810004.2555460174335167
 20
565993.9843242977513
 30
-0.9999999999999538
  0
VERTEX
  5
2CD
  8
HYDRO
 10
810119.9917213711887598
 20
565902.3192511360393837
 30
-0.9999999999999538
  0
VERTEX
  5
2CE
  8
HYDRO
 10
810267.6386940414085984
 20
565778.77120640152134
 30
-0.9999999999999538
  0
VERTEX
  5
2CF
  8
HYDRO
 10
810375.3930641969200224
 20
565623.3401900953613222
 30
-0.9999999999999538
  0
VERTEX
  5
2D0
  8
HYDRO
 10
810419.2929927796358243
 20
565495.8083038079785183
 30
-0.9999999999999538
  0
VERTEX
  5
2D1
  8
HYDRO
 10
810427.2747979761334136
 20
565352.3349317342508584
 30
-0.9999999999999538
  0
VERTEX
  5
2D2
  8
HYDRO
 10
810398.4351890762336552
 20
565046.7663291430799291
 30
-0.9999999999999538
  0
VERTEX
  5
2D3
  8
HYDRO
 10
810404.8731883271830156
 20
564905.3736116441432387
 30
-0.9999999999999538
  0
VERTEX
  5
2D4
  8
HYDRO
 10
810520.7079044865677133
 20
564661.1537211453542113
 30
-0.9999999999999538
  0
VERTEX
  5
2D5
  8
HYDRO
 10
810527.1459037408931181
 20
564468.3504769332939759
 30
-0.9999999999999538
  0
VERTEX
  5
2D6
  8
HYDRO
 10
810527.1459037408931181
 20
564057.0295457945903763
 30
-0.9999999999999538
  0
VERTEX
  5
2D7
  8
HYDRO
 10
810537.9853922779439017
 20
563895.8155336852651089
 30
-0.9999999999999538
  0
VERTEX
  5
2D8
  8
HYDRO
 10
810689.31122166744899
 20
563591.3668128210119903
 30
-0.9999999999999538
  0
VERTEX
  5
2D9
  8
HYDRO
 10
810761.6565959304571152
 20
563400.9196039359085262
 30
-0.9999999999999538
  0
VERTEX
  5
2DA
  8
HYDRO
 10
810735.3462010235525668
 20
563295.8465479103615507
 30
-0.9999999999999538
  0
VERTEX
  5
2DB
  8
HYDRO
 10
810695.8970321278320625
 20
563249.8763209528988227
 30
-0.9999999999999538
  0
VERTEX
  5
2DC
  8
HYDRO
 10
810584.1024889710824937
 20
563256.4426220087334514
 30
-0.9999999999999538
  0
VERTEX
  5
2DD
  8
HYDRO
 10
810486.0014439834048972
 20
563308.1912859124131501
 30
-0.9999999999999538
  0
SEQEND
  5
2DE
  8
HYDRO
  0
POLYLINE
  5
7C
  8
HYDRO
 66
     1
 10
0.0
 20
0.0
 30
-0.9999999999999538
  0
VERTEX
  5
2DF
  8
HYDRO
 10
813430.9441467970609665
 20
562040.0694833707530051
 30
-0.9999999999999538
  0
VERTEX
  5
2E0
  8
HYDRO
 10
813706.7904025505995378
 20
561834.6251329915830866
 30
-0.9999999999999538
  0
VERTEX
  5
2E1
  8
HYDRO
 10
813898.475216191727668
 20
561727.2371737012872472
 30
-0.9999999999999538
  0
VERTEX
  5
2E2
  8
HYDRO
 10
814076.1574962459271774
 20
561675.8794917891500518
 30
-0.9999999999999538
  0
VERTEX
  5
2E3
  8
HYDRO
 10
814207.0427971840836108
 20
561671.2068963258061558
 30
-0.9999999999999538
  0
VERTEX
  5
2E4
  8
HYDRO
 10
814361.3265876764198765
 20
561703.8878191127441823
 30
-0.9999999999999538
  0
VERTEX
  5
2E5
  8
HYDRO
 10
814529.6494719046168029
 20
561661.8753281271783635
 30
-0.9999999999999538
  0
VERTEX
  5
2E6
  8
HYDRO
 10
814669.8941686670295894
 20
561521.792823321884498
 30
-0.9999999999999538
  0
VERTEX
  5
2E7
  8
HYDRO
 10
814740.0530771891353652
 20
561400.4007003726437688
 30
-0.9999999999999538
  0
VERTEX
  5
2E8
  8
HYDRO
 10
814870.9383781339274719
 20
561339.7114502588519827
 30
-0.9999999999999538
  0
VERTEX
  5
2E9
  8
HYDRO
 10
815006.5399371251696721
 20
561316.3620956704253331
 30
-0.9999999999999538
  0
VERTEX
  5
2EA
  8
HYDRO
 10
815125.1775911870645359
 20
561266.0806092134444043
 30
-0.9999999999999538
  0
VERTEX
  5
2EB
  8
HYDRO
 10
815332.5467048578429967
 20
561132.9456953301560134
 30
-0.9999999999999538
  0
VERTEX
  5
2EC
  8
HYDRO
 10
815488.6950624866876751
 20
561013.0520723817171529
 30
-0.9999999999999538
  0
VERTEX
  5
2ED
  8
HYDRO
 10
815681.0379586465423927
 20
560821.4347902097506449
 30
-0.9999999999999538
  0
VERTEX
  5
2EE
  8
HYDRO
 10
815807.6091630794107914
 20
560698.0128808928420767
 30
-0.9999999999999538
  0
VERTEX
  5
2EF
  8
HYDRO
 10
815937.2148591212462634
 20
560625.7715580308577046
 30
-0.9999999999999538
  0
VERTEX
  5
2F0
  8
HYDRO
 10
815994.0361857510870323
 20
560612.2599398259771988
 30
-0.9999999999999538
  0
SEQEND
  5
2F1
  8
HYDRO
  0
POLYLINE
  5
7D
  8
HYDRO
 66
     1
 10
0.0
 20
0.0
 30
-0.9999999999999538
  0
VERTEX
  5
2F2
  8
HYDRO
 10
805155.2571631220635027
 20
575606.1776551568182185
 30
-0.9999999999999538
  0
VERTEX
  5
2F3
  8
HYDRO
 10
805405.1296778299147263
 20
575356.6347575843101367
 30
-0.9999999999999538
  0
VERTEX
  5
2F4
  8
HYDRO
 10
805414.7448917257133871
 20
575270.2538520351517946
 30
-0.9999999999999538
  0
VERTEX
  5
2F5
  8
HYDRO
 10
805491.6255873637273908
 20
575203.0704013700596988
 30
-0.9999999999999538
  0
VERTEX
  5
2F6
  8
HYDRO
 10
805501.2408012596424669
 20
575116.689495821017772
 30
-0.9999999999999538
  0
VERTEX
  5
2F7
  8
HYDRO
 10
805751.1133159643504769
 20
575020.7109544620616361
 30
-0.9999999999999538
  0
VERTEX
  5
2F8
  8
HYDRO
 10
806020.2162584639154375
 20
574943.9298679881030694
 30
-0.9999999999999538
  0
VERTEX
  5
2F9
  8
HYDRO
 10
806289.3133416002383456
 20
574867.1465982480440289
 30
-0.9999999999999538
  0
VERTEX
  5
2FA
  8
HYDRO
 10
806587.244347702129744
 20
574723.1798778435913846
 30
-0.9999999999999538
  0
VERTEX
  5
2FB
  8
HYDRO
 10
806790.3005558631848544
 20
574573.6632961492286995
 30
-0.9999999999999538
  0
VERTEX
  5
2FC
  8
HYDRO
 10
806858.573847956256941
 20
574460.0330519890412688
 30
-0.9999999999999538
  0
VERTEX
  5
2FD
  8
HYDRO
 10
806869.9527299735927954
 20
574342.6148419209057465
 30
-0.9999999999999538
  0
VERTEX
  5
2FE
  8
HYDRO
 10
806835.8160839262418449
 20
574251.7102099395124242
 30
-0.9999999999999538
  0
VERTEX
  5
2FF
  8
HYDRO
 10
806759.9607767295092344
 20
574122.9281021491624415
 30
-0.9999999999999538
  0
VERTEX
  5
300
  8
HYDRO
 10
806710.6542411160189658
 20
574058.5370482538128272
 30
-0.9999999999999538
  0
VERTEX
  5
301
  8
HYDRO
 10
806699.2753591000800952
 20
574016.8737898035906255
 30
-0.9999999999999538
  0
VERTEX
  5
302
  8
HYDRO
 10
806740.9940202481811866
 20
573933.5429063711781055
 30
-0.9999999999999538
  0
VERTEX
  5
303
  8
HYDRO
 10
806807.7555968147935346
 20
573845.4677866752026603
 30
-0.9999999999999538
  0
VERTEX
  5
304
  8
HYDRO
 10
806878.0562283397885039
 20
573787.3667211254360154
 30
-0.9999999999999538
  0
VERTEX
  5
305
  8
HYDRO
 10
807011.3801631395472214
 20
573772.8392714726505801
 30
-0.9999999999999538
  0
VERTEX
  5
306
  8
HYDRO
 10
807084.1065707481466234
 20
573763.156488302629441
 30
-0.9999999999999538
  0
VERTEX
  5
307
  8
HYDRO
 10
807127.7412434424040839
 20
573714.7382059230003506
 30
-0.9999999999999538
  0
VERTEX
  5
308
  8
HYDRO
 10
807139.8642644999781623
 20
573634.8481491591082886
 30
-0.9999999999999538
  0
VERTEX
  5
309
  8
HYDRO
 10
807130.1670195272890851
 20
573559.8005756130442023
 30
-0.9999999999999538
  0
VERTEX
  5
30A
  8
HYDRO
 10
807156.8329783600056544
 20
573421.8072700339835137
 30
-0.9999999999999538
  0
VERTEX
  5
30B
  8
HYDRO
 10
807268.3425064956536517
 20
573320.1304053222993389
 30
-0.9999999999999538
  0
VERTEX
  5
30C
  8
HYDRO
 10
807298.7994728800840676
 20
573254.8398459777235985
 30
-0.9999999999999538
  0
VERTEX
  5
30D
  8
HYDRO
 10
807355.0434937189565971
 20
573166.9306544719729573
 30
-0.9999999999999538
  0
VERTEX
  5
30E
  8
HYDRO
 10
807406.389087489573285
 20
573122.9771503520896658
 30
-0.9999999999999538
  0
VERTEX
  5
30F
  8
HYDRO
 10
807457.7405406221514568
 20
573103.4412892914842814
 30
-0.9999999999999538
  0
VERTEX
  5
310
  8
HYDRO
 10
807540.8731760680675507
 20
573096.1164330267347395
 30
-0.9999999999999538
  0
VERTEX
  5
311
  8
HYDRO
 10
807643.5702229727758095
 20
573140.0699371468508616
 30
-0.9999999999999538
  0
VERTEX
  5
312
  8
HYDRO
 10
807743.8239157065981999
 20
573218.2111981224734336
 30
-0.9999999999999538
  0
VERTEX
  5
313
  8
HYDRO
 10
807829.4057646869914606
 20
573230.4200196524616331
 30
-0.9999999999999538
  0
VERTEX
  5
314
  8
HYDRO
 10
807912.5442594980122522
 20
573201.1184113279450685
 30
-0.9999999999999538
  0
VERTEX
  5
315
  8
HYDRO
 10
807988.3409730654675514
 20
573100.9982150259893388
 30
-0.9999999999999538
  0
VERTEX
  5
316
  8
HYDRO
 10
808083.702098096255213
 20
573042.3928151102736592
 30
-0.9999999999999538
  0
VERTEX
  5
317
  8
HYDRO
 10
808193.7350668750004843
 20
572993.5553457251517102
 30
-0.9999999999999538
  0
VERTEX
  5
318
  8
HYDRO
 10
808249.9732283502817154
 20
572947.1587673396570608
 30
-0.9999999999999538
  0
VERTEX
  5
319
  8
HYDRO
 10
808290.4790014595491812
 20
572875.8336617314489558
 30
-0.9999999999999538
  0
VERTEX
  5
31A
  8
HYDRO
 10
808315.486760696163401
 20
572849.3004342539934441
 30
-0.9999999999999538
  0
VERTEX
  5
31B
  8
HYDRO
 10
808346.7406003839569166
 20
572850.8614691958064213
 30
-0.9999999999999538
  0
VERTEX
  5
31C
  8
HYDRO
 10
808390.4983196906978264
 20
572816.5252502760849893
 30
-0.9999999999999538
  0
VERTEX
  5
31D
  8
HYDRO
 10
808465.5157380464952439
 20
572791.5530577404424548
 30
-0.9999999999999538
  0
VERTEX
  5
31E
  8
HYDRO
 10
808493.6465375095140189
 20
572791.5530577404424548
 30
-0.9999999999999538
  0
VERTEX
  5
31F
  8
HYDRO
 10
808546.7850962122902274
 20
572740.0498209932120517
 30
-0.9999999999999538
  0
VERTEX
  5
320
  8
HYDRO
 10
808624.9255547899520025
 20
572690.1054359216941521
 30
-0.9999999999999538
  0
VERTEX
  5
321
  8
HYDRO
 10
808704.6304631632519886
 20
572644.844155675265938
 30
-0.9999999999999538
  0
VERTEX
  5
322
  8
HYDRO
 10
808790.5873113443376496
 20
572632.3580594077939168
 30
-0.9999999999999538
  0
VERTEX
  5
323
  8
HYDRO
 10
808896.8585693850181997
 20
572635.4779460255522281
 30
-0.9999999999999538
  0
VERTEX
  5
324
  8
HYDRO
 10
808960.9365579159930348
 20
572627.6749545828206465
 30
-0.9999999999999538
  0
VERTEX
  5
325
  8
HYDRO
 10
809020.3211970649426803
 20
572598.0218404879560694
 30
-0.9999999999999538
  0
VERTEX
  5
326
  8
HYDRO
 10
809060.8211108092218637
 20
572563.5415260343579575
 30
-0.9999999999999538
  0
VERTEX
  5
327
  8
HYDRO
 10
809101.4264930825447664
 20
572512.1147035850444809
 30
-0.9999999999999538
  0
VERTEX
  5
328
  8
HYDRO
 10
809169.7525194364134222
 20
572480.4682679490651935
 30
-0.9999999999999538
  0
VERTEX
  5
329
  8
HYDRO
 10
809255.9085859450278804
 20
572451.7867070698412135
 30
-0.9999999999999538
  0
VERTEX
  5
32A
  8
HYDRO
 10
809325.230703929788433
 20
572417.1732134117046371
 30
-0.9999999999999538
  0
VERTEX
  5
32B
  8
HYDRO
 10
809395.5430541802197695
 20
572375.6365843691164628
 30
-0.9999999999999538
  0
VERTEX
  5
32C
  8
HYDRO
 10
809452.9823849737877026
 20
572372.6695263473084196
 30
-0.9999999999999538
  0
VERTEX
  5
32D
  8
HYDRO
 10
809488.4842624895973131
 20
572326.045888333581388
 30
-0.9999999999999538
  0
VERTEX
  5
32E
  8
HYDRO
 10
809595.1949727191822603
 20
572321.9871974852867424
 30
-0.9999999999999538
  0
VERTEX
  5
32F
  8
HYDRO
 10
809640.9272971949540079
 20
572290.5241561640286818
 30
-0.9999999999999538
  0
VERTEX
  5
330
  8
HYDRO
 10
809683.6127531578531489
 20
572261.0915519000263885
 30
-0.9999999999999538
  0
VERTEX
  5
331
  8
HYDRO
 10
809771.0110045223264024
 20
572261.0915519000263885
 30
-0.9999999999999538
  0
VERTEX
  5
332
  8
HYDRO
 10
809825.8897938912268728
 20
572273.2698077107779682
 30
-0.9999999999999538
  0
VERTEX
  5
333
  8
HYDRO
 10
809930.5731646905187517
 20
572339.2415459386538714
 30
-0.9999999999999538
  0
VERTEX
  5
334
  8
HYDRO
 10
809995.6120886747958139
 20
572409.2719750147080049
 30
-0.9999999999999538
  0
VERTEX
  5
335
  8
HYDRO
 10
810029.2038140059448779
 20
572438.1347469433676451
 30
-0.9999999999999538
  0
VERTEX
  5
336
  8
HYDRO
 10
810094.7583618892822415
 20
572447.9528925835620612
 30
-0.9999999999999538
  0
VERTEX
  5
337
  8
HYDRO
 10
810147.2055158143630251
 20
572474.141164087690413
 30
-0.9999999999999538
  0
VERTEX
  5
338
  8
HYDRO
 10
810201.2874318833928555
 20
572506.8726827531354502
 30
-0.9999999999999538
  0
VERTEX
  5
339
  8
HYDRO
 10
810288.1466218932764605
 20
572515.0577456852188334
 30
-0.9999999999999538
  0
VERTEX
  5
33A
  8
HYDRO
 10
810347.1445431172614917
 20
572469.2309996350668371
 30
-0.9999999999999538
  0
VERTEX
  5
33B
  8
HYDRO
 10
810388.1132058630464599
 20
572405.4010450121713802
 30
-0.9999999999999538
  0
VERTEX
  5
33C
  8
HYDRO
 10
810443.8357434378704056
 20
572277.7411357677774504
 30
-0.9999999999999538
  0
VERTEX
  5
33D
  8
HYDRO
 10
810497.9176595049211755
 20
572161.5368214022601023
 30
-0.9999999999999538
  0
VERTEX
  5
33E
  8
HYDRO
 10
810555.2808185839094222
 20
572056.7902851830003783
 30
-0.9999999999999538
  0
VERTEX
  5
33F
  8
HYDRO
 10
810585.3217702294932678
 20
571987.0633300327463076
 30
-0.9999999999999538
  0
VERTEX
  5
340
  8
HYDRO
 10
810590.2846502840984613
 20
571924.3315580332418904
 30
-0.9999999999999538
  0
VERTEX
  5
341
  8
HYDRO
 10
810578.7124093075981364
 20
571854.9954074351117015
 30
-0.9999999999999538
  0
VERTEX
  5
342
  8
HYDRO
 10
810573.7553886148380116
 20
571795.5647331028012559
 30
-0.9999999999999538
  0
VERTEX
  5
343
  8
HYDRO
 10
810572.0971890204818919
 20
571741.0857052707578987
 30
-0.9999999999999538
  0
VERTEX
  5
344
  8
HYDRO
 10
810595.2416709784884006
 20
571698.1627025385387242
 30
-0.9999999999999538
  0
VERTEX
  5
345
  8
HYDRO
 10
810618.3861529347486794
 20
571650.2880533060524613
 30
-0.9999999999999538
  0
VERTEX
  5
346
  8
HYDRO
 10
810634.5579934932757169
 20
571553.6632653146516532
 30
-0.9999999999999538
  0
VERTEX
  5
347
  8
HYDRO
 10
810654.5677165028173476
 20
571473.7339097691001371
 30
-0.9999999999999538
  0
VERTEX
  5
348
  8
HYDRO
 10
810661.241530412924476
 20
571452.0868308225180954
 30
-0.9999999999999538
  0
VERTEX
  5
349
  8
HYDRO
 10
810721.264840078423731
 20
571448.7551674365531653
 30
-0.9999999999999538
  0
VERTEX
  5
34A
  8
HYDRO
 10
810779.6240907858591527
 20
571412.1221530495677143
 30
-0.9999999999999538
  0
VERTEX
  5
34B
  8
HYDRO
 10
810817.9736184856155887
 20
571390.4750741034513339
 30
-0.9999999999999538
  0
VERTEX
  5
34C
  8
HYDRO
 10
810827.9814096712507308
 20
571343.8492528243223205
 30
-0.9999999999999538
  0
VERTEX
  5
34D
  8
HYDRO
 10
810821.3134551231050864
 20
571277.2421842917101458
 30
-0.9999999999999538
  0
VERTEX
  5
34E
  8
HYDRO
 10
810802.9677910697646439
 20
571250.5997935320483521
 30
-0.9999999999999538
  0
VERTEX
  5
34F
  8
HYDRO
 10
810757.9503088217461482
 20
571227.2868828922510147
 30
-0.9999999999999538
  0
VERTEX
  5
350
  8
HYDRO
 10
810701.2551170686492696
 20
571203.973972252686508
 30
-0.9999999999999538
  0
VERTEX
  5
351
  8
HYDRO
 10
810609.5502342530526221
 20
571202.308140559704043
 30
-0.9999999999999538
  0
VERTEX
  5
352
  8
HYDRO
 10
810575.4663224685937166
 20
571156.1364385359920561
 30
-0.9999999999999538
  0
VERTEX
  5
353
  8
HYDRO
 10
810568.0073539807926863
 20
571118.8855599696980789
 30
-0.9999999999999538
  0
VERTEX
  5
354
  8
HYDRO
 10
810564.8081420444650576
 20
571081.6346814034041017
 30
-0.9999999999999538
  0
VERTEX
  5
355
  8
HYDRO
 10
810562.6753340868744999
 20
571037.9999340686481446
 30
-0.9999999999999538
  0
VERTEX
  5
356
  8
HYDRO
 10
810593.5834713841322809
 20
570985.8482674222905189
 30
-0.9999999999999538
  0
VERTEX
  5
357
  8
HYDRO
 10
810622.3588007253129035
 20
570939.019402437726967
 30
-0.9999999999999538
  0
VERTEX
  5
358
  8
HYDRO
 10
810709.7453333627199754
 20
570932.6333504035137594
 30
-0.9999999999999538
  0
VERTEX
  5
359
  8
HYDRO
 10
810801.3974819154245779
 20
570941.1480864492477849
 30
-0.9999999999999538
  0
VERTEX
  5
35A
  8
HYDRO
 10
810868.5399170401506126
 20
570954.9834408898605034
 30
-0.9999999999999538
  0
VERTEX
  5
35B
  8
HYDRO
 10
810926.0905757226282731
 20
570987.9769514338113368
 30
-0.9999999999999538
  0
VERTEX
  5
35C
  8
HYDRO
 10
810988.9673949339194223
 20
570984.782833784003742
 30
-0.9999999999999538
  0
VERTEX
  5
35D
  8
HYDRO
 10
811043.3188416784396395
 20
570915.6038783120457083
 30
-0.9999999999999538
  0
VERTEX
  5
35E
  8
HYDRO
 10
811092.3441278911195695
 20
570919.8612463349709287
 30
-0.9999999999999538
  0
VERTEX
  5
35F
  8
HYDRO
 10
811164.8127235510619357
 20
571126.3370456425473094
 30
-0.9999999999999538
  0
VERTEX
  5
360
  8
HYDRO
 10
811233.1973435315303504
 20
571214.2702530708629638
 30
-0.9999999999999538
  0
VERTEX
  5
361
  8
HYDRO
 10
811322.0428574357647449
 20
571252.2001272551715374
 30
-0.9999999999999538
  0
VERTEX
  5
362
  8
HYDRO
 10
811426.4918537352932617
 20
571271.1661559802014381
 30
-0.9999999999999538
  0
VERTEX
  5
363
  8
HYDRO
 10
811518.0502524873008952
 20
571250.8465025501791388
 30
-0.9999999999999538
  0
VERTEX
  5
364
  8
HYDRO
 10
811579.0930912290932611
 20
571225.784796123043634
 30
-0.9999999999999538
  0
VERTEX
  5
365
  8
HYDRO
 10
811655.7335530038690194
 20
571183.1128689410397783
 30
-0.9999999999999538
  0
VERTEX
  5
366
  8
HYDRO
 10
811720.344743519439362
 20
571084.7764006777433679
 30
-0.9999999999999538
  0
VERTEX
  5
367
  8
HYDRO
 10
811781.592659953632392
 20
570987.5643142252229154
 30
-0.9999999999999538
  0
VERTEX
  5
368
  8
HYDRO
 10
811846.1218193940585479
 20
570920.9375963017810136
 30
-0.9999999999999538
  0
VERTEX
  5
369
  8
HYDRO
 10
811881.119791732635349
 20
570895.816941701923497
 30
-0.9999999999999538
  0
VERTEX
  5
36A
  8
HYDRO
 10
812129.3927004691213369
 20
570879.4337162440642715
 30
-0.9999999999999538
  0
VERTEX
  5
36B
  8
HYDRO
 10
812268.2771703019971028
 20
570757.4808634152868763
 30
-0.9999999999999538
  0
VERTEX
  5
36C
  8
HYDRO
 10
812356.5308885956183076
 20
570673.7504423687933013
 30
-0.9999999999999538
  0
VERTEX
  5
36D
  8
HYDRO
 10
812454.7162263552891091
 20
570675.9533574122469872
 30
-0.9999999999999538
  0
VERTEX
  5
36E
  8
HYDRO
 10
812587.0968037934508175
 20
570790.5333221316104755
 30
-0.9999999999999538
  0
VERTEX
  5
36F
  8
HYDRO
 10
812708.1805302874417976
 20
570781.6081321436213329
 30
-0.9999999999999538
  0
VERTEX
  5
370
  8
HYDRO
 10
812776.0612450924236327
 20
570761.6050522332079709
 30
-0.9999999999999538
  0
VERTEX
  5
371
  8
HYDRO
 10
812858.402866598800756
 20
570666.0347815518034622
 30
-0.9999999999999538
  0
VERTEX
  5
372
  8
HYDRO
 10
812956.6409386260202155
 20
570481.4134714280953631
 30
-0.9999999999999538
  0
VERTEX
  5
373
  8
HYDRO
 10
812995.9279643269255757
 20
570379.4113001337973401
 30
-0.9999999999999538
  0
VERTEX
  5
374
  8
HYDRO
 10
813019.5470546464202926
 20
570326.454008461907506
 30
-0.9999999999999538
  0
VERTEX
  5
375
  8
HYDRO
 10
813057.0762715955497697
 20
570281.8346083174692467
 30
-0.9999999999999538
  0
VERTEX
  5
376
  8
HYDRO
 10
813138.574144899379462
 20
570211.7212151464773342
 30
-0.9999999999999538
  0
VERTEX
  5
377
  8
HYDRO
 10
813201.3806517608463764
 20
570170.664904547506012
 30
-0.9999999999999538
  0
VERTEX
  5
378
  8
HYDRO
 10
813273.3219047932652757
 20
570137.5927964403526857
 30
-0.9999999999999538
  0
VERTEX
  5
379
  8
HYDRO
 10
813319.0014950064942241
 20
570106.8022009405540302
 30
-0.9999999999999538
  0
VERTEX
  5
37A
  8
HYDRO
 10
813356.6889147408073768
 20
570076.0094221745384857
 30
-0.9999999999999538
  0
VERTEX
  5
37B
  8
HYDRO
 10
813377.2435584649210796
 20
570054.3405105716083199
 30
-0.9999999999999538
  0
VERTEX
  5
37C
  8
HYDRO
 10
813408.9720065158326179
 20
569951.1135272461688146
 30
-0.9999999999999538
  0
VERTEX
  5
37D
  8
HYDRO
 10
813407.1321666843723506
 20
569827.8965636044740677
 30
-0.9999999999999538
  0
VERTEX
  5
37E
  8
HYDRO
 10
813407.1321666843723506
 20
569724.9097395011922345
 30
-0.9999999999999538
  0
VERTEX
  5
37F
  8
HYDRO
 10
813422.050103661720641
 20
569643.6573249703506008
 30
-0.9999999999999538
  0
VERTEX
  5
380
  8
HYDRO
 10
813405.6438886034302413
 20
569551.1982078438159078
 30
-0.9999999999999538
  0
VERTEX
  5
381
  8
HYDRO
 10
813416.1907411405118182
 20
569503.2122120630228892
 30
-0.9999999999999538
  0
VERTEX
  5
382
  8
HYDRO
 10
813509.9464008398354053
 20
569432.9896556098246947
 30
-0.9999999999999538
  0
VERTEX
  5
383
  8
HYDRO
 10
813549.2099890901008621
 20
569401.871570261544548
 30
-0.9999999999999538
  0
VERTEX
  5
384
  8
HYDRO
 10
813587.0380335273221135
 20
569344.0281300588976592
 30
-0.9999999999999538
  0
VERTEX
  5
385
  8
HYDRO
 10
813623.682486733305268
 20
569277.9188460948644206
 30
-0.9999999999999538
  0
VERTEX
  5
386
  8
HYDRO
 10
813679.2409621546976268
 20
569249.5866077196551487
 30
-0.9999999999999538
  0
VERTEX
  5
387
  8
HYDRO
 10
813754.89705102564767
 20
569215.3508190198335797
 30
-0.9999999999999538
  0
VERTEX
  5
388
  8
HYDRO
 10
813883.7444328606361523
 20
569214.1718555672559887
 30
-0.9999999999999538
  0
VERTEX
  5
389
  8
HYDRO
 10
813968.8516734774457291
 20
569220.0732226264663041
 30
-0.9999999999999538
  0
VERTEX
  5
38A
  8
HYDRO
 10
814055.1483646841952577
 20
569256.6691214974271134
 30
-0.9999999999999538
  0
VERTEX
  5
38B
  8
HYDRO
 10
814139.0778734351042658
 20
569267.2928921633865684
 30
-0.9999999999999538
  0
VERTEX
  5
38C
  8
HYDRO
 10
814196.8336098050931469
 20
569231.7056620243238285
 30
-0.9999999999999538
  0
VERTEX
  5
38D
  8
HYDRO
 10
814221.6128539051860571
 20
569134.6158384487498552
 30
-0.9999999999999538
  0
VERTEX
  5
38E
  8
HYDRO
 10
814233.0503295456292108
 20
569054.6624669809825718
 30
-0.9999999999999538
  0
VERTEX
  5
38F
  8
HYDRO
 10
814290.2377077506389469
 20
569010.8770743159111589
 30
-0.9999999999999538
  0
VERTEX
  5
390
  8
HYDRO
 10
814398.8937263387488201
 20
568965.1878740022657439
 30
-0.9999999999999538
  0
VERTEX
  5
391
  8
HYDRO
 10
814478.9560558246448636
 20
568900.4627804619958624
 30
-0.9999999999999538
  0
VERTEX
  5
392
  8
HYDRO
 10
814526.6102512071374804
 20
568771.0125933818053454
 30
-0.9999999999999538
  0
VERTEX
  5
393
  8
HYDRO
 10
814610.4870256951544434
 20
568727.2272007169667631
 30
-0.9999999999999538
  0
VERTEX
  5
394
  8
HYDRO
 10
814690.5493551807012409
 20
568738.6500466119032353
 30
-0.9999999999999538
  0
VERTEX
  5
395
  8
HYDRO
 10
814818.2658800488570705
 20
568704.3836921929614618
 30
-0.9999999999999538
  0
VERTEX
  5
396
  8
HYDRO
 10
814974.6932812687009573
 20
568658.5962449243525043
 30
-0.9999999999999538
  0
VERTEX
  5
397
  8
HYDRO
 10
815061.8688768552383408
 20
568516.138161085662432
 30
-0.9999999999999538
  0
VERTEX
  5
398
  8
HYDRO
 10
815180.7436236818321049
 20
568397.420907954336144
 30
-0.9999999999999538
  0
VERTEX
  5
399
  8
HYDRO
 10
815450.1922685703029856
 20
568310.3631900526816025
 30
-0.9999999999999538
  0
VERTEX
  5
39A
  8
HYDRO
 10
815632.4711772308219224
 20
568215.3911341602215543
 30
-0.9999999999999538
  0
VERTEX
  5
39B
  8
HYDRO
 10
815695.8694797095376998
 20
568088.7595430373912677
 30
-0.9999999999999538
  0
VERTEX
  5
39C
  8
HYDRO
 10
815728.7522221759427339
 20
567938.1687946424353868
 30
-0.9999999999999538
  0
VERTEX
  5
39D
  8
HYDRO
 10
815794.3184887846000493
 20
567817.287925249314867
 30
-0.9999999999999538
  0
VERTEX
  5
39E
  8
HYDRO
 10
815945.6189477997832
 20
567676.2598804129520431
 30
-0.9999999999999538
  0
VERTEX
  5
39F
  8
HYDRO
 10
815994.0361857510870323
 20
567638.4204539104830474
 30
-0.9999999999999538
  0
SEQEND
  5
3A0
  8
HYDRO
  0
POLYLINE
  5
7E
  8
HYDRO
 66
     1
 10
0.0
 20
0.0
 30
-0.9999999999999538
  0
VERTEX
  5
3A1
  8
HYDRO
 10
802743.6431586707476526
 20
569592.9182312008924782
 30
-0.9999999999999538
  0
VERTEX
  5
3A2
  8
HYDRO
 10
802866.1038353600306436
 20
569566.5159996629226953
 30
-0.9999999999999538
  0
VERTEX
  5
3A3
  8
HYDRO
 10
802914.2443578306119889
 20
569534.7647672760067508
 30
-0.9999999999999538
  0
VERTEX
  5
3A4
  8
HYDRO
 10
802932.414241008926183
 20
569493.0360108558088541
 30
-0.9999999999999538
  0
VERTEX
  5
3A5
  8
HYDRO
 10
802950.5841241856105626
 20
569457.6583742195507511
 30
-0.9999999999999538
  0
VERTEX
  5
3A6
  8
HYDRO
 10
802976.9219587196130306
 20
569396.8784417137503624
 30
-0.9999999999999538
  0
VERTEX
  5
3A7
  8
HYDRO
 10
802994.6056359851500019
 20
569344.6661705841543153
 30
-0.9999999999999538
  0
SEQEND
  5
3A8
  8
HYDRO
  0
POLYLINE
  5
7F
  8
HYDRO
 66
     1
 10
0.0
 20
0.0
 30
-0.9999999999999538
  0
VERTEX
  5
3A9
  8
HYDRO
 10
800904.8873091666027904
 20
569552.9732028194703162
 30
-0.9999999999999538
  0
VERTEX
  5
3AA
  8
HYDRO
 10
801120.576302926056087
 20
569690.65211814455688
 30
-0.9999999999999538
  0
VERTEX
  5
3AB
  8
HYDRO
 10
801193.9530997764086351
 20
569786.1372414653887972
 30
-0.9999999999999538
  0
VERTEX
  5
3AC
  8
HYDRO
 10
801296.2399913027184084
 20
569790.5780038026859984
 30
-0.9999999999999538
  0
VERTEX
  5
3AD
  8
HYDRO
 10
801416.3159074444556609
 20
569763.9312465117545798
 30
-0.9999999999999538
  0
VERTEX
  5
3AE
  8
HYDRO
 10
801536.3859642239985988
 20
569770.5923900180496275
 30
-0.9999999999999538
  0
VERTEX
  5
3AF
  8
HYDRO
 10
801689.8133718349272385
 20
569801.6820929128443822
 30
-0.9999999999999538
  0
VERTEX
  5
3B0
  8
HYDRO
 10
801867.7036179694114253
 20
569795.0187661404488608
 30
-0.9999999999999538
  0
VERTEX
  5
3B1
  8
HYDRO
 10
802041.1407485886011273
 20
569772.8127711870474741
 30
-0.9999999999999538
  0
VERTEX
  5
3B2
  8
HYDRO
 10
802156.7694085761904716
 20
569677.3276478659827262
 30
-0.9999999999999538
  0
VERTEX
  5
3B3
  8
HYDRO
 10
802232.3669038211228326
 20
569668.4461231908062473
 30
-0.9999999999999538
  0
VERTEX
  5
3B4
  8
HYDRO
 10
802301.3023038796382025
 20
569668.4461231908062473
 30
-0.9999999999999538
  0
VERTEX
  5
3B5
  8
HYDRO
 10
802403.583336045499891
 20
569635.136039127712138
 30
-0.9999999999999538
  0
VERTEX
  5
3B6
  8
HYDRO
 10
802494.7491575096501037
 20
569575.1791977732209489
 30
-0.9999999999999538
  0
VERTEX
  5
3B7
  8
HYDRO
 10
802637.0613544171210378
 20
569588.503668051562272
 30
-0.9999999999999538
  0
VERTEX
  5
3B8
  8
HYDRO
 10
802743.6431586707476526
 20
569592.9182312008924782
 30
-0.9999999999999538
  0
SEQEND
  5
3B9
  8
HYDRO
  0
POLYLINE
  5
80
  8
HYDRO
 66
     1
 10
0.0
 20
0.0
 30
-0.9999999999999538
  0
VERTEX
  5
3BA
  8
HYDRO
 10
802636.1004189635859802
 20
570301.669576772255823
 30
-0.9999999999999538
  0
VERTEX
  5
3BB
  8
HYDRO
 10
802738.8209033157909289
 20
570199.0888400800758973
 30
-0.9999999999999538
  0
VERTEX
  5
3BC
  8
HYDRO
 10
802771.6040366233792156
 20
570079.0463446975918487
 30
-0.9999999999999538
  0
VERTEX
  5
3BD
  8
HYDRO
 10
802800.9547858742298558
 20
569971.5722619461594149
 30
-0.9999999999999538
  0
VERTEX
  5
3BE
  8
HYDRO
 10
802793.4594588247127831
 20
569860.787460662657395
 30
-0.9999999999999538
  0
VERTEX
  5
3BF
  8
HYDRO
 10
802749.7486144204158336
 20
569793.1280580853344873
 30
-0.9999999999999538
  0
VERTEX
  5
3C0
  8
HYDRO
 10
802747.563072198536247
 20
569644.7118422802304849
 30
-0.9999999999999538
  0
VERTEX
  5
3C1
  8
HYDRO
 10
802743.6431586707476526
 20
569592.9182312008924782
 30
-0.9999999999999538
  0
SEQEND
  5
3C2
  8
HYDRO
  0
POLYLINE
  5
81
  8
HYDRO
 66
     1
 10
0.0
 20
0.0
 30
-0.9999999999999538
  0
VERTEX
  5
3C3
  8
HYDRO
 10
801540.3058777487603948
 20
569342.9233976384857669
 30
-0.9999999999999538
  0
VERTEX
  5
3C4
  8
HYDRO
 10
801747.0944998370250687
 20
569322.6102940056007355
 30
-0.9999999999999538
  0
VERTEX
  5
3C5
  8
HYDRO
 10
801842.0161726756487042
 20
569319.2240489785326645
 30
-0.9999999999999538
  0
VERTEX
  5
3C6
  8
HYDRO
 10
801943.7112685912288725
 20
569254.9006763183278963
 30
-0.9999999999999538
  0
VERTEX
  5
3C7
  8
HYDRO
 10
802072.5352129756938666
 20
569166.8779549987521023
 30
-0.9999999999999538
  0
VERTEX
  5
3C8
  8
HYDRO
 10
802211.519291972508654
 20
569166.8779549987521023
 30
-0.9999999999999538
  0
VERTEX
  5
3C9
  8
HYDRO
 10
802347.122518795542419
 20
569149.9510963931679726
 30
-0.9999999999999538
  0
VERTEX
  5
3CA
  8
HYDRO
 10
802475.9406038150191307
 20
569099.1705205771140754
 30
-0.9999999999999538
  0
VERTEX
  5
3CB
  8
HYDRO
 10
802570.8622766551561654
 20
569055.1580682838102803
 30
-0.9999999999999538
  0
VERTEX
  5
3CC
  8
HYDRO
 10
802720.0182089876616374
 20
569095.7842755496967584
 30
-0.9999999999999538
  0
VERTEX
  5
3CD
  8
HYDRO
 10
802838.670300037949346
 20
569217.6607140805572271
 30
-0.9999999999999538
  0
VERTEX
  5
3CE
  8
HYDRO
 10
802984.43952083052136
 20
569336.1509075840003788
 30
-0.9999999999999538
  0
VERTEX
  5
3CF
  8
HYDRO
 10
803089.5271876445040107
 20
569424.1736289040418342
 30
-0.9999999999999538
  0
VERTEX
  5
3D0
  8
HYDRO
 10
803201.3999962578527629
 20
569397.0902184819569811
 30
-0.9999999999999538
  0
VERTEX
  5
3D1
  8
HYDRO
 10
803360.7277819246519357
 20
569285.3703317677136511
 30
-0.9999999999999538
  0
VERTEX
  5
3D2
  8
HYDRO
 10
803516.6688560590846464
 20
569163.493893236736767
 30
-0.9999999999999538
  0
VERTEX
  5
3D3
  8
HYDRO
 10
803587.8601106875576079
 20
569068.7008651276119053
 30
-0.9999999999999538
  0
VERTEX
  5
3D4
  8
HYDRO
 10
803665.8247883933363482
 20
568953.5947333860676736
 30
-0.9999999999999538
  0
VERTEX
  5
3D5
  8
HYDRO
 10
803726.8441896844888106
 20
568882.5010539373615757
 30
-0.9999999999999538
  0
VERTEX
  5
3D6
  8
HYDRO
 10
803835.324427395593375
 20
568868.9582570932107046
 30
-0.9999999999999538
  0
VERTEX
  5
3D7
  8
HYDRO
 10
803909.9082529244478792
 20
568821.5617430389393121
 30
-0.9999999999999538
  0
VERTEX
  5
3D8
  8
HYDRO
 10
803974.314365754253231
 20
568760.624615406151861
 30
-0.9999999999999538
  0
VERTEX
  5
3D9
  8
HYDRO
 10
804035.3337670484324917
 20
568747.0818185624666512
 30
-0.9999999999999538
  0
VERTEX
  5
3DA
  8
HYDRO
 10
804072.6286094946553931
 20
568747.0818185624666512
 30
-0.9999999999999538
  0
VERTEX
  5
3DB
  8
HYDRO
 10
804123.4761574500007555
 20
568852.0313984883250669
 30
-0.9999999999999538
  0
VERTEX
  5
3DC
  8
HYDRO
 10
804177.7162763072410598
 20
568906.1982193319126964
 30
-0.9999999999999538
  0
VERTEX
  5
3DD
  8
HYDRO
 10
804282.8039431197103113
 20
568950.2106716247508302
 30
-0.9999999999999538
  0
VERTEX
  5
3DE
  8
HYDRO
 10
804393.1884736506035551
 20
568977.449093907373026
 30
-0.9999999999999538
  0
SEQEND
  5
3DF
  8
HYDRO
  0
POLYLINE
  5
82
  8
HYDRO
 66
     1
 10
0.0
 20
0.0
 30
-0.9999999999999538
  0
VERTEX
  5
3E0
  8
HYDRO
 10
805056.8257321340497583
 20
571677.9063638128573075
 30
-0.9999999999999538
  0
VERTEX
  5
3E1
  8
HYDRO
 10
805125.1986333909444511
 20
571604.3696100985398516
 30
-0.9999999999999538
  0
VERTEX
  5
3E2
  8
HYDRO
 10
805205.4133063028566539
 20
571554.4688903405331075
 30
-0.9999999999999538
  0
VERTEX
  5
3E3
  8
HYDRO
 10
805269.8428565830690786
 20
571521.6391247207066044
 30
-0.9999999999999538
  0
VERTEX
  5
3E4
  8
HYDRO
 10
805336.9032606346299872
 20
571504.5681705824099481
 30
-0.9999999999999538
  0
VERTEX
  5
3E5
  8
HYDRO
 10
805422.3737817271612585
 20
571486.1828905210131779
 30
-0.9999999999999538
  0
VERTEX
  5
3E6
  8
HYDRO
 10
805474.9732790787238628
 20
571449.414513663505204
 30
-0.9999999999999538
  0
VERTEX
  5
3E7
  8
HYDRO
 10
805522.3110688847955316
 20
571402.1402624857146293
 30
-0.9999999999999538
  0
VERTEX
  5
3E8
  8
HYDRO
 10
805586.7406191631453112
 20
571307.5939433956518769
 30
-0.9999999999999538
  0
VERTEX
  5
3E9
  8
HYDRO
 10
805614.3557947254739702
 20
571291.8351319144712761
 30
-0.9999999999999538
  0
VERTEX
  5
3EA
  8
HYDRO
 10
805684.0470525495475158
 20
571261.631834874744527
 30
-0.9999999999999538
  0
VERTEX
  5
3EB
  8
HYDRO
 10
805747.158246262348257
 20
571249.8138178966473788
 30
-0.9999999999999538
  0
VERTEX
  5
3EC
  8
HYDRO
 10
805790.1543004851555452
 20
571241.814136462053284
 30
-0.9999999999999538
  0
SEQEND
  5
3ED
  8
HYDRO
  0
POLYLINE
  5
83
  8
HYDRO
 66
     1
 10
0.0
 20
0.0
 30
-0.9999999999999538
  0
VERTEX
  5
3EE
  8
HYDRO
 10
805395.7195416198810562
 20
572062.9885763706406578
 30
-0.9999999999999538
  0
VERTEX
  5
3EF
  8
HYDRO
 10
805514.0024928292259574
 20
571936.5731285482179374
 30
-0.9999999999999538
  0
VERTEX
  5
3F0
  8
HYDRO
 10
805644.2342771218391135
 20
571797.3873104420490563
 30
-0.9999999999999538
  0
VERTEX
  5
3F1
  8
HYDRO
 10
805723.5918902041157708
 20
571671.3107182759558782
 30
-0.9999999999999538
  0
VERTEX
  5
3F2
  8
HYDRO
 10
805794.6143972499994561
 20
571558.4762300937436521
 30
-0.9999999999999538
  0
VERTEX
  5
3F3
  8
HYDRO
 10
805792.0702599863288924
 20
571298.2844986519776285
 30
-0.9999999999999538
  0
VERTEX
  5
3F4
  8
HYDRO
 10
805787.9218313202727586
 20
571176.0150723040569574
 30
-0.9999999999999538
  0
VERTEX
  5
3F5
  8
HYDRO
 10
805778.9042724017053843
 20
571117.7917438776930794
 30
-0.9999999999999538
  0
VERTEX
  5
3F6
  8
HYDRO
 10
805752.6074534051585943
 20
571094.1535266559803858
 30
-0.9999999999999538
  0
VERTEX
  5
3F7
  8
HYDRO
 10
805753.9199506123550236
 20
571067.8910241194535047
 30
-0.9999999999999538
  0
VERTEX
  5
3F8
  8
HYDRO
 10
805735.4444901992101222
 20
571054.6139919168781489
 30
-0.9999999999999538
  0
SEQEND
  5
3F9
  8
HYDRO
  0
POLYLINE
  5
84
  8
HYDRO
 66
     1
 10
0.0
 20
0.0
 30
-0.9999999999999538
  0
VERTEX
  5
3FA
  8
HYDRO
 10
805629.7541994310449809
 20
572342.2217035547364503
 30
-0.9999999999999538
  0
VERTEX
  5
3FB
  8
HYDRO
 10
805837.702975298743695
 20
572209.9551037824712694
 30
-0.9999999999999538
  0
VERTEX
  5
3FC
  8
HYDRO
 10
805950.3433604026213288
 20
572093.7573392140911892
 30
-0.9999999999999538
  0
VERTEX
  5
3FD
  8
HYDRO
 10
806013.4721321992110461
 20
571999.811418178724125
 30
-0.9999999999999538
  0
VERTEX
  5
3FE
  8
HYDRO
 10
806154.3546446550171822
 20
571805.568456323351711
 30
-0.9999999999999538
  0
VERTEX
  5
3FF
  8
HYDRO
 10
806195.7334627760574222
 20
571737.9461692625191063
 30
-0.9999999999999538
  0
VERTEX
  5
400
  8
HYDRO
 10
806239.6200880586402491
 20
571679.0918770625721663
 30
-0.9999999999999538
  0
VERTEX
  5
401
  8
HYDRO
 10
806316.1082064070506021
 20
571587.6763609179761261
 30
-0.9999999999999538
  0
VERTEX
  5
402
  8
HYDRO
 10
806484.6293318707030267
 20
571481.7246620579389855
 30
-0.9999999999999538
  0
VERTEX
  5
403
  8
HYDRO
 10
806650.4375724899582565
 20
571316.1370618941728026
 30
-0.9999999999999538
  0
VERTEX
  5
404
  8
HYDRO
 10
806822.3102533149067312
 20
571174.7815272099105641
 30
-0.9999999999999538
  0
VERTEX
  5
405
  8
HYDRO
 10
807044.7375139720970765
 20
571035.4455132548464462
 30
-0.9999999999999538
  0
VERTEX
  5
406
  8
HYDRO
 10
807263.1393925761803985
 20
570872.35775226354599
 30
-0.9999999999999538
  0
VERTEX
  5
407
  8
HYDRO
 10
807414.7211009941529483
 20
570725.0681015356676653
 30
-0.9999999999999538
  0
VERTEX
  5
408
  8
HYDRO
 10
807572.4492806938942522
 20
570577.778450807207264
 30
-0.9999999999999538
  0
VERTEX
  5
409
  8
HYDRO
 10
807707.6482115007238463
 20
570487.7689577429555357
 30
-0.9999999999999538
  0
VERTEX
  5
40A
  8
HYDRO
 10
807767.0504287397488952
 20
570412.0773208294995129
 30
-0.9999999999999538
  0
VERTEX
  5
40B
  8
HYDRO
 10
807774.9078338793478906
 20
570383.4568913886323571
 30
-0.9999999999999538
  0
SEQEND
  5
40C
  8
HYDRO
  0
POLYLINE
  5
85
  8
HYDRO
 66
     1
 10
0.0
 20
0.0
 30
-0.9999999999999538
  0
VERTEX
  5
40D
  8
HYDRO
 10
804158.6088951263809577
 20
574506.1174233859637752
 30
-0.9999999999999538
  0
VERTEX
  5
40E
  8
HYDRO
 10
804293.4386860968079418
 20
574487.264924475341104
 30
-0.9999999999999538
  0
VERTEX
  5
40F
  8
HYDRO
 10
804385.120131460018456
 20
574430.7139775388641283
 30
-0.9999999999999538
  0
VERTEX
  5
410
  8
HYDRO
 10
804444.446176984347403
 20
574349.9244153259787709
 30
-0.9999999999999538
  0
VERTEX
  5
411
  8
HYDRO
 10
804468.7156565457116812
 20
574296.0654349398100749
 30
-0.9999999999999538
  0
VERTEX
  5
412
  8
HYDRO
 10
804455.2332633846672252
 20
574223.3561389074893668
 30
-0.9999999999999538
  0
VERTEX
  5
413
  8
HYDRO
 10
804401.3036907420028001
 20
574112.9440283195581287
 30
-0.9999999999999538
  0
VERTEX
  5
414
  8
HYDRO
 10
804393.211911101010628
 20
574051.0069650176446885
 30
-0.9999999999999538
  0
VERTEX
  5
415
  8
HYDRO
 10
804468.7156565457116812
 20
573959.4451700749341398
 30
-0.9999999999999538
  0
VERTEX
  5
416
  8
HYDRO
 10
804474.1121294276090339
 20
573781.709879819652997
 30
-0.9999999999999538
  0
VERTEX
  5
417
  8
HYDRO
 10
804487.5945225884206593
 20
573684.7641517767915502
 30
-0.9999999999999538
  0
VERTEX
  5
418
  8
HYDRO
 10
804574.1080102096311748
 20
573610.8562429014127702
 30
-0.9999999999999538
  0
VERTEX
  5
419
  8
HYDRO
 10
804706.365541031700559
 20
573511.7949304416542873
 30
-0.9999999999999538
  0
VERTEX
  5
41A
  8
HYDRO
 10
804739.4299237370723858
 20
573412.7314347157953307
 30
-0.9999999999999538
  0
VERTEX
  5
41B
  8
HYDRO
 10
804813.8262496637180448
 20
573352.1938446980202571
 30
-0.9999999999999538
  0
VERTEX
  5
41C
  8
HYDRO
 10
804915.779157531214878
 20
573310.919207533239387
 30
-0.9999999999999538
  0
VERTEX
  5
41D
  8
HYDRO
 10
805114.1654537639115006
 20
573275.1463998140534386
 30
-0.9999999999999538
  0
VERTEX
  5
41E
  8
HYDRO
 10
805340.1141912960447371
 20
573195.3458569418871775
 30
-0.9999999999999538
  0
VERTEX
  5
41F
  8
HYDRO
 10
805458.59636083280202
 20
573066.0135662070242688
 30
-0.9999999999999538
  0
VERTEX
  5
420
  8
HYDRO
 10
805449.4791927486658096
 20
572816.7654094976605847
 30
-0.9999999999999538
  0
VERTEX
  5
421
  8
HYDRO
 10
805543.9731321235885844
 20
572680.7610589284449816
 30
-0.9999999999999538
  0
VERTEX
  5
422
  8
HYDRO
 10
805630.1350579940481111
 20
572597.4913069340400398
 30
-0.9999999999999538
  0
VERTEX
  5
423
  8
HYDRO
 10
805730.1895324006909505
 20
572533.6526192491874099
 30
-0.9999999999999538
  0
VERTEX
  5
424
  8
HYDRO
 10
805926.0035684884060174
 20
572424.2448108609532937
 30
-0.9999999999999538
  0
VERTEX
  5
425
  8
HYDRO
 10
805982.0776678135152906
 20
572404.6456350965891033
 30
-0.9999999999999538
  0
VERTEX
  5
426
  8
HYDRO
 10
806141.868343121255748
 20
572399.0477419631788507
 30
-0.9999999999999538
  0
VERTEX
  5
427
  8
HYDRO
 10
806245.5966378308366984
 20
572413.0446580625139177
 30
-0.9999999999999538
  0
VERTEX
  5
428
  8
HYDRO
 10
806366.1413029738469049
 20
572401.846688529709354
 30
-0.9999999999999538
  0
VERTEX
  5
429
  8
HYDRO
 10
806492.2992374113528058
 20
572373.8506730652879924
 30
-0.9999999999999538
  0
VERTEX
  5
42A
  8
HYDRO
 10
806598.82830740371719
 20
572337.4534513691905886
 30
-0.9999999999999538
  0
VERTEX
  5
42B
  8
HYDRO
 10
806668.4082373406272382
 20
572259.3711385659407824
 30
-0.9999999999999538
  0
VERTEX
  5
42C
  8
HYDRO
 10
806737.9881672757910565
 20
572202.3573393109254539
 30
-0.9999999999999538
  0
VERTEX
  5
42D
  8
HYDRO
 10
806811.1364489883417264
 20
572159.5958982373122126
 30
-0.9999999999999538
  0
VERTEX
  5
42E
  8
HYDRO
 10
806873.5738160102628171
 20
572141.7804505113745108
 30
-0.9999999999999538
  0
VERTEX
  5
42F
  8
HYDRO
 10
807032.3625403273617849
 20
572136.4336329275975004
 30
-0.9999999999999538
  0
VERTEX
  5
430
  8
HYDRO
 10
807145.3251903698546812
 20
572126.8578297753119841
 30
-0.9999999999999538
  0
VERTEX
  5
431
  8
HYDRO
 10
807229.9050883577438071
 20
572069.3506124827545136
 30
-0.9999999999999538
  0
VERTEX
  5
432
  8
HYDRO
 10
807336.0767372391419485
 20
571974.1012818523449823
 30
-0.9999999999999538
  0
VERTEX
  5
433
  8
HYDRO
 10
807384.6684306245297194
 20
571850.0983425759477541
 30
-0.9999999999999538
  0
VERTEX
  5
434
  8
HYDRO
 10
807383.174293180461973
 20
571716.6527793513378128
 30
-0.9999999999999538
  0
VERTEX
  5
435
  8
HYDRO
 10
807346.8696830014232546
 20
571578.8843501345254481
 30
-0.9999999999999538
  0
VERTEX
  5
436
  8
HYDRO
 10
807212.473484858055599
 20
571416.4581186359282583
 30
-0.9999999999999538
  0
VERTEX
  5
437
  8
HYDRO
 10
807205.14928170631174
 20
571345.1482958877459168
 30
-0.9999999999999538
  0
VERTEX
  5
438
  8
HYDRO
 10
807219.7918286479543895
 20
571290.293746363488026
 30
-0.9999999999999538
  0
VERTEX
  5
439
  8
HYDRO
 10
807344.408750741975382
 20
571245.838091142824851
 30
-0.9999999999999538
  0
VERTEX
  5
43A
  8
HYDRO
 10
807400.506287517840974
 20
571225.1996809283737093
 30
-0.9999999999999538
  0
VERTEX
  5
43B
  8
HYDRO
 10
807524.5138359107077122
 20
571213.4056798721430823
 30
-0.9999999999999538
  0
VERTEX
  5
43C
  8
HYDRO
 10
807716.4255365590797737
 20
571080.7198930948507041
 30
-0.9999999999999538
  0
VERTEX
  5
43D
  8
HYDRO
 10
807748.9039830139372498
 20
570989.3152932786615565
 30
-0.9999999999999538
  0
VERTEX
  5
43E
  8
HYDRO
 10
807787.2828075240831822
 20
570844.8355054457206279
 30
-0.9999999999999538
  0
VERTEX
  5
43F
  8
HYDRO
 10
807866.5834198823431507
 20
570724.8585080325137824
 30
-0.9999999999999538
  0
VERTEX
  5
440
  8
HYDRO
 10
808027.3994836329948157
 20
570650.5073962298920378
 30
-0.9999999999999538
  0
VERTEX
  5
441
  8
HYDRO
 10
808048.2470954818418249
 20
570585.0749246183549985
 30
-0.9999999999999538
  0
VERTEX
  5
442
  8
HYDRO
 10
808051.2236516417469829
 20
570513.6974206345621496
 30
-0.9999999999999538
  0
VERTEX
  5
443
  8
HYDRO
 10
808042.2881237982073799
 20
570463.1373546492541209
 30
-0.9999999999999538
  0
VERTEX
  5
444
  8
HYDRO
 10
807908.2727842195890844
 20
570463.1373546492541209
 30
-0.9999999999999538
  0
VERTEX
  5
445
  8
HYDRO
 10
807890.4075878927251324
 20
570427.4475110246567056
 30
-0.9999999999999538
  0
VERTEX
  5
446
  8
HYDRO
 10
807845.7358080320991576
 20
570424.4739032053621486
 30
-0.9999999999999538
  0
VERTEX
  5
447
  8
HYDRO
 10
807780.216416324255988
 20
570379.8610528580611572
 30
-0.9999999999999538
  0
SEQEND
  5
448
  8
HYDRO
  0
POLYLINE
  5
86
  8
HYDRO
 66
     1
 10
0.0
 20
0.0
 30
-0.9999999999999538
  0
VERTEX
  5
449
  8
HYDRO
 10
802118.8534737023292109
 20
575677.7844020341290161
 30
-0.9999999999999538
  0
VERTEX
  5
44A
  8
HYDRO
 10
802194.3923753225244582
 20
575602.3482072020415217
 30
-0.9999999999999538
  0
VERTEX
  5
44B
  8
HYDRO
 10
802200.6853306697448716
 20
575552.0588661573128775
 30
-0.9999999999999538
  0
VERTEX
  5
44C
  8
HYDRO
 10
802156.6229245132999495
 20
575489.1960982191376388
 30
-0.9999999999999538
  0
VERTEX
  5
44D
  8
HYDRO
 10
802137.7381991069996729
 20
575407.4742815730860457
 30
-0.9999999999999538
  0
VERTEX
  5
44E
  8
HYDRO
 10
802213.2771007273113355
 20
575244.0306482806336135
 30
-0.9999999999999538
  0
VERTEX
  5
44F
  8
HYDRO
 10
802313.9878237373195589
 20
575162.3110148998675868
 30
-0.9999999999999538
  0
VERTEX
  5
450
  8
HYDRO
 10
802496.5362630767049268
 20
575174.8822585277957842
 30
-0.9999999999999538
  0
VERTEX
  5
451
  8
HYDRO
 10
802697.9635684590321034
 20
575250.3184533604653552
 30
-0.9999999999999538
  0
VERTEX
  5
452
  8
HYDRO
 10
802811.2719208885682747
 20
575300.6077944043790922
 30
-0.9999999999999538
  0
VERTEX
  5
453
  8
HYDRO
 10
802943.4591393610462546
 20
575250.3184533604653552
 30
-0.9999999999999538
  0
VERTEX
  5
454
  8
HYDRO
 10
802987.5215455177240074
 20
575162.3110148998675868
 30
-0.9999999999999538
  0
VERTEX
  5
455
  8
HYDRO
 10
803031.583951675798744
 20
575049.1567226512124762
 30
-0.9999999999999538
  0
VERTEX
  5
456
  8
HYDRO
 10
803075.6463578320108354
 20
574998.8673816075315699
 30
-0.9999999999999538
  0
VERTEX
  5
457
  8
HYDRO
 10
803132.300534047652036
 20
575011.438625235343352
 30
-0.9999999999999538
  0
VERTEX
  5
458
  8
HYDRO
 10
803195.2476656105136499
 20
575074.301393173635006
 30
-0.9999999999999538
  0
VERTEX
  5
459
  8
HYDRO
 10
803163.7711701482767239
 20
575269.1775020682252944
 30
-0.9999999999999538
  0
VERTEX
  5
45A
  8
HYDRO
 10
803214.1265316515928134
 20
575325.7524649265687913
 30
-0.9999999999999538
  0
VERTEX
  5
45B
  8
HYDRO
 10
803340.02079477685038
 20
575319.4668431127211079
 30
-0.9999999999999538
  0
VERTEX
  5
45C
  8
HYDRO
 10
803478.5068279601400718
 20
575187.4556854220572859
 30
-0.9999999999999538
  0
VERTEX
  5
45D
  8
HYDRO
 10
803610.6940464292420074
 20
575080.5891982534667477
 30
-0.9999999999999538
  0
VERTEX
  5
45E
  8
HYDRO
 10
803630.4520075509790331
 20
574945.8723518055630848
 30
-0.9999999999999538
  0
VERTEX
  5
45F
  8
HYDRO
 10
803743.777638534666039
 20
574799.4116850841091946
 30
-0.9999999999999538
  0
VERTEX
  5
460
  8
HYDRO
 10
803804.026511819800362
 20
574569.7260286150267348
 30
-0.9999999999999538
  0
VERTEX
  5
461
  8
HYDRO
 10
803793.2424857720034197
 20
574445.6758970568189397
 30
-0.9999999999999538
  0
VERTEX
  5
462
  8
HYDRO
 10
803799.5354411189910024
 20
574370.23970222461503
 30
-0.9999999999999538
  0
VERTEX
  5
463
  8
HYDRO
 10
803799.5354411189910024
 20
574263.3732150557916611
 30
-0.9999999999999538
  0
VERTEX
  5
464
  8
HYDRO
 10
803975.7850657477974892
 20
574225.6573009056737646
 30
-0.9999999999999538
  0
VERTEX
  5
465
  8
HYDRO
 10
804057.3356733144028112
 20
574125.9388254842488095
 30
-0.9999999999999538
  0
VERTEX
  5
466
  8
HYDRO
 10
804069.3004915822530165
 20
574022.3734359827358276
 30
-0.9999999999999538
  0
VERTEX
  5
467
  8
HYDRO
 10
804180.9858005949063227
 20
573958.6395450487034395
 30
-0.9999999999999538
  0
VERTEX
  5
468
  8
HYDRO
 10
804163.185057254624553
 20
573686.7247243328019977
 30
-0.9999999999999538
  0
VERTEX
  5
469
  8
HYDRO
 10
804203.415440323180519
 20
573554.1350012442562729
 30
-0.9999999999999538
  0
VERTEX
  5
46A
  8
HYDRO
 10
804199.395917633199133
 20
573469.7605168302543461
 30
-0.9999999999999538
  0
VERTEX
  5
46B
  8
HYDRO
 10
804159.159675202681683
 20
573365.2956218796316534
 30
-0.9999999999999538
  0
VERTEX
  5
46C
  8
HYDRO
 10
804179.2748667364940047
 20
573240.7424996586050838
 30
-0.9999999999999538
  0
VERTEX
  5
46D
  8
HYDRO
 10
804295.483603615895845
 20
573078.6066424917662516
 30
-0.9999999999999538
  0
VERTEX
  5
46E
  8
HYDRO
 10
804361.8584622497437522
 20
573035.0221102668438107
 30
-0.9999999999999538
  0
VERTEX
  5
46F
  8
HYDRO
 10
804415.6298321074573323
 20
572971.09827522165142
 30
-0.9999999999999538
  0
VERTEX
  5
470
  8
HYDRO
 10
804413.0692906859330833
 20
572861.1490169514436275
 30
-0.9999999999999538
  0
VERTEX
  5
471
  8
HYDRO
 10
804448.9110112253110856
 20
572738.4145550193497911
 30
-0.9999999999999538
  0
VERTEX
  5
472
  8
HYDRO
 10
804454.0320940697565675
 20
572648.9203126491047442
 30
-0.9999999999999538
  0
VERTEX
  5
473
  8
HYDRO
 10
804432.4989368034293875
 20
572557.341051580850035
 30
-0.9999999999999538
  0
VERTEX
  5
474
  8
HYDRO
 10
804386.0166139268549159
 20
572451.5967629579827189
 30
-0.9999999999999538
  0
VERTEX
  5
475
  8
HYDRO
 10
804373.1025789311388507
 20
572299.4275134959025308
 30
-0.9999999999999538
  0
VERTEX
  5
476
  8
HYDRO
 10
804422.1688806795282289
 20
572227.2116355013567954
 30
-0.9999999999999538
  0
VERTEX
  5
477
  8
HYDRO
 10
804447.4930454944260418
 20
572067.6716811959631741
 30
-0.9999999999999538
  0
VERTEX
  5
478
  8
HYDRO
 10
804444.8856291734846309
 20
571950.6027936326572672
 30
-0.9999999999999538
  0
VERTEX
  5
479
  8
HYDRO
 10
804434.4676826125942171
 20
571885.5654931038152426
 30
-0.9999999999999538
  0
VERTEX
  5
47A
  8
HYDRO
 10
804422.6564195741666481
 20
571853.6083685553167015
 30
-0.9999999999999538
  0
SEQEND
  5
47B
  8
HYDRO
  0
POLYLINE
  5
87
  8
HYDRO
 66
     1
 10
0.0
 20
0.0
 30
-0.9999999999999538
  0
VERTEX
  5
47C
  8
HYDRO
 10
799380.6977669091429561
 20
572584.4109879755415022
 30
-0.9999999999999538
  0
VERTEX
  5
47D
  8
HYDRO
 10
799417.8828589848708361
 20
572586.5956430665683001
 30
-0.9999999999999538
  0
VERTEX
  5
47E
  8
HYDRO
 10
799461.1132356642046943
 20
572494.8548203400569037
 30
-0.9999999999999538
  0
VERTEX
  5
47F
  8
HYDRO
 10
799498.9354207330616191
 20
572403.1161808792967349
 30
-0.9999999999999538
  0
VERTEX
  5
480
  8
HYDRO
 10
799601.6090301888762042
 20
572397.719148185569793
 30
-0.9999999999999538
  0
VERTEX
  5
481
  8
HYDRO
 10
799677.2592596964677796
 20
572413.9080630005337298
 30
-0.9999999999999538
  0
VERTEX
  5
482
  8
HYDRO
 10
799855.5830986583605409
 20
572322.1694235395407304
 30
-0.9999999999999538
  0
VERTEX
  5
483
  8
HYDRO
 10
800006.8835576752899215
 20
572311.3753581527853385
 30
-0.9999999999999538
  0
VERTEX
  5
484
  8
HYDRO
 10
800293.2774789714021608
 20
572440.8910432020202279
 30
-0.9999999999999538
  0
VERTEX
  5
485
  8
HYDRO
 10
800439.1814651065506041
 20
572419.3050956936785951
 30
-0.9999999999999538
  0
VERTEX
  5
486
  8
HYDRO
 10
800520.2340268563712016
 20
572289.789410644560121
 30
-0.9999999999999538
  0
VERTEX
  5
487
  8
HYDRO
 10
800698.5578658196609467
 20
572284.3923779507167637
 30
-0.9999999999999538
  0
VERTEX
  5
488
  8
HYDRO
 10
800894.1668242181185633
 20
572166.0681126367999241
 30
-0.9999999999999538
  0
VERTEX
  5
489
  8
HYDRO
 10
801043.9672864290187135
 20
572124.8851726300781593
 30
-0.9999999999999538
  0
VERTEX
  5
48A
  8
HYDRO
 10
801150.0100293313153088
 20
572088.7455762807512656
 30
-0.9999999999999538
  0
VERTEX
  5
48B
  8
HYDRO
 10
801483.2905695223016664
 20
572097.2319298731163144
 30
-0.9999999999999538
  0
VERTEX
  5
48C
  8
HYDRO
 10
801597.2903267296496779
 20
572072.8361194698372856
 30
-0.9999999999999538
  0
VERTEX
  5
48D
  8
HYDRO
 10
801682.784285272937268
 20
572044.3750684212427586
 30
-0.9999999999999538
  0
VERTEX
  5
48E
  8
HYDRO
 10
801746.5751650382298976
 20
572036.2424038642784581
 30
-0.9999999999999538
  0
VERTEX
  5
48F
  8
HYDRO
 10
801955.5727667973842472
 20
572036.2424038642784581
 30
-0.9999999999999538
  0
VERTEX
  5
490
  8
HYDRO
 10
802074.7873566475464031
 20
571982.6279492309549823
 30
-0.9999999999999538
  0
VERTEX
  5
491
  8
HYDRO
 10
802173.2422250860836357
 20
571961.0638343795435503
 30
-0.9999999999999538
  0
VERTEX
  5
492
  8
HYDRO
 10
802227.6581248186994344
 20
571916.2130080758361146
 30
-0.9999999999999538
  0
VERTEX
  5
493
  8
HYDRO
 10
802293.2947037789272144
 20
571873.0869616380659863
 30
-0.9999999999999538
  0
VERTEX
  5
494
  8
HYDRO
 10
802359.7984683919930831
 20
571826.5113554691197351
 30
-0.9999999999999538
  0
VERTEX
  5
495
  8
HYDRO
 10
802416.798346996307373
 20
571782.5229190986137837
 30
-0.9999999999999538
  0
VERTEX
  5
496
  8
HYDRO
 10
802473.8040849609533325
 20
571730.7707900665700436
 30
-0.9999999999999538
  0
VERTEX
  5
497
  8
HYDRO
 10
802581.3116684935521334
 20
571659.805923291365616
 30
-0.9999999999999538
  0
VERTEX
  5
498
  8
HYDRO
 10
802622.3565029543824494
 20
571628.1070892795687541
 30
-0.9999999999999538
  0
VERTEX
  5
499
  8
HYDRO
 10
802656.8329920270480216
 20
571604.6042345283785835
 30
-0.9999999999999538
  0
VERTEX
  5
49A
  8
HYDRO
 10
802712.6551387622021139
 20
571578.3701144453370944
 30
-0.9999999999999538
  0
VERTEX
  5
49B
  8
HYDRO
 10
802798.342456269543618
 20
571583.5859360897447914
 30
-0.9999999999999538
  0
VERTEX
  5
49C
  8
HYDRO
 10
802859.6196695123799145
 20
571565.3927834059577435
 30
-0.9999999999999538
  0
VERTEX
  5
49D
  8
HYDRO
 10
802905.4340250650420785
 20
571550.5072781855706125
 30
-0.9999999999999538
  0
VERTEX
  5
49E
  8
HYDRO
 10
802942.2835559587692842
 20
571483.5552536797476932
 30
-0.9999999999999538
  0
VERTEX
  5
49F
  8
HYDRO
 10
802949.4026814230019227
 20
571409.7674244157969952
 30
-0.9999999999999538
  0
VERTEX
  5
4A0
  8
HYDRO
 10
802937.8304404431255534
 20
571359.9846010026521981
 30
-0.9999999999999538
  0
VERTEX
  5
4A1
  8
HYDRO
 10
802912.9047122782794759
 20
571287.0875441248062998
 30
-0.9999999999999538
  0
VERTEX
  5
4A2
  8
HYDRO
 10
802879.6293925222707912
 20
571179.0027947219787166
 30
-0.9999999999999538
  0
VERTEX
  5
4A3
  8
HYDRO
 10
802867.0552005515201017
 20
571125.2005792424315587
 30
-0.9999999999999538
  0
VERTEX
  5
4A4
  8
HYDRO
 10
802883.2211817465722561
 20
571083.9521412659669295
 30
-0.9999999999999538
  0
VERTEX
  5
4A5
  8
HYDRO
 10
802918.2367321737110615
 20
571051.6703753249021247
 30
-0.9999999999999538
  0
VERTEX
  5
4A6
  8
HYDRO
 10
802962.2346853438066319
 20
571040.9112421880709007
 30
-0.9999999999999538
  0
VERTEX
  5
4A7
  8
HYDRO
 10
803028.6798563308548182
 20
571086.6419245500583202
 30
-0.9999999999999538
  0
VERTEX
  5
4A8
  8
HYDRO
 10
803131.0429195717442781
 20
571160.1721284674713388
 30
-0.9999999999999538
  0
VERTEX
  5
4A9
  8
HYDRO
 10
803209.1599406991153955
 20
571215.7689883133862168
 30
-0.9999999999999538
  0
VERTEX
  5
4AA
  8
HYDRO
 10
803287.2769618292804807
 20
571222.9431992481695488
 30
-0.9999999999999538
  0
VERTEX
  5
4AB
  8
HYDRO
 10
803323.1948540820740163
 20
571199.628105343086645
 30
-0.9999999999999538
  0
VERTEX
  5
4AC
  8
HYDRO
 10
803365.4525765825528651
 20
571101.422633018810302
 30
-0.9999999999999538
  0
VERTEX
  5
4AD
  8
HYDRO
 10
803406.2103022773517296
 20
571039.9178563164314255
 30
-0.9999999999999538
  0
VERTEX
  5
4AE
  8
HYDRO
 10
803484.0988082711119205
 20
570963.9402116023702547
 30
-0.9999999999999538
  0
VERTEX
  5
4AF
  8
HYDRO
 10
803554.7451421850128099
 20
570910.5746492531616241
 30
-0.9999999999999538
  0
VERTEX
  5
4B0
  8
HYDRO
 10
803629.8621697033522651
 20
570889.8379920840961859
 30
-0.9999999999999538
  0
VERTEX
  5
4B1
  8
HYDRO
 10
803661.8367109792307019
 20
570871.5902577589731663
 30
-0.9999999999999538
  0
VERTEX
  5
4B2
  8
HYDRO
 10
803705.6881800863193348
 20
570806.8149491088697687
 30
-0.9999999999999538
  0
VERTEX
  5
4B3
  8
HYDRO
 10
803728.5221158294007182
 20
570748.425692492746748
 30
-0.9999999999999538
  0
VERTEX
  5
4B4
  8
HYDRO
 10
803771.4595243841176853
 20
570698.2476979965576902
 30
-0.9999999999999538
  0
VERTEX
  5
4B5
  8
HYDRO
 10
803822.0609791143797338
 20
570634.7648826132062823
 30
-0.9999999999999538
  0
VERTEX
  5
4B6
  8
HYDRO
 10
803877.3499238600488752
 20
570589.6738970878068358
 30
-0.9999999999999538
  0
VERTEX
  5
4B7
  8
HYDRO
 10
803898.5432380993152037
 20
570558.3855170193128288
 30
-0.9999999999999538
  0
VERTEX
  5
4B8
  8
HYDRO
 10
803908.5158731108531356
 20
570459.7237421734025702
 30
-0.9999999999999538
  0
VERTEX
  5
4B9
  8
HYDRO
 10
803903.8635392675641924
 20
570358.5468452960485592
 30
-0.9999999999999538
  0
VERTEX
  5
4BA
  8
HYDRO
 10
803895.5022289511980489
 20
570311.2070961480494589
 30
-0.9999999999999538
  0
VERTEX
  5
4BB
  8
HYDRO
 10
803884.3460027100518346
 20
570275.9364395287120715
 30
-0.9999999999999538
  0
VERTEX
  5
4BC
  8
HYDRO
 10
803897.2541783457854763
 20
570186.8264519138028845
 30
-0.9999999999999538
  0
VERTEX
  5
4BD
  8
HYDRO
 10
803907.5725157428532839
 20
570101.6266930828569457
 30
-0.9999999999999538
  0
VERTEX
  5
4BE
  8
HYDRO
 10
803930.0724678243277594
 20
570016.4269342521438375
 30
-0.9999999999999538
  0
VERTEX
  5
4BF
  8
HYDRO
 10
803927.2599738157587126
 20
569974.2942736858967692
 30
-0.9999999999999538
  0
VERTEX
  5
4C0
  8
HYDRO
 10
803955.1798362261615694
 20
569778.7348026424879208
 30
-0.9999999999999538
  0
VERTEX
  5
4C1
  8
HYDRO
 10
804005.0723080934258178
 20
569606.617054911213927
 30
-0.9999999999999538
  0
VERTEX
  5
4C2
  8
HYDRO
 10
804018.6777478654403239
 20
569556.7927494512405246
 30
-0.9999999999999538
  0
VERTEX
  5
4C3
  8
HYDRO
 10
804070.0760759003460407
 20
569484.3214293754426762
 30
-0.9999999999999538
  0
VERTEX
  5
4C4
  8
HYDRO
 10
804077.6405129138147458
 20
569454.1268653982551768
 30
-0.9999999999999538
  0
VERTEX
  5
4C5
  8
HYDRO
 10
804111.71270597493276
 20
569363.1283529935171828
 30
-0.9999999999999538
  0
VERTEX
  5
4C6
  8
HYDRO
 10
804151.3571527898311615
 20
569236.7281880306545645
 30
-0.9999999999999538
  0
VERTEX
  5
4C7
  8
HYDRO
 10
804171.1852355605224147
 20
569162.1041680213529617
 30
-0.9999999999999538
  0
VERTEX
  5
4C8
  8
HYDRO
 10
804169.5211766045540571
 20
569119.6680335295386612
 30
-0.9999999999999538
  0
VERTEX
  5
4C9
  8
HYDRO
 10
804221.815987104550004
 20
569024.429619227303192
 30
-0.9999999999999538
  0
VERTEX
  5
4CA
  8
HYDRO
 10
804291.0384959259536117
 20
569009.0681620951509103
 30
-0.9999999999999538
  0
VERTEX
  5
4CB
  8
HYDRO
 10
804349.4856370718916878
 20
568956.8400811508763582
 30
-0.9999999999999538
  0
VERTEX
  5
4CC
  8
HYDRO
 10
804411.0148029051488265
 20
568941.4786240187240764
 30
-0.9999999999999538
  0
VERTEX
  5
4CD
  8
HYDRO
 10
804569.4461061067413539
 20
568938.4067692453972995
 30
-0.9999999999999538
  0
VERTEX
  5
4CE
  8
HYDRO
 10
804631.9772229321533814
 20
568911.8757250335766003
 30
-0.9999999999999538
  0
VERTEX
  5
4CF
  8
HYDRO
 10
804683.1763326413929462
 20
568862.2937620606971905
 30
-0.9999999999999538
  0
VERTEX
  5
4D0
  8
HYDRO
 10
804742.1332383248955011
 20
568812.7117990880506113
 30
-0.9999999999999538
  0
VERTEX
  5
4D1
  8
HYDRO
 10
804816.6057359647238627
 20
568767.7780086897546425
 30
-0.9999999999999538
  0
VERTEX
  5
4D2
  8
HYDRO
 10
804909.6992876988369972
 20
568722.8442182915750891
 30
-0.9999999999999538
  0
VERTEX
  5
4D3
  8
HYDRO
 10
805067.9489506633253768
 20
568730.5926280926214531
 30
-0.9999999999999538
  0
VERTEX
  5
4D4
  8
HYDRO
 10
805274.3039799260441214
 20
568755.3836095795268193
 30
-0.9999999999999538
  0
VERTEX
  5
4D5
  8
HYDRO
 10
805449.6219659136841074
 20
568770.8782459164503962
 30
-0.9999999999999538
  0
VERTEX
  5
4D6
  8
HYDRO
 10
805537.8874029309954494
 20
568730.9703330507036299
 30
-0.9999999999999538
  0
VERTEX
  5
4D7
  8
HYDRO
 10
805645.4770175371086225
 20
568678.4999096194515005
 30
-0.9999999999999538
  0
VERTEX
  5
4D8
  8
HYDRO
 10
805725.539347023004666
 20
568621.0319911090191454
 30
-0.9999999999999538
  0
VERTEX
  5
4D9
  8
HYDRO
 10
805780.5821985468501225
 20
568551.0714265337446705
 30
-0.9999999999999538
  0
VERTEX
  5
4DA
  8
HYDRO
 10
805758.0646683770464733
 20
568468.618215893744491
 30
-0.9999999999999538
  0
VERTEX
  5
4DB
  8
HYDRO
 10
805803.099728713510558
 20
568358.6798739515943453
 30
-0.9999999999999538
  0
VERTEX
  5
4DC
  8
HYDRO
 10
805933.2010141293285415
 20
568291.2169652832672
 30
-0.9999999999999538
  0
VERTEX
  5
4DD
  8
HYDRO
 10
806383.5516174881486222
 20
568296.2144603624474257
 30
-0.9999999999999538
  0
VERTEX
  5
4DE
  8
HYDRO
 10
806430.2331586921354756
 20
568224.0618970721261576
 30
-0.9999999999999538
  0
VERTEX
  5
4DF
  8
HYDRO
 10
806450.418662577169016
 20
568153.4943846452515572
 30
-0.9999999999999538
  0
VERTEX
  5
4E0
  8
HYDRO
 10
806445.3737514457898214
 20
567984.634069268591702
 30
-0.9999999999999538
  0
VERTEX
  5
4E1
  8
HYDRO
 10
806442.8483661985956132
 20
567891.3846099757356569
 30
-0.9999999999999538
  0
VERTEX
  5
4E2
  8
HYDRO
 10
806478.1803221990121529
 20
567788.0528298992430791
 30
-0.9999999999999538
  0
VERTEX
  5
4E3
  8
HYDRO
 10
806533.7036414494505152
 20
567694.8033706063870341
 30
-0.9999999999999538
  0
VERTEX
  5
4E4
  8
HYDRO
 10
806728.9786161843221635
 20
567426.5629859839100391
 30
-0.9999999999999538
  0
VERTEX
  5
4E5
  8
HYDRO
 10
806792.6171525246463716
 20
567380.8039211691357195
 30
-0.9999999999999538
  0
VERTEX
  5
4E6
  8
HYDRO
 10
806884.2575823521474376
 20
567284.2031490999506786
 30
-0.9999999999999538
  0
VERTEX
  5
4E7
  8
HYDRO
 10
806902.0759037795942277
 20
567251.1550569148967043
 30
-0.9999999999999538
  0
VERTEX
  5
4E8
  8
HYDRO
 10
806890.5388189723016694
 20
567038.4635002939030528
 30
-0.9999999999999538
  0
VERTEX
  5
4E9
  8
HYDRO
 10
806859.5955255010630935
 20
566922.5757594489259645
 30
-0.9999999999999538
  0
VERTEX
  5
4EA
  8
HYDRO
 10
806818.3338946291478351
 20
566827.2893133023753762
 30
-0.9999999999999538
  0
VERTEX
  5
4EB
  8
HYDRO
 10
806810.5995361007517204
 20
566698.5246716369874775
 30
-0.9999999999999538
  0
VERTEX
  5
4EC
  8
HYDRO
 10
806818.3338946291478351
 20
566587.7872544662095606
 30
-0.9999999999999538
  0
VERTEX
  5
4ED
  8
HYDRO
 10
806986.1167404161533341
 20
566487.1343413455178961
 30
-0.9999999999999538
  0
VERTEX
  5
4EE
  8
HYDRO
 10
807007.4506793547188863
 20
566292.1054038552101701
 30
-0.9999999999999538
  0
VERTEX
  5
4EF
  8
HYDRO
 10
807086.2239490853389725
 20
566201.9670981179224327
 30
-0.9999999999999538
  0
VERTEX
  5
4F0
  8
HYDRO
 10
807238.8486240296624601
 20
566142.9665271189296618
 30
-0.9999999999999538
  0
VERTEX
  5
4F1
  8
HYDRO
 10
807306.1316838590428233
 20
566049.5489563713781536
 30
-0.9999999999999538
  0
VERTEX
  5
4F2
  8
HYDRO
 10
807346.9831593539565802
 20
565938.4731330242939293
 30
-0.9999999999999538
  0
VERTEX
  5
4F3
  8
HYDRO
 10
807385.0572970127686858
 20
565753.323472612653859
 30
-0.9999999999999538
  0
VERTEX
  5
4F4
  8
HYDRO
 10
807388.3678368396358564
 20
565579.7473034259164706
 30
-0.9999999999999538
  0
VERTEX
  5
4F5
  8
HYDRO
 10
807365.1940580678638071
 20
565498.7437811790732667
 30
-0.9999999999999538
  0
VERTEX
  5
4F6
  8
HYDRO
 10
807376.8717675730586052
 20
565375.3521562855457887
 30
-0.9999999999999538
  0
VERTEX
  5
4F7
  8
HYDRO
 10
807353.4929111137753353
 20
565236.9549465607851744
 30
-0.9999999999999538
  0
VERTEX
  5
4F8
  8
HYDRO
 10
807483.1723224292509258
 20
565113.2358318190090358
 30
-0.9999999999999538
  0
VERTEX
  5
4F9
  8
HYDRO
 10
807574.1154881154652685
 20
565047.6417985489824787
 30
-0.9999999999999538
  0
VERTEX
  5
4FA
  8
HYDRO
 10
807707.1698922392679378
 20
564982.0477652795379981
 30
-0.9999999999999538
  0
VERTEX
  5
4FB
  8
HYDRO
 10
807826.7419032052857801
 20
564913.0893196386750787
 30
-0.9999999999999538
  0
VERTEX
  5
4FC
  8
HYDRO
 10
807964.8470778221962973
 20
564850.8575154743157327
 30
-0.9999999999999538
  0
VERTEX
  5
4FD
  8
HYDRO
 10
808144.6240386908175424
 20
564665.2362696812488139
 30
-0.9999999999999538
  0
VERTEX
  5
4FE
  8
HYDRO
 10
808350.1763352868147194
 20
564665.2362696812488139
 30
-0.9999999999999538
  0
VERTEX
  5
4FF
  8
HYDRO
 10
808458.8968068631365895
 20
564619.4291730218101293
 30
-0.9999999999999538
  0
VERTEX
  5
500
  8
HYDRO
 10
808630.4706602001097053
 20
564403.9736020851414651
 30
-0.9999999999999538
  0
VERTEX
  5
501
  8
HYDRO
 10
808695.0291164560476318
 20
564310.6651946197962388
 30
-0.9999999999999538
  0
VERTEX
  5
502
  8
HYDRO
 10
808722.2048398277256638
 20
564232.6265471298247576
 30
-0.9999999999999538
  0
VERTEX
  5
503
  8
HYDRO
 10
808719.8259386450517923
 20
564132.8796892549144104
 30
-0.9999999999999538
  0
VERTEX
  5
504
  8
HYDRO
 10
808755.4391440446488559
 20
564072.6936050067888573
 30
-0.9999999999999538
  0
VERTEX
  5
505
  8
HYDRO
 10
808843.1010667212540284
 20
564026.1856800729874521
 30
-0.9999999999999538
  0
VERTEX
  5
506
  8
HYDRO
 10
809056.7744397722417489
 20
564031.6569437981816009
 30
-0.9999999999999538
  0
VERTEX
  5
507
  8
HYDRO
 10
809130.7430322368163615
 20
564009.7697056301403791
 30
-0.9999999999999538
  0
VERTEX
  5
508
  8
HYDRO
 10
809210.1842692946083844
 20
563845.6230607972247526
 30
-0.9999999999999538
  0
VERTEX
  5
509
  8
HYDRO
 10
809221.1412772098556161
 20
563804.5885828549508005
 30
-0.9999999999999538
  0
VERTEX
  5
50A
  8
HYDRO
 10
809374.5511067321058363
 20
563744.400315341190435
 30
-0.9999999999999538
  0
VERTEX
  5
50B
  8
HYDRO
 10
809459.4708477484527975
 20
563725.250892301555723
 30
-0.9999999999999538
  0
VERTEX
  5
50C
  8
HYDRO
 10
809536.1757625096943229
 20
563749.8715790669666603
 30
-0.9999999999999538
  0
VERTEX
  5
50D
  8
HYDRO
 10
809590.966661443351768
 20
563845.6230607972247526
 30
-0.9999999999999538
  0
VERTEX
  5
50E
  8
HYDRO
 10
809717.0308460822561756
 20
563841.9660908289952204
 30
-0.9999999999999538
  0
VERTEX
  5
50F
  8
HYDRO
 10
809932.5616370518691838
 20
563770.219614950241521
 30
-0.9999999999999538
  0
VERTEX
  5
510
  8
HYDRO
 10
810106.643297549104318
 20
563690.1941957159433514
 30
-0.9999999999999538
  0
VERTEX
  5
511
  8
HYDRO
 10
810200.5923162092221901
 20
563601.8898331265663728
 30
-0.9999999999999538
  0
VERTEX
  5
512
  8
HYDRO
 10
810276.0960616520605981
 20
563496.8136237931903452
 30
-0.9999999999999538
  0
VERTEX
  5
513
  8
HYDRO
 10
810305.9905292351031676
 20
563421.2988313980167732
 30
-0.9999999999999538
  0
VERTEX
  5
514
  8
HYDRO
 10
810316.543241135077551
 20
563340.518002247903496
 30
-0.9999999999999538
  0
VERTEX
  5
515
  8
HYDRO
 10
810332.3693793049314991
 20
563291.3443099517608061
 30
-0.9999999999999538
  0
VERTEX
  5
516
  8
HYDRO
 10
810435.324238158413209
 20
563098.0292359988670796
 30
-0.9999999999999538
  0
VERTEX
  5
517
  8
HYDRO
 10
810426.0605860113864765
 20
562945.3600187026895583
 30
-0.9999999999999538
  0
VERTEX
  5
518
  8
HYDRO
 10
810500.1756625404814258
 20
562755.682265326846391
 30
-0.9999999999999538
  0
VERTEX
  5
519
  8
HYDRO
 10
810592.8297620838275179
 20
562603.0130480305524543
 30
-0.9999999999999538
  0
VERTEX
  5
51A
  8
HYDRO
 10
810728.4388482689391822
 20
562465.4694951757555827
 30
-0.9999999999999538
  0
VERTEX
  5
51B
  8
HYDRO
 10
810899.5615306929685175
 20
562357.6576539798406884
 30
-0.9999999999999538
  0
VERTEX
  5
51C
  8
HYDRO
 10
811046.5670769809512421
 20
562310.6322950863977894
 30
-0.9999999999999538
  0
VERTEX
  5
51D
  8
HYDRO
 10
811167.1586170232621953
 20
562314.0731217549182475
 30
-0.9999999999999538
  0
VERTEX
  5
51E
  8
HYDRO
 10
811193.8814127062214538
 20
562301.5130266785854474
 30
-0.9999999999999538
  0
VERTEX
  5
51F
  8
HYDRO
 10
811203.4645976810716093
 20
562211.3772586579434574
 30
-0.9999999999999538
  0
VERTEX
  5
520
  8
HYDRO
 10
811213.1909363182494417
 20
562123.9739191757980734
 30
-0.9999999999999538
  0
VERTEX
  5
521
  8
HYDRO
 10
811237.5069412307348102
 20
562051.1377849159762263
 30
-0.9999999999999538
  0
VERTEX
  5
522
  8
HYDRO
 10
811273.9807902816683054
 20
562036.5705796936526895
 30
-0.9999999999999538
  0
VERTEX
  5
523
  8
HYDRO
 10
811339.6338663332862779
 20
562022.0033384218113497
 30
-0.9999999999999538
  0
VERTEX
  5
524
  8
HYDRO
 10
811432.0344527992419899
 20
562029.2869410332059488
 30
-0.9999999999999538
  0
VERTEX
  5
525
  8
HYDRO
 10
811529.298155810451135
 20
561995.2967834980227053
 30
-0.9999999999999538
  0
VERTEX
  5
526
  8
HYDRO
 10
811592.6813447423046455
 20
561944.3687813592841849
 30
-0.9999999999999538
  0
VERTEX
  5
527
  8
HYDRO
 10
811595.5248922030441463
 20
561940.662647376419045
 30
-0.9999999999999538
  0
VERTEX
  5
528
  8
HYDRO
 10
811702.8859916728688404
 20
561839.1910096355713904
 30
-0.9999999999999538
  0
VERTEX
  5
529
  8
HYDRO
 10
811877.3426513711456209
 20
561731.9773832283681259
 30
-0.9999999999999538
  0
VERTEX
  5
52A
  8
HYDRO
 10
812101.6449080358725041
 20
561617.1026776463259012
 30
-0.9999999999999538
  0
VERTEX
  5
52B
  8
HYDRO
 10
812175.9123279880732298
 20
561492.2919300778303295
 30
-0.9999999999999538
  0
VERTEX
  5
52C
  8
HYDRO
 10
812197.5568131400505081
 20
561381.146242230432108
 30
-0.9999999999999538
  0
VERTEX
  5
52D
  8
HYDRO
 10
812195.9078181924996898
 20
561098.9089321214705706
 30
-0.9999999999999538
  0
VERTEX
  5
52E
  8
HYDRO
 10
812357.2586330563062802
 20
560975.2086576581932604
 30
-0.9999999999999538
  0
VERTEX
  5
52F
  8
HYDRO
 10
812723.968490652507171
 20
560898.7097736633149907
 30
-0.9999999999999538
  0
VERTEX
  5
530
  8
HYDRO
 10
812843.1648131450638175
 20
560611.2918408367550001
 30
-0.9999999999999538
  0
VERTEX
  5
531
  8
HYDRO
 10
813020.9085752196842805
 20
560489.8389558428898454
 30
-0.9999999999999538
  0
VERTEX
  5
532
  8
HYDRO
 10
813064.5666853609727696
 20
560408.8703658463200554
 30
-0.9999999999999538
  0
VERTEX
  5
533
  8
HYDRO
 10
813061.4436451394576579
 20
560349.7016833927482367
 30
-0.9999999999999538
  0
VERTEX
  5
534
  8
HYDRO
 10
813145.6426845629466698
 20
560218.9066046704538167
 30
-0.9999999999999538
  0
VERTEX
  5
535
  8
HYDRO
 10
813173.3633286505937576
 20
559865.0581905400613323
 30
-0.9999999999999538
  0
VERTEX
  5
536
  8
HYDRO
 10
813255.1424513567471877
 20
559751.9759460585191846
 30
-0.9999999999999538
  0
VERTEX
  5
537
  8
HYDRO
 10
813267.7225026892265305
 20
559714.2818645646329969
 30
-0.9999999999999538
  0
VERTEX
  5
538
  8
HYDRO
 10
813393.5405941013013944
 20
559403.3040547906421125
 30
-0.9999999999999538
  0
VERTEX
  5
539
  8
HYDRO
 10
813548.5558889550156891
 20
559221.5035238898126408
 30
-0.9999999999999538
  0
VERTEX
  5
53A
  8
HYDRO
 10
813588.4171321843750775
 20
559102.0767094214679673
 30
-0.9999999999999538
  0
VERTEX
  5
53B
  8
HYDRO
 10
813586.4249489265494049
 20
558984.6432164937723428
 30
-0.9999999999999538
  0
VERTEX
  5
53C
  8
HYDRO
 10
813518.8957958739483729
 20
558775.8837213136721402
 30
-0.9999999999999538
  0
VERTEX
  5
53D
  8
HYDRO
 10
813456.5756160992896184
 20
558657.4284600612008944
 30
-0.9999999999999538
  0
VERTEX
  5
53E
  8
HYDRO
 10
813426.4174772027181461
 20
558613.2609959067776799
 30
-0.9999999999999538
  0
VERTEX
  5
53F
  8
HYDRO
 10
813374.884383833152242
 20
558510.3746020230464637
 30
-0.9999999999999538
  0
VERTEX
  5
540
  8
HYDRO
 10
813365.1578420480946079
 20
558371.1586676785955206
 30
-0.9999999999999538
  0
VERTEX
  5
541
  8
HYDRO
 10
813384.605066254385747
 20
558306.4073749505914748
 30
-0.9999999999999538
  0
VERTEX
  5
542
  8
HYDRO
 10
813384.605066254385747
 20
558199.5670869698515162
 30
-0.9999999999999538
  0
VERTEX
  5
543
  8
HYDRO
 10
813452.6849993851501495
 20
558086.2512330632889643
 30
-0.9999999999999538
  0
VERTEX
  5
544
  8
HYDRO
 10
813596.6026616259478033
 20
557905.2890761737944558
 30
-0.9999999999999538
  0
VERTEX
  5
545
  8
HYDRO
 10
813603.0186635870486498
 20
557734.3175429105758667
 30
-0.9999999999999538
  0
SEQEND
  5
546
  8
HYDRO
  0
POLYLINE
  5
88
  8
HYDRO
 66
     1
 10
0.0
 20
0.0
 30
-0.9999999999999538
  0
VERTEX
  5
547
  8
HYDRO
 10
815994.0361857510870323
 20
565123.2494496232829988
 30
-0.9999999999999538
  0
VERTEX
  5
548
  8
HYDRO
 10
815946.5623051659204066
 20
565106.0824385361047462
 30
-0.9999999999999538
  0
VERTEX
  5
549
  8
HYDRO
 10
815891.7245313330786303
 20
565079.2828526491066441
 30
-0.9999999999999538
  0
VERTEX
  5
54A
  8
HYDRO
 10
815860.2187390583567321
 20
565067.6307638605358079
 30
-0.9999999999999538
  0
VERTEX
  5
54B
  8
HYDRO
 10
815784.5333533751545474
 20
565064.6942715573823079
 30
-0.9999999999999538
  0
VERTEX
  5
54C
  8
HYDRO
 10
815686.1253598359180614
 20
565061.7162972070509568
 30
-0.9999999999999538
  0
VERTEX
  5
54D
  8
HYDRO
 10
815635.4242959435796365
 20
565043.8462678398936987
 30
-0.9999999999999538
  0
VERTEX
  5
54E
  8
HYDRO
 10
815560.8697672268608585
 20
565025.9784217381384224
 30
-0.9999999999999538
  0
VERTEX
  5
54F
  8
HYDRO
 10
815462.4617736862273887
 20
565022.9982641222886741
 30
-0.9999999999999538
  0
VERTEX
  5
550
  8
HYDRO
 10
815364.0479207852622494
 20
565046.8242421899922192
 30
-0.9999999999999538
  0
VERTEX
  5
551
  8
HYDRO
 10
815217.1478430229471996
 20
565108.1565409057075158
 30
-0.9999999999999538
  0
VERTEX
  5
552
  8
HYDRO
 10
815117.0230562663637102
 20
565093.0068605417618528
 30
-0.9999999999999538
  0
VERTEX
  5
553
  8
HYDRO
 10
814901.5977338223019615
 20
564989.9829209218733013
 30
-0.9999999999999538
  0
VERTEX
  5
554
  8
HYDRO
 10
814765.0628683598479256
 20
565032.4059558196458966
 30
-0.9999999999999538
  0
VERTEX
  5
555
  8
HYDRO
 10
814640.6627426769118756
 20
565132.3973394475178793
 30
-0.9999999999999538
  0
VERTEX
  5
556
  8
HYDRO
 10
814528.4032161390641704
 20
565171.7878183536231518
 30
-0.9999999999999538
  0
VERTEX
  5
557
  8
HYDRO
 10
814455.5830587268574163
 20
565189.9678714439505711
 30
-0.9999999999999538
  0
VERTEX
  5
558
  8
HYDRO
 10
814213.2925591261591762
 20
565402.2118586058495566
 30
-0.9999999999999538
  0
VERTEX
  5
559
  8
HYDRO
 10
814010.9511931915767491
 20
565530.3564528251299635
 30
-0.9999999999999538
  0
VERTEX
  5
55A
  8
HYDRO
 10
813956.6641994315432385
 20
565535.286266669165343
 30
-0.9999999999999538
  0
VERTEX
  5
55B
  8
HYDRO
 10
813846.8070115285227075
 20
565561.3981238753767684
 30
-0.9999999999999538
  0
VERTEX
  5
55C
  8
HYDRO
 10
813798.1157089796615764
 20
565623.6386611027410254
 30
-0.9999999999999538
  0
VERTEX
  5
55D
  8
HYDRO
 10
813763.0532836562488228
 20
565734.5070742126554251
 30
-0.9999999999999538
  0
VERTEX
  5
55E
  8
HYDRO
 10
813480.6437288708984852
 20
565971.801851473399438
 30
-0.9999999999999538
  0
VERTEX
  5
55F
  8
HYDRO
 10
813374.8060636561131105
 20
566058.7722387491958216
 30
-0.9999999999999538
  0
VERTEX
  5
560
  8
HYDRO
 10
813273.6090135558042675
 20
566184.4868582974886522
 30
-0.9999999999999538
  0
VERTEX
  5
561
  8
HYDRO
 10
813169.9393124742200598
 20
566357.0347093617310748
 30
-0.9999999999999538
  0
VERTEX
  5
562
  8
HYDRO
 10
813082.3125459719449282
 20
566456.8645313313463703
 30
-0.9999999999999538
  0
VERTEX
  5
563
  8
HYDRO
 10
812946.5628350904444233
 20
566454.3996244097361341
 30
-0.9999999999999538
  0
VERTEX
  5
564
  8
HYDRO
 10
812750.6374711140524596
 20
566382.1968460091156885
 30
-0.9999999999999538
  0
VERTEX
  5
565
  8
HYDRO
 10
812585.315557584981434
 20
566378.1709041452268139
 30
-0.9999999999999538
  0
VERTEX
  5
566
  8
HYDRO
 10
812440.1557104934472591
 20
566515.081309960456565
 30
-0.9999999999999538
  0
VERTEX
  5
567
  8
HYDRO
 10
812367.5757869444787502
 20
566601.6587094184942544
 30
-0.9999999999999538
  0
VERTEX
  5
568
  8
HYDRO
 10
812325.2418927305843681
 20
566724.4761354458751157
 30
-0.9999999999999538
  0
VERTEX
  5
569
  8
HYDRO
 10
812165.9668413266772404
 20
566893.6028092320775613
 30
-0.9999999999999538
  0
VERTEX
  5
56A
  8
HYDRO
 10
811928.0650042518973351
 20
567022.4613313204608858
 30
-0.9999999999999538
  0
VERTEX
  5
56B
  8
HYDRO
 10
811708.3096129033947363
 20
567127.1576524303527549
 30
-0.9999999999999538
  0
VERTEX
  5
56C
  8
HYDRO
 10
811586.0422951815417036
 20
567197.4697227753931656
 30
-0.9999999999999538
  0
VERTEX
  5
56D
  8
HYDRO
 10
811398.9469905243022367
 20
567234.0263228645781055
 30
-0.9999999999999538
  0
VERTEX
  5
56E
  8
HYDRO
 10
811311.5077236242359504
 20
567229.9654487504158169
 30
-0.9999999999999538
  0
VERTEX
  5
56F
  8
HYDRO
 10
811224.0625973620917648
 20
567236.0567599213682115
 30
-0.9999999999999538
  0
VERTEX
  5
570
  8
HYDRO
 10
811138.6506698939483613
 20
567250.2741858514491469
 30
-0.9999999999999538
  0
VERTEX
  5
571
  8
HYDRO
 10
811014.6021059633931145
 20
567296.9829712257487699
 30
-0.9999999999999538
  0
VERTEX
  5
572
  8
HYDRO
 10
810929.1901784968795255
 20
567390.4027252390515059
 30
-0.9999999999999538
  0
VERTEX
  5
573
  8
HYDRO
 10
810892.5867408267222345
 20
567449.298499486525543
 30
-0.9999999999999538
  0
VERTEX
  5
574
  8
HYDRO
 10
810893.026193015743047
 20
567556.9422292271628976
 30
-0.9999999999999538
  0
VERTEX
  5
575
  8
HYDRO
 10
810860.8114178782561794
 20
567634.1534190352540463
 30
-0.9999999999999538
  0
VERTEX
  5
576
  8
HYDRO
 10
810798.9599871032405645
 20
567689.4904702681815252
 30
-0.9999999999999538
  0
VERTEX
  5
577
  8
HYDRO
 10
810729.374197807861492
 20
567720.3749461913248524
 30
-0.9999999999999538
  0
SEQEND
  5
578
  8
HYDRO
  0
POLYLINE
  5
89
  8
HYDRO
 66
     1
 10
0.0
 20
0.0
 30
-0.9999999999999538
  0
VERTEX
  5
579
  8
HYDRO
 10
801159.8691879903199151
 20
575340.6685358664253727
 30
-0.9999999999999538
  0
VERTEX
  5
57A
  8
HYDRO
 10
801161.9785584973869845
 20
575281.7225465086521581
 30
-0.9999999999999538
  0
VERTEX
  5
57B
  8
HYDRO
 10
801250.5193855502875522
 20
575229.0905614187940955
 30
-0.9999999999999538
  0
VERTEX
  5
57C
  8
HYDRO
 10
801317.9782262551598251
 20
575134.3564814827404916
 30
-0.9999999999999538
  0
VERTEX
  5
57D
  8
HYDRO
 10
801353.8140874342061579
 20
575008.0414638797519729
 30
-0.9999999999999538
  0
VERTEX
  5
57E
  8
HYDRO
 10
801349.5953464184422046
 20
574875.412442009546794
 30
-0.9999999999999538
  0
VERTEX
  5
57F
  8
HYDRO
 10
801330.6227305751526728
 20
574782.7830301619833335
 30
-0.9999999999999538
  0
VERTEX
  5
580
  8
HYDRO
 10
801322.19110790733248
 20
574719.6255213606636971
 30
-0.9999999999999538
  0
VERTEX
  5
581
  8
HYDRO
 10
801357.0074400070589036
 20
574647.6214201347902417
 30
-0.9999999999999538
  0
VERTEX
  5
582
  8
HYDRO
 10
801365.023047934868373
 20
574604.9342100932262838
 30
-0.9999999999999538
  0
VERTEX
  5
583
  8
HYDRO
 10
801366.3589825894450769
 20
574550.2412222274579108
 30
-0.9999999999999538
  0
VERTEX
  5
584
  8
HYDRO
 10
801370.3667865537572652
 20
574450.1908904265146703
 30
-0.9999999999999538
  0
VERTEX
  5
585
  8
HYDRO
 10
801392.819863737327978
 20
574361.4302253157366067
 30
-0.9999999999999538
  0
VERTEX
  5
586
  8
HYDRO
 10
801418.5307464769575745
 20
574300.6175438256468624
 30
-0.9999999999999538
  0
VERTEX
  5
587
  8
HYDRO
 10
801491.6028564743464813
 20
574231.6983969669090584
 30
-0.9999999999999538
  0
VERTEX
  5
588
  8
HYDRO
 10
801564.6749664734816179
 20
574203.3181267472682521
 30
-0.9999999999999538
  0
VERTEX
  5
589
  8
HYDRO
 10
801693.2293801825726405
 20
574166.8313911589793861
 30
-0.9999999999999538
  0
VERTEX
  5
58A
  8
HYDRO
 10
801836.6665746963117272
 20
574134.3989798882976174
 30
-0.9999999999999538
  0
VERTEX
  5
58B
  8
HYDRO
 10
801917.1039033832494169
 20
574102.5298511559376493
 30
-0.9999999999999538
  0
VERTEX
  5
58C
  8
HYDRO
 10
801997.6349818703019992
 20
574022.1070775730768219
 30
-0.9999999999999538
  0
VERTEX
  5
58D
  8
HYDRO
 10
802059.0586791764944792
 20
573947.1359183246968314
 30
-0.9999999999999538
  0
VERTEX
  5
58E
  8
HYDRO
 10
802139.0155401368392631
 20
573733.8417803838383406
 30
-0.9999999999999538
  0
VERTEX
  5
58F
  8
HYDRO
 10
802161.4100236924132332
 20
573617.5479521270608529
 30
-0.9999999999999538
  0
VERTEX
  5
590
  8
HYDRO
 10
802215.1520967342657968
 20
573494.5449485193239525
 30
-0.9999999999999538
  0
VERTEX
  5
591
  8
HYDRO
 10
802262.1793403271585703
 20
573396.1429822866339236
 30
-0.9999999999999538
  0
VERTEX
  5
592
  8
HYDRO
 10
802284.5738238828489557
 20
573248.5389413043158129
 30
-0.9999999999999538
  0
VERTEX
  5
593
  8
HYDRO
 10
802298.0152015064377338
 20
573112.1175869951257482
 30
-0.9999999999999538
  0
VERTEX
  5
594
  8
HYDRO
 10
802317.0405516090104356
 20
573005.8798803348327056
 30
-0.9999999999999538
  0
VERTEX
  5
595
  8
HYDRO
 10
802353.9369574068114161
 20
572838.6613807284738868
 30
-0.9999999999999538
  0
VERTEX
  5
596
  8
HYDRO
 10
802376.6361278105759993
 20
572764.971798418671824
 30
-0.9999999999999538
  0
VERTEX
  5
597
  8
HYDRO
 10
802419.6086925391573459
 20
572646.1781309896614403
 30
-0.9999999999999538
  0
VERTEX
  5
598
  8
HYDRO
 10
802485.9659730894491076
 20
572568.4800729410490021
 30
-0.9999999999999538
  0
VERTEX
  5
599
  8
HYDRO
 10
802536.3096158693078905
 20
572536.4864980662241578
 30
-0.9999999999999538
  0
VERTEX
  5
59A
  8
HYDRO
 10
802737.6783276253845543
 20
572451.9351691342890263
 30
-0.9999999999999538
  0
VERTEX
  5
59B
  8
HYDRO
 10
803060.3241248412523419
 20
572451.9351691342890263
 30
-0.9999999999999538
  0
VERTEX
  5
59C
  8
HYDRO
 10
803313.1497582552256063
 20
572421.0070278978673741
 30
-0.9999999999999538
  0
VERTEX
  5
59D
  8
HYDRO
 10
803486.2587645739549771
 20
572377.2107189050875604
 30
-0.9999999999999538
  0
VERTEX
  5
59E
  8
HYDRO
 10
803714.7680435292422771
 20
572250.4328489835606888
 30
-0.9999999999999538
  0
VERTEX
  5
59F
  8
HYDRO
 10
803840.1466827519470826
 20
572163.6611388826277107
 30
-0.9999999999999538
  0
VERTEX
  5
5A0
  8
HYDRO
 10
804019.3904416295699775
 20
572052.9586539623560384
 30
-0.9999999999999538
  0
VERTEX
  5
5A1
  8
HYDRO
 10
804153.8276553087634966
 20
571987.0087483909446746
 30
-0.9999999999999538
  0
VERTEX
  5
5A2
  8
HYDRO
 10
804300.0539063806645572
 20
571916.3495388070587069
 30
-0.9999999999999538
  0
VERTEX
  5
5A3
  8
HYDRO
 10
804377.883818746660836
 20
571909.2823078895453364
 30
-0.9999999999999538
  0
VERTEX
  5
5A4
  8
HYDRO
 10
804415.6181133820209652
 20
571866.8854721796233207
 30
-0.9999999999999538
  0
VERTEX
  5
5A5
  8
HYDRO
 10
804480.9793023047968745
 20
571743.5877277087420225
 30
-0.9999999999999538
  0
VERTEX
  5
5A6
  8
HYDRO
 10
804545.2096342572476715
 20
571589.1609815617557615
 30
-0.9999999999999538
  0
VERTEX
  5
5A7
  8
HYDRO
 10
804611.8188673960976303
 20
571477.4978597544832155
 30
-0.9999999999999538
  0
VERTEX
  5
5A8
  8
HYDRO
 10
804635.6078792291227728
 20
571451.36416989157442
 30
-0.9999999999999538
  0
VERTEX
  5
5A9
  8
HYDRO
 10
804711.7385764631908387
 20
571463.2433183077955619
 30
-0.9999999999999538
  0
VERTEX
  5
5AA
  8
HYDRO
 10
804773.9122721764724702
 20
571405.2208503216970712
 30
-0.9999999999999538
  0
VERTEX
  5
5AB
  8
HYDRO
 10
804850.5996088471729308
 20
571314.8533016904257238
 30
-0.9999999999999538
  0
VERTEX
  5
5AC
  8
HYDRO
 10
804887.4081242033280432
 20
571255.1191534327808768
 30
-0.9999999999999538
  0
VERTEX
  5
5AD
  8
HYDRO
 10
804942.620897239074111
 20
571233.6751181917497888
 30
-0.9999999999999538
  0
VERTEX
  5
5AE
  8
HYDRO
 10
805091.3901116452179849
 20
571242.8644833241123706
 30
-0.9999999999999538
  0
VERTEX
  5
5AF
  8
HYDRO
 10
805200.286364096798934
 20
571233.6751181917497888
 30
-0.9999999999999538
  0
VERTEX
  5
5B0
  8
HYDRO
 10
805295.3720990872243419
 20
571187.7261092651169747
 30
-0.9999999999999538
  0
VERTEX
  5
5B1
  8
HYDRO
 10
805355.1903310633497313
 20
571144.8380387834040448
 30
-0.9999999999999538
  0
VERTEX
  5
5B2
  8
HYDRO
 10
805411.9323977157473564
 20
571131.0550827181432396
 30
-0.9999999999999538
  0
VERTEX
  5
5B3
  8
HYDRO
 10
805564.9262124996166676
 20
571130.4896169138373807
 30
-0.9999999999999538
  0
VERTEX
  5
5B4
  8
HYDRO
 10
805620.6194532584631816
 20
571122.7652230347739533
 30
-0.9999999999999538
  0
VERTEX
  5
5B5
  8
HYDRO
 10
805701.0626413087593392
 20
571071.7816035123541951
 30
-0.9999999999999538
  0
VERTEX
  5
5B6
  8
HYDRO
 10
805809.3553794195177034
 20
571017.708663092344068
 30
-0.9999999999999538
  0
VERTEX
  5
5B7
  8
HYDRO
 10
805965.6011404070304707
 20
570942.0061098505975679
 30
-0.9999999999999538
  0
VERTEX
  5
5B8
  8
HYDRO
 10
806030.5756114003015682
 20
570889.4789215120254084
 30
-0.9999999999999538
  0
VERTEX
  5
5B9
  8
HYDRO
 10
806075.8098900591721758
 20
570841.7833000629907474
 30
-0.9999999999999538
  0
VERTEX
  5
5BA
  8
HYDRO
 10
806150.3116845147451386
 20
570797.729365722858347
 30
-0.9999999999999538
  0
VERTEX
  5
5BB
  8
HYDRO
 10
806211.0849925805814564
 20
570748.7827330549480394
 30
-0.9999999999999538
  0
VERTEX
  5
5BC
  8
HYDRO
 10
806249.3173330296995118
 20
570702.7704094242071733
 30
-0.9999999999999538
  0
VERTEX
  5
5BD
  8
HYDRO
 10
806278.725473522557877
 20
570655.782166047138162
 30
-0.9999999999999538
  0
VERTEX
  5
5BE
  8
HYDRO
 10
806285.7274117356864735
 20
570601.7266917513916269
 30
-0.9999999999999538
  0
VERTEX
  5
5BF
  8
HYDRO
 10
806311.0164203764870763
 20
570568.5738028154009953
 30
-0.9999999999999538
  0
VERTEX
  5
5C0
  8
HYDRO
 10
806432.738817387027666
 20
570563.8382996143773198
 30
-0.9999999999999538
  0
VERTEX
  5
5C1
  8
HYDRO
 10
806507.0355341515969485
 20
570497.5347050075652078
 30
-0.9999999999999538
  0
VERTEX
  5
5C2
  8
HYDRO
 10
806576.5861672746250406
 20
570481.7475110728992149
 30
-0.9999999999999538
  0
VERTEX
  5
5C3
  8
HYDRO
 10
806695.1445085214218125
 20
570489.6421996732242405
 30
-0.9999999999999538
  0
VERTEX
  5
5C4
  8
HYDRO
 10
806777.3455053296638653
 20
570464.3839993370929733
 30
-0.9999999999999538
  0
VERTEX
  5
5C5
  8
HYDRO
 10
806895.2534573379671201
 20
570402.9294377447804436
 30
-0.9999999999999538
  0
VERTEX
  5
5C6
  8
HYDRO
 10
807022.0090467544505373
 20
570399.9165311438264325
 30
-0.9999999999999538
  0
VERTEX
  5
5C7
  8
HYDRO
 10
807037.0969052438158542
 20
570412.976826278376393
 30
-0.9999999999999538
  0
VERTEX
  5
5C8
  8
HYDRO
 10
807075.3292456943308935
 20
570388.8648404100676998
 30
-0.9999999999999538
  0
VERTEX
  5
5C9
  8
HYDRO
 10
807121.600631520152092
 20
570397.907926743500866
 30
-0.9999999999999538
  0
VERTEX
  5
5CA
  8
HYDRO
 10
807126.258824726450257
 20
570440.3375114381778985
 30
-0.9999999999999538
  0
VERTEX
  5
5CB
  8
HYDRO
 10
807239.8132703811861575
 20
570428.9976296379463747
 30
-0.9999999999999538
  0
VERTEX
  5
5CC
  8
HYDRO
 10
807275.5085068591870368
 20
570417.6555645719636232
 30
-0.9999999999999538
  0
VERTEX
  5
5CD
  8
HYDRO
 10
807319.3072417018702254
 20
570352.8518734687240794
 30
-0.9999999999999538
  0
VERTEX
  5
5CE
  8
HYDRO
 10
807354.9966188179096207
 20
570336.6520423257024959
 30
-0.9999999999999538
  0
VERTEX
  5
5CF
  8
HYDRO
 10
807455.578435852075927
 20
570335.0320592112839222
 30
-0.9999999999999538
  0
VERTEX
  5
5D0
  8
HYDRO
 10
807515.6017455161781982
 20
570357.7118228117469698
 30
-0.9999999999999538
  0
VERTEX
  5
5D1
  8
HYDRO
 10
807569.9590516224270687
 20
570358.1965077866334468
 30
-0.9999999999999538
  0
VERTEX
  5
5D2
  8
HYDRO
 10
807600.4394554572645575
 20
570338.7654434771975502
 30
-0.9999999999999538
  0
VERTEX
  5
5D3
  8
HYDRO
 10
807622.4940959860105067
 20
570327.7552347913151607
 30
-0.9999999999999538
  0
VERTEX
  5
5D4
  8
HYDRO
 10
807689.9412179654464126
 20
570329.6983412215486169
 30
-0.9999999999999538
  0
VERTEX
  5
5D5
  8
HYDRO
 10
807774.9078338793478906
 20
570383.4568913886323571
 30
-0.9999999999999538
  0
VERTEX
  5
5D6
  8
HYDRO
 10
807831.5561507331440225
 20
570340.6365021415986121
 30
-0.9999999999999538
  0
VERTEX
  5
5D7
  8
HYDRO
 10
807934.3293693495215848
 20
570221.0721419373294339
 30
-0.9999999999999538
  0
VERTEX
  5
5D8
  8
HYDRO
 10
808018.0303629606496543
 20
570132.1935804813401774
 30
-0.9999999999999538
  0
VERTEX
  5
5D9
  8
HYDRO
 10
808032.8662688648328185
 20
570123.7290595456724986
 30
-0.9999999999999538
  0
VERTEX
  5
5DA
  8
HYDRO
 10
808108.0887649069773033
 20
570115.2623553447192535
 30
-0.9999999999999538
  0
VERTEX
  5
5DB
  8
HYDRO
 10
808188.6139840320684016
 20
570116.3212391865672544
 30
-0.9999999999999538
  0
VERTEX
  5
5DC
  8
HYDRO
 10
808307.2777938075596467
 20
570216.8387898365035653
 30
-0.9999999999999538
  0
VERTEX
  5
5DD
  8
HYDRO
 10
808346.4769290714757517
 20
570277.1515034926123917
 30
-0.9999999999999538
  0
VERTEX
  5
5DE
  8
HYDRO
 10
808366.6096986938500777
 20
570303.6039501408813521
 30
-0.9999999999999538
  0
VERTEX
  5
5DF
  8
HYDRO
 10
808437.5958756331820041
 20
570284.5571405866649002
 30
-0.9999999999999538
  0
VERTEX
  5
5E0
  8
HYDRO
 10
808489.5098275688942522
 20
570213.6665048437425867
 30
-0.9999999999999538
  0
VERTEX
  5
5E1
  8
HYDRO
 10
808522.4980385622475296
 20
570197.2177814162569121
 30
-0.9999999999999538
  0
VERTEX
  5
5E2
  8
HYDRO
 10
808648.9313630390679464
 20
570217.6924467068165541
 30
-0.9999999999999538
  0
VERTEX
  5
5E3
  8
HYDRO
 10
808771.9428198031382635
 20
570233.0495373080484569
 30
-0.9999999999999538
  0
VERTEX
  5
5E4
  8
HYDRO
 10
808935.9639548518462107
 20
570260.3490910293767229
 30
-0.9999999999999538
  0
VERTEX
  5
5E5
  8
HYDRO
 10
809036.7684276609215885
 20
570267.1739794596796855
 30
-0.9999999999999538
  0
VERTEX
  5
5E6
  8
HYDRO
 10
809085.1374652730301023
 20
570223.6134631568565965
 30
-0.9999999999999538
  0
VERTEX
  5
5E7
  8
HYDRO
 10
809128.408857487840578
 20
570163.1151719206245616
 30
-0.9999999999999538
  0
VERTEX
  5
5E8
  8
HYDRO
 10
809176.8716448990162462
 20
570164.8443183173658326
 30
-0.9999999999999538
  0
VERTEX
  5
5E9
  8
HYDRO
 10
809223.6059203674085438
 20
570135.459745897562243
 30
-0.9999999999999538
  0
VERTEX
  5
5EA
  8
HYDRO
 10
809230.5316868673544377
 20
570090.5172224369598553
 30
-0.9999999999999538
  0
VERTEX
  5
5EB
  8
HYDRO
 10
809346.4943305186461657
 20
570024.8358585410751402
 30
-0.9999999999999538
  0
VERTEX
  5
5EC
  8
HYDRO
 10
809393.2286059841280803
 20
569972.9789327582111582
 30
-0.9999999999999538
  0
VERTEX
  5
5ED
  8
HYDRO
 10
809400.1485131205990911
 20
569905.5684224653523415
 30
-0.9999999999999538
  0
VERTEX
  5
5EE
  8
HYDRO
 10
809386.302839485462755
 20
569831.2413265849463642
 30
-0.9999999999999538
  0
VERTEX
  5
5EF
  8
HYDRO
 10
809384.5743275413988158
 20
569770.7430353481322527
 30
-0.9999999999999538
  0
VERTEX
  5
5F0
  8
HYDRO
 10
809422.648465201840736
 20
569703.332525055622682
 30
-0.9999999999999538
  0
VERTEX
  5
5F1
  8
HYDRO
 10
809510.9256209428422153
 20
569637.6489778938703239
 30
-0.9999999999999538
  0
VERTEX
  5
5F2
  8
HYDRO
 10
809548.4958534280303866
 20
569586.920800453517586
 30
-0.9999999999999538
  0
VERTEX
  5
5F3
  8
HYDRO
 10
809574.9274377590045333
 20
569561.6189348039915785
 30
-0.9999999999999538
  0
VERTEX
  5
5F4
  8
HYDRO
 10
809677.3666727115632966
 20
569533.0181547539541498
 30
-0.9999999999999538
  0
VERTEX
  5
5F5
  8
HYDRO
 10
809774.2981068954104558
 20
569480.2180582090513781
 30
-0.9999999999999538
  0
VERTEX
  5
5F6
  8
HYDRO
 10
809855.8076989259570837
 20
569419.7175837068352848
 30
-0.9999999999999538
  0
VERTEX
  5
5F7
  8
HYDRO
 10
809923.0028683135751635
 20
569368.7819960290798917
 30
-0.9999999999999538
  0
VERTEX
  5
5F8
  8
HYDRO
 10
809982.1414142388384789
 20
569350.9534487094497308
 30
-0.9999999999999538
  0
VERTEX
  5
5F9
  8
HYDRO
 10
810099.3052272067870945
 20
569368.7819960290798917
 30
-0.9999999999999538
  0
VERTEX
  5
5FA
  8
HYDRO
 10
810215.3499019348528236
 20
569391.0687718119006604
 30
-0.9999999999999538
  0
VERTEX
  5
5FB
  8
HYDRO
 10
810307.9688453038688749
 20
569428.9571639487985522
 30
-0.9999999999999538
  0
VERTEX
  5
5FC
  8
HYDRO
 10
810432.9431885102530941
 20
569401.0986942203016952
 30
-0.9999999999999538
  0
VERTEX
  5
5FD
  8
HYDRO
 10
810519.5973008326254785
 20
569363.3587641482008621
 30
-0.9999999999999538
  0
VERTEX
  5
5FE
  8
HYDRO
 10
810636.5560361129464582
 20
569338.2009940318530425
 30
-0.9999999999999538
  0
VERTEX
  5
5FF
  8
HYDRO
 10
810704.9347967330832034
 20
569302.2600748570403084
 30
-0.9999999999999538
  0
VERTEX
  5
600
  8
HYDRO
 10
810773.3135573515901342
 20
569212.4099601855268702
 30
-0.9999999999999538
  0
VERTEX
  5
601
  8
HYDRO
 10
810857.8875959777506068
 20
569100.9957306626019999
 30
-0.9999999999999538
  0
VERTEX
  5
602
  8
HYDRO
 10
810917.2663757662521675
 20
569014.7392712559085339
 30
-0.9999999999999538
  0
VERTEX
  5
603
  8
HYDRO
 10
811055.8168619342613965
 20
569012.9424436236731708
 30
-0.9999999999999538
  0
VERTEX
  5
604
  8
HYDRO
 10
811190.7755588791333139
 20
569036.3033861075527966
 30
-0.9999999999999538
  0
VERTEX
  5
605
  8
HYDRO
 10
811343.722498764982447
 20
568993.1751564039150253
 30
-0.9999999999999538
  0
VERTEX
  5
606
  8
HYDRO
 10
811401.7712032595882192
 20
568922.0530945014907047
 30
-0.9999999999999538
  0
VERTEX
  5
607
  8
HYDRO
 10
811494.7417083793552592
 20
568905.6698690436314791
 30
-0.9999999999999538
  0
VERTEX
  5
608
  8
HYDRO
 10
811540.309970703558065
 20
568861.9805400675395504
 30
-0.9999999999999538
  0
VERTEX
  5
609
  8
HYDRO
 10
811564.0110920997103676
 20
568760.0351336799794808
 30
-0.9999999999999538
  0
VERTEX
  5
60A
  8
HYDRO
 10
811605.9348309385823086
 20
568707.2437701979652047
 30
-0.9999999999999538
  0
VERTEX
  5
60B
  8
HYDRO
 10
811757.2352899553952739
 20
568690.8583614741219208
 30
-0.9999999999999538
  0
VERTEX
  5
60C
  8
HYDRO
 10
811899.4185808866750449
 20
568727.2686827642610297
 30
-0.9999999999999538
  0
VERTEX
  5
60D
  8
HYDRO
 10
811988.7387031560065225
 20
568756.3956298369448632
 30
-0.9999999999999538
  0
VERTEX
  5
60E
  8
HYDRO
 10
812116.33804077480454
 20
568745.4727517766878009
 30
-0.9999999999999538
  0
VERTEX
  5
60F
  8
HYDRO
 10
812254.8768082174938172
 20
568776.4183591381879523
 30
-0.9999999999999538
  0
VERTEX
  5
610
  8
HYDRO
 10
812316.8571449650917202
 20
568863.7992003563558683
 30
-0.9999999999999538
  0
VERTEX
  5
611
  8
HYDRO
 10
812335.0856217663967982
 20
568925.6947816099273041
 30
-0.9999999999999538
  0
VERTEX
  5
612
  8
HYDRO
 10
812404.3550054882653058
 20
569022.1776573344832286
 30
-0.9999999999999538
  0
VERTEX
  5
613
  8
HYDRO
 10
812451.7455295586260036
 20
569049.4837608527159318
 30
-0.9999999999999538
  0
VERTEX
  5
614
  8
HYDRO
 10
812510.0813428174005821
 20
569053.1254479618510231
 30
-0.9999999999999538
  0
VERTEX
  5
615
  8
HYDRO
 10
812572.0558202017564327
 20
569080.4315514798508957
 30
-0.9999999999999538
  0
VERTEX
  5
616
  8
HYDRO
 10
812562.9445114812115207
 20
569191.4789923734497279
 30
-0.9999999999999538
  0
VERTEX
  5
617
  8
HYDRO
 10
812603.0459885738091543
 20
569215.1434087832458317
 30
-0.9999999999999538
  0
VERTEX
  5
618
  8
HYDRO
 10
812710.5945876473560929
 20
569105.9168114437488839
 30
-0.9999999999999538
  0
VERTEX
  5
619
  8
HYDRO
 10
812765.3854865793837234
 20
569097.3911590701900423
 30
-0.9999999999999538
  0
VERTEX
  5
61A
  8
HYDRO
 10
812811.7857783824438229
 20
569112.4513255421770737
 30
-0.9999999999999538
  0
VERTEX
  5
61B
  8
HYDRO
 10
812867.4731597816571593
 20
569151.8418044483987615
 30
-0.9999999999999538
  0
VERTEX
  5
61C
  8
HYDRO
 10
812890.6703760006930679
 20
569159.9504530824488029
 30
-0.9999999999999538
  0
VERTEX
  5
61D
  8
HYDRO
 10
812934.7562196092912927
 20
569130.987250933656469
 30
-0.9999999999999538
  0
VERTEX
  5
61E
  8
HYDRO
 10
812981.1565114123513922
 20
569058.0006801640847698
 30
-0.9999999999999538
  0
VERTEX
  5
61F
  8
HYDRO
 10
812993.9182029834482819
 20
569031.356106138555333
 30
-0.9999999999999538
  0
VERTEX
  5
620
  8
HYDRO
 10
812989.2775878673419356
 20
568946.7851278153248131
 30
-0.9999999999999538
  0
VERTEX
  5
621
  8
HYDRO
 10
812997.39866431907285
 20
568906.2353348474716768
 30
-0.9999999999999538
  0
VERTEX
  5
622
  8
HYDRO
 10
813003.1994332157773897
 20
568866.8470392073504627
 30
-0.9999999999999538
  0
VERTEX
  5
623
  8
HYDRO
 10
813036.8380334511166438
 20
568837.8838370583252981
 30
-0.9999999999999538
  0
VERTEX
  5
624
  8
HYDRO
 10
813083.2441846128785983
 20
568833.2487640778999776
 30
-0.9999999999999538
  0
VERTEX
  5
625
  8
HYDRO
 10
813127.3241688593989238
 20
568863.37128028832376
 30
-0.9999999999999538
  0
VERTEX
  5
626
  8
HYDRO
 10
813176.0506275809602812
 20
568852.9440035308944061
 30
-0.9999999999999538
  0
VERTEX
  5
627
  8
HYDRO
 10
813179.5252295579994097
 20
568798.0588882876327261
 30
-0.9999999999999538
  0
VERTEX
  5
628
  8
HYDRO
 10
813197.9001904253382236
 20
568769.4297257837606594
 30
-0.9999999999999538
  0
VERTEX
  5
629
  8
HYDRO
 10
813236.859091825899668
 20
568756.9501793129602447
 30
-0.9999999999999538
  0
VERTEX
  5
62A
  8
HYDRO
 10
813250.8278120753820986
 20
568736.3947331927483901
 30
-0.9999999999999538
  0
VERTEX
  5
62B
  8
HYDRO
 10
813269.9410526182036847
 20
568712.1692175103817135
 30
-0.9999999999999538
  0
VERTEX
  5
62C
  8
HYDRO
 10
813297.1402134385425597
 20
568706.2962329045403749
 30
-0.9999999999999538
  0
VERTEX
  5
62D
  8
HYDRO
 10
813336.0991148424800485
 20
568708.4991479483433068
 30
-0.9999999999999538
  0
VERTEX
  5
62E
  8
HYDRO
 10
813353.0033757160417736
 20
568749.6078569226665422
 30
-0.9999999999999538
  0
VERTEX
  5
62F
  8
HYDRO
 10
813397.8450770885683596
 20
568723.9151867215987295
 30
-0.9999999999999538
  0
VERTEX
  5
630
  8
HYDRO
 10
813405.8079507536021993
 20
568680.3590369507437572
 30
-0.9999999999999538
  0
VERTEX
  5
631
  8
HYDRO
 10
813448.9973118952475488
 20
568624.5853325866628438
 30
-0.9999999999999538
  0
VERTEX
  5
632
  8
HYDRO
 10
813456.4445616611046717
 20
568562.860046053188853
 30
-0.9999999999999538
  0
VERTEX
  5
633
  8
HYDRO
 10
813460.9093959019519389
 20
568502.623746695346199
 30
-0.9999999999999538
  0
VERTEX
  5
634
  8
HYDRO
 10
813468.2043022413272411
 20
568417.5309678809717298
 30
-0.9999999999999538
  0
VERTEX
  5
635
  8
HYDRO
 10
813488.4835559250786901
 20
568375.5249367234064266
 30
-0.9999999999999538
  0
VERTEX
  5
636
  8
HYDRO
 10
813549.813503430923447
 20
568279.0507940615061671
 30
-0.9999999999999538
  0
VERTEX
  5
637
  8
HYDRO
 10
813607.8915047375485301
 20
568238.6036145796533674
 30
-0.9999999999999538
  0
VERTEX
  5
638
  8
HYDRO
 10
813688.8971915896981955
 20
568200.4444975018268451
 30
-0.9999999999999538
  0
VERTEX
  5
639
  8
HYDRO
 10
813763.0239868424832821
 20
568200.4444975018268451
 30
-0.9999999999999538
  0
VERTEX
  5
63A
  8
HYDRO
 10
813800.60593805112876
 20
568179.013561854721047
 30
-0.9999999999999538
  0
VERTEX
  5
63B
  8
HYDRO
 10
813818.0375415524467826
 20
568145.6445296189049259
 30
-0.9999999999999538
  0
VERTEX
  5
63C
  8
HYDRO
 10
813826.7504136195639148
 20
568110.3411240144632757
 30
-0.9999999999999538
  0
VERTEX
  5
63D
  8
HYDRO
 10
813817.5512144622625783
 20
568079.3911501215770841
 30
-0.9999999999999538
  0
VERTEX
  5
63E
  8
HYDRO
 10
813788.8579161977395415
 20
568025.1981300906045362
 30
-0.9999999999999538
  0
VERTEX
  5
63F
  8
HYDRO
 10
813796.6684464378049597
 20
567976.8475289462367073
 30
-0.9999999999999538
  0
VERTEX
  5
640
  8
HYDRO
 10
813805.2582718926714733
 20
567951.8928025355562568
 30
-0.9999999999999538
  0
VERTEX
  5
641
  8
HYDRO
 10
813806.1488949976628646
 20
567839.2908764970488846
 30
-0.9999999999999538
  0
VERTEX
  5
642
  8
HYDRO
 10
813795.9125886705005541
 20
567818.0542514936532825
 30
-0.9999999999999538
  0
VERTEX
  5
643
  8
HYDRO
 10
813770.7056111079873517
 20
567785.0170756367733702
 30
-0.9999999999999538
  0
VERTEX
  5
644
  8
HYDRO
 10
813755.740799228195101
 20
567753.5518510502297431
 30
-0.9999999999999538
  0
VERTEX
  5
645
  8
HYDRO
 10
813756.5259538046084344
 20
567723.6607609990751371
 30
-0.9999999999999538
  0
VERTEX
  5
646
  8
HYDRO
 10
813764.3071872339351103
 20
567606.7010367179755121
 30
-0.9999999999999538
  0
VERTEX
  5
647
  8
HYDRO
 10
813736.0006068956572562
 20
567589.9968712093541399
 30
-0.9999999999999538
  0
VERTEX
  5
648
  8
HYDRO
 10
813705.1159070475259796
 20
567568.151115088025108
 30
-0.9999999999999538
  0
VERTEX
  5
649
  8
HYDRO
 10
813683.2429067573975772
 20
567543.7378385599004105
 30
-0.9999999999999538
  0
VERTEX
  5
64A
  8
HYDRO
 10
813674.2370665626367554
 20
567507.757620602962561
 30
-0.9999999999999538
  0
VERTEX
  5
64B
  8
HYDRO
 10
813696.1100668525323272
 20
567467.9217555037466809
 30
-0.9999999999999538
  0
VERTEX
  5
64C
  8
HYDRO
 10
813759.1568075788673013
 20
567453.7872936683706939
 30
-0.9999999999999538
  0
VERTEX
  5
64D
  8
HYDRO
 10
813826.0707275653257966
 20
567448.647886321763508
 30
-0.9999999999999538
  0
VERTEX
  5
64E
  8
HYDRO
 10
813925.1466884320834652
 20
567457.6429408111143857
 30
-0.9999999999999538
  0
VERTEX
  5
64F
  8
HYDRO
 10
814030.6562293482711539
 20
567449.9316465253941715
 30
-0.9999999999999538
  0
VERTEX
  5
650
  8
HYDRO
 10
814128.448989823111333
 20
567446.0781826485181227
 30
-0.9999999999999538
  0
VERTEX
  5
651
  8
HYDRO
 10
814224.9526905426755548
 20
567461.4964046882232651
 30
-0.9999999999999538
  0
VERTEX
  5
652
  8
HYDRO
 10
814259.692850929335691
 20
567480.7724571357248351
 30
-0.9999999999999538
  0
VERTEX
  5
653
  8
HYDRO
 10
814352.3352317457320169
 20
567428.0880736706312746
 30
-0.9999999999999538
  0
VERTEX
  5
654
  8
HYDRO
 10
814400.9620813082437962
 20
567388.0054995524697006
 30
-0.9999999999999538
  0
VERTEX
  5
655
  8
HYDRO
 10
814438.6319229555083439
 20
567365.9261340067023411
 30
-0.9999999999999538
  0
VERTEX
  5
656
  8
HYDRO
 10
814480.3915996423456818
 20
567356.9310795175842941
 30
-0.9999999999999538
  0
VERTEX
  5
657
  8
HYDRO
 10
814600.9304054237436503
 20
567357.0533423939486966
 30
-0.9999999999999538
  0
VERTEX
  5
658
  8
HYDRO
 10
814661.6744166775606573
 20
567366.2841895739547908
 30
-0.9999999999999538
  0
VERTEX
  5
659
  8
HYDRO
 10
814718.4574988655513152
 20
567333.3168782180873677
 30
-0.9999999999999538
  0
VERTEX
  5
65A
  8
HYDRO
 10
814791.0842973125400022
 20
567310.8969232302624732
 30
-0.9999999999999538
  0
VERTEX
  5
65B
  8
HYDRO
 10
814846.5431635746499524
 20
567276.6109194202581421
 30
-0.9999999999999538
  0
VERTEX
  5
65C
  8
HYDRO
 10
814891.4375992101849988
 20
567252.8744552440475672
 30
-0.9999999999999538
  0
VERTEX
  5
65D
  8
HYDRO
 10
814944.2597523364238441
 20
567252.8744552440475672
 30
-0.9999999999999538
  0
VERTEX
  5
65E
  8
HYDRO
 10
815037.9568184077506885
 20
567230.7579741822555661
 30
-0.9999999999999538
  0
VERTEX
  5
65F
  8
HYDRO
 10
815174.2104344696272165
 20
567133.0655692863510922
 30
-0.9999999999999538
  0
VERTEX
  5
660
  8
HYDRO
 10
815268.5403116960078478
 20
567049.3285984423710033
 30
-0.9999999999999538
  0
VERTEX
  5
661
  8
HYDRO
 10
815418.7685073692118749
 20
566874.8791229950729758
 30
-0.9999999999999538
  0
VERTEX
  5
662
  8
HYDRO
 10
815551.5240840051556006
 20
566710.8940398199483752
 30
-0.9999999999999538
  0
VERTEX
  5
663
  8
HYDRO
 10
815624.89502149366308
 20
566532.9557058593491092
 30
-0.9999999999999538
  0
VERTEX
  5
664
  8
HYDRO
 10
815691.2757394924992695
 20
566498.0649374632630497
 30
-0.9999999999999538
  0
VERTEX
  5
665
  8
HYDRO
 10
815806.5645564547739923
 20
566348.0374716070946306
 30
-0.9999999999999538
  0
VERTEX
  5
666
  8
HYDRO
 10
815937.7146677575074136
 20
566241.8063147434731945
 30
-0.9999999999999538
  0
VERTEX
  5
667
  8
HYDRO
 10
815994.0361857510870323
 20
566207.4349667010828853
 30
-0.9999999999999538
  0
SEQEND
  5
668
  8
HYDRO
  0
ENDSEC
  0
EOF
