  0
SECTION
  2
HEADER
  9
$ACADVER
  1
AC1009
  9
$INSBASE
 10
0.0
 20
0.0
 30
0.0
  9
$EXTMIN
 10
802230.4109897793969139
 20
560755.8619365914491937
 30
-0.0397665082416552
  9
$EXTMAX
 10
812646.0881735685979947
 20
575238.1923774140886962
 30
651.9398426783980085
  9
$LIMMIN
 10
0.0
 20
0.0
  9
$LIMMAX
 10
12.0
 20
9.0
  9
$ORTHOMODE
 70
     1
  9
$REGENMODE
 70
     1
  9
$FILLMODE
 70
     1
  9
$QTEXTMODE
 70
     0
  9
$MIRRTEXT
 70
     1
  9
$DRAGMODE
 70
     2
  9
$LTSCALE
 40
1.0
  9
$OSMODE
 70
    37
  9
$ATTMODE
 70
     1
  9
$TEXTSIZE
 40
3.0
  9
$TRACEWID
 40
0.05
  9
$TEXTSTYLE
  7
STANDARD
  9
$CLAYER
  8
LOTSDEF_EARLY
  9
$CELTYPE
  6
BYLAYER
  9
$CECOLOR
 62
   256
  9
$DIMSCALE
 40
1.0
  9
$DIMASZ
 40
0.18
  9
$DIMEXO
 40
0.0625
  9
$DIMDLI
 40
0.38
  9
$DIMRND
 40
0.0
  9
$DIMDLE
 40
0.0
  9
$DIMEXE
 40
0.18
  9
$DIMTP
 40
0.0
  9
$DIMTM
 40
0.0
  9
$DIMTXT
 40
0.18
  9
$DIMCEN
 40
0.09
  9
$DIMTSZ
 40
0.0
  9
$DIMTOL
 70
     0
  9
$DIMLIM
 70
     0
  9
$DIMTIH
 70
     1
  9
$DIMTOH
 70
     1
  9
$DIMSE1
 70
     0
  9
$DIMSE2
 70
     0
  9
$DIMTAD
 70
     0
  9
$DIMZIN
 70
     0
  9
$DIMBLK
  1

  9
$DIMASO
 70
     1
  9
$DIMSHO
 70
     1
  9
$DIMPOST
  1

  9
$DIMAPOST
  1

  9
$DIMALT
 70
     0
  9
$DIMALTD
 70
     2
  9
$DIMALTF
 40
25.3999999999999986
  9
$DIMLFAC
 40
1.0
  9
$DIMTOFL
 70
     0
  9
$DIMTVP
 40
0.0
  9
$DIMTIX
 70
     0
  9
$DIMSOXD
 70
     0
  9
$DIMSAH
 70
     0
  9
$DIMBLK1
  1

  9
$DIMBLK2
  1

  9
$DIMSTYLE
  2
STANDARD
  9
$DIMCLRD
 70
     0
  9
$DIMCLRE
 70
     0
  9
$DIMCLRT
 70
     0
  9
$DIMTFAC
 40
1.0
  9
$DIMGAP
 40
0.09
  9
$LUNITS
 70
     2
  9
$LUPREC
 70
     4
  9
$SKETCHINC
 40
0.1
  9
$FILLETRAD
 40
0.5
  9
$AUNITS
 70
     0
  9
$AUPREC
 70
     0
  9
$MENU
  1
.
  9
$ELEVATION
 40
0.0
  9
$PELEVATION
 40
0.0
  9
$THICKNESS
 40
0.0
  9
$LIMCHECK
 70
     0
  9
$BLIPMODE
 70
     0
  9
$CHAMFERA
 40
0.5
  9
$CHAMFERB
 40
0.5
  9
$SKPOLY
 70
     0
  9
$TDCREATE
 40
2457466.5392708331346512
  9
$TDUPDATE
 40
2458140.8355902777984738
  9
$TDINDWG
 40
10.5708328704000003
  9
$TDUSRTIMER
 40
10.5708257291999992
  9
$USRTIMER
 70
     1
  9
$ANGBASE
 50
0.0
  9
$ANGDIR
 70
     0
  9
$PDMODE
 70
     2
  9
$PDSIZE
 40
-0.1
  9
$PLINEWID
 40
0.0
  9
$COORDS
 70
     1
  9
$SPLFRAME
 70
     0
  9
$SPLINETYPE
 70
     6
  9
$SPLINESEGS
 70
     8
  9
$ATTDIA
 70
     1
  9
$ATTREQ
 70
     1
  9
$HANDLING
 70
     1
  9
$HANDSEED
  5
220E
  9
$SURFTAB1
 70
     6
  9
$SURFTAB2
 70
     6
  9
$SURFTYPE
 70
     6
  9
$SURFU
 70
     6
  9
$SURFV
 70
     6
  9
$UCSNAME
  2

  9
$UCSORG
 10
0.0
 20
0.0
 30
0.0
  9
$UCSXDIR
 10
1.0
 20
0.0
 30
0.0
  9
$UCSYDIR
 10
0.0
 20
1.0
 30
0.0
  9
$PUCSNAME
  2

  9
$PUCSORG
 10
0.0
 20
0.0
 30
0.0
  9
$PUCSXDIR
 10
1.0
 20
0.0
 30
0.0
  9
$PUCSYDIR
 10
0.0
 20
1.0
 30
0.0
  9
$USERI1
 70
     0
  9
$USERI2
 70
     0
  9
$USERI3
 70
     0
  9
$USERI4
 70
     0
  9
$USERI5
 70
     0
  9
$USERR1
 40
0.0
  9
$USERR2
 40
0.0
  9
$USERR3
 40
0.0
  9
$USERR4
 40
0.0
  9
$USERR5
 40
0.0
  9
$WORLDVIEW
 70
     1
  9
$SHADEDGE
 70
     3
  9
$SHADEDIF
 70
    70
  9
$TILEMODE
 70
     1
  9
$MAXACTVP
 70
    64
  9
$PLIMCHECK
 70
     0
  9
$PEXTMIN
 10
1.0000000000000000E+20
 20
1.0000000000000000E+20
 30
1.0000000000000000E+20
  9
$PEXTMAX
 10
-1.0000000000000000E+20
 20
-1.0000000000000000E+20
 30
-1.0000000000000000E+20
  9
$PLIMMIN
 10
0.0
 20
0.0
  9
$PLIMMAX
 10
12.0
 20
9.0
  9
$UNITMODE
 70
     0
  9
$VISRETAIN
 70
     1
  9
$PLINEGEN
 70
     0
  9
$PSLTSCALE
 70
     1
  0
ENDSEC
  0
SECTION
  2
TABLES
  0
TABLE
  2
VPORT
 70
     1
  0
VPORT
  2
*ACTIVE
 70
     0
 10
0.0
 20
0.0
 11
1.0
 21
1.0
 12
807438.2495816739974543
 22
567997.0271570028271526
 13
0.0
 23
0.0
 14
0.5
 24
0.5
 15
0.5
 25
0.5
 16
0.0
 26
0.0
 36
1.0
 17
0.0
 27
0.0
 37
0.0
 40
14674.1493870585691184
 41
2.9203539823008842
 42
50.0
 43
0.0
 44
0.0
 50
0.0
 51
0.0
 71
     0
 72
   100
 73
     1
 74
     3
 75
     0
 76
     0
 77
     0
 78
     0
  0
ENDTAB
  0
TABLE
  2
LTYPE
 70
     1
  0
LTYPE
  2
CONTINUOUS
 70
     0
  3
Solid line
 72
    65
 73
     0
 40
0.0
  0
ENDTAB
  0
TABLE
  2
LAYER
 70
     3
  0
LAYER
  2
0
 70
     0
 62
     7
  6
CONTINUOUS
  0
LAYER
  2
LOTSDEF_EARLY
 70
     0
 62
     7
  6
CONTINUOUS
  0
LAYER
  2
TEXT_LOTS
 70
     0
 62
     6
  6
CONTINUOUS
  0
ENDTAB
  0
TABLE
  2
STYLE
 70
     2
  0
STYLE
  2
STANDARD
 70
     0
 40
0.0
 41
1.0
 50
0.0
 71
     0
 42
3.0
  3
txt
  4

  0
STYLE
  2
ANNOTATIVE
 70
     0
 40
0.0
 41
1.0
 50
0.0
 71
     0
 42
0.2
  3
txt
  4

  0
ENDTAB
  0
TABLE
  2
VIEW
 70
     0
  0
ENDTAB
  0
TABLE
  2
UCS
 70
     0
  0
ENDTAB
  0
TABLE
  2
APPID
 70
    17
  0
APPID
  2
ACAD
 70
     0
  0
APPID
  2
ACADANNOTATIVE
 70
     0
  0
APPID
  2
ACAD_NAV_VCDISPLAY
 70
     0
  0
APPID
  2
ADE
 70
     0
  0
APPID
  2
ADE_PROJECTION
 70
     0
  0
APPID
  2
ACMAPDMDISPLAYSTYLEREGAPP
 70
     0
  0
APPID
  2
DCO15
 70
     0
  0
APPID
  2
MAPGWS
 70
     0
  0
APPID
  2
ACAD_MLEADERVER
 70
     0
  0
APPID
  2
MAPMANAGEMENTAPPNAME
 70
     0
  0
APPID
  2
ACAECLAYERSTANDARD
 70
     0
  0
APPID
  2
ACCMTRANSPARENCY
 70
     0
  0
APPID
  2
ACAD_PSEXT
 70
     0
  0
APPID
  2
GRADIENTCOLOR1ACI
 70
     0
  0
APPID
  2
GRADIENTCOLOR2ACI
 70
     0
  0
APPID
  2
ACADANNOPO
 70
     0
  0
APPID
  2
ACAD_EXEMPT_FROM_CAD_STANDARDS
 70
     0
  0
ENDTAB
  0
TABLE
  2
DIMSTYLE
 70
     2
  0
DIMSTYLE
  2
STANDARD
 70
     0
  3

  4

  5

  6

  7

 40
1.0
 41
0.18
 42
0.0625
 43
0.38
 44
0.18
 45
0.0
 46
0.0
 47
0.0
 48
0.0
140
0.18
141
0.09
142
0.0
143
25.3999999999999986
144
1.0
145
0.0
146
1.0
147
0.09
 71
     0
 72
     0
 73
     1
 74
     1
 75
     0
 76
     0
 77
     0
 78
     0
170
     0
171
     2
172
     0
173
     0
174
     0
175
     0
176
     0
177
     0
178
     0
  0
DIMSTYLE
  2
ANNOTATIVE
 70
     0
  3

  4

  5

  6

  7

 40
1.0
 41
0.18
 42
0.0625
 43
0.38
 44
0.18
 45
0.0
 46
0.0
 47
0.0
 48
0.0
140
0.18
141
0.09
142
0.0
143
25.3999999999999986
144
1.0
145
0.0
146
1.0
147
0.09
 71
     0
 72
     0
 73
     1
 74
     1
 75
     0
 76
     0
 77
     0
 78
     0
170
     0
171
     2
172
     0
173
     0
174
     0
175
     0
176
     0
177
     0
178
     0
  0
ENDTAB
  0
ENDSEC
  0
SECTION
  2
BLOCKS
  0
BLOCK
  8
0
  2
$MODEL_SPACE
 70
     0
 10
0.0
 20
0.0
 30
0.0
  3
$MODEL_SPACE
  1

  0
ENDBLK
  5
204D
  8
0
  0
BLOCK
 67
     1
  8
0
  2
$PAPER_SPACE
 70
     0
 10
0.0
 20
0.0
 30
0.0
  3
$PAPER_SPACE
  1

  0
ENDBLK
  5
2049
 67
     1
  8
0
  0
ENDSEC
  0
SECTION
  2
ENTITIES
  0
TEXT
  5
66
  8
TEXT_LOTS
 10
808340.0309215686284006
 20
569342.722299259272404
 30
651.9099999999998545
 40
2.990400915391541
  1
CA-LE-LT-01
  0
POLYLINE
  5
69
  8
LOTSDEF_EARLY
 66
     1
 10
0.0
 20
0.0
 30
6.25
 70
     1
  0
VERTEX
  5
207C
  8
LOTSDEF_EARLY
 10
806686.4318099471274763
 20
569119.7528331563808024
 30
6.25
  0
VERTEX
  5
207D
  8
LOTSDEF_EARLY
 10
806658.1760219079442322
 20
569059.0404249825514853
 30
6.25
  0
VERTEX
  5
207E
  8
LOTSDEF_EARLY
 10
806747.3625549699645489
 20
569031.6556891925865784
 30
6.25
  0
VERTEX
  5
207F
  8
LOTSDEF_EARLY
 10
806773.3454064942197874
 20
569095.8995319430250674
 30
6.25
  0
VERTEX
  5
2080
  8
LOTSDEF_EARLY
 10
806722.5052563678473234
 20
569128.3609792487695813
 30
6.25
  0
SEQEND
  5
2081
  8
LOTSDEF_EARLY
  0
POLYLINE
  5
6A
  8
LOTSDEF_EARLY
 66
     1
 10
0.0
 20
0.0
 30
18.75
 70
     1
  0
VERTEX
  5
2082
  8
LOTSDEF_EARLY
 10
806747.3625549699645489
 20
569031.6556891925865784
 30
18.75
  0
VERTEX
  5
2083
  8
LOTSDEF_EARLY
 10
806773.3454064942197874
 20
569095.8995319430250674
 30
18.75
  0
VERTEX
  5
2084
  8
LOTSDEF_EARLY
 10
806847.6755085170734674
 20
569048.439745060633868
 30
18.75
  0
VERTEX
  5
2085
  8
LOTSDEF_EARLY
 10
806810.9506311741424724
 20
568993.2906556960660964
 30
18.75
  0
SEQEND
  5
2086
  8
LOTSDEF_EARLY
  0
POLYLINE
  5
6B
  8
LOTSDEF_EARLY
 66
     1
 10
0.0
 20
0.0
 30
35.1000000000000014
 70
     1
  0
VERTEX
  5
2087
  8
LOTSDEF_EARLY
 10
806658.1760219079442322
 20
569059.0404249825514853
 30
35.1000000000000014
  0
VERTEX
  5
2088
  8
LOTSDEF_EARLY
 10
806620.62271745770704
 20
568991.0405913089634851
 30
35.1000000000000014
  0
VERTEX
  5
2089
  8
LOTSDEF_EARLY
 10
806600.2036148065235466
 20
568910.658865355886519
 30
35.1000000000000014
  0
VERTEX
  5
208A
  8
LOTSDEF_EARLY
 10
806647.1898012176388875
 20
568895.2530660408083349
 30
35.1000000000000014
  0
VERTEX
  5
208B
  8
LOTSDEF_EARLY
 10
806696.2125389113789424
 20
569009.0685574299423024
 30
35.1000000000000014
  0
VERTEX
  5
208C
  8
LOTSDEF_EARLY
 10
806705.1734301605029032
 20
569044.6098650804487988
 30
35.1000000000000014
  0
SEQEND
  5
208D
  8
LOTSDEF_EARLY
  0
POLYLINE
  5
6C
  8
LOTSDEF_EARLY
 66
     1
 10
0.0
 20
0.0
 30
15.1999999999999993
 70
     1
  0
VERTEX
  5
208E
  8
LOTSDEF_EARLY
 10
806600.2036148065235466
 20
568910.658865355886519
 30
15.1999999999999993
  0
VERTEX
  5
208F
  8
LOTSDEF_EARLY
 10
806591.2575026116101071
 20
568791.7825371735962108
 30
15.1999999999999993
  0
VERTEX
  5
2090
  8
LOTSDEF_EARLY
 10
806632.1456332431407645
 20
568792.0017618271522224
 30
15.1999999999999993
  0
VERTEX
  5
2091
  8
LOTSDEF_EARLY
 10
806647.8277102862484753
 20
568850.0352346416329965
 30
15.1999999999999993
  0
VERTEX
  5
2092
  8
LOTSDEF_EARLY
 10
806647.1898012176388875
 20
568895.2530660408083349
 30
15.1999999999999993
  0
SEQEND
  5
2093
  8
LOTSDEF_EARLY
  0
POLYLINE
  5
6F
  8
LOTSDEF_EARLY
 66
     1
 10
0.0
 20
0.0
 30
11.3000000000000007
 70
     1
  0
VERTEX
  5
2094
  8
LOTSDEF_EARLY
 10
804345.6646354290423915
 20
571250.6945493664825335
 30
11.3000000000000007
  0
VERTEX
  5
2095
  8
LOTSDEF_EARLY
 10
804360.86583245114889
 20
571323.6334643486188725
 30
11.3000000000000007
  0
VERTEX
  5
2096
  8
LOTSDEF_EARLY
 10
804398.4219986844109371
 20
571297.04267339524813
 30
11.3000000000000007
  0
VERTEX
  5
2097
  8
LOTSDEF_EARLY
 10
804412.7329356633126736
 20
571252.5649276650510728
 30
11.3000000000000007
  0
VERTEX
  5
2098
  8
LOTSDEF_EARLY
 10
804417.289682308328338
 20
571227.8346532955765724
 30
11.3000000000000007
  0
VERTEX
  5
2099
  8
LOTSDEF_EARLY
 10
804376.881855136831291
 20
571210.2648190059699118
 30
11.3000000000000007
  0
VERTEX
  5
209A
  8
LOTSDEF_EARLY
 10
804349.774280974175781
 20
571214.1403843096923083
 30
11.3000000000000007
  0
VERTEX
  5
209B
  8
LOTSDEF_EARLY
 10
804341.1575173678575084
 20
571215.372321548871696
 30
11.3000000000000007
  0
SEQEND
  5
209C
  8
LOTSDEF_EARLY
  0
POLYLINE
  5
70
  8
LOTSDEF_EARLY
 66
     1
 10
0.0
 20
0.0
 30
2.3500000000000001
 70
     1
  0
VERTEX
  5
209D
  8
LOTSDEF_EARLY
 10
804417.289682308328338
 20
571227.8346532955765724
 30
2.3500000000000001
  0
VERTEX
  5
209E
  8
LOTSDEF_EARLY
 10
804440.7534223410766572
 20
571207.6605593040585518
 30
2.3500000000000001
  0
VERTEX
  5
209F
  8
LOTSDEF_EARLY
 10
804428.373092225054279
 20
571189.4383859895169735
 30
2.3500000000000001
  0
VERTEX
  5
20A0
  8
LOTSDEF_EARLY
 10
804414.6818211517529562
 20
571187.4864653130061924
 30
2.3500000000000001
  0
VERTEX
  5
20A1
  8
LOTSDEF_EARLY
 10
804397.0857687229290605
 20
571160.804270266671665
 30
2.3500000000000001
  0
VERTEX
  5
20A2
  8
LOTSDEF_EARLY
 10
804376.881855136831291
 20
571210.2648190059699118
 30
2.3500000000000001
  0
SEQEND
  5
20A3
  8
LOTSDEF_EARLY
  0
POLYLINE
  5
71
  8
LOTSDEF_EARLY
 66
     1
 10
0.0
 20
0.0
 30
8.3300000000000001
 70
     1
  0
VERTEX
  5
20A4
  8
LOTSDEF_EARLY
 10
804520.6366962165338919
 20
571186.324486424215138
 30
8.3300000000000001
  0
VERTEX
  5
20A5
  8
LOTSDEF_EARLY
 10
804551.4473139161709696
 20
571209.8953301047440618
 30
8.3300000000000001
  0
VERTEX
  5
20A6
  8
LOTSDEF_EARLY
 10
804522.746820432250388
 20
571235.889511335757561
 30
8.3300000000000001
  0
VERTEX
  5
20A7
  8
LOTSDEF_EARLY
 10
804529.1922778806183487
 20
571272.7435285374522209
 30
8.3300000000000001
  0
VERTEX
  5
20A8
  8
LOTSDEF_EARLY
 10
804504.0571488084970042
 20
571267.2170737368287519
 30
8.3300000000000001
  0
VERTEX
  5
20A9
  8
LOTSDEF_EARLY
 10
804469.5099988599540666
 20
571227.4320378034608439
 30
8.3300000000000001
  0
VERTEX
  5
20AA
  8
LOTSDEF_EARLY
 10
804520.6366962165338919
 20
571186.324486424215138
 30
8.3300000000000001
  0
SEQEND
  5
20AB
  8
LOTSDEF_EARLY
  0
POLYLINE
  5
72
  8
LOTSDEF_EARLY
 66
     1
 10
0.0
 20
0.0
 30
5.5
 70
     1
  0
VERTEX
  5
20AC
  8
LOTSDEF_EARLY
 10
803888.9524347720434889
 20
574917.935596163966693
 30
5.5
  0
VERTEX
  5
20AD
  8
LOTSDEF_EARLY
 10
803815.2391215964453295
 20
574879.7905256252270192
 30
5.5
  0
VERTEX
  5
20AE
  8
LOTSDEF_EARLY
 10
803811.9293957123300061
 20
574966.1373344410676509
 30
5.5
  0
VERTEX
  5
20AF
  8
LOTSDEF_EARLY
 10
803868.4330541102681309
 20
575002.813567207660526
 30
5.5
  0
SEQEND
  5
20B0
  8
LOTSDEF_EARLY
  0
POLYLINE
  5
73
  8
LOTSDEF_EARLY
 66
     1
 10
0.0
 20
0.0
 30
0.5
 70
     1
  0
VERTEX
  5
20B1
  8
LOTSDEF_EARLY
 10
803395.5479080528020859
 20
575113.8411596408113837
 30
0.5
  0
VERTEX
  5
20B2
  8
LOTSDEF_EARLY
 10
803329.923745985259302
 20
575164.3184399077435955
 30
0.5
  0
VERTEX
  5
20B3
  8
LOTSDEF_EARLY
 10
803370.8363204773049802
 20
575203.0790997156873345
 30
0.5
  0
VERTEX
  5
20B4
  8
LOTSDEF_EARLY
 10
803452.8227081905351952
 20
575145.400608180090785
 30
0.5
  0
SEQEND
  5
20B5
  8
LOTSDEF_EARLY
  0
POLYLINE
  5
77
  8
LOTSDEF_EARLY
 66
     1
 10
0.0
 20
0.0
 30
0.75
 70
     1
  0
VERTEX
  5
20B6
  8
LOTSDEF_EARLY
 10
803361.4291626419872046
 20
575045.8114732489921153
 30
0.75
  0
VERTEX
  5
20B7
  8
LOTSDEF_EARLY
 10
803385.9717297181487083
 20
575026.6315862217452377
 30
0.75
  0
VERTEX
  5
20B8
  8
LOTSDEF_EARLY
 10
803446.5314987015444785
 20
575068.0167687217472121
 30
0.75
  0
VERTEX
  5
20B9
  8
LOTSDEF_EARLY
 10
803395.5479080528020859
 20
575113.8411596408113837
 30
0.75
  0
VERTEX
  5
20BA
  8
LOTSDEF_EARLY
 10
803370.2246586898108944
 20
575133.3194846219848841
 30
0.75
  0
VERTEX
  5
20BB
  8
LOTSDEF_EARLY
 10
803317.9149659803370014
 20
575093.7256742338649929
 30
0.75
  0
SEQEND
  5
20BC
  8
LOTSDEF_EARLY
  0
POLYLINE
  5
78
  8
LOTSDEF_EARLY
 66
     1
 10
0.0
 20
0.0
 30
0.0
 70
     1
  0
VERTEX
  5
20BD
  8
LOTSDEF_EARLY
 10
806692.9396189848193899
 20
569244.3420857405290008
 30
0.0
  0
VERTEX
  5
20BE
  8
LOTSDEF_EARLY
 10
806740.5194655192317441
 20
569226.286840196698904
 30
0.0
  0
VERTEX
  5
20BF
  8
LOTSDEF_EARLY
 10
806766.2255965416552499
 20
569320.0576604092493653
 30
0.0
  0
VERTEX
  5
20C0
  8
LOTSDEF_EARLY
 10
806690.3661378445103765
 20
569322.6321034155553207
 30
0.0
  0
SEQEND
  5
20C1
  8
LOTSDEF_EARLY
  0
POLYLINE
  5
79
  8
LOTSDEF_EARLY
 66
     1
 10
0.0
 20
0.0
 30
5.2000000000000002
 70
     1
  0
VERTEX
  5
20C2
  8
LOTSDEF_EARLY
 10
806692.9396189848193899
 20
569244.3420857405290008
 30
5.2000000000000002
  0
VERTEX
  5
20C3
  8
LOTSDEF_EARLY
 10
806690.3661378445103765
 20
569322.6321034155553207
 30
5.2000000000000002
  0
VERTEX
  5
20C4
  8
LOTSDEF_EARLY
 10
806688.4735017888015136
 20
569380.209564533084631
 30
5.2000000000000002
  0
VERTEX
  5
20C5
  8
LOTSDEF_EARLY
 10
806671.6975909154862165
 20
569370.0661049446789548
 30
5.2000000000000002
  0
VERTEX
  5
20C6
  8
LOTSDEF_EARLY
 10
806648.1291398465400562
 20
569355.0831972124287859
 30
5.2000000000000002
  0
VERTEX
  5
20C7
  8
LOTSDEF_EARLY
 10
806651.2626052717678249
 20
569289.2923481912584975
 30
5.2000000000000002
  0
SEQEND
  5
20C8
  8
LOTSDEF_EARLY
  0
POLYLINE
  5
7B
  8
LOTSDEF_EARLY
 66
     1
 10
0.0
 20
0.0
 30
0.5
 70
     1
  0
VERTEX
  5
20C9
  8
LOTSDEF_EARLY
 10
806772.3609292845940217
 20
569341.2560841153608635
 30
0.5
  0
VERTEX
  5
20CA
  8
LOTSDEF_EARLY
 10
806847.2982049485435709
 20
569313.0244540207786486
 30
0.5
  0
VERTEX
  5
20CB
  8
LOTSDEF_EARLY
 10
806809.926019279519096
 20
569204.6921090401010588
 30
0.5
  0
VERTEX
  5
20CC
  8
LOTSDEF_EARLY
 10
806740.5194655192317441
 20
569226.286840196698904
 30
0.5
  0
SEQEND
  5
20CD
  8
LOTSDEF_EARLY
  0
POLYLINE
  5
7D
  8
LOTSDEF_EARLY
 66
     1
 10
0.0
 20
0.0
 30
96.2000000000000028
 70
     1
  0
VERTEX
  5
20CE
  8
LOTSDEF_EARLY
 10
806722.5052563678473234
 20
569128.3609792487695813
 30
96.2000000000000028
  0
VERTEX
  5
20CF
  8
LOTSDEF_EARLY
 10
806740.5194655192317441
 20
569226.286840196698904
 30
96.2000000000000028
  0
VERTEX
  5
20D0
  8
LOTSDEF_EARLY
 10
806692.9396189848193899
 20
569244.3420857405290008
 30
96.2000000000000028
  0
VERTEX
  5
20D1
  8
LOTSDEF_EARLY
 10
806686.4318099471274763
 20
569119.7528331563808024
 30
96.2000000000000028
  0
SEQEND
  5
20D2
  8
LOTSDEF_EARLY
  0
POLYLINE
  5
7E
  8
LOTSDEF_EARLY
 66
     1
 10
0.0
 20
0.0
 30
1.8999999999999999
 70
     1
  0
VERTEX
  5
20D3
  8
LOTSDEF_EARLY
 10
806877.1104555433848873
 20
569158.5566052959766239
 30
1.8999999999999999
  0
VERTEX
  5
20D4
  8
LOTSDEF_EARLY
 10
806809.926019279519096
 20
569204.6921090401010588
 30
1.8999999999999999
  0
VERTEX
  5
20D5
  8
LOTSDEF_EARLY
 10
806740.5194655192317441
 20
569226.286840196698904
 30
1.8999999999999999
  0
VERTEX
  5
20D6
  8
LOTSDEF_EARLY
 10
806729.8223341746488586
 20
569168.1368660402949899
 30
1.8999999999999999
  0
VERTEX
  5
20D7
  8
LOTSDEF_EARLY
 10
806809.3811610667034984
 20
569139.8289259922457859
 30
1.8999999999999999
  0
VERTEX
  5
20D8
  8
LOTSDEF_EARLY
 10
806860.3711646521696821
 20
569095.9345066770911217
 30
1.8999999999999999
  0
SEQEND
  5
20D9
  8
LOTSDEF_EARLY
  0
POLYLINE
  5
7F
  8
LOTSDEF_EARLY
 66
     1
 10
0.0
 20
0.0
 30
10.9499999999999993
 70
     1
  0
VERTEX
  5
20DA
  8
LOTSDEF_EARLY
 10
806722.5052563678473234
 20
569128.3609792487695813
 30
10.9499999999999993
  0
VERTEX
  5
20DB
  8
LOTSDEF_EARLY
 10
806729.8223341746488586
 20
569168.1368660402949899
 30
10.9499999999999993
  0
VERTEX
  5
20DC
  8
LOTSDEF_EARLY
 10
806809.3811610667034984
 20
569139.8289259922457859
 30
10.9499999999999993
  0
VERTEX
  5
20DD
  8
LOTSDEF_EARLY
 10
806860.3711646521696821
 20
569095.9345066770911217
 30
10.9499999999999993
  0
VERTEX
  5
20DE
  8
LOTSDEF_EARLY
 10
806847.6755085170734674
 20
569048.439745060633868
 30
10.9499999999999993
  0
SEQEND
  5
20DF
  8
LOTSDEF_EARLY
  0
POLYLINE
  5
80
  8
LOTSDEF_EARLY
 66
     1
 10
0.0
 20
0.0
 30
14.3800000000000008
 70
     1
  0
VERTEX
  5
20E0
  8
LOTSDEF_EARLY
 10
806768.76912764494773
 20
569018.7403137519722804
 30
14.3800000000000008
  0
VERTEX
  5
20E1
  8
LOTSDEF_EARLY
 10
806728.7840578790055588
 20
568923.0636900933459401
 30
14.3800000000000008
  0
VERTEX
  5
20E2
  8
LOTSDEF_EARLY
 10
806673.4022244863444939
 20
568956.1101290119113401
 30
14.3800000000000008
  0
VERTEX
  5
20E3
  8
LOTSDEF_EARLY
 10
806696.2125389113789424
 20
569009.0685574299423024
 30
14.3800000000000008
  0
VERTEX
  5
20E4
  8
LOTSDEF_EARLY
 10
806705.1734301605029032
 20
569044.6098650804487988
 30
14.3800000000000008
  0
VERTEX
  5
20E5
  8
LOTSDEF_EARLY
 10
806747.3625549699645489
 20
569031.6556891925865784
 30
14.3800000000000008
  0
SEQEND
  5
20E6
  8
LOTSDEF_EARLY
  0
POLYLINE
  5
81
  8
LOTSDEF_EARLY
 66
     1
 10
0.0
 20
0.0
 30
39.0
 70
     1
  0
VERTEX
  5
20E7
  8
LOTSDEF_EARLY
 10
806728.7840578790055588
 20
568923.0636900933459401
 30
39.0
  0
VERTEX
  5
20E8
  8
LOTSDEF_EARLY
 10
806768.76912764494773
 20
569018.7403137519722804
 30
39.0
  0
VERTEX
  5
20E9
  8
LOTSDEF_EARLY
 10
806810.9506311741424724
 20
568993.2906556960660964
 30
39.0
  0
VERTEX
  5
20EA
  8
LOTSDEF_EARLY
 10
806789.3866438145050779
 20
568900.252886948408559
 30
39.0
  0
SEQEND
  5
20EB
  8
LOTSDEF_EARLY
  0
POLYLINE
  5
82
  8
LOTSDEF_EARLY
 66
     1
 10
0.0
 20
0.0
 30
26.8999999999999986
 70
     1
  0
VERTEX
  5
20EC
  8
LOTSDEF_EARLY
 10
806706.5851593113038689
 20
568853.3331237643724307
 30
26.8999999999999986
  0
VERTEX
  5
20ED
  8
LOTSDEF_EARLY
 10
806728.7840578790055588
 20
568923.0636900933459401
 30
26.8999999999999986
  0
VERTEX
  5
20EE
  8
LOTSDEF_EARLY
 10
806673.4022244863444939
 20
568956.1101290119113401
 30
26.8999999999999986
  0
VERTEX
  5
20EF
  8
LOTSDEF_EARLY
 10
806647.1898012176388875
 20
568895.2530660408083349
 30
26.8999999999999986
  0
VERTEX
  5
20F0
  8
LOTSDEF_EARLY
 10
806676.10600900137797
 20
568870.4528207455296069
 30
26.8999999999999986
  0
SEQEND
  5
20F1
  8
LOTSDEF_EARLY
  0
POLYLINE
  5
83
  8
LOTSDEF_EARLY
 66
     1
 10
0.0
 20
0.0
 30
12.5
 70
     1
  0
VERTEX
  5
20F2
  8
LOTSDEF_EARLY
 10
806728.7840578790055588
 20
568923.0636900933459401
 30
12.5
  0
VERTEX
  5
20F3
  8
LOTSDEF_EARLY
 10
806789.3866438145050779
 20
568900.252886948408559
 30
12.5
  0
VERTEX
  5
20F4
  8
LOTSDEF_EARLY
 10
806744.0887275862041861
 20
568832.2679130203323439
 30
12.5
  0
VERTEX
  5
20F5
  8
LOTSDEF_EARLY
 10
806706.5851593113038689
 20
568853.3331237643724307
 30
12.5
  0
SEQEND
  5
20F6
  8
LOTSDEF_EARLY
  0
POLYLINE
  5
84
  8
LOTSDEF_EARLY
 66
     1
 10
0.0
 20
0.0
 30
10.0
 70
     1
  0
VERTEX
  5
20F7
  8
LOTSDEF_EARLY
 10
806690.487073601456359
 20
568790.3059387654066086
 30
10.0
  0
VERTEX
  5
20F8
  8
LOTSDEF_EARLY
 10
806706.5851593113038689
 20
568853.3331237643724307
 30
10.0
  0
VERTEX
  5
20F9
  8
LOTSDEF_EARLY
 10
806676.10600900137797
 20
568870.4528207455296069
 30
10.0
  0
VERTEX
  5
20FA
  8
LOTSDEF_EARLY
 10
806647.1898012176388875
 20
568895.2530660408083349
 30
10.0
  0
VERTEX
  5
20FB
  8
LOTSDEF_EARLY
 10
806647.8277102862484753
 20
568850.0352346416329965
 30
10.0
  0
VERTEX
  5
20FC
  8
LOTSDEF_EARLY
 10
806632.1456332431407645
 20
568792.0017618271522224
 30
10.0
  0
VERTEX
  5
20FD
  8
LOTSDEF_EARLY
 10
806645.8124088244512677
 20
568789.7351738476427272
 30
10.0
  0
VERTEX
  5
20FE
  8
LOTSDEF_EARLY
 10
806645.8124088244512677
 20
568789.7351738476427272
 30
10.0
  0
SEQEND
  5
20FF
  8
LOTSDEF_EARLY
  0
POLYLINE
  5
88
  8
LOTSDEF_EARLY
 66
     1
 10
0.0
 20
0.0
 30
2.5
 70
     1
  0
VERTEX
  5
2100
  8
LOTSDEF_EARLY
 10
804446.333684385754168
 20
571113.1529430421069264
 30
2.5
  0
VERTEX
  5
2101
  8
LOTSDEF_EARLY
 10
804386.5732578878523782
 20
571123.7911511013517156
 30
2.5
  0
VERTEX
  5
2102
  8
LOTSDEF_EARLY
 10
804390.2506487553473562
 20
571144.0345705625368282
 30
2.5
  0
VERTEX
  5
2103
  8
LOTSDEF_EARLY
 10
804397.0857687229290605
 20
571160.804270266671665
 30
2.5
  0
VERTEX
  5
2104
  8
LOTSDEF_EARLY
 10
804414.6818211517529562
 20
571187.4864653130061924
 30
2.5
  0
VERTEX
  5
2105
  8
LOTSDEF_EARLY
 10
804428.373092225054279
 20
571189.4383859895169735
 30
2.5
  0
VERTEX
  5
2106
  8
LOTSDEF_EARLY
 10
804440.7534223410766572
 20
571207.6605593040585518
 30
2.5
  0
VERTEX
  5
2107
  8
LOTSDEF_EARLY
 10
804469.5099988599540666
 20
571227.4320378034608439
 30
2.5
  0
VERTEX
  5
2108
  8
LOTSDEF_EARLY
 10
804520.6366962165338919
 20
571186.324486424215138
 30
2.5
  0
VERTEX
  5
2109
  8
LOTSDEF_EARLY
 10
804477.356749601312913
 20
571151.3515174672938883
 30
2.5
  0
SEQEND
  5
210A
  8
LOTSDEF_EARLY
  0
POLYLINE
  5
89
  8
LOTSDEF_EARLY
 66
     1
 10
0.0
 20
0.0
 30
3.75
 70
     1
  0
VERTEX
  5
210B
  8
LOTSDEF_EARLY
 10
804520.6366962165338919
 20
571186.324486424215138
 30
3.75
  0
VERTEX
  5
210C
  8
LOTSDEF_EARLY
 10
804551.4473139161709696
 20
571209.8953301047440618
 30
3.75
  0
VERTEX
  5
210D
  8
LOTSDEF_EARLY
 10
804611.6196718253195286
 20
571163.2136357915587723
 30
3.75
  0
VERTEX
  5
210E
  8
LOTSDEF_EARLY
 10
804571.102313922601752
 20
571154.8432716736570001
 30
3.75
  0
VERTEX
  5
210F
  8
LOTSDEF_EARLY
 10
804554.4968289791140705
 20
571129.9685103335650638
 30
3.75
  0
VERTEX
  5
2110
  8
LOTSDEF_EARLY
 10
804534.5803409507498145
 20
571149.8597542006755248
 30
3.75
  0
SEQEND
  5
2111
  8
LOTSDEF_EARLY
  0
POLYLINE
  5
8A
  8
LOTSDEF_EARLY
 66
     1
 10
0.0
 20
0.0
 30
5.9000000000000004
 70
     1
  0
VERTEX
  5
2112
  8
LOTSDEF_EARLY
 10
804504.0571488084970042
 20
571267.2170737368287519
 30
5.9000000000000004
  0
VERTEX
  5
2113
  8
LOTSDEF_EARLY
 10
804464.178277600207366
 20
571281.850638626026921
 30
5.9000000000000004
  0
VERTEX
  5
2114
  8
LOTSDEF_EARLY
 10
804411.929467904032208
 20
571313.9610235685249791
 30
5.9000000000000004
  0
VERTEX
  5
2115
  8
LOTSDEF_EARLY
 10
804398.4219986844109371
 20
571297.04267339524813
 30
5.9000000000000004
  0
VERTEX
  5
2116
  8
LOTSDEF_EARLY
 10
804412.7329356633126736
 20
571252.5649276650510728
 30
5.9000000000000004
  0
VERTEX
  5
2117
  8
LOTSDEF_EARLY
 10
804417.289682308328338
 20
571227.8346532955765724
 30
5.9000000000000004
  0
VERTEX
  5
2118
  8
LOTSDEF_EARLY
 10
804440.7534223410766572
 20
571207.6605593040585518
 30
5.9000000000000004
  0
VERTEX
  5
2119
  8
LOTSDEF_EARLY
 10
804469.5099988599540666
 20
571227.4320378034608439
 30
5.9000000000000004
  0
SEQEND
  5
211A
  8
LOTSDEF_EARLY
  0
POLYLINE
  5
8B
  8
LOTSDEF_EARLY
 66
     1
 10
0.0
 20
0.0
 30
1.0900000000000001
 70
     1
  0
VERTEX
  5
211B
  8
LOTSDEF_EARLY
 10
804335.4256209065206349
 20
571170.4515207561198622
 30
1.0900000000000001
  0
VERTEX
  5
211C
  8
LOTSDEF_EARLY
 10
804249.8416452278615907
 20
571203.8603324022842571
 30
1.0900000000000001
  0
VERTEX
  5
211D
  8
LOTSDEF_EARLY
 10
804246.8615936869755387
 20
571237.1922563647385687
 30
1.0900000000000001
  0
VERTEX
  5
211E
  8
LOTSDEF_EARLY
 10
804277.8860502727329731
 20
571287.5268326965160668
 30
1.0900000000000001
  0
VERTEX
  5
211F
  8
LOTSDEF_EARLY
 10
804345.6646354290423915
 20
571250.6945493664825335
 30
1.0900000000000001
  0
SEQEND
  5
2120
  8
LOTSDEF_EARLY
  0
POLYLINE
  5
8C
  8
LOTSDEF_EARLY
 66
     1
 10
0.0
 20
0.0
 30
1.6000000000000001
 70
     1
  0
VERTEX
  5
2121
  8
LOTSDEF_EARLY
 10
804277.8860502727329731
 20
571287.5268326965160668
 30
1.6000000000000001
  0
VERTEX
  5
2122
  8
LOTSDEF_EARLY
 10
804264.8738060677424073
 20
571325.8925583325326443
 30
1.6000000000000001
  0
VERTEX
  5
2123
  8
LOTSDEF_EARLY
 10
804326.2172772934427485
 20
571372.9214878359343857
 30
1.6000000000000001
  0
VERTEX
  5
2124
  8
LOTSDEF_EARLY
 10
804360.86583245114889
 20
571323.6334643486188725
 30
1.6000000000000001
  0
VERTEX
  5
2125
  8
LOTSDEF_EARLY
 10
804345.6646354290423915
 20
571250.6945493664825335
 30
1.6000000000000001
  0
SEQEND
  5
2126
  8
LOTSDEF_EARLY
  0
POLYLINE
  5
8D
  8
LOTSDEF_EARLY
 66
     1
 10
0.0
 20
0.0
 30
4.799999999999998
 70
     1
  0
VERTEX
  5
2127
  8
LOTSDEF_EARLY
 10
804520.6366962165338919
 20
571186.324486424215138
 30
4.799999999999998
  0
VERTEX
  5
2128
  8
LOTSDEF_EARLY
 10
804534.5803409507498145
 20
571149.8597542006755248
 30
4.799999999999998
  0
VERTEX
  5
2129
  8
LOTSDEF_EARLY
 10
804554.4968289791140705
 20
571129.9685103335650638
 30
4.799999999999998
  0
VERTEX
  5
212A
  8
LOTSDEF_EARLY
 10
804490.6563582477392629
 20
571112.6486699874512851
 30
4.799999999999998
  0
VERTEX
  5
212B
  8
LOTSDEF_EARLY
 10
804477.356749601312913
 20
571151.3515174672938883
 30
4.799999999999998
  0
SEQEND
  5
212C
  8
LOTSDEF_EARLY
  0
POLYLINE
  5
8E
  8
LOTSDEF_EARLY
 66
     1
 10
0.0
 20
0.0
 30
3.75
 70
     1
  0
VERTEX
  5
212D
  8
LOTSDEF_EARLY
 10
804341.1575173670426011
 20
571215.372321548871696
 30
3.75
  0
VERTEX
  5
212E
  8
LOTSDEF_EARLY
 10
804376.881855136831291
 20
571210.2648190056206658
 30
3.75
  0
VERTEX
  5
212F
  8
LOTSDEF_EARLY
 10
804397.0857687229290605
 20
571160.804270266671665
 30
3.75
  0
VERTEX
  5
2130
  8
LOTSDEF_EARLY
 10
804390.2506487553473562
 20
571144.0345705625368282
 30
3.75
  0
VERTEX
  5
2131
  8
LOTSDEF_EARLY
 10
804348.0833395243389532
 20
571155.5138624350074679
 30
3.75
  0
VERTEX
  5
2132
  8
LOTSDEF_EARLY
 10
804335.4256209065206349
 20
571170.4515207561198622
 30
3.75
  0
SEQEND
  5
2133
  8
LOTSDEF_EARLY
  0
TEXT
  5
8F
  8
TEXT_LOTS
 10
804301.5741276281187311
 20
571315.3153771276120096
 30
651.9099999999998545
 40
2.990400915391541
  1
CA-EA-LT-01
  0
TEXT
  5
90
  8
TEXT_LOTS
 10
804376.063782298238948
 20
571254.3257122345967218
 30
651.9099999999998545
 40
2.990400915391541
  1
CA-EA-LT-02
  0
TEXT
  5
91
  8
TEXT_LOTS
 10
804272.5523618687875569
 20
571229.905385181773454
 30
651.9099999999998545
 40
2.990400915391541
  1
CA-EA-LT-03
  0
TEXT
  5
92
  8
TEXT_LOTS
 10
804350.5432286197319627
 20
571177.1229274503421038
 30
651.9099999999998545
 40
2.990400915391541
  1
CA-EA-LT-04
  0
TEXT
  5
93
  8
TEXT_LOTS
 10
804395.29993382608518
 20
571200.3940926189534366
 30
651.9099999999998545
 40
2.990400915391541
  1
CA-EA-LT-05
  0
TEXT
  5
94
  8
TEXT_LOTS
 10
804447.1274462421424687
 20
571257.1209020068636164
 30
651.9099999999998545
 40
2.990400915391541
  1
CA-EA-LT-06
  0
TEXT
  5
95
  8
TEXT_LOTS
 10
804500.958581977058202
 20
571215.0197893300792202
 30
651.9099999999998545
 40
2.990400915391541
  1
CA-EA-LT-07
  0
TEXT
  5
96
  8
TEXT_LOTS
 10
804449.4251166699687019
 20
571186.1098320324672386
 30
651.9099999999998545
 40
2.990400915391541
  1
CA-EA-LT-08
  0
TEXT
  5
97
  8
TEXT_LOTS
 10
804488.4786756362300366
 20
571156.6596922081662342
 30
651.9099999999998545
 40
2.990400915391541
  1
CA-EA-LT-09
  0
TEXT
  5
98
  8
TEXT_LOTS
 10
804537.5161596755497158
 20
571157.0036763646639884
 30
651.9099999999998545
 40
2.990400915391541
  1
CA-EA-LT-10
  0
POLYLINE
  5
9C
  8
LOTSDEF_EARLY
 66
     1
 10
0.0
 20
0.0
 30
8.5
  0
VERTEX
  5
2134
  8
LOTSDEF_EARLY
 10
803861.0812377936672419
 20
574779.6935713823186234
 30
8.5
  0
VERTEX
  5
2135
  8
LOTSDEF_EARLY
 10
803956.2513015208533034
 20
574810.5042970010545105
 30
8.5
  0
VERTEX
  5
2136
  8
LOTSDEF_EARLY
 10
803888.9524347720434889
 20
574917.935596163966693
 30
8.5
  0
VERTEX
  5
2137
  8
LOTSDEF_EARLY
 10
803844.6626957338303328
 20
574895.0165989439701661
 30
8.5
  0
VERTEX
  5
2138
  8
LOTSDEF_EARLY
 10
803861.0812377936672419
 20
574779.6935713823186234
 30
8.5
  0
SEQEND
  5
2139
  8
LOTSDEF_EARLY
  0
POLYLINE
  5
9D
  8
LOTSDEF_EARLY
 66
     1
 10
0.0
 20
0.0
 30
4.0
 70
     1
  0
VERTEX
  5
213A
  8
LOTSDEF_EARLY
 10
803874.7446793273556978
 20
574976.7056670092279091
 30
4.0
  0
VERTEX
  5
213B
  8
LOTSDEF_EARLY
 10
803925.0343807941535488
 20
574988.5061565225478262
 30
4.0
  0
VERTEX
  5
213C
  8
LOTSDEF_EARLY
 10
803960.6069416282698512
 20
574899.3312116303713992
 30
4.0
  0
VERTEX
  5
213D
  8
LOTSDEF_EARLY
 10
803909.3089961785590276
 20
574885.4397764857858419
 30
4.0
  0
VERTEX
  5
213E
  8
LOTSDEF_EARLY
 10
803888.9524347720434889
 20
574917.935596163966693
 30
4.0
  0
SEQEND
  5
213F
  8
LOTSDEF_EARLY
  0
POLYLINE
  5
A2
  8
LOTSDEF_EARLY
 66
     1
 10
0.0
 20
0.0
 30
0.35
 70
     1
  0
VERTEX
  5
2140
  8
LOTSDEF_EARLY
 10
803484.3550308094127104
 20
575158.6941350309643894
 30
0.35
  0
VERTEX
  5
2141
  8
LOTSDEF_EARLY
 10
803527.4984931674553081
 20
575128.5676218833541498
 30
0.35
  0
VERTEX
  5
2142
  8
LOTSDEF_EARLY
 10
803446.5314987015444785
 20
575068.0167687217472121
 30
0.35
  0
VERTEX
  5
2143
  8
LOTSDEF_EARLY
 10
803395.5479080528020859
 20
575113.8411596408113837
 30
0.35
  0
VERTEX
  5
2144
  8
LOTSDEF_EARLY
 10
803452.8227081905351952
 20
575145.400608180090785
 30
0.35
  0
SEQEND
  5
2145
  8
LOTSDEF_EARLY
  0
POLYLINE
  5
A6
  8
LOTSDEF_EARLY
 66
     1
 10
0.0
 20
0.0
 30
0.5
 70
     1
  0
VERTEX
  5
2146
  8
LOTSDEF_EARLY
 10
803815.2391215964453295
 20
574879.7905256252270192
 30
0.5
  0
VERTEX
  5
2147
  8
LOTSDEF_EARLY
 10
803775.488145385752432
 20
574878.5767176891677082
 30
0.5
  0
VERTEX
  5
2148
  8
LOTSDEF_EARLY
 10
803725.7074775028740987
 20
574954.74393378442619
 30
0.5
  0
VERTEX
  5
2149
  8
LOTSDEF_EARLY
 10
803747.9889277655165642
 20
574985.4632095884298906
 30
0.5
  0
VERTEX
  5
214A
  8
LOTSDEF_EARLY
 10
803790.0682184426113963
 20
575024.6877688486129045
 30
0.5
  0
VERTEX
  5
214B
  8
LOTSDEF_EARLY
 10
803811.9293957123300061
 20
574966.1373344410676509
 30
0.5
  0
SEQEND
  5
214C
  8
LOTSDEF_EARLY
  0
TEXT
  5
A9
  8
TEXT_LOTS
 10
803874.7681795243406668
 20
574833.4706017652060837
 30
651.9099999999998545
 40
2.990400915391541
  1
CA-PS-LT-04
  0
TEXT
  5
AC
  8
TEXT_LOTS
 10
803901.3623466107528657
 20
574934.7089592290576547
 30
651.9099999999998545
 40
2.990400915391541
  1
CA-PS-LT-06
  0
TEXT
  5
AD
  8
TEXT_LOTS
 10
803838.2106024490203708
 20
574936.3702752735698596
 30
651.9099999999998545
 40
2.990400915391541
  1
CA-PS-LT-07
  0
TEXT
  5
AE
  8
TEXT_LOTS
 10
803768.4120260903146118
 20
574941.3491273440886289
 30
651.9099999999998545
 40
2.990400915391541
  1
CA-PS-LT-08
  0
TEXT
  5
B2
  8
TEXT_LOTS
 10
803446.9638357454678044
 20
575110.331978160655126
 30
651.9099999999998545
 40
2.990400915391541
  1
CA-PS-LT-12
  0
TEXT
  5
B4
  8
TEXT_LOTS
 10
803373.2469107786891982
 20
575158.7088898390065879
 30
651.9099999999998545
 40
2.990400915391541
  1
CA-PS-LT-15
  0
TEXT
  5
B8
  8
TEXT_LOTS
 10
803366.9283172093564644
 20
575086.1435223217122257
 30
651.9099999999998545
 40
2.990400915391541
  1
CA-PS-LT-13
  0
POLYLINE
  5
BE
  8
LOTSDEF_EARLY
 66
     1
 10
0.0
 20
0.0
 30
0.45
 70
     1
  0
VERTEX
  5
214D
  8
LOTSDEF_EARLY
 10
802638.2510035991435871
 20
571987.4204369965009391
 30
0.45
  0
VERTEX
  5
214E
  8
LOTSDEF_EARLY
 10
802623.4109712181380019
 20
572082.0337810718920082
 30
0.45
  0
VERTEX
  5
214F
  8
LOTSDEF_EARLY
 10
802739.3018892836989835
 20
572104.3862848163116723
 30
0.45
  0
VERTEX
  5
2150
  8
LOTSDEF_EARLY
 10
802744.7728899557841942
 20
572021.9307894870871678
 30
0.45
  0
SEQEND
  5
2151
  8
LOTSDEF_EARLY
  0
POLYLINE
  5
BF
  8
LOTSDEF_EARLY
 66
     1
 10
0.0
 20
0.0
 30
6.5
 70
     1
  0
VERTEX
  5
2152
  8
LOTSDEF_EARLY
 10
802623.4109712181380019
 20
572082.0337810718920082
 30
6.5
  0
VERTEX
  5
2153
  8
LOTSDEF_EARLY
 10
802610.2746476226020604
 20
572169.2730122999055311
 30
6.5
  0
VERTEX
  5
2154
  8
LOTSDEF_EARLY
 10
802735.1979554740246385
 20
572172.7801460733171552
 30
6.5
  0
VERTEX
  5
2155
  8
LOTSDEF_EARLY
 10
802739.3018892836989835
 20
572104.3862848163116723
 30
6.5
  0
SEQEND
  5
2156
  8
LOTSDEF_EARLY
  0
POLYLINE
  5
C0
  8
LOTSDEF_EARLY
 66
     1
 10
0.0
 20
0.0
 30
2.9500000000000002
 70
     1
  0
VERTEX
  5
2157
  8
LOTSDEF_EARLY
 10
802610.2746476226020604
 20
572169.2730122999055311
 30
2.9500000000000002
  0
VERTEX
  5
2158
  8
LOTSDEF_EARLY
 10
802547.3686172480229288
 20
572130.3728866191813722
 30
2.9500000000000002
  0
VERTEX
  5
2159
  8
LOTSDEF_EARLY
 10
802495.0201148972846568
 20
572160.3189748969161883
 30
2.9500000000000002
  0
VERTEX
  5
215A
  8
LOTSDEF_EARLY
 10
802484.3468804475851357
 20
572200.4162651551887393
 30
2.9500000000000002
  0
VERTEX
  5
215B
  8
LOTSDEF_EARLY
 10
802552.9594241793965921
 20
572215.6431529952678829
 30
2.9500000000000002
  0
SEQEND
  5
215C
  8
LOTSDEF_EARLY
  0
POLYLINE
  5
C1
  8
LOTSDEF_EARLY
 66
     1
 10
0.0
 20
0.0
 30
5.299999999999998
 70
     1
  0
VERTEX
  5
215D
  8
LOTSDEF_EARLY
 10
802735.1979554740246385
 20
572172.7801460733171552
 30
5.299999999999998
  0
VERTEX
  5
215E
  8
LOTSDEF_EARLY
 10
802649.0171676189638674
 20
572239.4985200844239444
 30
5.299999999999998
  0
VERTEX
  5
215F
  8
LOTSDEF_EARLY
 10
802552.9594241793965921
 20
572215.6431529952678829
 30
5.299999999999998
  0
VERTEX
  5
2160
  8
LOTSDEF_EARLY
 10
802610.2746476226020604
 20
572169.2730122999055311
 30
5.299999999999998
  0
SEQEND
  5
2161
  8
LOTSDEF_EARLY
  0
POLYLINE
  5
C2
  8
LOTSDEF_EARLY
 66
     1
 10
0.0
 20
0.0
 30
4.7000000000000002
 70
     1
  0
VERTEX
  5
2162
  8
LOTSDEF_EARLY
 10
802484.3468804475851357
 20
572200.4162651551887393
 30
4.7000000000000002
  0
VERTEX
  5
2163
  8
LOTSDEF_EARLY
 10
802484.5751045388169587
 20
572244.1556311745662242
 30
4.7000000000000002
  0
VERTEX
  5
2164
  8
LOTSDEF_EARLY
 10
802515.4673535459442064
 20
572270.8929856966715306
 30
4.7000000000000002
  0
VERTEX
  5
2165
  8
LOTSDEF_EARLY
 10
802597.8462286937283352
 20
572284.7757155487779528
 30
4.7000000000000002
  0
VERTEX
  5
2166
  8
LOTSDEF_EARLY
 10
802649.0171676189638674
 20
572239.4985200844239444
 30
4.7000000000000002
  0
VERTEX
  5
2167
  8
LOTSDEF_EARLY
 10
802552.9594241793965921
 20
572215.6431529952678829
 30
4.7000000000000002
  0
SEQEND
  5
2168
  8
LOTSDEF_EARLY
  0
POLYLINE
  5
C3
  8
LOTSDEF_EARLY
 66
     1
 10
0.0
 20
0.0
 30
1.399999999999999
 70
     1
  0
VERTEX
  5
2169
  8
LOTSDEF_EARLY
 10
802597.8462286937283352
 20
572284.7757155487779528
 30
1.399999999999999
  0
VERTEX
  5
216A
  8
LOTSDEF_EARLY
 10
802609.0811360195511952
 20
572316.986180578940548
 30
1.399999999999999
  0
VERTEX
  5
216B
  8
LOTSDEF_EARLY
 10
802570.3814408903708681
 20
572351.3280854541808367
 30
1.399999999999999
  0
VERTEX
  5
216C
  8
LOTSDEF_EARLY
 10
802515.4673535459442064
 20
572270.8929856966715306
 30
1.399999999999999
  0
SEQEND
  5
216D
  8
LOTSDEF_EARLY
  0
POLYLINE
  5
C4
  8
LOTSDEF_EARLY
 66
     1
 10
0.0
 20
0.0
 30
3.8500000000000001
 70
     1
  0
VERTEX
  5
216E
  8
LOTSDEF_EARLY
 10
802597.8462286937283352
 20
572284.7757155487779528
 30
3.8500000000000001
  0
VERTEX
  5
216F
  8
LOTSDEF_EARLY
 10
802609.0811360195511952
 20
572316.986180578940548
 30
3.8500000000000001
  0
VERTEX
  5
2170
  8
LOTSDEF_EARLY
 10
802653.5556838301708922
 20
572290.0313240584218875
 30
3.8500000000000001
  0
VERTEX
  5
2171
  8
LOTSDEF_EARLY
 10
802681.9652555962093174
 20
572278.5390193798812106
 30
3.8500000000000001
  0
VERTEX
  5
2172
  8
LOTSDEF_EARLY
 10
802649.0171676189638674
 20
572239.4985200844239444
 30
3.8500000000000001
  0
SEQEND
  5
2173
  8
LOTSDEF_EARLY
  0
POLYLINE
  5
C5
  8
LOTSDEF_EARLY
 66
     1
 10
0.0
 20
0.0
 30
5.4299999999999971
 70
     1
  0
VERTEX
  5
2174
  8
LOTSDEF_EARLY
 10
802735.1979554740246385
 20
572172.7801460733171552
 30
5.4299999999999971
  0
VERTEX
  5
2175
  8
LOTSDEF_EARLY
 10
802785.2359736105427146
 20
572230.971374629996717
 30
5.4299999999999971
  0
VERTEX
  5
2176
  8
LOTSDEF_EARLY
 10
802681.9652555962093174
 20
572278.5390193798812106
 30
5.4299999999999971
  0
VERTEX
  5
2177
  8
LOTSDEF_EARLY
 10
802649.0171676189638674
 20
572239.4985200844239444
 30
5.4299999999999971
  0
SEQEND
  5
2178
  8
LOTSDEF_EARLY
  0
POLYLINE
  5
C6
  8
LOTSDEF_EARLY
 66
     1
 10
0.0
 20
0.0
 30
2.0
 70
     1
  0
VERTEX
  5
2179
  8
LOTSDEF_EARLY
 10
802681.9652555962093174
 20
572278.5390193798812106
 30
2.0
  0
VERTEX
  5
217A
  8
LOTSDEF_EARLY
 10
802699.1836472197901458
 20
572327.9162446716800332
 30
2.0
  0
VERTEX
  5
217B
  8
LOTSDEF_EARLY
 10
802774.6565798048395663
 20
572309.7413411808665842
 30
2.0
  0
VERTEX
  5
217C
  8
LOTSDEF_EARLY
 10
802758.4197375285439193
 20
572243.32323211687617
 30
2.0
  0
SEQEND
  5
217D
  8
LOTSDEF_EARLY
  0
TEXT
  5
C8
  8
TEXT_LOTS
 10
802668.137205519946292
 20
572054.3093543747672811
 30
651.9099999999998545
 40
2.990400915391541
  1
CA-COR-LT-01
  0
TEXT
  5
C9
  8
TEXT_LOTS
 10
802659.6309610947500914
 20
572132.6492039480945095
 30
651.9099999999998545
 40
2.990400915391541
  1
CA-COR-LT-02
  0
TEXT
  5
CA
  8
TEXT_LOTS
 10
802524.4794785483973101
 20
572173.2348314374685287
 30
651.9099999999998545
 40
2.990400915391541
  1
CA-COR-LT-03
  0
TEXT
  5
CB
  8
TEXT_LOTS
 10
802617.1006500417133793
 20
572200.6064981709932908
 30
651.9099999999998545
 40
2.990400915391541
  1
CA-COR-LT-04
  0
TEXT
  5
CC
  8
TEXT_LOTS
 10
802695.5455067218281329
 20
572229.8658250870648772
 30
651.9099999999998545
 40
2.990400915391541
  1
CA-COR-LT-05
  0
TEXT
  5
CD
  8
TEXT_LOTS
 10
802712.5575400355737656
 20
572287.4409034360432997
 30
651.9099999999998545
 40
2.990400915391541
  1
CA-COR-LT-07
  0
TEXT
  5
CF
  8
TEXT_LOTS
 10
802623.71641546767205
 20
572278.9461780061246827
 30
651.9099999999998545
 40
2.990400915391541
  1
CA-COR-LT-08
  0
TEXT
  5
D0
  8
TEXT_LOTS
 10
802540.5462723617674783
 20
572244.0237008032854646
 30
651.9099999999998545
 40
2.990400915391541
  1
CA-COR-LT-09
  0
TEXT
  5
D1
  8
TEXT_LOTS
 10
802555.6682822131551802
 20
572307.2617597002536058
 30
651.9099999999998545
 40
2.990400915391541
  1
CA-COR-LT-10
  0
POLYLINE
  5
D3
  8
LOTSDEF_EARLY
 66
     1
 10
0.0
 20
0.0
 30
1.0
 70
     1
  0
VERTEX
  5
217E
  8
LOTSDEF_EARLY
 10
812574.3832848652964458
 20
560854.4510937797604129
 30
1.0
  0
VERTEX
  5
217F
  8
LOTSDEF_EARLY
 10
812497.6372059617424384
 20
560800.6468727984465659
 30
1.0
  0
VERTEX
  5
2180
  8
LOTSDEF_EARLY
 10
812478.6788872183533385
 20
560833.9067119960673153
 30
1.0
  0
VERTEX
  5
2181
  8
LOTSDEF_EARLY
 10
812562.2426052299560979
 20
560898.6697127518709749
 30
1.0
  0
SEQEND
  5
2182
  8
LOTSDEF_EARLY
  0
POLYLINE
  5
D4
  8
LOTSDEF_EARLY
 66
     1
 10
0.0
 20
0.0
 30
3.6000000000000001
 70
     1
  0
VERTEX
  5
2183
  8
LOTSDEF_EARLY
 10
812478.6788872183533385
 20
560833.9067119960673153
 30
3.6000000000000001
  0
VERTEX
  5
2184
  8
LOTSDEF_EARLY
 10
812472.5924320294288918
 20
560864.2461993389297277
 30
3.6000000000000001
  0
VERTEX
  5
2185
  8
LOTSDEF_EARLY
 10
812554.6774360818089917
 20
560926.2234693847130984
 30
3.6000000000000001
  0
VERTEX
  5
2186
  8
LOTSDEF_EARLY
 10
812562.2426052299560979
 20
560898.6697127518709749
 30
3.6000000000000001
  0
SEQEND
  5
2187
  8
LOTSDEF_EARLY
  0
POLYLINE
  5
D5
  8
LOTSDEF_EARLY
 66
     1
 10
0.0
 20
0.0
 30
1.8400000000000001
 70
     1
  0
VERTEX
  5
2188
  8
LOTSDEF_EARLY
 10
812467.362752533168532
 20
560889.7061427839798853
 30
1.8400000000000001
  0
VERTEX
  5
2189
  8
LOTSDEF_EARLY
 10
812478.6788872183533385
 20
560833.9067119960673153
 30
1.8400000000000001
  0
VERTEX
  5
218A
  8
LOTSDEF_EARLY
 10
812497.6372059617424384
 20
560800.6468727984465659
 30
1.8400000000000001
  0
VERTEX
  5
218B
  8
LOTSDEF_EARLY
 10
812482.4652047157287598
 20
560775.2844275761162862
 30
1.8400000000000001
  0
VERTEX
  5
218C
  8
LOTSDEF_EARLY
 10
812450.746385034173727
 20
560777.4799804006470367
 30
1.8400000000000001
  0
VERTEX
  5
218D
  8
LOTSDEF_EARLY
 10
812444.6193422896321863
 20
560817.2791303526610136
 30
1.8400000000000001
  0
VERTEX
  5
218E
  8
LOTSDEF_EARLY
 10
812437.1782375995535403
 20
560860.9436043332098052
 30
1.8400000000000001
  0
SEQEND
  5
218F
  8
LOTSDEF_EARLY
  0
POLYLINE
  5
D6
  8
LOTSDEF_EARLY
 66
     1
 10
0.0
 20
0.0
 30
3.129999999999999
 70
     1
  0
VERTEX
  5
2190
  8
LOTSDEF_EARLY
 10
812437.1782375995535403
 20
560860.9436043332098052
 30
3.129999999999999
  0
VERTEX
  5
2191
  8
LOTSDEF_EARLY
 10
812408.8246936480281875
 20
560925.1664637323701754
 30
3.129999999999999
  0
VERTEX
  5
2192
  8
LOTSDEF_EARLY
 10
812452.002374037518166
 20
560941.915850393474102
 30
3.129999999999999
  0
VERTEX
  5
2193
  8
LOTSDEF_EARLY
 10
812467.362752533168532
 20
560889.7061427839798853
 30
3.129999999999999
  0
SEQEND
  5
2194
  8
LOTSDEF_EARLY
  0
TEXT
  5
D7
  8
TEXT_LOTS
 10
812455.9467544006183743
 20
560816.2303232216509059
 30
651.9099999999998545
 40
2.990400915391541
  1
CA-SJ-LT-01
  0
TEXT
  5
D8
  8
TEXT_LOTS
 10
812424.4420237536542118
 20
560904.3270225217565894
 30
651.9099999999998545
 40
2.990400915391541
  1
CA-SJ-LT-02
  0
TEXT
  5
D9
  8
TEXT_LOTS
 10
812510.2480996067170054
 20
560882.6961433056276292
 30
651.9099999999998545
 40
2.990400915391541
  1
CA-SJ-LT-03
  0
TEXT
  5
DA
  8
TEXT_LOTS
 10
812513.0504167540930212
 20
560847.2999177840538323
 30
651.9099999999998545
 40
2.990400915391541
  1
CA-SJ-LT-04
  0
TEXT
  5
DC
  8
TEXT_LOTS
 10
812520.5394550785422325
 20
561027.41137809259817
 30
651.9099999999998545
 40
2.990400915391541
  1
CA-SJ-LT-06
  0
POLYLINE
  5
DD
  8
LOTSDEF_EARLY
 66
     1
 10
0.0
 20
0.0
 30
0.6899999999999999
 70
     1
  0
VERTEX
  5
2195
  8
LOTSDEF_EARLY
 10
812557.1813892404315993
 20
561068.8313297460554168
 30
0.6899999999999999
  0
VERTEX
  5
2196
  8
LOTSDEF_EARLY
 10
812446.8330940874293447
 20
561029.8994365924736485
 30
0.6899999999999999
  0
VERTEX
  5
2197
  8
LOTSDEF_EARLY
 10
812487.6237309782300144
 20
560982.6081027999753132
 30
0.6899999999999999
  0
VERTEX
  5
2198
  8
LOTSDEF_EARLY
 10
812615.4124562510987744
 20
561014.512454966083169
 30
0.6899999999999999
  0
SEQEND
  5
2199
  8
LOTSDEF_EARLY
  0
POLYLINE
  5
E2
  8
LOTSDEF_EARLY
 66
     1
 10
0.0
 20
0.0
 30
7.6500000000000004
 70
     1
  0
VERTEX
  5
219A
  8
LOTSDEF_EARLY
 10
810034.9722896034363657
 20
568982.467026045313105
 30
7.6500000000000004
  0
VERTEX
  5
219B
  8
LOTSDEF_EARLY
 10
810094.2751090270467103
 20
568924.4708764164242893
 30
7.6500000000000004
  0
VERTEX
  5
219C
  8
LOTSDEF_EARLY
 10
810016.5190483746118844
 20
568836.0644597889622673
 30
7.6500000000000004
  0
VERTEX
  5
219D
  8
LOTSDEF_EARLY
 10
809979.7338813395472243
 20
568883.4303801247151569
 30
7.6500000000000004
  0
VERTEX
  5
219E
  8
LOTSDEF_EARLY
 10
810034.9722896034363657
 20
568982.467026045313105
 30
7.6500000000000004
  0
SEQEND
  5
219F
  8
LOTSDEF_EARLY
  0
POLYLINE
  5
E3
  8
LOTSDEF_EARLY
 66
     1
 10
0.0
 20
0.0
 30
3.6000000000000001
 70
     1
  0
VERTEX
  5
21A0
  8
LOTSDEF_EARLY
 10
809979.7338813395472243
 20
568883.4303801247151569
 30
3.6000000000000001
  0
VERTEX
  5
21A1
  8
LOTSDEF_EARLY
 10
809827.7469067466445267
 20
568841.8364810653729364
 30
3.6000000000000001
  0
VERTEX
  5
21A2
  8
LOTSDEF_EARLY
 10
809852.6292449138127267
 20
568783.4996054547373205
 30
3.6000000000000001
  0
VERTEX
  5
21A3
  8
LOTSDEF_EARLY
 10
810016.5190483746118844
 20
568836.0644597889622673
 30
3.6000000000000001
  0
SEQEND
  5
21A4
  8
LOTSDEF_EARLY
  0
POLYLINE
  5
E7
  8
LOTSDEF_EARLY
 66
     1
 10
0.0
 20
0.0
 30
1.8999999999999999
 70
     1
  0
VERTEX
  5
21A5
  8
LOTSDEF_EARLY
 10
810683.8750101969344541
 20
568760.62078267254401
 30
1.8999999999999999
  0
VERTEX
  5
21A6
  8
LOTSDEF_EARLY
 10
810769.9090173476142809
 20
568783.7527685175882652
 30
1.8999999999999999
  0
VERTEX
  5
21A7
  8
LOTSDEF_EARLY
 10
810673.1207518837181851
 20
568840.7565919609041885
 30
1.8999999999999999
  0
VERTEX
  5
21A8
  8
LOTSDEF_EARLY
 10
810626.7947480337461457
 20
568876.2807118970667943
 30
1.8999999999999999
  0
VERTEX
  5
21A9
  8
LOTSDEF_EARLY
 10
810621.8312476212158799
 20
568831.6690225445199758
 30
1.8999999999999999
  0
SEQEND
  5
21AA
  8
LOTSDEF_EARLY
  0
POLYLINE
  5
E9
  8
LOTSDEF_EARLY
 66
     1
 10
0.0
 20
0.0
 30
7.3499999999999988
 70
     1
  0
VERTEX
  5
21AB
  8
LOTSDEF_EARLY
 10
810450.5904908096417785
 20
568787.8834798811003566
 30
7.3499999999999988
  0
VERTEX
  5
21AC
  8
LOTSDEF_EARLY
 10
810490.2984941096510738
 20
568856.4532962471712381
 30
7.3499999999999988
  0
VERTEX
  5
21AD
  8
LOTSDEF_EARLY
 10
810376.9246506706112996
 20
568903.0169767009792849
 30
7.3499999999999988
  0
VERTEX
  5
21AE
  8
LOTSDEF_EARLY
 10
810337.2572388099506497
 20
568844.8873033244162798
 30
7.3499999999999988
  0
SEQEND
  5
21AF
  8
LOTSDEF_EARLY
  0
POLYLINE
  5
EB
  8
LOTSDEF_EARLY
 66
     1
 10
0.0
 20
0.0
 30
1.25
 70
     1
  0
VERTEX
  5
21B0
  8
LOTSDEF_EARLY
 10
810376.9246506706112996
 20
568903.0169767009792849
 30
1.25
  0
VERTEX
  5
21B1
  8
LOTSDEF_EARLY
 10
810415.3662251431960613
 20
568959.3502755822846666
 30
1.25
  0
VERTEX
  5
21B2
  8
LOTSDEF_EARLY
 10
810513.6258227387443185
 20
568955.3432823648909107
 30
1.25
  0
VERTEX
  5
21B3
  8
LOTSDEF_EARLY
 10
810433.9324150657048449
 20
568879.6033634355990216
 30
1.25
  0
SEQEND
  5
21B4
  8
LOTSDEF_EARLY
  0
TEXT
  5
EC
  8
TEXT_LOTS
 10
810661.3401573166484013
 20
568803.74778699176386
 30
651.9099999999998545
 40
2.990400915391541
  1
CA-TL-LT-01
  0
TEXT
  5
EF
  8
TEXT_LOTS
 10
810410.8885277644731104
 20
568916.4001368513563648
 30
651.9099999999998545
 40
2.990400915391541
  1
CA-TL-LT-04
  0
TEXT
  5
F0
  8
TEXT_LOTS
 10
810398.0632098733913153
 20
568840.3318913195980713
 30
651.9099999999998545
 40
2.990400915391541
  1
CA-TL-LT-05
  0
TEXT
  5
F1
  8
TEXT_LOTS
 10
809912.5468005628790706
 20
568836.9851178327808157
 30
651.9099999999998545
 40
2.990400915391541
  1
CA-TL-LT-06
  0
TEXT
  5
F5
  8
TEXT_LOTS
 10
810020.5765617721481249
 20
568903.4975941062439233
 30
651.9099999999998545
 40
2.990400915391541
  1
CA-TL-LT-10
  0
POLYLINE
  5
33F
  8
LOTSDEF_EARLY
 66
     1
 10
0.0
 20
0.0
 30
6.25
 70
     1
  0
VERTEX
  5
21B5
  8
LOTSDEF_EARLY
 10
802366.3215827683452517
 20
573651.3350728921359405
 30
6.25
  0
VERTEX
  5
21B6
  8
LOTSDEF_EARLY
 10
802374.3701915417332202
 20
573639.2671442303108051
 30
6.25
  0
VERTEX
  5
21B7
  8
LOTSDEF_EARLY
 10
802386.3085364466533065
 20
573622.9096514279954135
 30
6.25
  0
VERTEX
  5
21B8
  8
LOTSDEF_EARLY
 10
802395.1933497170684859
 20
573603.6182420828845352
 30
6.25
  0
VERTEX
  5
21B9
  8
LOTSDEF_EARLY
 10
802401.9793448528507724
 20
573585.0234861306380481
 30
6.25
  0
VERTEX
  5
21BA
  8
LOTSDEF_EARLY
 10
802301.0123343896120787
 20
573502.0575825036503375
 30
6.25
  0
VERTEX
  5
21BB
  8
LOTSDEF_EARLY
 10
802301.0123343896120787
 20
573502.0575825036503375
 30
6.25
  0
VERTEX
  5
21BC
  8
LOTSDEF_EARLY
 10
802290.3089142525568604
 20
573520.6623054724186659
 30
6.25
  0
VERTEX
  5
21BD
  8
LOTSDEF_EARLY
 10
802268.1400754965143278
 20
573521.8595740216551349
 30
6.25
  0
VERTEX
  5
21BE
  8
LOTSDEF_EARLY
 10
802249.400428538909182
 20
573531.5583795200800523
 30
6.25
  0
SEQEND
  5
21BF
  8
LOTSDEF_EARLY
  0
POLYLINE
  5
340
  8
LOTSDEF_EARLY
 66
     1
 10
0.0
 20
0.0
 30
1.25
 70
     1
  0
VERTEX
  5
21C0
  8
LOTSDEF_EARLY
 10
802401.9793448528507724
 20
573585.0234861306380481
 30
1.25
  0
VERTEX
  5
21C1
  8
LOTSDEF_EARLY
 10
802418.9216274943901226
 20
573573.2800710623851046
 30
1.25
  0
VERTEX
  5
21C2
  8
LOTSDEF_EARLY
 10
802425.8936918693361804
 20
573554.7041440439643338
 30
1.25
  0
VERTEX
  5
21C3
  8
LOTSDEF_EARLY
 10
802440.376092653721571
 20
573539.7111594364978373
 30
1.25
  0
VERTEX
  5
21C4
  8
LOTSDEF_EARLY
 10
802448.5631457817507908
 20
573522.601636819774285
 30
1.25
  0
VERTEX
  5
21C5
  8
LOTSDEF_EARLY
 10
802342.7417176831513643
 20
573491.0761655868263915
 30
1.25
  0
VERTEX
  5
21C6
  8
LOTSDEF_EARLY
 10
802322.401453800033778
 20
573495.2815547145437449
 30
1.25
  0
VERTEX
  5
21C7
  8
LOTSDEF_EARLY
 10
802301.0123343896120787
 20
573502.0575825036503375
 30
1.25
  0
SEQEND
  5
21C8
  8
LOTSDEF_EARLY
  0
TEXT
  5
343
  8
TEXT_LOTS
 10
802364.9936646146234125
 20
573518.6650327327661216
 30
651.9099999999998545
 40
2.990400915391541
  1
CA-TC-PS-02
  0
TEXT
  5
344
  8
TEXT_LOTS
 10
802306.4950015879003331
 20
573564.9675630963174626
 30
651.9099999999998545
 40
2.990400915391541
  1
CA-TC-PS-03
  0
TEXT
  5
346
  8
TEXT_LOTS
 10
806768.9027350875549018
 20
573685.4670726918848231
 30
651.9099999999998545
 40
2.990400915391541
  1
CA-ER-LT-01
  0
TEXT
  5
3F8
  8
TEXT_LOTS
 10
804871.2684708576416597
 20
569454.93167402560357
 30
651.9099999999998545
 40
2.990400915391541
  1
CA-EV-LT-01
  0
TEXT
  5
3F9
  8
TEXT_LOTS
 10
804791.125701644923538
 20
569438.2250041583320126
 30
651.9099999999998545
 40
2.990400915391541
  1
CA-EV-LT-02
  0
POLYLINE
  5
3FA
  8
LOTSDEF_EARLY
 66
     1
 10
0.0
 20
0.0
 30
1.8999999999999999
 70
     1
  0
VERTEX
  5
21C9
  8
LOTSDEF_EARLY
 10
806867.0131800216622651
 20
568085.6593429059721529
 30
1.8999999999999999
  0
VERTEX
  5
21CA
  8
LOTSDEF_EARLY
 10
807025.799154065316543
 20
568114.6809400011552498
 30
1.8999999999999999
  0
VERTEX
  5
21CB
  8
LOTSDEF_EARLY
 10
807042.8979146861238405
 20
568077.9209135699784383
 30
1.8999999999999999
  0
VERTEX
  5
21CC
  8
LOTSDEF_EARLY
 10
806870.7162412207107991
 20
568021.0137077093822882
 30
1.8999999999999999
  0
SEQEND
  5
21CD
  8
LOTSDEF_EARLY
  0
TEXT
  5
3FD
  8
TEXT_LOTS
 10
806945.0580161631805822
 20
568068.6284500160254538
 30
651.9099999999998545
 40
2.990400915391541
  1
CA-CT2-LT-02
  0
TEXT
  5
3FE
  8
TEXT_LOTS
 10
806655.6380502023966983
 20
569314.7840066577773541
 30
651.9099999999998545
 40
2.990400915391541
  1
CA-CT-LT-01
  0
TEXT
  5
400
  8
TEXT_LOTS
 10
806710.9687186279334128
 20
569290.676309501635842
 30
651.9099999999998545
 40
2.990400915391541
  1
CA-CT-LT-03
  0
TEXT
  5
401
  8
TEXT_LOTS
 10
806774.2348010367713869
 20
569269.038889609510079
 30
651.9099999999998545
 40
2.990400915391541
  1
CA-CT-LT-04
  0
TEXT
  5
403
  8
TEXT_LOTS
 10
806696.0442569726146758
 20
569183.3588239663513377
 30
651.9099999999998545
 40
2.990400915391541
  1
CA-CT-LT-06
  0
TEXT
  5
404
  8
TEXT_LOTS
 10
806791.5012305751442909
 20
569176.2598097067093477
 30
651.9099999999998545
 40
2.990400915391541
  1
CA-CT-LT-07
  0
TEXT
  5
405
  8
TEXT_LOTS
 10
806777.0815429093781859
 20
569115.5727250021882355
 30
651.9099999999998545
 40
2.990400915391541
  1
CA-CT-LT-08
  0
TEXT
  5
406
  8
TEXT_LOTS
 10
806700.6357980369357392
 20
569075.7728657459374517
 30
651.9099999999998545
 40
2.990400915391541
  1
CA-CT-LT-09
  0
TEXT
  5
407
  8
TEXT_LOTS
 10
806649.1413779655704275
 20
569017.4333532092859969
 30
651.9099999999998545
 40
2.990400915391541
  1
CA-CT-LT-10
  0
TEXT
  5
408
  8
TEXT_LOTS
 10
806705.1313776936149225
 20
569000.77781077765394
 30
651.9099999999998545
 40
2.990400915391541
  1
CA-CT-LT-11
  0
TEXT
  5
409
  8
TEXT_LOTS
 10
806761.5867477885913104
 20
568972.5879892878001556
 30
651.9099999999998545
 40
2.990400915391541
  1
CA-CT-LT-12
  0
TEXT
  5
40A
  8
TEXT_LOTS
 10
806791.5910776278469712
 20
569038.31249098922126
 30
651.9099999999998545
 40
2.990400915391541
  1
CA-CT-LT-22
  0
TEXT
  5
40B
  8
TEXT_LOTS
 10
806674.0775867217453197
 20
568896.5457076115999371
 30
651.9099999999998545
 40
2.990400915391541
  1
CA-CT-LT-13
  0
TEXT
  5
40C
  8
TEXT_LOTS
 10
806729.2593026617541909
 20
568871.6064338468713686
 30
651.9099999999998545
 40
2.990400915391541
  1
CA-CT-LT-14
  0
TEXT
  5
40D
  8
TEXT_LOTS
 10
806658.2716388590633869
 20
568837.1439303583465517
 30
651.9099999999998545
 40
2.990400915391541
  1
CA-CT-LT-16
  0
TEXT
  5
40F
  8
TEXT_LOTS
 10
806603.533213670947589
 20
568838.6081774764461443
 30
651.9099999999998545
 40
2.990400915391541
  1
CA-CT-LT-19
  0
ENDSEC
  0
EOF
