  0
SECTION
  2
HEADER
  9
$ACADVER
  1
AC1009
  9
$INSBASE
 10
0.0
 20
0.0
 30
0.0
  9
$EXTMIN
 10
536018.2217834238
 20
1023376.4480868221
 30
0.001
  9
$EXTMAX
 10
543120.32937044429
 20
1044378.852380791
 30
5.0
  9
$LIMMIN
 10
0.0
 20
0.0
  9
$LIMMAX
 10
420.0
 20
297.0
  9
$ORTHOMODE
 70
     0
  9
$REGENMODE
 70
     1
  9
$FILLMODE
 70
     1
  9
$QTEXTMODE
 70
     0
  9
$MIRRTEXT
 70
     0
  9
$DRAGMODE
 70
     2
  9
$LTSCALE
 40
1.0
  9
$OSMODE
 70
   549
  9
$ATTMODE
 70
     1
  9
$TEXTSIZE
 40
2.5
  9
$TRACEWID
 40
1.0
  9
$TEXTSTYLE
  7
STANDARD
  9
$CLAYER
  8
0
  9
$CELTYPE
  6
BYLAYER
  9
$CECOLOR
 62
   256
  9
$DIMSCALE
 40
1.0
  9
$DIMASZ
 40
2.5
  9
$DIMEXO
 40
0.625
  9
$DIMDLI
 40
3.75
  9
$DIMRND
 40
0.0
  9
$DIMDLE
 40
0.0
  9
$DIMEXE
 40
1.25
  9
$DIMTP
 40
0.0
  9
$DIMTM
 40
0.0
  9
$DIMTXT
 40
2.5
  9
$DIMCEN
 40
2.5
  9
$DIMTSZ
 40
0.0
  9
$DIMTOL
 70
     0
  9
$DIMLIM
 70
     0
  9
$DIMTIH
 70
     0
  9
$DIMTOH
 70
     0
  9
$DIMSE1
 70
     0
  9
$DIMSE2
 70
     0
  9
$DIMTAD
 70
     1
  9
$DIMZIN
 70
     8
  9
$DIMBLK
  1

  9
$DIMASO
 70
     1
  9
$DIMSHO
 70
     1
  9
$DIMPOST
  1

  9
$DIMAPOST
  1

  9
$DIMALT
 70
     0
  9
$DIMALTD
 70
     3
  9
$DIMALTF
 40
0.03937007874016
  9
$DIMLFAC
 40
1.0
  9
$DIMTOFL
 70
     1
  9
$DIMTVP
 40
0.0
  9
$DIMTIX
 70
     0
  9
$DIMSOXD
 70
     0
  9
$DIMSAH
 70
     0
  9
$DIMBLK1
  1

  9
$DIMBLK2
  1

  9
$DIMSTYLE
  2
ISO-25
  9
$DIMCLRD
 70
     0
  9
$DIMCLRE
 70
     0
  9
$DIMCLRT
 70
     0
  9
$DIMTFAC
 40
1.0
  9
$DIMGAP
 40
0.625
  9
$LUNITS
 70
     2
  9
$LUPREC
 70
     4
  9
$SKETCHINC
 40
1.0
  9
$FILLETRAD
 40
0.0
  9
$AUNITS
 70
     0
  9
$AUPREC
 70
     0
  9
$MENU
  1
.
  9
$ELEVATION
 40
0.0
  9
$PELEVATION
 40
0.0
  9
$THICKNESS
 40
0.0
  9
$LIMCHECK
 70
     0
  9
$BLIPMODE
 70
     0
  9
$CHAMFERA
 40
0.0
  9
$CHAMFERB
 40
0.0
  9
$SKPOLY
 70
     0
  9
$TDCREATE
 40
2456127.9426660072
  9
$TDUPDATE
 40
2456127.9433689578
  9
$TDINDWG
 40
0.000703669
  9
$TDUSRTIMER
 40
0.000703669
  9
$USRTIMER
 70
     1
  9
$ANGBASE
 50
0.0
  9
$ANGDIR
 70
     0
  9
$PDMODE
 70
     0
  9
$PDSIZE
 40
0.0
  9
$PLINEWID
 40
0.0
  9
$COORDS
 70
     1
  9
$SPLFRAME
 70
     0
  9
$SPLINETYPE
 70
     6
  9
$SPLINESEGS
 70
     8
  9
$ATTDIA
 70
     0
  9
$ATTREQ
 70
     1
  9
$HANDLING
 70
     1
  9
$HANDSEED
  5
195A
  9
$SURFTAB1
 70
     6
  9
$SURFTAB2
 70
     6
  9
$SURFTYPE
 70
     6
  9
$SURFU
 70
     6
  9
$SURFV
 70
     6
  9
$UCSNAME
  2

  9
$UCSORG
 10
0.0
 20
0.0
 30
0.0
  9
$UCSXDIR
 10
1.0
 20
0.0
 30
0.0
  9
$UCSYDIR
 10
0.0
 20
1.0
 30
0.0
  9
$PUCSNAME
  2

  9
$PUCSORG
 10
0.0
 20
0.0
 30
0.0
  9
$PUCSXDIR
 10
1.0
 20
0.0
 30
0.0
  9
$PUCSYDIR
 10
0.0
 20
1.0
 30
0.0
  9
$USERI1
 70
     0
  9
$USERI2
 70
     0
  9
$USERI3
 70
     0
  9
$USERI4
 70
     0
  9
$USERI5
 70
     0
  9
$USERR1
 40
0.0
  9
$USERR2
 40
0.0
  9
$USERR3
 40
0.0
  9
$USERR4
 40
0.0
  9
$USERR5
 40
0.0
  9
$WORLDVIEW
 70
     1
  9
$SHADEDGE
 70
     3
  9
$SHADEDIF
 70
    70
  9
$TILEMODE
 70
     1
  9
$MAXACTVP
 70
    64
  9
$PLIMCHECK
 70
     0
  9
$PEXTMIN
 10
1.0000000000000000E+020
 20
1.0000000000000000E+020
 30
1.0000000000000000E+020
  9
$PEXTMAX
 10
-1.0000000000000000E+020
 20
-1.0000000000000000E+020
 30
-1.0000000000000000E+020
  9
$PLIMMIN
 10
0.0
 20
0.0
  9
$PLIMMAX
 10
420.0
 20
297.0
  9
$UNITMODE
 70
     0
  9
$VISRETAIN
 70
     1
  9
$PLINEGEN
 70
     0
  9
$PSLTSCALE
 70
     1
  0
ENDSEC
  0
SECTION
  2
TABLES
  0
TABLE
  2
VPORT
 70
     3
  0
VPORT
  2
*ACTIVE
 70
     0
 10
0.0
 20
0.0
 11
1.0
 21
1.0
 12
539377.95027058315
 22
1033758.071898544
 13
0.0
 23
0.0
 14
10.0
 24
10.0
 15
10.0
 25
10.0
 16
0.0
 26
0.0
 36
1.0
 17
0.0
 27
0.0
 37
0.0
 40
34055.916523508502
 41
2.7415730337078652
 42
50.0
 43
0.0
 44
0.0
 50
0.0
 51
0.0
 71
     0
 72
  1000
 73
     1
 74
     3
 75
     0
 76
     0
 77
     0
 78
     0
  0
ENDTAB
  0
TABLE
  2
LTYPE
 70
     1
  0
LTYPE
  2
CONTINUOUS
 70
     0
  3
Solid line
 72
    65
 73
     0
 40
0.0
  0
ENDTAB
  0
TABLE
  2
LAYER
 70
     2
  0
LAYER
  2
0
 70
     0
 62
     7
  6
CONTINUOUS
  0
LAYER
  2
LOTES
 70
     0
 62
     1
  6
CONTINUOUS
  0
ENDTAB
  0
TABLE
  2
STYLE
 70
     1
  0
STYLE
  2
STANDARD
 70
     0
 40
0.0
 41
1.0
 50
0.0
 71
     0
 42
2.5
  3
txt
  4

  0
ENDTAB
  0
TABLE
  2
VIEW
 70
     0
  0
ENDTAB
  0
TABLE
  2
UCS
 70
     0
  0
ENDTAB
  0
TABLE
  2
APPID
 70
     4
  0
APPID
  2
ACAD
 70
     0
  0
APPID
  2
DCO15
 70
     0
  0
APPID
  2
ADE
 70
     0
  0
APPID
  2
ADE_ENTITY_LOCK
 70
     0
  0
ENDTAB
  0
TABLE
  2
DIMSTYLE
 70
     1
  0
DIMSTYLE
  2
ISO-25
 70
     0
  3

  4

  5

  6

  7

 40
1.0
 41
2.5
 42
0.625
 43
3.75
 44
1.25
 45
0.0
 46
0.0
 47
0.0
 48
0.0
140
2.5
141
2.5
142
0.0
143
0.03937007874016
144
1.0
145
0.0
146
1.0
147
0.625
 71
     0
 72
     0
 73
     0
 74
     0
 75
     0
 76
     0
 77
     1
 78
     8
170
     0
171
     3
172
     1
173
     0
174
     0
175
     0
176
     0
177
     0
178
     0
  0
ENDTAB
  0
ENDSEC
  0
SECTION
  2
BLOCKS
  0
BLOCK
  8
0
  2
$MODEL_SPACE
 70
     0
 10
0.0
 20
0.0
 30
0.0
  3
$MODEL_SPACE
  1

  0
ENDBLK
  5
23
  8
0
  0
BLOCK
 67
     1
  8
0
  2
$PAPER_SPACE
 70
     0
 10
0.0
 20
0.0
 30
0.0
  3
$PAPER_SPACE
  1

  0
ENDBLK
  5
1F
 67
     1
  8
0
  0
ENDSEC
  0
SECTION
  2
ENTITIES
  0
POLYLINE
  5
243
  8
LOTES
 66
     1
 10
0.0
 20
0.0
 30
0.1244444444444444
 70
     1
1001
DCO15
1071
        3
1071
        3
1000
datoslink
1004
0000000000004940
  0
VERTEX
  5
EE0
  8
LOTES
 10
540609.59968280431
 20
1033217.929604187
 30
0.1244444444444444
  0
VERTEX
  5
EE1
  8
LOTES
 10
540649.84215827892
 20
1033217.929604187
 30
0.1244444444444444
  0
VERTEX
  5
EE2
  8
LOTES
 10
540649.84215827892
 20
1033177.687128713
 30
0.1244444444444444
  0
VERTEX
  5
EE3
  8
LOTES
 10
540609.59968280431
 20
1033177.687128713
 30
0.1244444444444444
  0
SEQEND
  5
EE4
  8
LOTES
  0
POLYLINE
  5
244
  8
LOTES
 66
     1
 10
0.0
 20
0.0
 30
0.09
 70
     1
1001
DCO15
1071
        3
1071
        3
1000
datoslink
1004
0000000000004840
  0
VERTEX
  5
EE5
  8
LOTES
 10
540876.39239057968
 20
1033368.466271703
 30
0.09
  0
VERTEX
  5
EE6
  8
LOTES
 10
540927.06810043636
 20
1033368.466271703
 30
0.09
  0
VERTEX
  5
EE7
  8
LOTES
 10
540927.06810043636
 20
1033317.790561846
 30
0.09
  0
VERTEX
  5
EE8
  8
LOTES
 10
540876.39239057968
 20
1033317.790561846
 30
0.09
  0
SEQEND
  5
EE9
  8
LOTES
  0
POLYLINE
  5
245
  8
LOTES
 66
     1
 10
0.0
 20
0.0
 30
0.075
 70
     1
1001
DCO15
1071
        3
1071
        3
1000
datoslink
1004
0000000000804840
  0
VERTEX
  5
EEA
  8
LOTES
 10
540703.49879224494
 20
1033320.771485956
 30
0.075
  0
VERTEX
  5
EEB
  8
LOTES
 10
540743.74126771931
 20
1033320.771485956
 30
0.075
  0
VERTEX
  5
EEC
  8
LOTES
 10
540743.74126771931
 20
1033280.529010481
 30
0.075
  0
VERTEX
  5
EED
  8
LOTES
 10
540703.49879224494
 20
1033280.529010481
 30
0.075
  0
SEQEND
  5
EEE
  8
LOTES
  0
POLYLINE
  5
246
  8
LOTES
 66
     1
 10
0.0
 20
0.0
 30
0.34
 70
     1
1001
DCO15
1071
        3
1071
        3
1000
datoslink
1004
0000000000804740
  0
VERTEX
  5
EEF
  8
LOTES
 10
540973.2724241293
 20
1033519.002939219
 30
0.34
  0
VERTEX
  5
EF0
  8
LOTES
 10
541019.47674782225
 20
1033519.002939219
 30
0.34
  0
VERTEX
  5
EF1
  8
LOTES
 10
541019.47674782225
 20
1033475.7795396351
 30
0.34
  0
VERTEX
  5
EF2
  8
LOTES
 10
540973.2724241293
 20
1033475.7795396351
 30
0.34
  0
SEQEND
  5
EF3
  8
LOTES
  0
POLYLINE
  5
247
  8
LOTES
 66
     1
 10
0.0
 20
0.0
 30
0.125
 70
     1
1001
DCO15
1071
        3
1071
        3
1000
datoslink
1004
0000000000804440
  0
VERTEX
  5
EF4
  8
LOTES
 10
540643.88031006046
 20
1033580.111883458
 30
0.125
  0
VERTEX
  5
EF5
  8
LOTES
 10
540667.72770293406
 20
1033577.130959349
 30
0.125
  0
VERTEX
  5
EF6
  8
LOTES
 10
540660.27539266122
 20
1033542.850332093
 30
0.125
  0
VERTEX
  5
EF7
  8
LOTES
 10
540631.95661362365
 20
1033545.831256202
 30
0.125
  0
SEQEND
  5
EF8
  8
LOTES
  0
POLYLINE
  5
248
  8
LOTES
 66
     1
 10
0.0
 20
0.0
 30
1.583333333333333
 70
     1
1001
DCO15
1071
        3
1071
        3
1000
datoslink
1004
0000000000004340
  0
VERTEX
  5
EF9
  8
LOTES
 10
540514.21011130931
 20
1033416.161057451
 30
1.583333333333333
  0
VERTEX
  5
EFA
  8
LOTES
 10
540554.45258678379
 20
1033416.161057451
 30
1.583333333333333
  0
VERTEX
  5
EFB
  8
LOTES
 10
540554.45258678379
 20
1033375.918581976
 30
1.583333333333333
  0
VERTEX
  5
EFC
  8
LOTES
 10
540514.21011130931
 20
1033375.918581976
 30
1.583333333333333
  0
SEQEND
  5
EFD
  8
LOTES
  0
POLYLINE
  5
249
  8
LOTES
 66
     1
 10
0.0
 20
0.0
 30
1.1479999999999999
 70
     1
1001
DCO15
1071
        3
1071
        3
1000
datoslink
1004
0000000000804640
  0
VERTEX
  5
EFE
  8
LOTES
 10
540701.7229977739
 20
1033735.3998970879
 30
1.1479999999999999
  0
VERTEX
  5
EFF
  8
LOTES
 10
540749.41778352135
 20
1033717.514352433
 30
1.1479999999999999
  0
VERTEX
  5
F00
  8
LOTES
 10
540728.55131475697
 20
1033681.743263122
 30
1.1479999999999999
  0
VERTEX
  5
F01
  8
LOTES
 10
540685.32791517326
 20
1033698.138345723
 30
1.1479999999999999
  0
SEQEND
  5
F02
  8
LOTES
  0
POLYLINE
  5
24A
  8
LOTES
 66
     1
 10
0.0
 20
0.0
 30
0.12
 70
     1
1001
DCO15
1071
        3
1071
        3
1000
datoslink
1004
0000000000004740
  0
VERTEX
  5
F03
  8
LOTES
 10
540639.12359148031
 20
1033744.342669416
 30
0.12
  0
VERTEX
  5
F04
  8
LOTES
 10
540651.04728791735
 20
1033771.1709863991
 30
0.12
  0
VERTEX
  5
F05
  8
LOTES
 10
540698.74207366467
 20
1033750.304517634
 30
0.12
  0
VERTEX
  5
F06
  8
LOTES
 10
540692.78022544645
 20
1033726.45712476
 30
0.12
  0
SEQEND
  5
F07
  8
LOTES
  0
POLYLINE
  5
24B
  8
LOTES
 66
     1
 10
0.0
 20
0.0
 30
2.2679999999999998
 70
     1
1001
DCO15
1071
        3
1071
        3
1000
datoslink
1004
0000000000004640
  0
VERTEX
  5
F08
  8
LOTES
 10
540589.93834367825
 20
1033732.418972979
 30
2.2679999999999998
  0
VERTEX
  5
F09
  8
LOTES
 10
540637.6331294257
 20
1033723.476200651
 30
2.2679999999999998
  0
VERTEX
  5
F0A
  8
LOTES
 10
540625.70943298866
 20
1033672.8004907951
 30
2.2679999999999998
  0
VERTEX
  5
F0B
  8
LOTES
 10
540576.52418518672
 20
1033683.233725177
 30
2.2679999999999998
  0
SEQEND
  5
F0C
  8
LOTES
  0
POLYLINE
  5
24C
  8
LOTES
 66
     1
 10
0.0
 20
0.0
 30
2.5
 70
     1
1001
DCO15
1071
        3
1071
        3
1000
datoslink
1004
0000000000804540
  0
VERTEX
  5
F0D
  8
LOTES
 10
540644.57262290281
 20
1033660.870127316
 30
2.5
  0
VERTEX
  5
F0E
  8
LOTES
 10
540629.53180119779
 20
1033598.558151681
 30
2.5
  0
VERTEX
  5
F0F
  8
LOTES
 10
540590.85540252773
 20
1033605.0042181259
 30
2.5
  0
VERTEX
  5
F10
  8
LOTES
 10
540609.11925745523
 20
1033666.241849354
 30
2.5
  0
SEQEND
  5
F11
  8
LOTES
  0
POLYLINE
  5
24D
  8
LOTES
 66
     1
 10
0.0
 20
0.0
 30
0.1
 70
     1
1001
DCO15
1071
        3
1071
        3
1000
datoslink
1004
0000000000004540
  0
VERTEX
  5
F12
  8
LOTES
 10
540536.06383774488
 20
1033608.227251349
 30
0.1
  0
VERTEX
  5
F13
  8
LOTES
 10
540582.26064726757
 20
1033601.781184904
 30
0.1
  0
VERTEX
  5
F14
  8
LOTES
 10
540562.92244793253
 20
1033550.212653344
 30
0.1
  0
VERTEX
  5
F15
  8
LOTES
 10
540518.8743272248
 20
1033557.733064196
 30
0.1
  0
SEQEND
  5
F16
  8
LOTES
  0
POLYLINE
  5
24E
  8
LOTES
 66
     1
 10
0.0
 20
0.0
 30
0.95
 70
     1
1001
DCO15
1071
        3
1071
        3
1000
datoslink
1004
0000000000004440
  0
VERTEX
  5
F17
  8
LOTES
 10
540569.36851437751
 20
1033548.063964528
 30
0.95
  0
VERTEX
  5
F18
  8
LOTES
 10
540587.63236930501
 20
1033600.706840496
 30
0.95
  0
VERTEX
  5
F19
  8
LOTES
 10
540634.90352323523
 20
1033592.112085236
 30
0.95
  0
VERTEX
  5
F1A
  8
LOTES
 10
540605.89622423262
 20
1033536.246176046
 30
0.95
  0
SEQEND
  5
F1B
  8
LOTES
  0
POLYLINE
  5
24F
  8
LOTES
 66
     1
 10
0.0
 20
0.0
 30
2.149999999999999
 70
     1
1001
DCO15
1071
        3
1071
        3
1000
datoslink
1004
0000000000804340
  0
VERTEX
  5
F1C
  8
LOTES
 10
540496.31309466728
 20
1033521.205354341
 30
2.149999999999999
  0
VERTEX
  5
F1D
  8
LOTES
 10
540531.76646011497
 20
1033516.9079767111
 30
2.149999999999999
  0
VERTEX
  5
F1E
  8
LOTES
 10
540532.84080452251
 20
1033499.718466191
 30
2.149999999999999
  0
VERTEX
  5
F1F
  8
LOTES
 10
540515.65129400231
 20
1033471.785511596
 30
2.149999999999999
  0
VERTEX
  5
F20
  8
LOTES
 10
540461.93407362711
 20
1033471.785511596
 30
2.149999999999999
  0
VERTEX
  5
F21
  8
LOTES
 10
540481.27227296215
 20
1033505.0901882279
 30
2.149999999999999
  0
SEQEND
  5
F22
  8
LOTES
  0
POLYLINE
  5
250
  8
LOTES
 66
     1
 10
0.0
 20
0.0
 30
0.9743589743589742
 70
     1
1001
DCO15
1071
        3
1071
        3
1000
datoslink
1004
0000000000804240
  0
VERTEX
  5
F23
  8
LOTES
 10
540431.85243021708
 20
1033327.82336099
 30
0.9743589743589742
  0
VERTEX
  5
F24
  8
LOTES
 10
540431.85243021685
 20
1033419.142635628
 30
0.9743589743589742
  0
VERTEX
  5
F25
  8
LOTES
 10
540469.45448447973
 20
1033416.993946813
 30
0.9743589743589742
  0
VERTEX
  5
F26
  8
LOTES
 10
540461.93407362723
 20
1033376.168859328
 30
0.9743589743589742
  0
VERTEX
  5
F27
  8
LOTES
 10
540455.48800718214
 20
1033348.235904733
 30
0.9743589743589742
  0
SEQEND
  5
F28
  8
LOTES
  0
POLYLINE
  5
251
  8
LOTES
 66
     1
 10
0.0
 20
0.0
 30
1.204
 70
     1
1001
DCO15
1071
        3
1071
        3
1000
datoslink
1004
0000000000004240
  0
VERTEX
  5
F29
  8
LOTES
 10
540379.2095542493
 20
1033370.79713729
 30
1.204
  0
VERTEX
  5
F2A
  8
LOTES
 10
540427.55505258695
 20
1033370.79713729
 30
1.204
  0
VERTEX
  5
F2B
  8
LOTES
 10
540427.55505258695
 20
1033320.302950138
 30
1.204
  0
VERTEX
  5
F2C
  8
LOTES
 10
540379.2095542493
 20
1033320.302950138
 30
1.204
  0
SEQEND
  5
F2D
  8
LOTES
  0
POLYLINE
  5
252
  8
LOTES
 66
     1
 10
0.0
 20
0.0
 30
0.0333333333333333
 70
     1
1001
DCO15
1071
        3
1071
        3
1000
datoslink
1004
0000000000804140
  0
VERTEX
  5
F2E
  8
LOTES
 10
540339.4588111717
 20
1033188.158588015
 30
0.0333333333333333
  0
VERTEX
  5
F2F
  8
LOTES
 10
540389.9529983243
 20
1033188.158588015
 30
0.0333333333333333
  0
VERTEX
  5
F30
  8
LOTES
 10
540389.9529983243
 20
1033137.6644008619
 30
0.0333333333333333
  0
VERTEX
  5
F31
  8
LOTES
 10
540339.4588111717
 20
1033137.6644008619
 30
0.0333333333333333
  0
SEQEND
  5
F32
  8
LOTES
  0
POLYLINE
  5
253
  8
LOTES
 66
     1
 10
0.0
 20
0.0
 30
0.5
 70
     1
1001
DCO15
1071
        3
1071
        3
1000
datoslink
1004
0000000000004140
  0
VERTEX
  5
F33
  8
LOTES
 10
540409.29119765945
 20
1033422.36566885
 30
0.5
  0
VERTEX
  5
F34
  8
LOTES
 10
540428.6293969946
 20
1033419.142635628
 30
0.5
  0
VERTEX
  5
F35
  8
LOTES
 10
540428.6293969946
 20
1033372.945826105
 30
0.5
  0
VERTEX
  5
F36
  8
LOTES
 10
540378.13520984177
 20
1033372.945826105
 30
0.5
  0
SEQEND
  5
F37
  8
LOTES
  0
POLYLINE
  5
254
  8
LOTES
 66
     1
 10
0.0
 20
0.0
 30
2.2999999999999989
 70
     1
1001
DCO15
1071
        3
1071
        3
1000
datoslink
1004
0000000000804040
  0
VERTEX
  5
F38
  8
LOTES
 10
540339.27975377045
 20
1033233.639167932
 30
2.2999999999999989
  0
VERTEX
  5
F39
  8
LOTES
 10
540389.41582612065
 20
1033233.639167932
 30
2.2999999999999989
  0
VERTEX
  5
F3A
  8
LOTES
 10
540389.41582612065
 20
1033190.665391632
 30
2.2999999999999989
  0
VERTEX
  5
F3B
  8
LOTES
 10
540339.27975377045
 20
1033190.665391632
 30
2.2999999999999989
  0
SEQEND
  5
F3C
  8
LOTES
  0
POLYLINE
  5
255
  8
LOTES
 66
     1
 10
0.0
 20
0.0
 30
0.15
 70
     1
1001
DCO15
1071
        3
1071
        3
1000
datoslink
1004
0000000000004040
  0
VERTEX
  5
F3D
  8
LOTES
 10
540184.57415909006
 20
1032912.768304891
 30
0.15
  0
VERTEX
  5
F3E
  8
LOTES
 10
540234.71023144014
 20
1032912.768304891
 30
0.15
  0
VERTEX
  5
F3F
  8
LOTES
 10
540234.71023144014
 20
1032862.632232541
 30
0.15
  0
VERTEX
  5
F40
  8
LOTES
 10
540184.57415909006
 20
1032862.632232541
 30
0.15
  0
SEQEND
  5
F41
  8
LOTES
  0
POLYLINE
  5
256
  8
LOTES
 66
     1
 10
0.0
 20
0.0
 30
1.232
 70
     1
1001
DCO15
1071
        3
1071
        3
1000
datoslink
1004
0000000000003F40
  0
VERTEX
  5
F42
  8
LOTES
 10
539868.00067367894
 20
1032621.97908526
 30
1.232
  0
VERTEX
  5
F43
  8
LOTES
 10
539916.70428681897
 20
1032621.97908526
 30
1.232
  0
VERTEX
  5
F44
  8
LOTES
 10
539916.70428681897
 20
1032571.84301291
 30
1.232
  0
VERTEX
  5
F45
  8
LOTES
 10
539866.56821446877
 20
1032571.84301291
 30
1.232
  0
SEQEND
  5
F46
  8
LOTES
  0
POLYLINE
  5
257
  8
LOTES
 66
     1
 10
0.0
 20
0.0
 30
0.015
 70
     1
1001
DCO15
1071
        3
1071
        3
1000
datoslink
1004
0000000000003140
  0
VERTEX
  5
F47
  8
LOTES
 10
540283.67248304829
 20
1032630.494259453
 30
0.015
  0
VERTEX
  5
F48
  8
LOTES
 10
540333.80855539849
 20
1032630.494259453
 30
0.015
  0
VERTEX
  5
F49
  8
LOTES
 10
540333.80855539849
 20
1032580.358187102
 30
0.015
  0
VERTEX
  5
F4A
  8
LOTES
 10
540283.67248304829
 20
1032580.358187102
 30
0.015
  0
SEQEND
  5
F4B
  8
LOTES
  0
POLYLINE
  5
258
  8
LOTES
 66
     1
 10
0.0
 20
0.0
 30
0.125
 70
     1
1001
DCO15
1071
        3
1071
        3
1000
datoslink
1004
0000000000003D40
  0
VERTEX
  5
F4C
  8
LOTES
 10
540627.46269344946
 20
1032588.9529423621
 30
0.125
  0
VERTEX
  5
F4D
  8
LOTES
 10
540677.59876579966
 20
1032588.9529423621
 30
0.125
  0
VERTEX
  5
F4E
  8
LOTES
 10
540677.59876579966
 20
1032538.816870012
 30
0.125
  0
VERTEX
  5
F4F
  8
LOTES
 10
540627.46269344946
 20
1032538.816870012
 30
0.125
  0
SEQEND
  5
F50
  8
LOTES
  0
POLYLINE
  5
259
  8
LOTES
 66
     1
 10
0.0
 20
0.0
 30
0.02
 70
     1
1001
DCO15
1071
        3
1071
        3
1000
datoslink
1004
0000000000003E40
  0
VERTEX
  5
F51
  8
LOTES
 10
540388.24200537859
 20
1032577.493268682
 30
0.02
  0
VERTEX
  5
F52
  8
LOTES
 10
540438.37807772879
 20
1032577.493268682
 30
0.02
  0
VERTEX
  5
F53
  8
LOTES
 10
540438.37807772879
 20
1032527.357196332
 30
0.02
  0
VERTEX
  5
F54
  8
LOTES
 10
540388.24200537859
 20
1032527.357196332
 30
0.02
  0
SEQEND
  5
F55
  8
LOTES
  0
POLYLINE
  5
25A
  8
LOTES
 66
     1
 10
0.0
 20
0.0
 30
0.02
 70
     1
1001
DCO15
1071
        3
1071
        3
1000
datoslink
1004
0000000000003C40
  0
VERTEX
  5
F56
  8
LOTES
 10
540577.32662109914
 20
1032584.655564732
 30
0.02
  0
VERTEX
  5
F57
  8
LOTES
 10
540623.16531581955
 20
1032604.709993673
 30
0.02
  0
VERTEX
  5
F58
  8
LOTES
 10
540623.16531581955
 20
1032554.573921322
 30
0.02
  0
VERTEX
  5
F59
  8
LOTES
 10
540577.32662109914
 20
1032554.573921322
 30
0.02
  0
SEQEND
  5
F5A
  8
LOTES
  0
POLYLINE
  5
25B
  8
LOTES
 66
     1
 10
0.0
 20
0.0
 30
0.1
 70
     1
1001
DCO15
1071
        3
1071
        3
1000
datoslink
1004
0000000000003B40
  0
VERTEX
  5
F5B
  8
LOTES
 10
540598.85215013765
 20
1032396.7039264221
 30
0.1
  0
VERTEX
  5
F5C
  8
LOTES
 10
540648.91908792127
 20
1032396.38312215
 30
0.1
  0
VERTEX
  5
F5D
  8
LOTES
 10
540648.91908792127
 20
1032344.868140463
 30
0.1
  0
VERTEX
  5
F5E
  8
LOTES
 10
540598.85215013765
 20
1032345.090488737
 30
0.1
  0
SEQEND
  5
F5F
  8
LOTES
  0
POLYLINE
  5
25C
  8
LOTES
 66
     1
 10
0.0
 20
0.0
 30
1.566666666666666
 70
     1
1001
DCO15
1071
        3
1071
        3
1000
datoslink
1004
0000000000D89340
  0
VERTEX
  5
F60
  8
LOTES
 10
540344.56266034895
 20
1031174.681621068
 30
1.566666666666666
  0
VERTEX
  5
F61
  8
LOTES
 10
540344.56266034883
 20
1031226.161934588
 30
1.566666666666666
  0
VERTEX
  5
F62
  8
LOTES
 10
540393.28509992978
 20
1031225.2426432749
 30
1.566666666666666
  0
VERTEX
  5
F63
  8
LOTES
 10
540423.30494982004
 20
1031175.128041615
 30
1.566666666666666
  0
SEQEND
  5
F64
  8
LOTES
  0
POLYLINE
  5
25D
  8
LOTES
 66
     1
 10
0.0
 20
0.0
 30
0.6666666666666666
 70
     1
1001
DCO15
1071
        3
1071
        3
1000
datoslink
1004
0000000000003840
  0
VERTEX
  5
F65
  8
LOTES
 10
540319.46957536973
 20
1031289.273507459
 30
0.6666666666666666
  0
VERTEX
  5
F66
  8
LOTES
 10
540362.67626707349
 20
1031289.273507459
 30
0.6666666666666666
  0
VERTEX
  5
F67
  8
LOTES
 10
540361.74956445023
 20
1031228.547025194
 30
0.6666666666666666
  0
VERTEX
  5
F68
  8
LOTES
 10
540308.091494672
 20
1031228.547025194
 30
0.6666666666666666
  0
SEQEND
  5
F69
  8
LOTES
  0
POLYLINE
  5
25E
  8
LOTES
 66
     1
 10
0.0
 20
0.0
 30
1.0
 70
     1
1001
DCO15
1071
        3
1071
        3
1000
datoslink
1004
0000000000003440
  0
VERTEX
  5
F6A
  8
LOTES
 10
540404.00529439887
 20
1031396.899219121
 30
1.0
  0
VERTEX
  5
F6B
  8
LOTES
 10
540404.00529439887
 20
1031339.216794108
 30
1.0
  0
VERTEX
  5
F6C
  8
LOTES
 10
540336.26198130706
 20
1031339.216794108
 30
1.0
  0
VERTEX
  5
F6D
  8
LOTES
 10
540334.62405090092
 20
1031359.5577994951
 30
1.0
  0
SEQEND
  5
F6E
  8
LOTES
  0
POLYLINE
  5
25F
  8
LOTES
 66
     1
 10
0.0
 20
0.0
 30
2.5625
 70
     1
1001
DCO15
1071
        3
1071
        3
1000
datoslink
1004
0000000000003640
  0
VERTEX
  5
F6F
  8
LOTES
 10
540461.23768663069
 20
1031407.238669127
 30
2.5625
  0
VERTEX
  5
F70
  8
LOTES
 10
540480.54280420055
 20
1031384.256386306
 30
2.5625
  0
VERTEX
  5
F71
  8
LOTES
 10
540502.60579570895
 20
1031316.228829155
 30
2.5625
  0
VERTEX
  5
F72
  8
LOTES
 10
540460.31839531788
 20
1031316.228829155
 30
2.5625
  0
SEQEND
  5
F73
  8
LOTES
  0
POLYLINE
  5
260
  8
LOTES
 66
     1
 10
0.0
 20
0.0
 30
0.3333333333333333
 70
     1
1001
DCO15
1071
        3
1071
        3
1000
datoslink
1004
0000000000003740
  0
VERTEX
  5
F74
  8
LOTES
 10
540406.08020785986
 20
1031367.430285646
 30
0.3333333333333333
  0
VERTEX
  5
F75
  8
LOTES
 10
540406.08020785986
 20
1031407.879103412
 30
0.3333333333333333
  0
VERTEX
  5
F76
  8
LOTES
 10
540457.56052137935
 20
1031407.879103412
 30
0.3333333333333333
  0
VERTEX
  5
F77
  8
LOTES
 10
540457.56052137935
 20
1031367.430285646
 30
0.3333333333333333
  0
SEQEND
  5
F78
  8
LOTES
  0
POLYLINE
  5
261
  8
LOTES
 66
     1
 10
0.0
 20
0.0
 30
0.5555555555555556
 70
     1
1001
DCO15
1071
        3
1071
        3
1000
datoslink
1004
0000000000003540
  0
VERTEX
  5
F79
  8
LOTES
 10
540412.51524704986
 20
1031313.470955217
 30
0.5555555555555556
  0
VERTEX
  5
F7A
  8
LOTES
 10
540406.99949917279
 20
1031312.551663904
 30
0.5555555555555556
  0
VERTEX
  5
F7B
  8
LOTES
 10
540406.99949917279
 20
1031364.031977423
 30
0.5555555555555556
  0
VERTEX
  5
F7C
  8
LOTES
 10
540457.56052137935
 20
1031364.031977423
 30
0.5555555555555556
  0
VERTEX
  5
F7D
  8
LOTES
 10
540457.56052137935
 20
1031313.470955217
 30
0.5555555555555556
  0
SEQEND
  5
F7E
  8
LOTES
  0
POLYLINE
  5
262
  8
LOTES
 66
     1
 10
0.0
 20
0.0
 30
0.4
 70
     1
1001
DCO15
1071
        3
1071
        3
1000
datoslink
1004
0000000000003240
  0
VERTEX
  5
F7F
  8
LOTES
 10
540466.89693810081
 20
1031526.797611537
 30
0.4
  0
VERTEX
  5
F80
  8
LOTES
 10
540479.97130343923
 20
1031592.169438228
 30
0.4
  0
VERTEX
  5
F81
  8
LOTES
 10
540522.46299078851
 20
1031575.826481555
 30
0.4
  0
VERTEX
  5
F82
  8
LOTES
 10
540517.56010378664
 20
1031525.1633158691
 30
0.4
  0
SEQEND
  5
F83
  8
LOTES
  0
POLYLINE
  5
263
  8
LOTES
 66
     1
 10
0.0
 20
0.0
 30
0.5714285714285714
 70
     1
1001
DCO15
1071
        3
1071
        3
1000
datoslink
1004
0000000000003340
  0
VERTEX
  5
F84
  8
LOTES
 10
540435.71970684081
 20
1031543.42366221
 30
0.5714285714285714
  0
VERTEX
  5
F85
  8
LOTES
 10
540427.58141023479
 20
1031593.8037339
 30
0.5714285714285714
  0
VERTEX
  5
F86
  8
LOTES
 10
540478.24457592063
 20
1031593.8037339
 30
0.5714285714285714
  0
VERTEX
  5
F87
  8
LOTES
 10
540463.24642234296
 20
1031531.777744111
 30
0.5714285714285714
  0
SEQEND
  5
F88
  8
LOTES
  0
POLYLINE
  5
264
  8
LOTES
 66
     1
 10
0.0
 20
0.0
 30
0.1111111111111111
 70
     1
1001
DCO15
1071
        3
1071
        3
1000
datoslink
1004
0000000000002040
  0
VERTEX
  5
F89
  8
LOTES
 10
540896.41444656986
 20
1031529.433118606
 30
0.1111111111111111
  0
VERTEX
  5
F8A
  8
LOTES
 10
540946.59708688036
 20
1031528.449145266
 30
0.1111111111111111
  0
VERTEX
  5
F8B
  8
LOTES
 10
540946.59708688036
 20
1031478.2665049559
 30
0.1111111111111111
  0
VERTEX
  5
F8C
  8
LOTES
 10
540896.41444656986
 20
1031478.2665049559
 30
0.1111111111111111
  0
SEQEND
  5
F8D
  8
LOTES
  0
POLYLINE
  5
265
  8
LOTES
 66
     1
 10
0.0
 20
0.0
 30
1.1111111111111109
 70
     1
1001
DCO15
1071
        3
1071
        3
1000
datoslink
1004
0000000000001C40
  0
VERTEX
  5
F8E
  8
LOTES
 10
540909.20609998237
 20
1031747.8751999571
 30
1.1111111111111109
  0
VERTEX
  5
F8F
  8
LOTES
 10
540957.42079361388
 20
1031747.8751999571
 30
1.1111111111111109
  0
VERTEX
  5
F90
  8
LOTES
 10
540959.38874029275
 20
1031697.692559646
 30
1.1111111111111109
  0
VERTEX
  5
F91
  8
LOTES
 10
540909.20609998237
 20
1031697.692559646
 30
1.1111111111111109
  0
SEQEND
  5
F92
  8
LOTES
  0
POLYLINE
  5
266
  8
LOTES
 66
     1
 10
0.0
 20
0.0
 30
0.06
 70
     1
1001
DCO15
1071
        3
1071
        3
1000
datoslink
1004
0000000000002840
  0
VERTEX
  5
F93
  8
LOTES
 10
540843.50538013165
 20
1032087.725241781
 30
0.06
  0
VERTEX
  5
F94
  8
LOTES
 10
540893.36002932885
 20
1032087.725241781
 30
0.06
  0
VERTEX
  5
F95
  8
LOTES
 10
540892.04806487635
 20
1032036.5586281311
 30
0.06
  0
VERTEX
  5
F96
  8
LOTES
 10
540842.19341567915
 20
1032036.5586281311
 30
0.06
  0
SEQEND
  5
F97
  8
LOTES
  0
POLYLINE
  5
267
  8
LOTES
 66
     1
 10
0.0
 20
0.0
 30
0.001
 70
     1
1001
DCO15
1071
        3
1071
        3
1000
datoslink
1004
0000000000009440
  0
VERTEX
  5
F98
  8
LOTES
 10
540542.79779251316
 20
1031318.156254223
 30
0.001
  0
VERTEX
  5
F99
  8
LOTES
 10
540542.79779251316
 20
1031307.8635776479
 30
0.001
  0
VERTEX
  5
F9A
  8
LOTES
 10
540532.50511593663
 20
1031307.8635776479
 30
0.001
  0
VERTEX
  5
F9B
  8
LOTES
 10
540532.50511593663
 20
1031318.156254223
 30
0.001
  0
SEQEND
  5
F9C
  8
LOTES
  0
POLYLINE
  5
268
  8
LOTES
 66
     1
 10
0.0
 20
0.0
 30
0.2904761904761905
 70
     1
1001
DCO15
1071
        3
1071
        3
1000
datoslink
1004
0000000000FC9340
  0
VERTEX
  5
F9D
  8
LOTES
 10
540825.87934789073
 20
1032524.715529336
 30
0.2904761904761905
  0
VERTEX
  5
F9E
  8
LOTES
 10
540883.64669544995
 20
1032524.715529336
 30
0.2904761904761905
  0
VERTEX
  5
F9F
  8
LOTES
 10
540882.05858967453
 20
1032495.7325989431
 30
0.2904761904761905
  0
VERTEX
  5
FA0
  8
LOTES
 10
540875.50765335374
 20
1032483.42477919
 30
0.2904761904761905
  0
VERTEX
  5
FA1
  8
LOTES
 10
540831.63623132277
 20
1032488.189096514
 30
0.2904761904761905
  0
SEQEND
  5
FA2
  8
LOTES
  0
POLYLINE
  5
269
  8
LOTES
 66
     1
 10
0.0
 20
0.0
 30
0.15
 70
     1
1001
DCO15
1071
        3
1071
        3
1000
datoslink
1004
0000000000F09340
1001
ADE_ENTITY_LOCK
1071
1342624882
1071
1342625087
  0
VERTEX
  5
FA3
  8
LOTES
 10
539391.16025747638
 20
1029482.7578588329
 30
0.15
  0
VERTEX
  5
FA4
  8
LOTES
 10
539438.00860982295
 20
1029388.664134204
 30
0.15
  0
VERTEX
  5
FA5
  8
LOTES
 10
539416.56953332387
 20
1029375.959496278
 30
0.15
  0
VERTEX
  5
FA6
  8
LOTES
 10
539358.60462279525
 20
1029467.671101298
 30
0.15
  0
SEQEND
  5
FA7
  8
LOTES
  0
POLYLINE
  5
26A
  8
LOTES
 66
     1
 10
0.0
 20
0.0
 30
0.05
 70
     1
1001
DCO15
1071
        3
1071
        3
1000
datoslink
1004
0000000000EC9340
1001
ADE_ENTITY_LOCK
1071
1342624882
1071
1342625087
  0
VERTEX
  5
FA8
  8
LOTES
 10
539222.62529500667
 20
1029413.01469023
 30
0.05
  0
VERTEX
  5
FA9
  8
LOTES
 10
539259.6804889543
 20
1029370.665897146
 30
0.05
  0
VERTEX
  5
FAA
  8
LOTES
 10
539230.36718374118
 20
1029354.917439719
 30
0.05
  0
VERTEX
  5
FAB
  8
LOTES
 10
539196.81899922248
 20
1029393.825393362
 30
0.05
  0
SEQEND
  5
FAC
  8
LOTES
  0
POLYLINE
  5
26B
  8
LOTES
 66
     1
 10
0.0
 20
0.0
 30
0.275
 70
     1
1001
DCO15
1071
        3
1071
        3
1000
datoslink
1004
0000000000D09340
  0
VERTEX
  5
FAD
  8
LOTES
 10
541322.39898282243
 20
1033661.382933405
 30
0.275
  0
VERTEX
  5
FAE
  8
LOTES
 10
541272.10979103891
 20
1033661.382933405
 30
0.275
  0
VERTEX
  5
FAF
  8
LOTES
 10
541272.10979103891
 20
1033712.3338250821
 30
0.275
  0
VERTEX
  5
FB0
  8
LOTES
 10
541322.39898282243
 20
1033712.3338250821
 30
0.275
  0
SEQEND
  5
FB1
  8
LOTES
  0
POLYLINE
  5
26C
  8
LOTES
 66
     1
 10
0.0
 20
0.0
 30
0.08
 70
     1
1001
DCO15
1071
        3
1071
        3
1000
datoslink
1004
0000000000A09340
  0
VERTEX
  5
FB2
  8
LOTES
 10
539861.32538770419
 20
1028662.100660518
 30
0.08
  0
VERTEX
  5
FB3
  8
LOTES
 10
539901.66852075525
 20
1028662.100660518
 30
0.08
  0
VERTEX
  5
FB4
  8
LOTES
 10
539901.66852075525
 20
1028621.757527467
 30
0.08
  0
VERTEX
  5
FB5
  8
LOTES
 10
539861.32538770419
 20
1028621.757527467
 30
0.08
  0
SEQEND
  5
FB6
  8
LOTES
  0
POLYLINE
  5
26D
  8
LOTES
 66
     1
 10
0.0
 20
0.0
 30
0.025
 70
     1
1001
DCO15
1071
        3
1071
        3
1000
datoslink
1004
0000000000507140
  0
VERTEX
  5
FB7
  8
LOTES
 10
540629.00424922793
 20
1030108.770892077
 30
0.025
  0
VERTEX
  5
FB8
  8
LOTES
 10
540629.00424922793
 20
1030158.388034345
 30
0.025
  0
VERTEX
  5
FB9
  8
LOTES
 10
540707.98663896066
 20
1030158.388034345
 30
0.025
  0
VERTEX
  5
FBA
  8
LOTES
 10
540707.98663896066
 20
1030108.770892077
 30
0.025
  0
SEQEND
  5
FBB
  8
LOTES
  0
POLYLINE
  5
26E
  8
LOTES
 66
     1
 10
0.0
 20
0.0
 30
0.1111111111111111
 70
     1
1001
DCO15
1071
        3
1071
        3
1000
datoslink
1004
0000000000E07040
  0
VERTEX
  5
FBC
  8
LOTES
 10
540765.70453914977
 20
1030331.541734913
 30
0.1111111111111111
  0
VERTEX
  5
FBD
  8
LOTES
 10
540768.7423233703
 20
1030370.020335039
 30
0.1111111111111111
  0
VERTEX
  5
FBE
  8
LOTES
 10
540818.35946563841
 20
1030370.020335039
 30
0.1111111111111111
  0
VERTEX
  5
FBF
  8
LOTES
 10
540827.47281829978
 20
1030338.629898094
 30
0.1111111111111111
  0
VERTEX
  5
FC0
  8
LOTES
 10
540803.17054453585
 20
1030312.30243485
 30
0.1111111111111111
  0
SEQEND
  5
FC1
  8
LOTES
  0
POLYLINE
  5
26F
  8
LOTES
 66
     1
 10
0.0
 20
0.0
 30
0.0583333333333334
 70
     1
1001
DCO15
1071
        3
1071
        3
1000
datoslink
1004
0000000000B07040
  0
VERTEX
  5
FC2
  8
LOTES
 10
540532.22132489586
 20
1030417.563284999
 30
0.0583333333333334
  0
VERTEX
  5
FC3
  8
LOTES
 10
540571.1022508
 20
1030417.563284999
 30
0.0583333333333334
  0
VERTEX
  5
FC4
  8
LOTES
 10
540566.78214792185
 20
1030371.482187631
 30
0.0583333333333334
  0
VERTEX
  5
FC5
  8
LOTES
 10
540532.22132489586
 20
1030366.442067607
 30
0.0583333333333334
  0
SEQEND
  5
FC6
  8
LOTES
  0
POLYLINE
  5
270
  8
LOTES
 66
     1
 10
0.0
 20
0.0
 30
3.5499999999999998
 70
     1
1001
DCO15
1071
        3
1071
        3
1000
datoslink
1004
0000000000A07040
  0
VERTEX
  5
FC7
  8
LOTES
 10
540532.99964844901
 20
1030697.8248741589
 30
3.5499999999999998
  0
VERTEX
  5
FC8
  8
LOTES
 10
540588.44096871954
 20
1030697.8248741589
 30
3.5499999999999998
  0
VERTEX
  5
FC9
  8
LOTES
 10
540597.08117447619
 20
1030632.303313839
 30
3.5499999999999998
  0
VERTEX
  5
FCA
  8
LOTES
 10
540532.99964844901
 20
1030632.303313839
 30
3.5499999999999998
  0
SEQEND
  5
FCB
  8
LOTES
  0
POLYLINE
  5
271
  8
LOTES
 66
     1
 10
0.0
 20
0.0
 30
0.48
 70
     1
1001
DCO15
1071
        3
1071
        3
1000
datoslink
1004
0000000000907040
  0
VERTEX
  5
FCC
  8
LOTES
 10
540532.22132489597
 20
1030460.044296635
 30
0.48
  0
VERTEX
  5
FCD
  8
LOTES
 10
540570.38223365368
 20
1030460.044296635
 30
0.48
  0
VERTEX
  5
FCE
  8
LOTES
 10
540570.38223365368
 20
1030419.7233364379
 30
0.48
  0
VERTEX
  5
FCF
  8
LOTES
 10
540532.22132489597
 20
1030419.7233364379
 30
0.48
  0
SEQEND
  5
FD0
  8
LOTES
  0
POLYLINE
  5
272
  8
LOTES
 66
     1
 10
0.0
 20
0.0
 30
0.9
 70
     1
1001
DCO15
1071
        3
1071
        3
1000
datoslink
1004
0000000000807040
  0
VERTEX
  5
FD1
  8
LOTES
 10
540534.38137633505
 20
1030509.005462589
 30
0.9
  0
VERTEX
  5
FD2
  8
LOTES
 10
540519.26101626107
 20
1030563.006748567
 30
0.9
  0
VERTEX
  5
FD3
  8
LOTES
 10
540605.66307382577
 20
1030563.006748567
 30
0.9
  0
VERTEX
  5
FD4
  8
LOTES
 10
540607.82312526484
 20
1030511.165514028
 30
0.9
  0
SEQEND
  5
FD5
  8
LOTES
  0
POLYLINE
  5
273
  8
LOTES
 66
     1
 10
0.0
 20
0.0
 30
2.649999999999999
 70
     1
1001
DCO15
1071
        3
1071
        3
1000
datoslink
1004
0000000000707040
  0
VERTEX
  5
FD6
  8
LOTES
 10
540555.98189072625
 20
1030629.968343179
 30
2.649999999999999
  0
VERTEX
  5
FD7
  8
LOTES
 10
540598.46290236223
 20
1030629.968343179
 30
2.649999999999999
  0
VERTEX
  5
FD8
  8
LOTES
 10
540605.663073826
 20
1030565.886817152
 30
2.649999999999999
  0
VERTEX
  5
FD9
  8
LOTES
 10
540555.98189072625
 20
1030565.886817152
 30
2.649999999999999
  0
SEQEND
  5
FDA
  8
LOTES
  0
POLYLINE
  5
274
  8
LOTES
 66
     1
 10
0.0
 20
0.0
 30
0.08
 70
     1
1001
DCO15
1071
        3
1071
        3
1000
datoslink
1004
0000000000407040
  0
VERTEX
  5
FDB
  8
LOTES
 10
538419.01606414432
 20
1033103.7548232879
 30
0.08
  0
VERTEX
  5
FDC
  8
LOTES
 10
538419.01606414432
 20
1033154.574493321
 30
0.08
  0
VERTEX
  5
FDD
  8
LOTES
 10
538469.83573417715
 20
1033154.574493321
 30
0.08
  0
VERTEX
  5
FDE
  8
LOTES
 10
538469.83573417715
 20
1033102.696080162
 30
0.08
  0
SEQEND
  5
FDF
  8
LOTES
  0
POLYLINE
  5
275
  8
LOTES
 66
     1
 10
0.0
 20
0.0
 30
0.05
 70
     1
1001
DCO15
1071
        3
1071
        3
1000
datoslink
1004
0000000000307040
  0
VERTEX
  5
FE0
  8
LOTES
 10
538412.66360539023
 20
1033048.700180752
 30
0.05
  0
VERTEX
  5
FE1
  8
LOTES
 10
538412.66360539023
 20
1033099.519850785
 30
0.05
  0
VERTEX
  5
FE2
  8
LOTES
 10
538463.48327542306
 20
1033099.519850785
 30
0.05
  0
VERTEX
  5
FE3
  8
LOTES
 10
538463.48327542306
 20
1033048.700180752
 30
0.05
  0
SEQEND
  5
FE4
  8
LOTES
  0
POLYLINE
  5
276
  8
LOTES
 66
     1
 10
0.0
 20
0.0
 30
0.06
 70
     1
1001
DCO15
1071
        3
1071
        3
1000
datoslink
1004
0000000000207040
  0
VERTEX
  5
FE5
  8
LOTES
 10
538453.95458729193
 20
1032870.831335637
 30
0.06
  0
VERTEX
  5
FE6
  8
LOTES
 10
538453.95458729193
 20
1032912.1223175389
 30
0.06
  0
VERTEX
  5
FE7
  8
LOTES
 10
538504.77425732475
 20
1032912.1223175389
 30
0.06
  0
VERTEX
  5
FE8
  8
LOTES
 10
538504.77425732475
 20
1032870.831335637
 30
0.06
  0
SEQEND
  5
FE9
  8
LOTES
  0
POLYLINE
  5
277
  8
LOTES
 66
     1
 10
0.0
 20
0.0
 30
0.02
 70
     1
1001
DCO15
1071
        3
1071
        3
1000
datoslink
1004
0000000000107040
  0
VERTEX
  5
FEA
  8
LOTES
 10
538439.07989992131
 20
1032213.776658927
 30
0.02
  0
VERTEX
  5
FEB
  8
LOTES
 10
538440.13864304684
 20
1032254.008897703
 30
0.02
  0
VERTEX
  5
FEC
  8
LOTES
 10
538469.78345056612
 20
1032254.008897703
 30
0.02
  0
VERTEX
  5
FED
  8
LOTES
 10
538469.78345056612
 20
1032213.776658927
 30
0.02
  0
SEQEND
  5
FEE
  8
LOTES
  0
POLYLINE
  5
278
  8
LOTES
 66
     1
 10
0.0
 20
0.0
 30
0.0740740740740741
 70
     1
1001
DCO15
1071
        3
1071
        3
1000
datoslink
1004
0000000000C06F40
1001
ADE_ENTITY_LOCK
1071
1342624882
1071
1342625087
  0
VERTEX
  5
FEF
  8
LOTES
 10
538645.53480942955
 20
1031570.060838511
 30
0.0740740740740741
  0
VERTEX
  5
FF0
  8
LOTES
 10
538645.53480942955
 20
1031620.880508544
 30
0.0740740740740741
  0
VERTEX
  5
FF1
  8
LOTES
 10
538696.35447946249
 20
1031620.880508544
 30
0.0740740740740741
  0
VERTEX
  5
FF2
  8
LOTES
 10
538696.35447946249
 20
1031570.060838511
 30
0.0740740740740741
  0
SEQEND
  5
FF3
  8
LOTES
  0
POLYLINE
  5
279
  8
LOTES
 66
     1
 10
0.0
 20
0.0
 30
0.0777777777777778
 70
     1
1001
DCO15
1071
        3
1071
        3
1000
datoslink
1004
0000000000A06F40
1001
ADE_ENTITY_LOCK
1071
1342624882
1071
1342625087
  0
VERTEX
  5
FF4
  8
LOTES
 10
538688.94327758264
 20
1031219.6168639089
 30
0.0777777777777778
  0
VERTEX
  5
FF5
  8
LOTES
 10
538738.70420448994
 20
1031234.4392676681
 30
0.0777777777777778
  0
VERTEX
  5
FF6
  8
LOTES
 10
538753.52660824952
 20
1031185.737083887
 30
0.0777777777777778
  0
VERTEX
  5
FF7
  8
LOTES
 10
538704.82442446798
 20
1031171.973423253
 30
0.0777777777777778
  0
SEQEND
  5
FF8
  8
LOTES
  0
POLYLINE
  5
27A
  8
LOTES
 66
     1
 10
0.0
 20
0.0
 30
0.11
 70
     1
1001
DCO15
1071
        3
1071
        3
1000
datoslink
1004
0000000000606F40
  0
VERTEX
  5
FF9
  8
LOTES
 10
539196.08123478608
 20
1030768.592292367
 30
0.11
  0
VERTEX
  5
FFA
  8
LOTES
 10
539196.08123478608
 20
1030819.4119624
 30
0.11
  0
VERTEX
  5
FFB
  8
LOTES
 10
539246.9009048189
 20
1030819.4119624
 30
0.11
  0
VERTEX
  5
FFC
  8
LOTES
 10
539246.9009048189
 20
1030768.592292367
 30
0.11
  0
SEQEND
  5
FFD
  8
LOTES
  0
POLYLINE
  5
27B
  8
LOTES
 66
     1
 10
0.0
 20
0.0
 30
0.3
 70
     1
1001
DCO15
1071
        3
1071
        3
1000
datoslink
1004
0000000000C06E40
  0
VERTEX
  5
FFE
  8
LOTES
 10
538767.58288085426
 20
1033846.752118575
 30
0.3
  0
VERTEX
  5
FFF
  8
LOTES
 10
538767.58288085426
 20
1033886.762963837
 30
0.3
  0
VERTEX
  5
1000
  8
LOTES
 10
538807.59372611588
 20
1033886.762963837
 30
0.3
  0
VERTEX
  5
1001
  8
LOTES
 10
538807.59372611588
 20
1033846.752118575
 30
0.3
  0
SEQEND
  5
1002
  8
LOTES
  0
POLYLINE
  5
27C
  8
LOTES
 66
     1
 10
0.0
 20
0.0
 30
0.125
 70
     1
1001
DCO15
1071
        3
1071
        3
1000
datoslink
1004
0000000000A06E40
  0
VERTEX
  5
1003
  8
LOTES
 10
538750.43537574215
 20
1033712.429995197
 30
0.125
  0
VERTEX
  5
1004
  8
LOTES
 10
538750.43537574215
 20
1033751.488201285
 30
0.125
  0
VERTEX
  5
1005
  8
LOTES
 10
538791.39886017656
 20
1033751.488201285
 30
0.125
  0
VERTEX
  5
1006
  8
LOTES
 10
538791.39886017656
 20
1033712.429995197
 30
0.125
  0
SEQEND
  5
1007
  8
LOTES
  0
POLYLINE
  5
27D
  8
LOTES
 66
     1
 10
0.0
 20
0.0
 30
1.4285714285714279
 70
     1
1001
DCO15
1071
        3
1071
        3
1000
datoslink
1004
0000000000806E40
  0
VERTEX
  5
1008
  8
LOTES
 10
538931.2293890951
 20
1032857.480512322
 30
1.4285714285714279
  0
VERTEX
  5
1009
  8
LOTES
 10
538931.2293890951
 20
1032907.828260867
 30
1.4285714285714279
  0
VERTEX
  5
100A
  8
LOTES
 10
538981.5771376401
 20
1032907.828260867
 30
1.4285714285714279
  0
VERTEX
  5
100B
  8
LOTES
 10
538981.5771376401
 20
1032857.480512322
 30
1.4285714285714279
  0
SEQEND
  5
100C
  8
LOTES
  0
POLYLINE
  5
27E
  8
LOTES
 66
     1
 10
0.0
 20
0.0
 30
1.0416666666666661
 70
     1
1001
DCO15
1071
        3
1071
        3
1000
datoslink
1004
0000000000606E40
  0
VERTEX
  5
100D
  8
LOTES
 10
538798.94314781995
 20
1033003.5877041779
 30
1.0416666666666661
  0
VERTEX
  5
100E
  8
LOTES
 10
538798.94314781995
 20
1033047.024977433
 30
1.0416666666666661
  0
VERTEX
  5
100F
  8
LOTES
 10
538881.86885130592
 20
1033054.922663479
 30
1.0416666666666661
  0
VERTEX
  5
1010
  8
LOTES
 10
538881.86885130592
 20
1033003.5877041779
 30
1.0416666666666661
  0
SEQEND
  5
1011
  8
LOTES
  0
POLYLINE
  5
27F
  8
LOTES
 66
     1
 10
0.0
 20
0.0
 30
0.3
 70
     1
1001
DCO15
1071
        3
1071
        3
1000
datoslink
1004
0000000000406E40
  0
VERTEX
  5
1012
  8
LOTES
 10
538747.12093174807
 20
1032965.26077492
 30
0.3
  0
VERTEX
  5
1013
  8
LOTES
 10
538747.12093174807
 20
1032991.820726046
 30
0.3
  0
VERTEX
  5
1014
  8
LOTES
 10
538797.17622425547
 20
1032991.820726046
 30
0.3
  0
VERTEX
  5
1015
  8
LOTES
 10
538797.17622425547
 20
1032965.26077492
 30
0.3
  0
SEQEND
  5
1016
  8
LOTES
  0
POLYLINE
  5
280
  8
LOTES
 66
     1
 10
0.0
 20
0.0
 30
0.0583333333333334
 70
     1
1001
DCO15
1071
        3
1071
        3
1000
datoslink
1004
0000000000206E40
  0
VERTEX
  5
1017
  8
LOTES
 10
538822.95474962413
 20
1033088.235877613
 30
0.0583333333333334
  0
VERTEX
  5
1018
  8
LOTES
 10
538822.95474962413
 20
1033137.269633539
 30
0.0583333333333334
  0
VERTEX
  5
1019
  8
LOTES
 10
538873.01004213141
 20
1033137.269633539
 30
0.0583333333333334
  0
VERTEX
  5
101A
  8
LOTES
 10
538873.01004213141
 20
1033088.235877613
 30
0.0583333333333334
  0
SEQEND
  5
101B
  8
LOTES
  0
POLYLINE
  5
281
  8
LOTES
 66
     1
 10
0.0
 20
0.0
 30
0.1785714285714286
 70
     1
1001
DCO15
1071
        3
1071
        3
1000
datoslink
1004
0000000000006E40
  0
VERTEX
  5
101C
  8
LOTES
 10
538747.36104257207
 20
1032963.6084146349
 30
0.1785714285714286
  0
VERTEX
  5
101D
  8
LOTES
 10
538797.41633507935
 20
1032963.6084146349
 30
0.1785714285714286
  0
VERTEX
  5
101E
  8
LOTES
 10
538797.41633507935
 20
1032922.746951364
 30
0.1785714285714286
  0
VERTEX
  5
101F
  8
LOTES
 10
538747.36104257207
 20
1032922.746951364
 30
0.1785714285714286
  0
SEQEND
  5
1020
  8
LOTES
  0
POLYLINE
  5
282
  8
LOTES
 66
     1
 10
0.0
 20
0.0
 30
0.1111111111111111
 70
     1
1001
DCO15
1071
        3
1071
        3
1000
datoslink
1004
0000000000C06D40
  0
VERTEX
  5
1021
  8
LOTES
 10
538746.26420496264
 20
1032993.232975507
 30
0.1111111111111111
  0
VERTEX
  5
1022
  8
LOTES
 10
538749.32881470816
 20
1033017.74985347
 30
0.1111111111111111
  0
VERTEX
  5
1023
  8
LOTES
 10
538767.71647318022
 20
1033035.11597536
 30
0.1111111111111111
  0
VERTEX
  5
1024
  8
LOTES
 10
538797.34103405196
 20
1033042.2667314321
 30
0.1111111111111111
  0
VERTEX
  5
1025
  8
LOTES
 10
538797.34103405196
 20
1032993.232975507
 30
0.1111111111111111
  0
SEQEND
  5
1026
  8
LOTES
  0
POLYLINE
  5
283
  8
LOTES
 66
     1
 10
0.0
 20
0.0
 30
0.775
 70
     1
1001
DCO15
1071
        3
1071
        3
1000
datoslink
1004
0000000000A06D40
1001
ADE_ENTITY_LOCK
1071
1342624882
1071
1342625087
  0
VERTEX
  5
1027
  8
LOTES
 10
538393.14323283825
 20
1033183.238779719
 30
0.775
  0
VERTEX
  5
1028
  8
LOTES
 10
538393.14323283825
 20
1033203.6695113539
 30
0.775
  0
VERTEX
  5
1029
  8
LOTES
 10
538443.19852534565
 20
1033203.6695113539
 30
0.775
  0
VERTEX
  5
102A
  8
LOTES
 10
538443.19852534565
 20
1033183.238779719
 30
0.775
  0
SEQEND
  5
102B
  8
LOTES
  0
POLYLINE
  5
284
  8
LOTES
 66
     1
 10
0.0
 20
0.0
 30
0.25
 70
     1
1001
DCO15
1071
        3
1071
        3
1000
datoslink
1004
0000000000806D40
  0
VERTEX
  5
102C
  8
LOTES
 10
538551.22601886943
 20
1033096.918938558
 30
0.25
  0
VERTEX
  5
102D
  8
LOTES
 10
538551.22601886943
 20
1033146.974231065
 30
0.25
  0
VERTEX
  5
102E
  8
LOTES
 10
538601.28131137695
 20
1033146.974231065
 30
0.25
  0
VERTEX
  5
102F
  8
LOTES
 10
538601.28131137695
 20
1033096.918938558
 30
0.25
  0
SEQEND
  5
1030
  8
LOTES
  0
POLYLINE
  5
285
  8
LOTES
 66
     1
 10
0.0
 20
0.0
 30
1.1759999999999999
 70
     1
1001
DCO15
1071
        3
1071
        3
1000
datoslink
1004
0000000000606D40
  0
VERTEX
  5
1031
  8
LOTES
 10
538434.77084854594
 20
1033497.3612786171
 30
1.1759999999999999
  0
VERTEX
  5
1032
  8
LOTES
 10
538434.77084854594
 20
1033547.416571125
 30
1.1759999999999999
  0
VERTEX
  5
1033
  8
LOTES
 10
538484.82614105346
 20
1033547.416571125
 30
1.1759999999999999
  0
VERTEX
  5
1034
  8
LOTES
 10
538484.82614105346
 20
1033497.3612786171
 30
1.1759999999999999
  0
SEQEND
  5
1035
  8
LOTES
  0
POLYLINE
  5
286
  8
LOTES
 66
     1
 10
0.0
 20
0.0
 30
0.0333333333333333
 70
     1
1001
DCO15
1071
        3
1071
        3
1000
datoslink
1004
0000000000406D40
  0
VERTEX
  5
1036
  8
LOTES
 10
538731.0164572635
 20
1033120.414279939
 30
0.0333333333333333
  0
VERTEX
  5
1037
  8
LOTES
 10
538731.0164572635
 20
1033170.469572446
 30
0.0333333333333333
  0
VERTEX
  5
1038
  8
LOTES
 10
538781.0717497709
 20
1033170.469572446
 30
0.0333333333333333
  0
VERTEX
  5
1039
  8
LOTES
 10
538781.0717497709
 20
1033120.414279939
 30
0.0333333333333333
  0
SEQEND
  5
103A
  8
LOTES
  0
POLYLINE
  5
287
  8
LOTES
 66
     1
 10
0.0
 20
0.0
 30
0.06875
 70
     1
1001
DCO15
1071
        3
1071
        3
1000
datoslink
1004
0000000000206D40
  0
VERTEX
  5
103B
  8
LOTES
 10
538671.76733552001
 20
1033267.5155477159
 30
0.06875
  0
VERTEX
  5
103C
  8
LOTES
 10
538671.76733552001
 20
1033317.570840223
 30
0.06875
  0
VERTEX
  5
103D
  8
LOTES
 10
538721.82262802753
 20
1033317.570840223
 30
0.06875
  0
VERTEX
  5
103E
  8
LOTES
 10
538721.82262802753
 20
1033267.5155477159
 30
0.06875
  0
SEQEND
  5
103F
  8
LOTES
  0
POLYLINE
  5
288
  8
LOTES
 66
     1
 10
0.0
 20
0.0
 30
0.5
 70
     1
1001
DCO15
1071
        3
1071
        3
1000
datoslink
1004
0000000000E06C40
1001
ADE_ENTITY_LOCK
1071
1342624882
1071
1342625087
  0
VERTEX
  5
1040
  8
LOTES
 10
538154.72401313949
 20
1034407.174982453
 30
0.5
  0
VERTEX
  5
1041
  8
LOTES
 10
538154.72401313949
 20
1034435.628703956
 30
0.5
  0
VERTEX
  5
1042
  8
LOTES
 10
538265.23032688291
 20
1034446.216135213
 30
0.5
  0
VERTEX
  5
1043
  8
LOTES
 10
538283.09661712882
 20
1034410.483554721
 30
0.5
  0
SEQEND
  5
1044
  8
LOTES
  0
POLYLINE
  5
289
  8
LOTES
 66
     1
 10
0.0
 20
0.0
 30
1.5
 70
     1
1001
DCO15
1071
        3
1071
        3
1000
datoslink
1004
0000000000C06C40
1001
ADE_ENTITY_LOCK
1071
1342624882
1071
1342625087
  0
VERTEX
  5
1045
  8
LOTES
 10
538154.72401313949
 20
1034369.4572586
 30
1.5
  0
VERTEX
  5
1046
  8
LOTES
 10
538154.72401313949
 20
1034405.189839092
 30
1.5
  0
VERTEX
  5
1047
  8
LOTES
 10
538285.0817604895
 20
1034408.49841136
 30
1.5
  0
VERTEX
  5
1048
  8
LOTES
 10
538306.25662300317
 20
1034369.4572586
 30
1.5
  0
SEQEND
  5
1049
  8
LOTES
  0
POLYLINE
  5
28A
  8
LOTES
 66
     1
 10
0.0
 20
0.0
 30
1.020833333333333
 70
     1
1001
DCO15
1071
        3
1071
        3
1000
datoslink
1004
0000000000A06C40
1001
ADE_ENTITY_LOCK
1071
1342624882
1071
1342625087
  0
VERTEX
  5
104A
  8
LOTES
 10
538141.48972406832
 20
1034438.27556177
 30
1.020833333333333
  0
VERTEX
  5
104B
  8
LOTES
 10
538105.75714357651
 20
1034493.859575869
 30
1.020833333333333
  0
VERTEX
  5
104C
  8
LOTES
 10
538212.29317059845
 20
1034493.859575869
 30
1.020833333333333
  0
VERTEX
  5
104D
  8
LOTES
 10
538229.49774639099
 20
1034444.230991852
 30
1.020833333333333
  0
SEQEND
  5
104E
  8
LOTES
  0
POLYLINE
  5
28B
  8
LOTES
 66
     1
 10
0.0
 20
0.0
 30
0.1222222222222222
 70
     1
1001
DCO15
1071
        3
1071
        3
1000
datoslink
1004
0000000000806C40
1001
ADE_ENTITY_LOCK
1071
1342624882
1071
1342625087
  0
VERTEX
  5
104F
  8
LOTES
 10
538139.50458070764
 20
1034538.85615871
 30
0.1222222222222222
  0
VERTEX
  5
1050
  8
LOTES
 10
538139.50458070764
 20
1034578.559025923
 30
0.1222222222222222
  0
VERTEX
  5
1051
  8
LOTES
 10
538201.04402488819
 20
1034578.559025923
 30
0.1222222222222222
  0
VERTEX
  5
1052
  8
LOTES
 10
538228.17431748379
 20
1034538.85615871
 30
0.1222222222222222
  0
SEQEND
  5
1053
  8
LOTES
  0
POLYLINE
  5
28C
  8
LOTES
 66
     1
 10
0.0
 20
0.0
 30
0.126984126984127
 70
     1
1001
DCO15
1071
        3
1071
        3
1000
datoslink
1004
0000000000606C40
1001
ADE_ENTITY_LOCK
1071
1342624882
1071
1342625087
  0
VERTEX
  5
1054
  8
LOTES
 10
538056.12855956005
 20
1034495.844719229
 30
0.126984126984127
  0
VERTEX
  5
1055
  8
LOTES
 10
538050.173129478
 20
1034578.559025923
 30
0.126984126984127
  0
VERTEX
  5
1056
  8
LOTES
 10
538138.18115180056
 20
1034578.559025923
 30
0.126984126984127
  0
VERTEX
  5
1057
  8
LOTES
 10
538138.18115180056
 20
1034495.844719229
 30
0.126984126984127
  0
SEQEND
  5
1058
  8
LOTES
  0
POLYLINE
  5
28D
  8
LOTES
 66
     1
 10
0.0
 20
0.0
 30
0.75
 70
     1
1001
DCO15
1071
        3
1071
        3
1000
datoslink
1004
0000000000406C40
1001
ADE_ENTITY_LOCK
1071
1342624882
1071
1342625087
  0
VERTEX
  5
1059
  8
LOTES
 10
538090.53771114477
 20
1034385.338405486
 30
0.75
  0
VERTEX
  5
105A
  8
LOTES
 10
538090.53771114477
 20
1034436.290418409
 30
0.75
  0
VERTEX
  5
105B
  8
LOTES
 10
538153.40058423229
 20
1034436.290418409
 30
0.75
  0
VERTEX
  5
105C
  8
LOTES
 10
538153.40058423229
 20
1034369.4572586
 30
0.75
  0
VERTEX
  5
105D
  8
LOTES
 10
538124.28514827602
 20
1034370.780687507
 30
0.75
  0
SEQEND
  5
105E
  8
LOTES
  0
POLYLINE
  5
28E
  8
LOTES
 66
     1
 10
0.0
 20
0.0
 30
0.0375
 70
     1
1001
DCO15
1071
        3
1071
        3
1000
datoslink
1004
0000000000206C40
1001
ADE_ENTITY_LOCK
1071
1342624882
1071
1342625087
  0
VERTEX
  5
105F
  8
LOTES
 10
538115.02114592621
 20
1034580.5441692841
 30
0.0375
  0
VERTEX
  5
1060
  8
LOTES
 10
538117.66800374049
 20
1034654.6561880819
 30
0.0375
  0
VERTEX
  5
1061
  8
LOTES
 10
538162.00287212851
 20
1034654.6561880819
 30
0.0375
  0
VERTEX
  5
1062
  8
LOTES
 10
538200.38231043459
 20
1034580.5441692841
 30
0.0375
  0
SEQEND
  5
1063
  8
LOTES
  0
POLYLINE
  5
28F
  8
LOTES
 66
     1
 10
0.0
 20
0.0
 30
1.5049999999999999
 70
     1
1001
DCO15
1071
        3
1071
        3
1000
datoslink
1004
0000000000006C40
1001
ADE_ENTITY_LOCK
1071
1342624882
1071
1342625087
  0
VERTEX
  5
1064
  8
LOTES
 10
538234.79146201944
 20
1034446.216135213
 30
1.5049999999999999
  0
VERTEX
  5
1065
  8
LOTES
 10
538217.58688622701
 20
1034492.536146961
 30
1.5049999999999999
  0
VERTEX
  5
1066
  8
LOTES
 10
538199.72059598099
 20
1034537.532729803
 30
1.5049999999999999
  0
VERTEX
  5
1067
  8
LOTES
 10
538230.82117529807
 20
1034537.532729803
 30
1.5049999999999999
  0
VERTEX
  5
1068
  8
LOTES
 10
538265.2303268828
 20
1034448.201278573
 30
1.5049999999999999
  0
SEQEND
  5
1069
  8
LOTES
  0
POLYLINE
  5
290
  8
LOTES
 66
     1
 10
0.0
 20
0.0
 30
0.4583333333333333
 70
     1
1001
DCO15
1071
        3
1071
        3
1000
datoslink
1004
0000000000406B40
1001
ADE_ENTITY_LOCK
1071
1342624882
1071
1342625087
  0
VERTEX
  5
106A
  8
LOTES
 10
538124.28514827602
 20
1034324.791532986
 30
0.4583333333333333
  0
VERTEX
  5
106B
  8
LOTES
 10
538124.28514827602
 20
1034368.4646869201
 30
0.4583333333333333
  0
VERTEX
  5
106C
  8
LOTES
 10
538189.13316472422
 20
1034368.4646869201
 30
0.4583333333333333
  0
VERTEX
  5
106D
  8
LOTES
 10
538189.13316472422
 20
1034324.791532986
 30
0.4583333333333333
  0
SEQEND
  5
106E
  8
LOTES
  0
POLYLINE
  5
291
  8
LOTES
 66
     1
 10
0.0
 20
0.0
 30
0.0416666666666667
 70
     1
1001
DCO15
1071
        3
1071
        3
1000
datoslink
1004
0000000000E06A40
  0
VERTEX
  5
106F
  8
LOTES
 10
538126.27029163658
 20
1034175.905780936
 30
0.0416666666666667
  0
VERTEX
  5
1070
  8
LOTES
 10
538079.95027988788
 20
1034175.905780936
 30
0.0416666666666667
  0
VERTEX
  5
1071
  8
LOTES
 10
538079.95027988788
 20
1034246.047513013
 30
0.0416666666666667
  0
VERTEX
  5
1072
  8
LOTES
 10
538126.27029163658
 20
1034246.047513013
 30
0.0416666666666667
  0
SEQEND
  5
1073
  8
LOTES
  0
POLYLINE
  5
292
  8
LOTES
 66
     1
 10
0.0
 20
0.0
 30
1.625
 70
     1
1001
DCO15
1071
        3
1071
        3
1000
datoslink
1004
0000000000C06A40
  0
VERTEX
  5
1074
  8
LOTES
 10
538131.56400726503
 20
1034174.582352029
 30
1.625
  0
VERTEX
  5
1075
  8
LOTES
 10
538131.56400726503
 20
1034247.37094192
 30
1.625
  0
VERTEX
  5
1076
  8
LOTES
 10
538188.47145027074
 20
1034247.37094192
 30
1.625
  0
VERTEX
  5
1077
  8
LOTES
 10
538188.47145027074
 20
1034174.582352029
 30
1.625
  0
SEQEND
  5
1078
  8
LOTES
  0
POLYLINE
  5
293
  8
LOTES
 66
     1
 10
0.0
 20
0.0
 30
0.0555555555555556
 70
     1
1001
DCO15
1071
        3
1071
        3
1000
datoslink
1004
0000000000A06A40
1001
ADE_ENTITY_LOCK
1071
1342624882
1071
1342625087
  0
VERTEX
  5
1079
  8
LOTES
 10
538195.08859480615
 20
1034203.697787985
 30
0.0555555555555556
  0
VERTEX
  5
107A
  8
LOTES
 10
538195.08859480615
 20
1034292.367524761
 30
0.0555555555555556
  0
VERTEX
  5
107B
  8
LOTES
 10
538270.52404251124
 20
1034292.367524761
 30
0.0555555555555556
  0
VERTEX
  5
107C
  8
LOTES
 10
538270.52404251124
 20
1034203.697787985
 30
0.0555555555555556
  0
SEQEND
  5
107D
  8
LOTES
  0
POLYLINE
  5
294
  8
LOTES
 66
     1
 10
0.0
 20
0.0
 30
1.288
 70
     1
1001
DCO15
1071
        3
1071
        3
1000
datoslink
1004
0000000000806A40
  0
VERTEX
  5
107E
  8
LOTES
 10
538258.61318234715
 20
1034295.014382576
 30
1.288
  0
VERTEX
  5
107F
  8
LOTES
 10
538258.61318234738
 20
1034368.133829693
 30
1.288
  0
VERTEX
  5
1080
  8
LOTES
 10
538306.91833745677
 20
1034368.133829693
 30
1.288
  0
VERTEX
  5
1081
  8
LOTES
 10
538320.81434098131
 20
1034295.014382576
 30
1.288
  0
SEQEND
  5
1082
  8
LOTES
  0
POLYLINE
  5
295
  8
LOTES
 66
     1
 10
0.0
 20
0.0
 30
0.7000000000000001
 70
     1
1001
DCO15
1071
        3
1071
        3
1000
datoslink
1004
0000000000606A40
1001
ADE_ENTITY_LOCK
1071
1342624882
1071
1342625087
  0
VERTEX
  5
1083
  8
LOTES
 10
538255.32603519782
 20
1034066.504165323
 30
0.7000000000000001
  0
VERTEX
  5
1084
  8
LOTES
 10
538253.31946671847
 20
1034198.404072359
 30
0.7000000000000001
  0
VERTEX
  5
1085
  8
LOTES
 10
538312.87376753986
 20
1034198.404072359
 30
0.7000000000000001
  0
VERTEX
  5
1086
  8
LOTES
 10
538311.5503386315
 20
1034120.321766842
 30
0.7000000000000001
  0
VERTEX
  5
1087
  8
LOTES
 10
538307.57935745735
 20
1034100.398212194
 30
0.7000000000000001
  0
VERTEX
  5
1088
  8
LOTES
 10
538287.80783011578
 20
1034077.802180948
 30
0.7000000000000001
  0
SEQEND
  5
1089
  8
LOTES
  0
POLYLINE
  5
296
  8
LOTES
 66
     1
 10
0.0
 20
0.0
 30
1.3720000000000001
 70
     1
1001
DCO15
1071
        3
1071
        3
1000
datoslink
1004
0000000000406A40
  0
VERTEX
  5
108A
  8
LOTES
 10
538273.17090032541
 20
1034201.050930171
 30
1.3720000000000001
  0
VERTEX
  5
108B
  8
LOTES
 10
538273.17090032541
 20
1034292.367524761
 30
1.3720000000000001
  0
VERTEX
  5
108C
  8
LOTES
 10
538326.10805660964
 20
1034292.367524761
 30
1.3720000000000001
  0
VERTEX
  5
108D
  8
LOTES
 10
538326.10805660964
 20
1034248.6943708271
 30
1.3720000000000001
  0
VERTEX
  5
108E
  8
LOTES
 10
538314.19719644578
 20
1034201.050930171
 30
1.3720000000000001
  0
SEQEND
  5
108F
  8
LOTES
  0
POLYLINE
  5
297
  8
LOTES
 66
     1
 10
0.0
 20
0.0
 30
0.125
 70
     1
1001
DCO15
1071
        3
1071
        3
1000
datoslink
1004
0000000000206A40
  0
VERTEX
  5
1090
  8
LOTES
 10
539357.07638336578
 20
1031940.048334317
 30
0.125
  0
VERTEX
  5
1091
  8
LOTES
 10
539357.07638336578
 20
1031991.789178539
 30
0.125
  0
VERTEX
  5
1092
  8
LOTES
 10
539408.81722758827
 20
1031991.789178539
 30
0.125
  0
VERTEX
  5
1093
  8
LOTES
 10
539408.81722758827
 20
1031940.048334317
 30
0.125
  0
SEQEND
  5
1094
  8
LOTES
  0
POLYLINE
  5
298
  8
LOTES
 66
     1
 10
0.0
 20
0.0
 30
0.0357142857142857
 70
     1
1001
DCO15
1071
        3
1071
        3
1000
datoslink
1004
0000000000406940
  0
VERTEX
  5
1095
  8
LOTES
 10
542880.78873825807
 20
1032248.2469459641
 30
0.0357142857142857
  0
VERTEX
  5
1096
  8
LOTES
 10
542880.78873825807
 20
1032298.537244434
 30
0.0357142857142857
  0
VERTEX
  5
1097
  8
LOTES
 10
542931.07903672813
 20
1032298.537244434
 30
0.0357142857142857
  0
VERTEX
  5
1098
  8
LOTES
 10
542931.07903672813
 20
1032248.2469459641
 30
0.0357142857142857
  0
SEQEND
  5
1099
  8
LOTES
  0
POLYLINE
  5
299
  8
LOTES
 66
     1
 10
0.0
 20
0.0
 30
0.09375
 70
     1
1001
DCO15
1071
        3
1071
        3
1000
datoslink
1004
0000000000C06840
  0
VERTEX
  5
109A
  8
LOTES
 10
542921.81503437832
 20
1032045.762323177
 30
0.09375
  0
VERTEX
  5
109B
  8
LOTES
 10
542986.66305082652
 20
1032032.528034106
 30
0.09375
  0
VERTEX
  5
109C
  8
LOTES
 10
542968.13504612714
 20
1031970.326875472
 30
0.09375
  0
VERTEX
  5
109D
  8
LOTES
 10
542908.58074530726
 20
1031982.237735636
 30
0.09375
  0
SEQEND
  5
109E
  8
LOTES
  0
POLYLINE
  5
29A
  8
LOTES
 66
     1
 10
0.0
 20
0.0
 30
0.0833333333333333
 70
     1
1001
DCO15
1071
        3
1071
        3
1000
datoslink
1004
0000000000A06840
  0
VERTEX
  5
109F
  8
LOTES
 10
543070.03907197423
 20
1032110.610339625
 30
0.0833333333333333
  0
VERTEX
  5
10A0
  8
LOTES
 10
543120.32937044429
 20
1032110.610339625
 30
0.0833333333333333
  0
VERTEX
  5
10A1
  8
LOTES
 10
543120.32937044429
 20
1032060.320041155
 30
0.0833333333333333
  0
VERTEX
  5
10A2
  8
LOTES
 10
543070.03907197423
 20
1032060.320041155
 30
0.0833333333333333
  0
SEQEND
  5
10A3
  8
LOTES
  0
POLYLINE
  5
29B
  8
LOTES
 66
     1
 10
0.0
 20
0.0
 30
0.02
 70
     1
1001
DCO15
1071
        3
1071
        3
1000
datoslink
1004
0000000000006840
  0
VERTEX
  5
10A4
  8
LOTES
 10
542865.42440614232
 20
1035607.395389422
 30
0.02
  0
VERTEX
  5
10A5
  8
LOTES
 10
542816.0354184754
 20
1035607.395389422
 30
0.02
  0
VERTEX
  5
10A6
  8
LOTES
 10
542816.0354184754
 20
1035656.784377088
 30
0.02
  0
VERTEX
  5
10A7
  8
LOTES
 10
542865.42440614232
 20
1035656.784377088
 30
0.02
  0
SEQEND
  5
10A8
  8
LOTES
  0
POLYLINE
  5
29C
  8
LOTES
 66
     1
 10
0.0
 20
0.0
 30
0.0357142857142857
 70
     1
1001
DCO15
1071
        3
1071
        3
1000
datoslink
1004
0000000000C06740
  0
VERTEX
  5
10A9
  8
LOTES
 10
542524.11122351582
 20
1034941.085029023
 30
0.0357142857142857
  0
VERTEX
  5
10AA
  8
LOTES
 10
542574.38215739105
 20
1034941.085029023
 30
0.0357142857142857
  0
VERTEX
  5
10AB
  8
LOTES
 10
542574.38215739105
 20
1034890.814095148
 30
0.0357142857142857
  0
VERTEX
  5
10AC
  8
LOTES
 10
542524.11122351582
 20
1034890.814095148
 30
0.0357142857142857
  0
SEQEND
  5
10AD
  8
LOTES
  0
POLYLINE
  5
29D
  8
LOTES
 66
     1
 10
0.0
 20
0.0
 30
0.0416666666666667
 70
     1
1001
DCO15
1071
        3
1071
        3
1000
datoslink
1004
0000000000A06740
  0
VERTEX
  5
10AE
  8
LOTES
 10
542889.23695376725
 20
1034980.772608399
 30
0.0416666666666667
  0
VERTEX
  5
10AF
  8
LOTES
 10
542938.18496832985
 20
1034980.772608399
 30
0.0416666666666667
  0
VERTEX
  5
10B0
  8
LOTES
 10
542939.50788764236
 20
1034930.501674523
 30
0.0416666666666667
  0
VERTEX
  5
10B1
  8
LOTES
 10
542889.23695376725
 20
1034930.501674523
 30
0.0416666666666667
  0
SEQEND
  5
10B2
  8
LOTES
  0
POLYLINE
  5
29E
  8
LOTES
 66
     1
 10
0.0
 20
0.0
 30
0.2142857142857143
 70
     1
1001
DCO15
1071
        3
1071
        3
1000
datoslink
1004
0000000000006740
  0
VERTEX
  5
10B3
  8
LOTES
 10
538883.40580421337
 20
1033055.086160771
 30
0.2142857142857143
  0
VERTEX
  5
10B4
  8
LOTES
 10
538933.24036804389
 20
1033055.086160771
 30
0.2142857142857143
  0
VERTEX
  5
10B5
  8
LOTES
 10
538933.24036804389
 20
1033003.973787611
 30
0.2142857142857143
  0
VERTEX
  5
10B6
  8
LOTES
 10
538883.40580421337
 20
1033003.973787611
 30
0.2142857142857143
  0
SEQEND
  5
10B7
  8
LOTES
  0
POLYLINE
  5
29F
  8
LOTES
 66
     1
 10
0.0
 20
0.0
 30
0.9166666666666666
 70
     1
1001
DCO15
1071
        3
1071
        3
1000
datoslink
1004
0000000000E06640
  0
VERTEX
  5
10B8
  8
LOTES
 10
539480.3730247505
 20
1033266.8351576
 30
0.9166666666666666
  0
VERTEX
  5
10B9
  8
LOTES
 10
539532.29385364789
 20
1033266.379711732
 30
0.9166666666666666
  0
VERTEX
  5
10BA
  8
LOTES
 10
539532.29385364789
 20
1033206.26085722
 30
0.9166666666666666
  0
VERTEX
  5
10BB
  8
LOTES
 10
539481.28391648561
 20
1033206.26085722
 30
0.9166666666666666
  0
SEQEND
  5
10BC
  8
LOTES
  0
POLYLINE
  5
2A0
  8
LOTES
 66
     1
 10
0.0
 20
0.0
 30
0.1666666666666666
 70
     1
1001
DCO15
1071
        3
1071
        3
1000
datoslink
1004
0000000000C06640
  0
VERTEX
  5
10BD
  8
LOTES
 10
539642.12479182251
 20
1034179.471131473
 30
0.1666666666666666
  0
VERTEX
  5
10BE
  8
LOTES
 10
539680.43775653059
 20
1034171.808538532
 30
0.1666666666666666
  0
VERTEX
  5
10BF
  8
LOTES
 10
539662.55837300024
 20
1034123.278783235
 30
0.1666666666666666
  0
VERTEX
  5
10C0
  8
LOTES
 10
539633.18510005728
 20
1034130.941376177
 30
0.1666666666666666
  0
SEQEND
  5
10C1
  8
LOTES
  0
POLYLINE
  5
2A1
  8
LOTES
 66
     1
 10
0.0
 20
0.0
 30
1.7714285714285709
 70
     1
1001
DCO15
1071
        3
1071
        3
1000
datoslink
1004
0000000000806640
1001
ADE_ENTITY_LOCK
1071
1342624882
1071
1342625087
  0
VERTEX
  5
10C2
  8
LOTES
 10
540478.05881936837
 20
1030630.613856666
 30
1.7714285714285709
  0
VERTEX
  5
10C3
  8
LOTES
 10
540553.97335187334
 20
1030630.413500687
 30
1.7714285714285709
  0
VERTEX
  5
10C4
  8
LOTES
 10
540553.97335187334
 20
1030566.558559507
 30
1.7714285714285709
  0
VERTEX
  5
10C5
  8
LOTES
 10
540478.05881936837
 20
1030566.559707307
 30
1.7714285714285709
  0
SEQEND
  5
10C6
  8
LOTES
  0
POLYLINE
  5
2A2
  8
LOTES
 66
     1
 10
0.0
 20
0.0
 30
3.1777777777777771
 70
     1
1001
DCO15
1071
        3
1071
        3
1000
datoslink
1004
0000000000A06640
1001
ADE_ENTITY_LOCK
1071
1342624882
1071
1342625087
  0
VERTEX
  5
10C7
  8
LOTES
 10
540477.39710862935
 20
1030632.452852771
 30
3.1777777777777771
  0
VERTEX
  5
10C8
  8
LOTES
 10
540477.32897462882
 20
1030697.9741921549
 30
3.1777777777777771
  0
VERTEX
  5
10C9
  8
LOTES
 10
540530.92754453048
 20
1030697.9741921549
 30
3.1777777777777771
  0
VERTEX
  5
10CA
  8
LOTES
 10
540530.92754453048
 20
1030632.464828943
 30
3.1777777777777771
  0
SEQEND
  5
10CB
  8
LOTES
  0
POLYLINE
  5
2A3
  8
LOTES
 66
     1
 10
0.0
 20
0.0
 30
2.7799999999999998
 70
     1
1001
DCO15
1071
        3
1071
        3
1000
datoslink
1004
0000000000606640
1001
ADE_ENTITY_LOCK
1071
1342624882
1071
1342625087
  0
VERTEX
  5
10CC
  8
LOTES
 10
540393.92799632985
 20
1030630.613856666
 30
2.7799999999999998
  0
VERTEX
  5
10CD
  8
LOTES
 10
540474.23469104851
 20
1030630.613856666
 30
2.7799999999999998
  0
VERTEX
  5
10CE
  8
LOTES
 10
540474.23469104851
 20
1030505.373654188
 30
2.7799999999999998
  0
VERTEX
  5
10CF
  8
LOTES
 10
540363.3349697704
 20
1030505.373654188
 30
2.7799999999999998
  0
VERTEX
  5
10D0
  8
LOTES
 10
540392.97196424985
 20
1030568.471771467
 30
2.7799999999999998
  0
SEQEND
  5
10D1
  8
LOTES
  0
POLYLINE
  5
2A4
  8
LOTES
 66
     1
 10
0.0
 20
0.0
 30
0.2066666666666666
 70
     1
1001
DCO15
1071
        3
1071
        3
1000
datoslink
1004
0000000000406640
  0
VERTEX
  5
10D2
  8
LOTES
 10
540457.02611360874
 20
1030362.92487427
 30
0.2066666666666666
  0
VERTEX
  5
10D3
  8
LOTES
 10
540437.90547200921
 20
1030437.495376509
 30
0.2066666666666666
  0
VERTEX
  5
10D4
  8
LOTES
 10
540527.77248752757
 20
1030437.495376509
 30
0.2066666666666666
  0
VERTEX
  5
10D5
  8
LOTES
 10
540527.77248752757
 20
1030362.92487427
 30
0.2066666666666666
  0
SEQEND
  5
10D6
  8
LOTES
  0
POLYLINE
  5
2A5
  8
LOTES
 66
     1
 10
0.0
 20
0.0
 30
0.3657142857142857
 70
     1
1001
DCO15
1071
        3
1071
        3
1000
datoslink
1004
0000000000A06540
  0
VERTEX
  5
10D7
  8
LOTES
 10
540327.96178281098
 20
1030443.231568989
 30
0.3657142857142857
  0
VERTEX
  5
10D8
  8
LOTES
 10
540353.77464897058
 20
1030496.7693654679
 30
0.3657142857142857
  0
VERTEX
  5
10D9
  8
LOTES
 10
540428.34515120916
 20
1030498.681429628
 30
0.3657142857142857
  0
VERTEX
  5
10DA
  8
LOTES
 10
540428.34515120916
 20
1030443.231568989
 30
0.3657142857142857
  0
SEQEND
  5
10DB
  8
LOTES
  0
POLYLINE
  5
2A6
  8
LOTES
 66
     1
 10
0.0
 20
0.0
 30
1.0600000000000001
 70
     1
1001
DCO15
1071
        3
1071
        3
1000
datoslink
1004
0000000000206640
1001
ADE_ENTITY_LOCK
1071
1342624882
1071
1342625087
  0
VERTEX
  5
10DC
  8
LOTES
 10
540432.16927952925
 20
1030443.231568989
 30
1.0600000000000001
  0
VERTEX
  5
10DD
  8
LOTES
 10
540432.16927952925
 20
1030499.637461708
 30
1.0600000000000001
  0
VERTEX
  5
10DE
  8
LOTES
 10
540501.95962136798
 20
1030499.637461708
 30
1.0600000000000001
  0
VERTEX
  5
10DF
  8
LOTES
 10
540501.00358928798
 20
1030441.319504829
 30
1.0600000000000001
  0
SEQEND
  5
10E0
  8
LOTES
  0
POLYLINE
  5
2A7
  8
LOTES
 66
     1
 10
0.0
 20
0.0
 30
2.911111111111111
 70
     1
1001
DCO15
1071
        3
1071
        3
1000
datoslink
1004
0000000000006640
  0
VERTEX
  5
10E1
  8
LOTES
 10
540392.01593216986
 20
1030634.437984986
 30
2.911111111111111
  0
VERTEX
  5
10E2
  8
LOTES
 10
540409.22450960963
 20
1030678.415460665
 30
2.911111111111111
  0
VERTEX
  5
10E3
  8
LOTES
 10
540431.21324744925
 20
1030693.711973945
 30
2.911111111111111
  0
VERTEX
  5
10E4
  8
LOTES
 10
540431.21324744925
 20
1030634.437984986
 30
2.911111111111111
  0
SEQEND
  5
10E5
  8
LOTES
  0
POLYLINE
  5
2A8
  8
LOTES
 66
     1
 10
0.0
 20
0.0
 30
2.7999999999999998
 70
     1
1001
DCO15
1071
        3
1071
        3
1000
datoslink
1004
0000000000E06540
  0
VERTEX
  5
10E6
  8
LOTES
 10
540433.65606582072
 20
1030632.464828943
 30
2.7999999999999998
  0
VERTEX
  5
10E7
  8
LOTES
 10
540433.65606582072
 20
1030698.635902898
 30
2.7999999999999998
  0
VERTEX
  5
10E8
  8
LOTES
 10
540475.19072312955
 20
1030698.4921343439
 30
2.7999999999999998
  0
VERTEX
  5
10E9
  8
LOTES
 10
540475.34384241153
 20
1030632.464828943
 30
2.7999999999999998
  0
SEQEND
  5
10EA
  8
LOTES
  0
POLYLINE
  5
2A9
  8
LOTES
 66
     1
 10
0.0
 20
0.0
 30
0.2958333333333333
 70
     1
1001
DCO15
1071
        3
1071
        3
1000
datoslink
1004
0000000000C06540
  0
VERTEX
  5
10EB
  8
LOTES
 10
540315.56982253457
 20
1030285.390281611
 30
0.2958333333333333
  0
VERTEX
  5
10EC
  8
LOTES
 10
540337.5221036108
 20
1030336.155976031
 30
0.2958333333333333
  0
VERTEX
  5
10ED
  8
LOTES
 10
540388.19180385
 20
1030336.155976031
 30
0.2958333333333333
  0
VERTEX
  5
10EE
  8
LOTES
 10
540376.90168319608
 20
1030286.412479289
 30
0.2958333333333333
  0
SEQEND
  5
10EF
  8
LOTES
  0
POLYLINE
  5
2AA
  8
LOTES
 66
     1
 10
0.0
 20
0.0
 30
0.7777777777777778
 70
     1
1001
DCO15
1071
        3
1071
        3
1000
datoslink
1004
0000000000806540
  0
VERTEX
  5
10F0
  8
LOTES
 10
540314.57733369106
 20
1030557.955418587
 30
0.7777777777777778
  0
VERTEX
  5
10F1
  8
LOTES
 10
540314.57733369106
 20
1030608.6251188261
 30
0.7777777777777778
  0
VERTEX
  5
10F2
  8
LOTES
 10
540365.24703393015
 20
1030608.6251188261
 30
0.7777777777777778
  0
VERTEX
  5
10F3
  8
LOTES
 10
540365.24703393015
 20
1030557.955418587
 30
0.7777777777777778
  0
SEQEND
  5
10F4
  8
LOTES
  0
POLYLINE
  5
2AB
  8
LOTES
 66
     1
 10
0.0
 20
0.0
 30
0.375
 70
     1
1001
DCO15
1071
        3
1071
        3
1000
datoslink
1004
0000000000606540
  0
VERTEX
  5
10F5
  8
LOTES
 10
540037.19617390796
 20
1030465.321425606
 30
0.375
  0
VERTEX
  5
10F6
  8
LOTES
 10
540037.19617390796
 20
1030516.536075621
 30
0.375
  0
VERTEX
  5
10F7
  8
LOTES
 10
540086.75873843895
 20
1030516.536075621
 30
0.375
  0
VERTEX
  5
10F8
  8
LOTES
 10
540086.75873843895
 20
1030465.321425606
 30
0.375
  0
SEQEND
  5
10F9
  8
LOTES
  0
POLYLINE
  5
2AC
  8
LOTES
 66
     1
 10
0.0
 20
0.0
 30
0.5634920634920635
 70
     1
1001
DCO15
1071
        3
1071
        3
1000
datoslink
1004
0000000000406540
  0
VERTEX
  5
10FA
  8
LOTES
 10
539906.68142064265
 20
1030587.575751449
 30
0.5634920634920635
  0
VERTEX
  5
10FB
  8
LOTES
 10
539906.68142064265
 20
1030638.790401465
 30
0.5634920634920635
  0
VERTEX
  5
10FC
  8
LOTES
 10
539956.24398517376
 20
1030638.790401465
 30
0.5634920634920635
  0
VERTEX
  5
10FD
  8
LOTES
 10
539956.24398517376
 20
1030587.575751449
 30
0.5634920634920635
  0
SEQEND
  5
10FE
  8
LOTES
  0
POLYLINE
  5
2AD
  8
LOTES
 66
     1
 10
0.0
 20
0.0
 30
0.0416666666666667
 70
     1
1001
DCO15
1071
        3
1071
        3
1000
datoslink
1004
0000000000206540
  0
VERTEX
  5
10FF
  8
LOTES
 10
539824.0771464241
 20
1030475.233938512
 30
0.0416666666666667
  0
VERTEX
  5
1100
  8
LOTES
 10
539824.0771464241
 20
1030524.796503043
 30
0.0416666666666667
  0
VERTEX
  5
1101
  8
LOTES
 10
539875.29179643956
 20
1030524.796503043
 30
0.0416666666666667
  0
VERTEX
  5
1102
  8
LOTES
 10
539875.29179643956
 20
1030475.233938512
 30
0.0416666666666667
  0
SEQEND
  5
1103
  8
LOTES
  0
POLYLINE
  5
2AE
  8
LOTES
 66
     1
 10
0.0
 20
0.0
 30
0.075
 70
     1
1001
DCO15
1071
        3
1071
        3
1000
datoslink
1004
0000000000006540
  0
VERTEX
  5
1104
  8
LOTES
 10
539434.80450416915
 20
1030628.877888559
 30
0.075
  0
VERTEX
  5
1105
  8
LOTES
 10
539434.80450416915
 20
1030679.679517203
 30
0.075
  0
VERTEX
  5
1106
  8
LOTES
 10
539485.60613281373
 20
1030679.679517203
 30
0.075
  0
VERTEX
  5
1107
  8
LOTES
 10
539485.60613281373
 20
1030628.877888559
 30
0.075
  0
SEQEND
  5
1108
  8
LOTES
  0
POLYLINE
  5
2AF
  8
LOTES
 66
     1
 10
0.0
 20
0.0
 30
0.1666666666666666
 70
     1
1001
DCO15
1071
        3
1071
        3
1000
datoslink
1004
0000000000E06440
  0
VERTEX
  5
1109
  8
LOTES
 10
539427.3701194895
 20
1030817.215633777
 30
0.1666666666666666
  0
VERTEX
  5
110A
  8
LOTES
 10
539427.3701194895
 20
1030868.017262422
 30
0.1666666666666666
  0
VERTEX
  5
110B
  8
LOTES
 10
539478.17174813384
 20
1030868.017262422
 30
0.1666666666666666
  0
VERTEX
  5
110C
  8
LOTES
 10
539478.17174813384
 20
1030817.215633777
 30
0.1666666666666666
  0
SEQEND
  5
110D
  8
LOTES
  0
POLYLINE
  5
2B0
  8
LOTES
 66
     1
 10
0.0
 20
0.0
 30
1.1759999999999999
 70
     1
1001
DCO15
1071
        3
1071
        3
1000
datoslink
1004
0000000000C06440
  0
VERTEX
  5
110E
  8
LOTES
 10
540095.98288239329
 20
1030829.60627491
 30
1.1759999999999999
  0
VERTEX
  5
110F
  8
LOTES
 10
540146.78451103775
 20
1030833.32346725
 30
1.1759999999999999
  0
VERTEX
  5
1110
  8
LOTES
 10
540109.61258763936
 20
1030751.545235773
 30
1.1759999999999999
  0
VERTEX
  5
1111
  8
LOTES
 10
540077.39692069415
 20
1030755.262428113
 30
1.1759999999999999
  0
VERTEX
  5
1112
  8
LOTES
 10
540068.72347190115
 20
1030776.326518039
 30
1.1759999999999999
  0
VERTEX
  5
1113
  8
LOTES
 10
540073.67972835421
 20
1030802.346864418
 30
1.1759999999999999
  0
SEQEND
  5
1114
  8
LOTES
  0
POLYLINE
  5
2B1
  8
LOTES
 66
     1
 10
0.0
 20
0.0
 30
0.1
 70
     1
1001
DCO15
1071
        3
1071
        3
1000
datoslink
1004
0000000000806440
  0
VERTEX
  5
1115
  8
LOTES
 10
540114.56884409254
 20
1030965.9033273699
 30
0.1
  0
VERTEX
  5
1116
  8
LOTES
 10
540114.56884409254
 20
1031027.856533034
 30
0.1
  0
VERTEX
  5
1117
  8
LOTES
 10
540165.37047273677
 20
1031027.856533034
 30
0.1
  0
VERTEX
  5
1118
  8
LOTES
 10
540165.37047273677
 20
1030965.9033273699
 30
0.1
  0
SEQEND
  5
1119
  8
LOTES
  0
POLYLINE
  5
2B2
  8
LOTES
 66
     1
 10
0.0
 20
0.0
 30
0.0833333333333333
 70
     1
1001
DCO15
1071
        3
1071
        3
1000
datoslink
1004
0000000000A06440
  0
VERTEX
  5
111A
  8
LOTES
 10
540102.17820295959
 20
1030838.279723703
 30
0.0833333333333333
  0
VERTEX
  5
111B
  8
LOTES
 10
540102.17820295959
 20
1030910.145442273
 30
0.0833333333333333
  0
VERTEX
  5
111C
  8
LOTES
 10
540152.97983160405
 20
1030910.145442273
 30
0.0833333333333333
  0
VERTEX
  5
111D
  8
LOTES
 10
540152.97983160405
 20
1030838.279723703
 30
0.0833333333333333
  0
SEQEND
  5
111E
  8
LOTES
  0
POLYLINE
  5
2B3
  8
LOTES
 66
     1
 10
0.0
 20
0.0
 30
3.1200000000000001
 70
     1
1001
DCO15
1071
        3
1071
        3
1000
datoslink
1004
0000000000606440
  0
VERTEX
  5
111F
  8
LOTES
 10
540228.56274251395
 20
1031098.483187491
 30
3.1200000000000001
  0
VERTEX
  5
1120
  8
LOTES
 10
540279.36437115842
 20
1031098.483187491
 30
3.1200000000000001
  0
VERTEX
  5
1121
  8
LOTES
 10
540279.36437115842
 20
1031037.76904594
 30
3.1200000000000001
  0
VERTEX
  5
1122
  8
LOTES
 10
540228.56274251395
 20
1031037.76904594
 30
3.1200000000000001
  0
SEQEND
  5
1123
  8
LOTES
  0
POLYLINE
  5
2B4
  8
LOTES
 66
     1
 10
0.0
 20
0.0
 30
0.05
 70
     1
1001
DCO15
1071
        3
1071
        3
1000
datoslink
1004
0000000000406440
  0
VERTEX
  5
1124
  8
LOTES
 10
540359.90353852138
 20
1030732.9592740739
 30
0.05
  0
VERTEX
  5
1125
  8
LOTES
 10
540359.90353852138
 20
1030783.760902719
 30
0.05
  0
VERTEX
  5
1126
  8
LOTES
 10
540421.85674418532
 20
1030783.760902719
 30
0.05
  0
VERTEX
  5
1127
  8
LOTES
 10
540421.85674418532
 20
1030732.9592740739
 30
0.05
  0
SEQEND
  5
1128
  8
LOTES
  0
POLYLINE
  5
2B5
  8
LOTES
 66
     1
 10
0.0
 20
0.0
 30
3.4166666666666661
 70
     1
1001
DCO15
1071
        3
1071
        3
1000
datoslink
1004
0000000000206440
  0
VERTEX
  5
1129
  8
LOTES
 10
540465.22398815001
 20
1030700.743607129
 30
3.4166666666666661
  0
VERTEX
  5
112A
  8
LOTES
 10
540465.22398815001
 20
1030758.979620453
 30
3.4166666666666661
  0
VERTEX
  5
112B
  8
LOTES
 10
540525.93812970072
 20
1030758.979620453
 30
3.4166666666666661
  0
VERTEX
  5
112C
  8
LOTES
 10
540525.93812970072
 20
1030700.743607129
 30
3.4166666666666661
  0
SEQEND
  5
112D
  8
LOTES
  0
POLYLINE
  5
2B6
  8
LOTES
 66
     1
 10
0.0
 20
0.0
 30
1.204
 70
     1
1001
DCO15
1071
        3
1071
        3
1000
datoslink
1004
0000000000006440
  0
VERTEX
  5
112E
  8
LOTES
 10
539923.75297064777
 20
1031218.672406479
 30
1.204
  0
VERTEX
  5
112F
  8
LOTES
 10
539923.75297064777
 20
1031269.474035123
 30
1.204
  0
VERTEX
  5
1130
  8
LOTES
 10
539974.55459929234
 20
1031269.474035123
 30
1.204
  0
VERTEX
  5
1131
  8
LOTES
 10
539974.55459929234
 20
1031218.672406479
 30
1.204
  0
SEQEND
  5
1132
  8
LOTES
  0
POLYLINE
  5
2B7
  8
LOTES
 66
     1
 10
0.0
 20
0.0
 30
3.2000000000000002
 70
     1
1001
DCO15
1071
        3
1071
        3
1000
datoslink
1004
0000000000DC9340
  0
VERTEX
  5
1133
  8
LOTES
 10
540342.2985141566
 20
1031226.534847578
 30
3.2000000000000002
  0
VERTEX
  5
1134
  8
LOTES
 10
540342.24817647703
 20
1031158.936153701
 30
3.2000000000000002
  0
VERTEX
  5
1135
  8
LOTES
 10
540237.70214191824
 20
1031158.936153701
 30
3.2000000000000002
  0
VERTEX
  5
1136
  8
LOTES
 10
540237.66527809214
 20
1031226.534847578
 30
3.2000000000000002
  0
SEQEND
  5
1137
  8
LOTES
  0
POLYLINE
  5
2B8
  8
LOTES
 66
     1
 10
0.0
 20
0.0
 30
0.4666666666666667
 70
     1
1001
DCO15
1071
        3
1071
        3
1000
datoslink
1004
0000000000E09340
  0
VERTEX
  5
1138
  8
LOTES
 10
540184.65340800001
 20
1031205.12014274
 30
0.4666666666666667
  0
VERTEX
  5
1139
  8
LOTES
 10
540184.65340800001
 20
1031232.999085289
 30
0.4666666666666667
  0
VERTEX
  5
113A
  8
LOTES
 10
540235.53247815149
 20
1031239.271847363
 30
0.4666666666666667
  0
VERTEX
  5
113B
  8
LOTES
 10
540235.53247815149
 20
1031205.12014274
 30
0.4666666666666667
  0
SEQEND
  5
113C
  8
LOTES
  0
POLYLINE
  5
2B9
  8
LOTES
 66
     1
 10
0.0
 20
0.0
 30
1.575
 70
     1
1001
DCO15
1071
        3
1071
        3
1000
datoslink
1004
0000000000E06340
  0
VERTEX
  5
113D
  8
LOTES
 10
540184.00720831659
 20
1031159.462260359
 30
1.575
  0
VERTEX
  5
113E
  8
LOTES
 10
540184.65340800118
 20
1031203.673700233
 30
1.575
  0
VERTEX
  5
113F
  8
LOTES
 10
540235.53247815371
 20
1031203.673700233
 30
1.575
  0
VERTEX
  5
1140
  8
LOTES
 10
540235.65310047474
 20
1031159.462260359
 30
1.575
  0
SEQEND
  5
1141
  8
LOTES
  0
POLYLINE
  5
2BA
  8
LOTES
 66
     1
 10
0.0
 20
0.0
 30
0.51875
 70
     1
1001
DCO15
1071
        3
1071
        3
1000
datoslink
1004
0000000000C06340
  0
VERTEX
  5
1142
  8
LOTES
 10
540526.86742778681
 20
1030833.6332332829
 30
0.51875
  0
VERTEX
  5
1143
  8
LOTES
 10
540526.95728009206
 20
1030760.836712411
 30
0.51875
  0
VERTEX
  5
1144
  8
LOTES
 10
540463.43304909964
 20
1030760.836712411
 30
0.51875
  0
VERTEX
  5
1145
  8
LOTES
 10
540463.44283348788
 20
1030823.178629825
 30
0.51875
  0
SEQEND
  5
1146
  8
LOTES
  0
POLYLINE
  5
2BB
  8
LOTES
 66
     1
 10
0.0
 20
0.0
 30
4.5
 70
     1
1001
DCO15
1071
        3
1071
        3
1000
datoslink
1004
0000000000A06340
  0
VERTEX
  5
1147
  8
LOTES
 10
540409.07889551739
 20
1031007.179650644
 30
4.5
  0
VERTEX
  5
1148
  8
LOTES
 10
540459.26099210512
 20
1031007.179650644
 30
4.5
  0
VERTEX
  5
1149
  8
LOTES
 10
540459.26099210512
 20
1030981.391628786
 30
4.5
  0
VERTEX
  5
114A
  8
LOTES
 10
540409.07889551739
 20
1030981.391628786
 30
4.5
  0
SEQEND
  5
114B
  8
LOTES
  0
POLYLINE
  5
2BC
  8
LOTES
 66
     1
 10
0.0
 20
0.0
 30
1.5909090909090899
 70
     1
1001
DCO15
1071
        3
1071
        3
1000
datoslink
1004
0000000000F89340
  0
VERTEX
  5
114C
  8
LOTES
 10
540581.92833931965
 20
1030760.451009088
 30
1.5909090909090899
  0
VERTEX
  5
114D
  8
LOTES
 10
540528.95834847703
 20
1030760.451009088
 30
1.5909090909090899
  0
VERTEX
  5
114E
  8
LOTES
 10
540528.95834847703
 20
1030833.6332332779
 30
1.5909090909090899
  0
VERTEX
  5
114F
  8
LOTES
 10
540576.35255080985
 20
1030834.330206842
 30
1.5909090909090899
  0
SEQEND
  5
1150
  8
LOTES
  0
POLYLINE
  5
2BD
  8
LOTES
 66
     1
 10
0.0
 20
0.0
 30
1.8
 70
     1
1001
DCO15
1071
        3
1071
        3
1000
datoslink
1004
0000000000806340
  0
VERTEX
  5
1151
  8
LOTES
 10
540528.95834847703
 20
1030701.208256171
 30
1.8
  0
VERTEX
  5
1152
  8
LOTES
 10
540528.95834847703
 20
1030756.966141269
 30
1.8
  0
VERTEX
  5
1153
  8
LOTES
 10
540582.62531288341
 20
1030756.966141269
 30
1.8
  0
VERTEX
  5
1154
  8
LOTES
 10
540582.62531288341
 20
1030701.208256171
 30
1.8
  0
SEQEND
  5
1155
  8
LOTES
  0
POLYLINE
  5
2BE
  8
LOTES
 66
     1
 10
0.0
 20
0.0
 30
1.8
 70
     1
1001
DCO15
1071
        3
1071
        3
1000
datoslink
1004
0000000000606340
  0
VERTEX
  5
1156
  8
LOTES
 10
540227.16879538633
 20
1031101.271081747
 30
1.8
  0
VERTEX
  5
1157
  8
LOTES
 10
540226.93366413575
 20
1031156.108630996
 30
1.8
  0
VERTEX
  5
1158
  8
LOTES
 10
540278.57955629658
 20
1031156.108630996
 30
1.8
  0
VERTEX
  5
1159
  8
LOTES
 10
540277.35089197569
 20
1031101.271081747
 30
1.8
  0
SEQEND
  5
115A
  8
LOTES
  0
POLYLINE
  5
2BF
  8
LOTES
 66
     1
 10
0.0
 20
0.0
 30
1.7166666666666659
 70
     1
1001
DCO15
1071
        3
1071
        3
1000
datoslink
1004
0000000000406340
  0
VERTEX
  5
115B
  8
LOTES
 10
540487.13993465388
 20
1030881.027435611
 30
1.7166666666666659
  0
VERTEX
  5
115C
  8
LOTES
 10
540487.13993465388
 20
1030931.209532199
 30
1.7166666666666659
  0
VERTEX
  5
115D
  8
LOTES
 10
540537.32203124161
 20
1030931.209532199
 30
1.7166666666666659
  0
VERTEX
  5
115E
  8
LOTES
 10
540537.32203124161
 20
1030881.027435611
 30
1.7166666666666659
  0
SEQEND
  5
115F
  8
LOTES
  0
POLYLINE
  5
2C0
  8
LOTES
 66
     1
 10
0.0
 20
0.0
 30
0.1875
 70
     1
1001
DCO15
1071
        3
1071
        3
1000
datoslink
1004
0000000000206340
  0
VERTEX
  5
1160
  8
LOTES
 10
540404.20008057135
 20
1031008.573597772
 30
0.1875
  0
VERTEX
  5
1161
  8
LOTES
 10
540404.20008057135
 20
1031034.361619629
 30
0.1875
  0
VERTEX
  5
1162
  8
LOTES
 10
540454.38217715907
 20
1031034.361619629
 30
0.1875
  0
VERTEX
  5
1163
  8
LOTES
 10
540454.38217715907
 20
1031008.573597772
 30
0.1875
  0
SEQEND
  5
1164
  8
LOTES
  0
POLYLINE
  5
2C1
  8
LOTES
 66
     1
 10
0.0
 20
0.0
 30
0.6600000000000001
 70
     1
1001
DCO15
1071
        3
1071
        3
1000
datoslink
1004
0000000000006340
  0
VERTEX
  5
1165
  8
LOTES
 10
540343.63996590034
 20
1031172.876777801
 30
0.6600000000000001
  0
VERTEX
  5
1166
  8
LOTES
 10
540423.45634469495
 20
1031172.876777801
 30
0.6600000000000001
  0
VERTEX
  5
1167
  8
LOTES
 10
540398.42800405819
 20
1031124.203380021
 30
0.6600000000000001
  0
VERTEX
  5
1168
  8
LOTES
 10
540343.63996590034
 20
1031123.2430632591
 30
0.6600000000000001
  0
SEQEND
  5
1169
  8
LOTES
  0
POLYLINE
  5
2C2
  8
LOTES
 66
     1
 10
0.0
 20
0.0
 30
1.4279999999999999
 70
     1
1001
DCO15
1071
        3
1071
        3
1000
datoslink
1004
0000000000E06240
  0
VERTEX
  5
116A
  8
LOTES
 10
540609.93866569037
 20
1030512.052891123
 30
1.4279999999999999
  0
VERTEX
  5
116B
  8
LOTES
 10
540609.93866569037
 20
1030552.291452909
 30
1.4279999999999999
  0
VERTEX
  5
116C
  8
LOTES
 10
540650.17722747684
 20
1030552.291452909
 30
1.4279999999999999
  0
VERTEX
  5
116D
  8
LOTES
 10
540650.17722747684
 20
1030512.052891123
 30
1.4279999999999999
  0
SEQEND
  5
116E
  8
LOTES
  0
POLYLINE
  5
2C3
  8
LOTES
 66
     1
 10
0.0
 20
0.0
 30
1.0
 70
     1
1001
DCO15
1071
        3
1071
        3
1000
datoslink
1004
0000000000A06240
  0
VERTEX
  5
116F
  8
LOTES
 10
540541.10954684531
 20
1030907.026142342
 30
1.0
  0
VERTEX
  5
1170
  8
LOTES
 10
540541.10954684531
 20
1030956.794889814
 30
1.0
  0
VERTEX
  5
1171
  8
LOTES
 10
540580.28919911105
 20
1030956.794889814
 30
1.0
  0
VERTEX
  5
1172
  8
LOTES
 10
540580.28919911105
 20
1030907.026142342
 30
1.0
  0
SEQEND
  5
1173
  8
LOTES
  0
POLYLINE
  5
2C4
  8
LOTES
 66
     1
 10
0.0
 20
0.0
 30
0.4166666666666667
 70
     1
1001
DCO15
1071
        3
1071
        3
1000
datoslink
1004
0000000000806240
1001
ADE_ENTITY_LOCK
1071
1342624882
1071
1342625087
  0
VERTEX
  5
1174
  8
LOTES
 10
540813.9028918962
 20
1030978.016451473
 30
0.4166666666666667
  0
VERTEX
  5
1175
  8
LOTES
 10
540813.9028918962
 20
1031028.037956517
 30
0.4166666666666667
  0
VERTEX
  5
1176
  8
LOTES
 10
540863.92439693981
 20
1031028.037956517
 30
0.4166666666666667
  0
VERTEX
  5
1177
  8
LOTES
 10
540863.92439693981
 20
1030978.016451473
 30
0.4166666666666667
  0
SEQEND
  5
1178
  8
LOTES
  0
POLYLINE
  5
2C5
  8
LOTES
 66
     1
 10
0.0
 20
0.0
 30
0.04
 70
     1
1001
DCO15
1071
        3
1071
        3
1000
datoslink
1004
0000000000406240
  0
VERTEX
  5
1179
  8
LOTES
 10
541230.26000779949
 20
1031113.765495275
 30
0.04
  0
VERTEX
  5
117A
  8
LOTES
 10
541230.26000779949
 20
1031163.467096703
 30
0.04
  0
VERTEX
  5
117B
  8
LOTES
 10
541280.804009252
 20
1031163.467096703
 30
0.04
  0
VERTEX
  5
117C
  8
LOTES
 10
541280.804009252
 20
1031113.765495275
 30
0.04
  0
SEQEND
  5
117D
  8
LOTES
  0
POLYLINE
  5
2C6
  8
LOTES
 66
     1
 10
0.0
 20
0.0
 30
0.0133333333333333
 70
     1
1001
DCO15
1071
        3
1071
        3
1000
datoslink
1004
0000000000006240
  0
VERTEX
  5
117E
  8
LOTES
 10
541415.7459631298
 20
1030636.282631553
 30
0.0133333333333333
  0
VERTEX
  5
117F
  8
LOTES
 10
541415.7459631298
 20
1030686.0368829831
 30
0.0133333333333333
  0
VERTEX
  5
1180
  8
LOTES
 10
541465.9740645733
 20
1030686.0368829831
 30
0.0133333333333333
  0
VERTEX
  5
1181
  8
LOTES
 10
541465.9740645733
 20
1030636.282631553
 30
0.0133333333333333
  0
SEQEND
  5
1182
  8
LOTES
  0
POLYLINE
  5
2C7
  8
LOTES
 66
     1
 10
0.0
 20
0.0
 30
1.232
 70
     1
1001
DCO15
1071
        3
1071
        3
1000
datoslink
1004
0000000000C06140
  0
VERTEX
  5
1183
  8
LOTES
 10
541744.09434741293
 20
1031595.370415032
 30
1.232
  0
VERTEX
  5
1184
  8
LOTES
 10
541744.09434741293
 20
1031645.249317607
 30
1.232
  0
VERTEX
  5
1185
  8
LOTES
 10
541793.97324998782
 20
1031645.249317607
 30
1.232
  0
VERTEX
  5
1186
  8
LOTES
 10
541793.97324998782
 20
1031595.370415032
 30
1.232
  0
SEQEND
  5
1187
  8
LOTES
  0
POLYLINE
  5
2C8
  8
LOTES
 66
     1
 10
0.0
 20
0.0
 30
1.4599999999999991
 70
     1
1001
DCO15
1071
        3
1071
        3
1000
datoslink
1004
0000000000806140
  0
VERTEX
  5
1188
  8
LOTES
 10
541739.61803564348
 20
1031798.722863991
 30
1.4599999999999991
  0
VERTEX
  5
1189
  8
LOTES
 10
541739.61803564348
 20
1031849.241239675
 30
1.4599999999999991
  0
VERTEX
  5
118A
  8
LOTES
 10
541790.1364113281
 20
1031849.241239675
 30
1.4599999999999991
  0
VERTEX
  5
118B
  8
LOTES
 10
541790.1364113281
 20
1031798.722863991
 30
1.4599999999999991
  0
SEQEND
  5
118C
  8
LOTES
  0
POLYLINE
  5
2C9
  8
LOTES
 66
     1
 10
0.0
 20
0.0
 30
0.05
 70
     1
1001
DCO15
1071
        3
1071
        3
1000
datoslink
1004
0000000000606140
  0
VERTEX
  5
118D
  8
LOTES
 10
541146.49093672214
 20
1030363.389942464
 30
0.05
  0
VERTEX
  5
118E
  8
LOTES
 10
541146.49093672214
 20
1030413.908318148
 30
0.05
  0
VERTEX
  5
118F
  8
LOTES
 10
541197.00931240665
 20
1030413.908318148
 30
0.05
  0
VERTEX
  5
1190
  8
LOTES
 10
541197.00931240665
 20
1030363.389942464
 30
0.05
  0
SEQEND
  5
1191
  8
LOTES
  0
POLYLINE
  5
2CA
  8
LOTES
 66
     1
 10
0.0
 20
0.0
 30
1.1759999999999999
 70
     1
1001
DCO15
1071
        3
1071
        3
1000
datoslink
1004
0000000000606240
  0
VERTEX
  5
1192
  8
LOTES
 10
541257.68265408126
 20
1030795.603673285
 30
1.1759999999999999
  0
VERTEX
  5
1193
  8
LOTES
 10
541257.68265408126
 20
1030763.8470586881
 30
1.1759999999999999
  0
VERTEX
  5
1194
  8
LOTES
 10
541207.35141585139
 20
1030763.8470586881
 30
1.1759999999999999
  0
VERTEX
  5
1195
  8
LOTES
 10
541207.35141585139
 20
1030795.603673285
 30
1.1759999999999999
  0
SEQEND
  5
1196
  8
LOTES
  0
POLYLINE
  5
2CB
  8
LOTES
 66
     1
 10
0.0
 20
0.0
 30
0.2333333333333333
 70
     1
1001
DCO15
1071
        3
1071
        3
1000
datoslink
1004
0000000000406140
  0
VERTEX
  5
1197
  8
LOTES
 10
541228.32276511379
 20
1030832.153739142
 30
0.2333333333333333
  0
VERTEX
  5
1198
  8
LOTES
 10
541278.65400334366
 20
1030832.153739142
 30
0.2333333333333333
  0
VERTEX
  5
1199
  8
LOTES
 10
541278.65400334366
 20
1030797.401217508
 30
0.2333333333333333
  0
VERTEX
  5
119A
  8
LOTES
 10
541228.32276511379
 20
1030797.401217508
 30
0.2333333333333333
  0
SEQEND
  5
119B
  8
LOTES
  0
POLYLINE
  5
2CC
  8
LOTES
 66
     1
 10
0.0
 20
0.0
 30
1.3440000000000001
 70
     1
1001
DCO15
1071
        3
1071
        3
1000
datoslink
1004
0000000000206140
  0
VERTEX
  5
119C
  8
LOTES
 10
541558.11734098056
 20
1031188.854357941
 30
1.3440000000000001
  0
VERTEX
  5
119D
  8
LOTES
 10
541609.05883498257
 20
1031188.854357941
 30
1.3440000000000001
  0
VERTEX
  5
119E
  8
LOTES
 10
541609.05883498257
 20
1031139.219056093
 30
1.3440000000000001
  0
VERTEX
  5
119F
  8
LOTES
 10
541558.11734098056
 20
1031139.219056093
 30
1.3440000000000001
  0
SEQEND
  5
11A0
  8
LOTES
  0
POLYLINE
  5
2CD
  8
LOTES
 66
     1
 10
0.0
 20
0.0
 30
1.204
 70
     1
1001
DCO15
1071
        3
1071
        3
1000
datoslink
1004
0000000000006140
  0
VERTEX
  5
11A1
  8
LOTES
 10
541411.82381974417
 20
1031269.838271482
 30
1.204
  0
VERTEX
  5
11A2
  8
LOTES
 10
541461.45912159223
 20
1031269.838271482
 30
1.204
  0
VERTEX
  5
11A3
  8
LOTES
 10
541461.45912159223
 20
1031218.89677748
 30
1.204
  0
VERTEX
  5
11A4
  8
LOTES
 10
541411.82381974417
 20
1031218.89677748
 30
1.204
  0
SEQEND
  5
11A5
  8
LOTES
  0
POLYLINE
  5
2CE
  8
LOTES
 66
     1
 10
0.0
 20
0.0
 30
0.02
 70
     1
1001
DCO15
1071
        3
1071
        3
1000
datoslink
1004
0000000000E06040
  0
VERTEX
  5
11A6
  8
LOTES
 10
541470.60246666963
 20
1031461.848518105
 30
0.02
  0
VERTEX
  5
11A7
  8
LOTES
 10
541470.60246666963
 20
1031511.483819953
 30
0.02
  0
VERTEX
  5
11A8
  8
LOTES
 10
541521.54396067152
 20
1031511.483819953
 30
0.02
  0
VERTEX
  5
11A9
  8
LOTES
 10
541521.54396067152
 20
1031461.848518105
 30
0.02
  0
SEQEND
  5
11AA
  8
LOTES
  0
POLYLINE
  5
2CF
  8
LOTES
 66
     1
 10
0.0
 20
0.0
 30
1.1759999999999999
 70
     1
1001
DCO15
1071
        3
1071
        3
1000
datoslink
1004
0000000000C06040
  0
VERTEX
  5
11AB
  8
LOTES
 10
541400.06809035945
 20
1031894.851217121
 30
1.1759999999999999
  0
VERTEX
  5
11AC
  8
LOTES
 10
541400.06809035945
 20
1031944.813067008
 30
1.1759999999999999
  0
VERTEX
  5
11AD
  8
LOTES
 10
541450.02994024591
 20
1031944.813067008
 30
1.1759999999999999
  0
VERTEX
  5
11AE
  8
LOTES
 10
541450.02994024591
 20
1031894.851217121
 30
1.1759999999999999
  0
SEQEND
  5
11AF
  8
LOTES
  0
POLYLINE
  5
2D0
  8
LOTES
 66
     1
 10
0.0
 20
0.0
 30
1.1479999999999999
 70
     1
1001
DCO15
1071
        3
1071
        3
1000
datoslink
1004
0000000000A06040
  0
VERTEX
  5
11B0
  8
LOTES
 10
538686.53604071832
 20
1032099.677029203
 30
1.1479999999999999
  0
VERTEX
  5
11B1
  8
LOTES
 10
538686.53604071832
 20
1032149.707389354
 30
1.1479999999999999
  0
VERTEX
  5
11B2
  8
LOTES
 10
538736.56640086917
 20
1032149.707389354
 30
1.1479999999999999
  0
VERTEX
  5
11B3
  8
LOTES
 10
538736.56640086917
 20
1032099.677029203
 30
1.1479999999999999
  0
SEQEND
  5
11B4
  8
LOTES
  0
POLYLINE
  5
2D1
  8
LOTES
 66
     1
 10
0.0
 20
0.0
 30
0.75
 70
     1
1001
DCO15
1071
        3
1071
        3
1000
datoslink
1004
0000000000806040
  0
VERTEX
  5
11B5
  8
LOTES
 10
542042.15472829156
 20
1033045.383349642
 30
0.75
  0
VERTEX
  5
11B6
  8
LOTES
 10
542092.45014815778
 20
1033045.383349642
 30
0.75
  0
VERTEX
  5
11B7
  8
LOTES
 10
542092.45014815778
 20
1032995.087929775
 30
0.75
  0
VERTEX
  5
11B8
  8
LOTES
 10
542042.15472829156
 20
1032995.087929775
 30
0.75
  0
SEQEND
  5
11B9
  8
LOTES
  0
POLYLINE
  5
2D2
  8
LOTES
 66
     1
 10
0.0
 20
0.0
 30
0.3666666666666666
 70
     1
1001
DCO15
1071
        3
1071
        3
1000
datoslink
1004
0000000000606040
  0
VERTEX
  5
11BA
  8
LOTES
 10
541596.5549557932
 20
1033070.972247468
 30
0.3666666666666666
  0
VERTEX
  5
11BB
  8
LOTES
 10
541637.144242001
 20
1033070.972247468
 30
0.3666666666666666
  0
VERTEX
  5
11BC
  8
LOTES
 10
541637.144242001
 20
1033030.38296126
 30
0.3666666666666666
  0
VERTEX
  5
11BD
  8
LOTES
 10
541596.5549557932
 20
1033030.38296126
 30
0.3666666666666666
  0
SEQEND
  5
11BE
  8
LOTES
  0
POLYLINE
  5
2D3
  8
LOTES
 66
     1
 10
0.0
 20
0.0
 30
4.333333333333333
 70
     1
1001
DCO15
1071
        3
1071
        3
1000
datoslink
1004
0000000000406040
  0
VERTEX
  5
11BF
  8
LOTES
 10
541513.61163180356
 20
1033076.266502191
 30
4.333333333333333
  0
VERTEX
  5
11C0
  8
LOTES
 10
541513.61163180356
 20
1033126.5619220569
 30
4.333333333333333
  0
VERTEX
  5
11C1
  8
LOTES
 10
541563.90705166967
 20
1033126.5619220569
 30
4.333333333333333
  0
VERTEX
  5
11C2
  8
LOTES
 10
541563.90705166967
 20
1033076.266502191
 30
4.333333333333333
  0
SEQEND
  5
11C3
  8
LOTES
  0
POLYLINE
  5
2D4
  8
LOTES
 66
     1
 10
0.0
 20
0.0
 30
0.2
 70
     1
1001
DCO15
1071
        3
1071
        3
1000
datoslink
1004
0000000000006040
  0
VERTEX
  5
11C4
  8
LOTES
 10
541609.3494047065
 20
1033211.6621646381
 30
0.2
  0
VERTEX
  5
11C5
  8
LOTES
 10
541634.05592674611
 20
1033211.6621646381
 30
0.2
  0
VERTEX
  5
11C6
  8
LOTES
 10
541634.05592674611
 20
1033186.073266811
 30
0.2
  0
VERTEX
  5
11C7
  8
LOTES
 10
541609.3494047065
 20
1033186.073266811
 30
0.2
  0
SEQEND
  5
11C8
  8
LOTES
  0
POLYLINE
  5
2D5
  8
LOTES
 66
     1
 10
0.0
 20
0.0
 30
0.1
 70
     1
1001
DCO15
1071
        3
1071
        3
1000
datoslink
1004
0000000000C05F40
  0
VERTEX
  5
11C9
  8
LOTES
 10
541378.1669484796
 20
1033080.188172356
 30
0.1
  0
VERTEX
  5
11CA
  8
LOTES
 10
541425.81524098443
 20
1033074.011541846
 30
0.1
  0
VERTEX
  5
11CB
  8
LOTES
 10
541414.34435575164
 20
1033023.71612198
 30
0.1
  0
VERTEX
  5
11CC
  8
LOTES
 10
541364.93131167279
 20
1033031.657504064
 30
0.1
  0
SEQEND
  5
11CD
  8
LOTES
  0
POLYLINE
  5
2D6
  8
LOTES
 66
     1
 10
0.0
 20
0.0
 30
0.0666666666666667
 70
     1
1001
DCO15
1071
        3
1071
        3
1000
datoslink
1004
0000000000805F40
  0
VERTEX
  5
11CE
  8
LOTES
 10
541506.77321945317
 20
1032939.449234309
 30
0.0666666666666667
  0
VERTEX
  5
11CF
  8
LOTES
 10
541557.06863931927
 20
1032939.449234309
 30
0.0666666666666667
  0
VERTEX
  5
11D0
  8
LOTES
 10
541557.06863931927
 20
1032889.153814443
 30
0.0666666666666667
  0
VERTEX
  5
11D1
  8
LOTES
 10
541506.77321945317
 20
1032889.153814443
 30
0.0666666666666667
  0
SEQEND
  5
11D2
  8
LOTES
  0
POLYLINE
  5
2D7
  8
LOTES
 66
     1
 10
0.0
 20
0.0
 30
0.25
 70
     1
1001
DCO15
1071
        3
1071
        3
1000
datoslink
1004
0000000000405F40
  0
VERTEX
  5
11D3
  8
LOTES
 10
541489.56689160434
 20
1033023.936715927
 30
0.25
  0
VERTEX
  5
11D4
  8
LOTES
 10
541489.56689160434
 20
1033074.232135793
 30
0.25
  0
VERTEX
  5
11D5
  8
LOTES
 10
541539.86231147044
 20
1033074.232135793
 30
0.25
  0
VERTEX
  5
11D6
  8
LOTES
 10
541539.86231147044
 20
1033023.936715927
 30
0.25
  0
SEQEND
  5
11D7
  8
LOTES
  0
POLYLINE
  5
2D8
  8
LOTES
 66
     1
 10
0.0
 20
0.0
 30
0.015
 70
     1
1001
DCO15
1071
        3
1071
        3
1000
datoslink
1004
0000000000005F40
  0
VERTEX
  5
11D8
  8
LOTES
 10
541631.84998727834
 20
1032878.565304998
 30
0.015
  0
VERTEX
  5
11D9
  8
LOTES
 10
541631.84998727834
 20
1032928.198943023
 30
0.015
  0
VERTEX
  5
11DA
  8
LOTES
 10
541682.14540714445
 20
1032928.198943023
 30
0.015
  0
VERTEX
  5
11DB
  8
LOTES
 10
541682.14540714445
 20
1032877.903523157
 30
0.015
  0
SEQEND
  5
11DC
  8
LOTES
  0
POLYLINE
  5
2D9
  8
LOTES
 66
     1
 10
0.0
 20
0.0
 30
0.0066666666666667
 70
     1
1001
DCO15
1071
        3
1071
        3
1000
datoslink
1004
0000000000C05E40
  0
VERTEX
  5
11DD
  8
LOTES
 10
541638.46780568175
 20
1032766.724173979
 30
0.0066666666666667
  0
VERTEX
  5
11DE
  8
LOTES
 10
541638.46780568175
 20
1032817.019593845
 30
0.0066666666666667
  0
VERTEX
  5
11DF
  8
LOTES
 10
541688.76322554785
 20
1032817.019593845
 30
0.0066666666666667
  0
VERTEX
  5
11E0
  8
LOTES
 10
541688.76322554785
 20
1032766.724173979
 30
0.0066666666666667
  0
SEQEND
  5
11E1
  8
LOTES
  0
POLYLINE
  5
2DA
  8
LOTES
 66
     1
 10
0.0
 20
0.0
 30
0.025
 70
     1
1001
DCO15
1071
        3
1071
        3
1000
datoslink
1004
0000000000206040
  0
VERTEX
  5
11E2
  8
LOTES
 10
541322.79786783759
 20
1032785.254065509
 30
0.025
  0
VERTEX
  5
11E3
  8
LOTES
 10
541371.76972402295
 20
1032773.341992383
 30
0.025
  0
VERTEX
  5
11E4
  8
LOTES
 10
541357.87230537576
 20
1032725.031918038
 30
0.025
  0
VERTEX
  5
11E5
  8
LOTES
 10
541308.90044919029
 20
1032736.943991164
 30
0.025
  0
SEQEND
  5
11E6
  8
LOTES
  0
POLYLINE
  5
2DB
  8
LOTES
 66
     1
 10
0.0
 20
0.0
 30
0.005
 70
     1
1001
DCO15
1071
        3
1071
        3
1000
datoslink
1004
0000000000805C40
  0
VERTEX
  5
11E7
  8
LOTES
 10
539860.89260384801
 20
1033790.477777571
 30
0.005
  0
VERTEX
  5
11E8
  8
LOTES
 10
539901.13781313156
 20
1033800.539079892
 30
0.005
  0
VERTEX
  5
11E9
  8
LOTES
 10
539901.13781313156
 20
1033762.809196189
 30
0.005
  0
VERTEX
  5
11EA
  8
LOTES
 10
539860.89260384801
 20
1033762.809196189
 30
0.005
  0
SEQEND
  5
11EB
  8
LOTES
  0
POLYLINE
  5
2DC
  8
LOTES
 66
     1
 10
0.0
 20
0.0
 30
0.1
 70
     1
1001
DCO15
1071
        3
1071
        3
1000
datoslink
1004
0000000000405C40
  0
VERTEX
  5
11EC
  8
LOTES
 10
540088.13654923532
 20
1033855.011599489
 30
0.1
  0
VERTEX
  5
11ED
  8
LOTES
 10
540110.42076179746
 20
1033917.619625259
 30
0.1
  0
VERTEX
  5
11EE
  8
LOTES
 10
540161.35610479675
 20
1033917.619625259
 30
0.1
  0
VERTEX
  5
11EF
  8
LOTES
 10
540161.35610479675
 20
1033877.295812051
 30
0.1
  0
VERTEX
  5
11F0
  8
LOTES
 10
540140.13304521376
 20
1033855.011599489
 30
0.1
  0
SEQEND
  5
11F1
  8
LOTES
  0
POLYLINE
  5
2DD
  8
LOTES
 66
     1
 10
0.0
 20
0.0
 30
0.2
 70
     1
1001
DCO15
1071
        3
1071
        3
1000
datoslink
1004
0000000000005C40
  0
VERTEX
  5
11F2
  8
LOTES
 10
540042.50697113166
 20
1033475.118832952
 30
0.2
  0
VERTEX
  5
11F3
  8
LOTES
 10
540083.89193731861
 20
1033527.115328931
 30
0.2
  0
VERTEX
  5
11F4
  8
LOTES
 10
540135.88843329716
 20
1033517.564952118
 30
0.2
  0
VERTEX
  5
11F5
  8
LOTES
 10
540093.44231413107
 20
1033468.751915077
 30
0.2
  0
VERTEX
  5
11F6
  8
LOTES
 10
540090.25885519362
 20
1033469.813068056
 30
0.2
  0
SEQEND
  5
11F7
  8
LOTES
  0
POLYLINE
  5
2DE
  8
LOTES
 66
     1
 10
0.0
 20
0.0
 30
0.04
 70
     1
1001
DCO15
1071
        3
1071
        3
1000
datoslink
1004
0000000000405B40
  0
VERTEX
  5
11F8
  8
LOTES
 10
539975.65433344513
 20
1033656.575992387
 30
0.04
  0
VERTEX
  5
11F9
  8
LOTES
 10
539975.65433344513
 20
1033707.511335387
 30
0.04
  0
VERTEX
  5
11FA
  8
LOTES
 10
540026.58967644454
 20
1033707.511335387
 30
0.04
  0
VERTEX
  5
11FB
  8
LOTES
 10
540026.58967644454
 20
1033656.575992387
 30
0.04
  0
SEQEND
  5
11FC
  8
LOTES
  0
POLYLINE
  5
2DF
  8
LOTES
 66
     1
 10
0.0
 20
0.0
 30
0.3055555555555556
 70
     1
1001
DCO15
1071
        3
1071
        3
1000
datoslink
1004
0000000000C05A40
  0
VERTEX
  5
11FD
  8
LOTES
 10
539502.98114971945
 20
1033150.71586809
 30
0.3055555555555556
  0
VERTEX
  5
11FE
  8
LOTES
 10
539502.98114971945
 20
1033201.651211089
 30
0.3055555555555556
  0
VERTEX
  5
11FF
  8
LOTES
 10
539553.91649271885
 20
1033201.651211089
 30
0.3055555555555556
  0
VERTEX
  5
1200
  8
LOTES
 10
539553.91649271885
 20
1033150.71586809
 30
0.3055555555555556
  0
SEQEND
  5
1201
  8
LOTES
  0
POLYLINE
  5
2E0
  8
LOTES
 66
     1
 10
0.0
 20
0.0
 30
0.05
 70
     1
1001
DCO15
1071
        3
1071
        3
1000
datoslink
1004
0000000000405A40
  0
VERTEX
  5
1202
  8
LOTES
 10
539820.54913965904
 20
1033334.516063214
 30
0.05
  0
VERTEX
  5
1203
  8
LOTES
 10
539871.48448265833
 20
1033334.516063214
 30
0.05
  0
VERTEX
  5
1204
  8
LOTES
 10
539871.48448265833
 20
1033283.580720215
 30
0.05
  0
VERTEX
  5
1205
  8
LOTES
 10
539820.54913965904
 20
1033283.580720215
 30
0.05
  0
SEQEND
  5
1206
  8
LOTES
  0
POLYLINE
  5
2E1
  8
LOTES
 66
     1
 10
0.0
 20
0.0
 30
0.2
 70
     1
1001
DCO15
1071
        3
1071
        3
1000
datoslink
1004
0000000000005A40
  0
VERTEX
  5
1207
  8
LOTES
 10
539815.59709242301
 20
1033004.143769038
 30
0.2
  0
VERTEX
  5
1208
  8
LOTES
 10
539815.59709242301
 20
1033055.079112038
 30
0.2
  0
VERTEX
  5
1209
  8
LOTES
 10
539866.5324354223
 20
1033055.079112038
 30
0.2
  0
VERTEX
  5
120A
  8
LOTES
 10
539866.5324354223
 20
1033004.143769038
 30
0.2
  0
SEQEND
  5
120B
  8
LOTES
  0
POLYLINE
  5
2E2
  8
LOTES
 66
     1
 10
0.0
 20
0.0
 30
1.3
 70
     1
1001
DCO15
1071
        3
1071
        3
1000
datoslink
1004
0000000000805940
  0
VERTEX
  5
120C
  8
LOTES
 10
540164.67965269904
 20
1031873.615852073
 30
1.3
  0
VERTEX
  5
120D
  8
LOTES
 10
540214.36210836587
 20
1031873.615852073
 30
1.3
  0
VERTEX
  5
120E
  8
LOTES
 10
540214.36210836587
 20
1031823.933396406
 30
1.3
  0
VERTEX
  5
120F
  8
LOTES
 10
540164.67965269904
 20
1031823.933396406
 30
1.3
  0
SEQEND
  5
1210
  8
LOTES
  0
POLYLINE
  5
2E3
  8
LOTES
 66
     1
 10
0.0
 20
0.0
 30
0.95
 70
     1
1001
DCO15
1071
        3
1071
        3
1000
datoslink
1004
0000000000C05940
  0
VERTEX
  5
1211
  8
LOTES
 10
540348.50473866705
 20
1031855.398951662
 30
0.95
  0
VERTEX
  5
1212
  8
LOTES
 10
540348.2977284349
 20
1031906.7374891849
 30
0.95
  0
VERTEX
  5
1213
  8
LOTES
 10
540399.22224549355
 20
1031906.7374891849
 30
0.95
  0
VERTEX
  5
1214
  8
LOTES
 10
540399.22224549355
 20
1031855.8129721259
 30
0.95
  0
SEQEND
  5
1215
  8
LOTES
  0
POLYLINE
  5
2E4
  8
LOTES
 66
     1
 10
0.0
 20
0.0
 30
1.3500000000000001
 70
     1
1001
DCO15
1071
        3
1071
        3
1000
datoslink
1004
0000000000405940
  0
VERTEX
  5
1216
  8
LOTES
 10
540003.74764934229
 20
1031990.0208346311
 30
1.3500000000000001
  0
VERTEX
  5
1217
  8
LOTES
 10
540005.16377465532
 20
1031967.362829623
 30
1.3500000000000001
  0
VERTEX
  5
1218
  8
LOTES
 10
539992.41864683828
 20
1031906.4694411641
 30
1.3500000000000001
  0
VERTEX
  5
1219
  8
LOTES
 10
539962.68001526524
 20
1031871.066308338
 30
1.3500000000000001
  0
VERTEX
  5
121A
  8
LOTES
 10
539934.35750900523
 20
1031885.227561468
 30
1.3500000000000001
  0
VERTEX
  5
121B
  8
LOTES
 10
539937.18975963118
 20
1031917.7984436681
 30
1.3500000000000001
  0
VERTEX
  5
121C
  8
LOTES
 10
539945.68651150935
 20
1031981.524082753
 30
1.3500000000000001
  0
SEQEND
  5
121D
  8
LOTES
  0
POLYLINE
  5
2E5
  8
LOTES
 66
     1
 10
0.0
 20
0.0
 30
1.1479999999999999
 70
     1
1001
DCO15
1071
        3
1071
        3
1000
datoslink
1004
0000000000005940
  0
VERTEX
  5
121E
  8
LOTES
 10
539804.07398020895
 20
1031933.375822111
 30
1.1479999999999999
  0
VERTEX
  5
121F
  8
LOTES
 10
539855.05449147709
 20
1031933.375822111
 30
1.1479999999999999
  0
VERTEX
  5
1220
  8
LOTES
 10
539855.05449147709
 20
1031882.395310842
 30
1.1479999999999999
  0
VERTEX
  5
1221
  8
LOTES
 10
539804.07398020895
 20
1031882.395310842
 30
1.1479999999999999
  0
SEQEND
  5
1222
  8
LOTES
  0
POLYLINE
  5
2E6
  8
LOTES
 66
     1
 10
0.0
 20
0.0
 30
1.1000000000000001
 70
     1
1001
DCO15
1071
        3
1071
        3
1000
datoslink
1004
0000000000805840
  0
VERTEX
  5
1223
  8
LOTES
 10
539999.49927340331
 20
1032148.626869687
 30
1.1000000000000001
  0
VERTEX
  5
1224
  8
LOTES
 10
540050.47978467133
 20
1032148.626869687
 30
1.1000000000000001
  0
VERTEX
  5
1225
  8
LOTES
 10
540057.56041123637
 20
1032052.330348403
 30
1.1000000000000001
  0
VERTEX
  5
1226
  8
LOTES
 10
540005.16377465532
 20
1032052.330348403
 30
1.1000000000000001
  0
SEQEND
  5
1227
  8
LOTES
  0
POLYLINE
  5
2E7
  8
LOTES
 66
     1
 10
0.0
 20
0.0
 30
0.1666666666666666
 70
     1
1001
DCO15
1071
        3
1071
        3
1000
datoslink
1004
0000000000C05840
  0
VERTEX
  5
1228
  8
LOTES
 10
539964.09614057827
 20
1032226.513761902
 30
0.1666666666666666
  0
VERTEX
  5
1229
  8
LOTES
 10
540019.3250277855
 20
1032226.513761902
 30
0.1666666666666666
  0
VERTEX
  5
122A
  8
LOTES
 10
540043.39915810642
 20
1032152.875245626
 30
0.1666666666666666
  0
VERTEX
  5
122B
  8
LOTES
 10
539991.00252152525
 20
1032152.875245626
 30
0.1666666666666666
  0
SEQEND
  5
122C
  8
LOTES
  0
POLYLINE
  5
2E8
  8
LOTES
 66
     1
 10
0.0
 20
0.0
 30
1.3
 70
     1
1001
DCO15
1071
        3
1071
        3
1000
datoslink
1004
0000000000405840
  0
VERTEX
  5
122D
  8
LOTES
 10
540007.99602528126
 20
1032048.081972464
 30
1.3
  0
VERTEX
  5
122E
  8
LOTES
 10
540058.97653654939
 20
1032048.081972464
 30
1.3
  0
VERTEX
  5
122F
  8
LOTES
 10
540063.22491248837
 20
1031973.027330875
 30
1.3
  0
VERTEX
  5
1230
  8
LOTES
 10
540012.24440122035
 20
1031973.027330875
 30
1.3
  0
SEQEND
  5
1231
  8
LOTES
  0
POLYLINE
  5
2E9
  8
LOTES
 66
     1
 10
0.0
 20
0.0
 30
0.0416666666666667
 70
     1
1001
DCO15
1071
        3
1071
        3
1000
datoslink
1004
0000000000005840
  0
VERTEX
  5
1232
  8
LOTES
 10
540277.05983475177
 20
1032072.156102785
 30
0.0416666666666667
  0
VERTEX
  5
1233
  8
LOTES
 10
540328.0403460199
 20
1032072.156102785
 30
0.0416666666666667
  0
VERTEX
  5
1234
  8
LOTES
 10
540328.0403460199
 20
1032021.175591517
 30
0.0416666666666667
  0
VERTEX
  5
1235
  8
LOTES
 10
540277.05983475177
 20
1032021.175591517
 30
0.0416666666666667
  0
SEQEND
  5
1236
  8
LOTES
  0
POLYLINE
  5
2EA
  8
LOTES
 66
     1
 10
0.0
 20
0.0
 30
0.04
 70
     1
1001
DCO15
1071
        3
1071
        3
1000
datoslink
1004
0000000000C05740
  0
VERTEX
  5
1237
  8
LOTES
 10
540214.75032097963
 20
1032189.694503764
 30
0.04
  0
VERTEX
  5
1238
  8
LOTES
 10
540257.2340803697
 20
1032189.694503764
 30
0.04
  0
VERTEX
  5
1239
  8
LOTES
 10
540257.2340803697
 20
1032144.378493748
 30
0.04
  0
VERTEX
  5
123A
  8
LOTES
 10
540214.75032097963
 20
1032144.378493748
 30
0.04
  0
SEQEND
  5
123B
  8
LOTES
  0
POLYLINE
  5
2EB
  8
LOTES
 66
     1
 10
0.0
 20
0.0
 30
0.1
 70
     1
1001
DCO15
1071
        3
1071
        3
1000
datoslink
1004
0000000000805740
  0
VERTEX
  5
123C
  8
LOTES
 10
540067.47328842746
 20
1032349.716664133
 30
0.1
  0
VERTEX
  5
123D
  8
LOTES
 10
540115.62154906953
 20
1032349.716664133
 30
0.1
  0
VERTEX
  5
123E
  8
LOTES
 10
540115.62154906953
 20
1032302.984528804
 30
0.1
  0
VERTEX
  5
123F
  8
LOTES
 10
540067.47328842746
 20
1032302.984528804
 30
0.1
  0
SEQEND
  5
1240
  8
LOTES
  0
POLYLINE
  5
2EC
  8
LOTES
 66
     1
 10
0.0
 20
0.0
 30
0.1
 70
     1
1001
DCO15
1071
        3
1071
        3
1000
datoslink
1004
0000000000405740
  0
VERTEX
  5
1241
  8
LOTES
 10
540360.61122821888
 20
1032324.2264084989
 30
0.1
  0
VERTEX
  5
1242
  8
LOTES
 10
540410.17561417411
 20
1032324.2264084989
 30
0.1
  0
VERTEX
  5
1243
  8
LOTES
 10
540410.17561417411
 20
1032273.245897231
 30
0.1
  0
VERTEX
  5
1244
  8
LOTES
 10
540360.61122821888
 20
1032273.245897231
 30
0.1
  0
SEQEND
  5
1245
  8
LOTES
  0
POLYLINE
  5
2ED
  8
LOTES
 66
     1
 10
0.0
 20
0.0
 30
0.1
 70
     1
1001
DCO15
1071
        3
1071
        3
1000
datoslink
1004
0000000000005740
  0
VERTEX
  5
1246
  8
LOTES
 10
540842.74944821035
 20
1033612.8479942461
 30
0.1
  0
VERTEX
  5
1247
  8
LOTES
 10
540883.81708228751
 20
1033612.8479942461
 30
0.1
  0
VERTEX
  5
1248
  8
LOTES
 10
540883.81708228751
 20
1033571.780360169
 30
0.1
  0
VERTEX
  5
1249
  8
LOTES
 10
540842.74944821035
 20
1033571.780360169
 30
0.1
  0
SEQEND
  5
124A
  8
LOTES
  0
POLYLINE
  5
2EE
  8
LOTES
 66
     1
 10
0.0
 20
0.0
 30
1.875
 70
     1
1001
DCO15
1071
        3
1071
        3
1000
datoslink
1004
0000000000C05640
  0
VERTEX
  5
124B
  8
LOTES
 10
541021.18123764882
 20
1033526.464350153
 30
1.875
  0
VERTEX
  5
124C
  8
LOTES
 10
541021.18123764882
 20
1033567.53198423
 30
1.875
  0
VERTEX
  5
124D
  8
LOTES
 10
541083.49075142085
 20
1033566.115858917
 30
1.875
  0
VERTEX
  5
124E
  8
LOTES
 10
541083.49075142085
 20
1033525.04822484
 30
1.875
  0
SEQEND
  5
124F
  8
LOTES
  0
POLYLINE
  5
2EF
  8
LOTES
 66
     1
 10
0.0
 20
0.0
 30
0.88
 70
     1
1001
DCO15
1071
        3
1071
        3
1000
datoslink
1004
0000000000405640
  0
VERTEX
  5
1250
  8
LOTES
 10
541011.26836045785
 20
1033672.325257392
 30
0.88
  0
VERTEX
  5
1251
  8
LOTES
 10
541062.24887172575
 20
1033672.325257392
 30
0.88
  0
VERTEX
  5
1252
  8
LOTES
 10
541062.24887172575
 20
1033621.344746124
 30
0.88
  0
VERTEX
  5
1253
  8
LOTES
 10
541011.26836045785
 20
1033621.344746124
 30
0.88
  0
SEQEND
  5
1254
  8
LOTES
  0
POLYLINE
  5
2F0
  8
LOTES
 66
     1
 10
0.0
 20
0.0
 30
0.7857142857142857
 70
     1
1001
DCO15
1071
        3
1071
        3
1000
datoslink
1004
0000000000805640
  0
VERTEX
  5
1255
  8
LOTES
 10
541019.76511233579
 20
1033618.5124954981
 30
0.7857142857142857
  0
VERTEX
  5
1256
  8
LOTES
 10
541080.65850079479
 20
1033614.264119559
 30
0.7857142857142857
  0
VERTEX
  5
1257
  8
LOTES
 10
541080.65850079479
 20
1033571.780360169
 30
0.7857142857142857
  0
VERTEX
  5
1258
  8
LOTES
 10
541019.76511233579
 20
1033573.196485482
 30
0.7857142857142857
  0
SEQEND
  5
1259
  8
LOTES
  0
POLYLINE
  5
2F1
  8
LOTES
 66
     1
 10
0.0
 20
0.0
 30
0.3333333333333333
 70
     1
1001
DCO15
1071
        3
1071
        3
1000
datoslink
1004
0000000000005640
  0
VERTEX
  5
125A
  8
LOTES
 10
541025.4296135878
 20
1033927.227813733
 30
0.3333333333333333
  0
VERTEX
  5
125B
  8
LOTES
 10
541076.41012485605
 20
1033927.227813733
 30
0.3333333333333333
  0
VERTEX
  5
125C
  8
LOTES
 10
541076.41012485605
 20
1033876.247302465
 30
0.3333333333333333
  0
VERTEX
  5
125D
  8
LOTES
 10
541025.4296135878
 20
1033876.247302465
 30
0.3333333333333333
  0
SEQEND
  5
125E
  8
LOTES
  0
POLYLINE
  5
2F2
  8
LOTES
 66
     1
 10
0.0
 20
0.0
 30
0.75
 70
     1
1001
DCO15
1071
        3
1071
        3
1000
datoslink
1004
0000000000C05540
  0
VERTEX
  5
125F
  8
LOTES
 10
540793.18506225536
 20
1033835.179668388
 30
0.75
  0
VERTEX
  5
1260
  8
LOTES
 10
540844.1655735235
 20
1033835.179668388
 30
0.75
  0
VERTEX
  5
1261
  8
LOTES
 10
540844.1655735235
 20
1033784.199157119
 30
0.75
  0
VERTEX
  5
1262
  8
LOTES
 10
540793.18506225536
 20
1033784.199157119
 30
0.75
  0
SEQEND
  5
1263
  8
LOTES
  0
POLYLINE
  5
2F3
  8
LOTES
 66
     1
 10
0.0
 20
0.0
 30
0.175
 70
     1
1001
DCO15
1071
        3
1071
        3
1000
datoslink
1004
0000000000405540
  0
VERTEX
  5
1264
  8
LOTES
 10
540810.17856601137
 20
1034073.088720972
 30
0.175
  0
VERTEX
  5
1265
  8
LOTES
 10
540861.1590772795
 20
1034073.088720972
 30
0.175
  0
VERTEX
  5
1266
  8
LOTES
 10
540861.1590772795
 20
1034017.859833765
 30
0.175
  0
VERTEX
  5
1267
  8
LOTES
 10
540810.17856601137
 20
1034017.859833765
 30
0.175
  0
SEQEND
  5
1268
  8
LOTES
  0
POLYLINE
  5
2F4
  8
LOTES
 66
     1
 10
0.0
 20
0.0
 30
1.288
 70
     1
1001
DCO15
1071
        3
1071
        3
1000
datoslink
1004
0000000000005540
  0
VERTEX
  5
1269
  8
LOTES
 10
540640.24352845107
 20
1033925.81168842
 30
1.288
  0
VERTEX
  5
126A
  8
LOTES
 10
540691.22403971921
 20
1033925.81168842
 30
1.288
  0
VERTEX
  5
126B
  8
LOTES
 10
540691.22403971921
 20
1033874.831177152
 30
1.288
  0
VERTEX
  5
126C
  8
LOTES
 10
540640.24352845107
 20
1033874.831177152
 30
1.288
  0
SEQEND
  5
126D
  8
LOTES
  0
POLYLINE
  5
2F5
  8
LOTES
 66
     1
 10
0.0
 20
0.0
 30
1.083333333333333
 70
     1
1001
DCO15
1071
        3
1071
        3
1000
datoslink
1004
0000000000805440
  0
VERTEX
  5
126E
  8
LOTES
 10
540660.06928283314
 20
1034510.67144269
 30
1.083333333333333
  0
VERTEX
  5
126F
  8
LOTES
 10
540711.04979410116
 20
1034510.67144269
 30
1.083333333333333
  0
VERTEX
  5
1270
  8
LOTES
 10
540711.04979410116
 20
1034461.107056735
 30
1.083333333333333
  0
VERTEX
  5
1271
  8
LOTES
 10
540660.06928283314
 20
1034461.107056735
 30
1.083333333333333
  0
SEQEND
  5
1272
  8
LOTES
  0
POLYLINE
  5
2F6
  8
LOTES
 66
     1
 10
0.0
 20
0.0
 30
0.1
 70
     1
1001
DCO15
1071
        3
1071
        3
1000
datoslink
1004
0000000000405440
  0
VERTEX
  5
1273
  8
LOTES
 10
541697.17127826472
 20
1034044.136825684
 30
0.1
  0
VERTEX
  5
1274
  8
LOTES
 10
541748.15178953286
 20
1034044.136825684
 30
0.1
  0
VERTEX
  5
1275
  8
LOTES
 10
541748.15178953286
 20
1033993.156314416
 30
0.1
  0
VERTEX
  5
1276
  8
LOTES
 10
541697.17127826472
 20
1033993.156314416
 30
0.1
  0
SEQEND
  5
1277
  8
LOTES
  0
POLYLINE
  5
2F7
  8
LOTES
 66
     1
 10
0.0
 20
0.0
 30
0.14
 70
     1
1001
DCO15
1071
        3
1071
        3
1000
datoslink
1004
0000000000805340
  0
VERTEX
  5
1278
  8
LOTES
 10
541792.13034786447
 20
1034242.237022247
 30
0.14
  0
VERTEX
  5
1279
  8
LOTES
 10
541841.69473381958
 20
1034242.237022247
 30
0.14
  0
VERTEX
  5
127A
  8
LOTES
 10
541841.69473381958
 20
1034191.256510979
 30
0.14
  0
VERTEX
  5
127B
  8
LOTES
 10
541792.13034786447
 20
1034191.256510979
 30
0.14
  0
SEQEND
  5
127C
  8
LOTES
  0
POLYLINE
  5
2F8
  8
LOTES
 66
     1
 10
0.0
 20
0.0
 30
0.2
 70
     1
1001
DCO15
1071
        3
1071
        3
1000
datoslink
1004
0000000000005340
  0
VERTEX
  5
127D
  8
LOTES
 10
542154.65842799295
 20
1034179.927508475
 30
0.2
  0
VERTEX
  5
127E
  8
LOTES
 10
542204.22281394806
 20
1034179.927508475
 30
0.2
  0
VERTEX
  5
127F
  8
LOTES
 10
542204.22281394806
 20
1034130.36312252
 30
0.2
  0
VERTEX
  5
1280
  8
LOTES
 10
542154.65842799295
 20
1034130.36312252
 30
0.2
  0
SEQEND
  5
1281
  8
LOTES
  0
POLYLINE
  5
2F9
  8
LOTES
 66
     1
 10
0.0
 20
0.0
 30
1.6666666666666661
 70
     1
1001
DCO15
1071
        3
1071
        3
1000
datoslink
1004
0000000000606940
1001
ADE_ENTITY_LOCK
1071
1342624882
1071
1342625087
  0
VERTEX
  5
1282
  8
LOTES
 10
540814.77439489437
 20
1032563.381785424
 30
1.6666666666666661
  0
VERTEX
  5
1283
  8
LOTES
 10
540875.64136237884
 20
1032569.043828912
 30
1.6666666666666661
  0
VERTEX
  5
1284
  8
LOTES
 10
540884.37457726279
 20
1032525.757723749
 30
1.6666666666666661
  0
VERTEX
  5
1285
  8
LOTES
 10
540815.42431820591
 20
1032525.757723749
 30
1.6666666666666661
  0
SEQEND
  5
1286
  8
LOTES
  0
POLYLINE
  5
2FA
  8
LOTES
 66
     1
 10
0.0
 20
0.0
 30
1.1759999999999999
 70
     1
1001
DCO15
1071
        3
1071
        3
1000
datoslink
1004
0000000000405040
  0
VERTEX
  5
1287
  8
LOTES
 10
541510.9834520166
 20
1033614.402241081
 30
1.1759999999999999
  0
VERTEX
  5
1288
  8
LOTES
 10
541559.28754412383
 20
1033650.7957351319
 30
1.1759999999999999
  0
VERTEX
  5
1289
  8
LOTES
 10
541615.53203493636
 20
1033591.904444754
 30
1.1759999999999999
  0
VERTEX
  5
128A
  8
LOTES
 10
541569.87474239524
 20
1033566.09814897
 30
1.1759999999999999
  0
SEQEND
  5
128B
  8
LOTES
  0
POLYLINE
  5
2FB
  8
LOTES
 66
     1
 10
0.0
 20
0.0
 30
0.07
 70
     1
1001
DCO15
1071
        3
1071
        3
1000
datoslink
1004
0000000000005040
1001
ADE_ENTITY_LOCK
1071
1342624882
1071
1342625087
  0
VERTEX
  5
128C
  8
LOTES
 10
541456.06236098788
 20
1033558.157750265
 30
0.07
  0
VERTEX
  5
128D
  8
LOTES
 10
541507.67495255638
 20
1033614.402241081
 30
0.07
  0
VERTEX
  5
128E
  8
LOTES
 10
541552.00884531625
 20
1033576.685347238
 30
0.07
  0
VERTEX
  5
128F
  8
LOTES
 10
541503.04305331409
 20
1033524.4110557809
 30
0.07
  0
SEQEND
  5
1290
  8
LOTES
  0
POLYLINE
  5
2FC
  8
LOTES
 66
     1
 10
0.0
 20
0.0
 30
1.26
 70
     1
1001
DCO15
1071
        3
1071
        3
1000
datoslink
1004
0000000000804E40
  0
VERTEX
  5
1291
  8
LOTES
 10
541165.41505323909
 20
1033016.317207636
 30
1.26
  0
VERTEX
  5
1292
  8
LOTES
 10
541232.77103859663
 20
1032992.9053027279
 30
1.26
  0
VERTEX
  5
1293
  8
LOTES
 10
541199.02379088197
 20
1032955.849501312
 30
1.26
  0
VERTEX
  5
1294
  8
LOTES
 10
541165.41505323909
 20
1032956.101530341
 30
1.26
  0
SEQEND
  5
1295
  8
LOTES
  0
POLYLINE
  5
2FD
  8
LOTES
 66
     1
 10
0.0
 20
0.0
 30
1.1479999999999999
 70
     1
1001
DCO15
1071
        3
1071
        3
1000
datoslink
1004
0000000000804D40
  0
VERTEX
  5
1296
  8
LOTES
 10
541155.54939529486
 20
1033160.119606601
 30
1.1479999999999999
  0
VERTEX
  5
1297
  8
LOTES
 10
541198.95761980675
 20
1033174.147874281
 30
1.1479999999999999
  0
VERTEX
  5
1298
  8
LOTES
 10
541198.95761980675
 20
1033128.357491102
 30
1.1479999999999999
  0
VERTEX
  5
1299
  8
LOTES
 10
541173.01855881792
 20
1033093.948532654
 30
1.1479999999999999
  0
VERTEX
  5
129A
  8
LOTES
 10
541155.54939529486
 20
1033093.948532654
 30
1.1479999999999999
  0
SEQEND
  5
129B
  8
LOTES
  0
POLYLINE
  5
2FE
  8
LOTES
 66
     1
 10
0.0
 20
0.0
 30
0.375
 70
     1
1001
DCO15
1071
        3
1071
        3
1000
datoslink
1004
0000000000804C40
  0
VERTEX
  5
129C
  8
LOTES
 10
540822.29310199025
 20
1032665.069706909
 30
0.375
  0
VERTEX
  5
129D
  8
LOTES
 10
540872.54754319869
 20
1032663.952941548
 30
0.375
  0
VERTEX
  5
129E
  8
LOTES
 10
540872.54754319869
 20
1032623.749388582
 30
0.375
  0
VERTEX
  5
129F
  8
LOTES
 10
540822.29310199025
 20
1032623.749388582
 30
0.375
  0
SEQEND
  5
12A0
  8
LOTES
  0
POLYLINE
  5
2FF
  8
LOTES
 66
     1
 10
0.0
 20
0.0
 30
0.11
 70
     1
1001
DCO15
1071
        3
1071
        3
1000
datoslink
1004
0000000000804A40
  0
VERTEX
  5
12A1
  8
LOTES
 10
540858.37437326636
 20
1033107.968650054
 30
0.11
  0
VERTEX
  5
12A2
  8
LOTES
 10
540898.57792623295
 20
1033107.968650054
 30
0.11
  0
VERTEX
  5
12A3
  8
LOTES
 10
540898.57792623295
 20
1033067.7650970879
 30
0.11
  0
VERTEX
  5
12A4
  8
LOTES
 10
540858.37437326636
 20
1033067.7650970879
 30
0.11
  0
SEQEND
  5
12A5
  8
LOTES
  0
POLYLINE
  5
300
  8
LOTES
 66
     1
 10
0.0
 20
0.0
 30
1.25
 70
     1
1001
DCO15
1071
        3
1071
        3
1000
datoslink
1004
0000000000804940
  0
VERTEX
  5
12A6
  8
LOTES
 10
540488.87225638097
 20
1033092.7307916
 30
1.25
  0
VERTEX
  5
12A7
  8
LOTES
 10
540539.54796623765
 20
1033092.7307916
 30
1.25
  0
VERTEX
  5
12A8
  8
LOTES
 10
540539.54796623765
 20
1033042.055081744
 30
1.25
  0
VERTEX
  5
12A9
  8
LOTES
 10
540488.87225638097
 20
1033042.055081744
 30
1.25
  0
SEQEND
  5
12AA
  8
LOTES
  0
POLYLINE
  5
301
  8
LOTES
 66
     1
 10
0.0
 20
0.0
 30
0.76
 70
     1
1001
DCO15
1071
        3
1071
        3
1000
datoslink
1004
00000000008C9340
  0
VERTEX
  5
12AB
  8
LOTES
 10
539657.53533069603
 20
1028918.964242741
 30
0.76
  0
VERTEX
  5
12AC
  8
LOTES
 10
539682.82355801854
 20
1028850.126115056
 30
0.76
  0
VERTEX
  5
12AD
  8
LOTES
 10
539647.10996482335
 20
1028840.205672501
 30
0.76
  0
VERTEX
  5
12AE
  8
LOTES
 10
539632.39032259583
 20
1028904.406606469
 30
0.76
  0
SEQEND
  5
12AF
  8
LOTES
  0
POLYLINE
  5
302
  8
LOTES
 66
     1
 10
0.0
 20
0.0
 30
0.88
 70
     1
1001
DCO15
1071
        3
1071
        3
1000
datoslink
1004
0000000000889340
  0
VERTEX
  5
12B0
  8
LOTES
 10
539658.4619344743
 20
1028919.75892185
 30
0.88
  0
VERTEX
  5
12B1
  8
LOTES
 10
539702.13484328147
 20
1028944.9039299519
 30
0.88
  0
VERTEX
  5
12B2
  8
LOTES
 10
539724.09259904269
 20
1028861.2370107149
 30
0.88
  0
VERTEX
  5
12B3
  8
LOTES
 10
539684.01401112508
 20
1028850.126115056
 30
0.88
  0
SEQEND
  5
12B4
  8
LOTES
  0
POLYLINE
  5
303
  8
LOTES
 66
     1
 10
0.0
 20
0.0
 30
0.2
 70
     1
1001
DCO15
1071
        3
1071
        3
1000
datoslink
1004
00000000007C9340
1001
ADE_ENTITY_LOCK
1071
1342624882
1071
1342625087
  0
VERTEX
  5
12B5
  8
LOTES
 10
539623.25829690602
 20
1028926.904771616
 30
0.2
  0
VERTEX
  5
12B6
  8
LOTES
 10
539630.5371150421
 20
1028905.068317206
 30
0.2
  0
VERTEX
  5
12B7
  8
LOTES
 10
539646.05178428534
 20
1028839.676582234
 30
0.2
  0
VERTEX
  5
12B8
  8
LOTES
 10
539592.81207591482
 20
1028828.433414004
 30
0.2
  0
VERTEX
  5
12B9
  8
LOTES
 10
539581.23822626658
 20
1028902.109234035
 30
0.2
  0
SEQEND
  5
12BA
  8
LOTES
  0
POLYLINE
  5
304
  8
LOTES
 66
     1
 10
0.0
 20
0.0
 30
0.0476190476190476
 70
     1
1001
DCO15
1071
        3
1071
        3
1000
datoslink
1004
0000000000789340
1001
ADE_ENTITY_LOCK
1071
1342624882
1071
1342625087
  0
VERTEX
  5
12BB
  8
LOTES
 10
539545.9711087551
 20
1029031.588036831
 30
0.0476190476190476
  0
VERTEX
  5
12BC
  8
LOTES
 10
539579.71835647151
 20
1028983.944863586
 30
0.0476190476190476
  0
VERTEX
  5
12BD
  8
LOTES
 10
539537.36886914168
 20
1028965.416962877
 30
0.0476190476190476
  0
VERTEX
  5
12BE
  8
LOTES
 10
539499.65135698952
 20
1029003.13447503
 30
0.0476190476190476
  0
SEQEND
  5
12BF
  8
LOTES
  0
POLYLINE
  5
305
  8
LOTES
 66
     1
 10
0.0
 20
0.0
 30
0.2666666666666666
 70
     1
1001
DCO15
1071
        3
1071
        3
1000
datoslink
1004
0000000000709340
  0
VERTEX
  5
12C0
  8
LOTES
 10
539631.99350489303
 20
1028905.8629963211
 30
0.2666666666666666
  0
VERTEX
  5
12C1
  8
LOTES
 10
539601.58082310122
 20
1028993.232278801
 30
0.2666666666666666
  0
VERTEX
  5
12C2
  8
LOTES
 10
539639.93403376639
 20
1029013.721846862
 30
0.2666666666666666
  0
VERTEX
  5
12C3
  8
LOTES
 10
539698.16457884386
 20
1028944.9039299519
 30
0.2666666666666666
  0
SEQEND
  5
12C4
  8
LOTES
  0
POLYLINE
  5
306
  8
LOTES
 66
     1
 10
0.0
 20
0.0
 30
1.204
 70
     1
1001
DCO15
1071
        3
1071
        3
1000
datoslink
1004
0000000000003A40
  0
VERTEX
  5
12C5
  8
LOTES
 10
540404.67602027114
 20
1031337.204616492
 30
1.204
  0
VERTEX
  5
12C6
  8
LOTES
 10
540404.67313543055
 20
1031290.271475101
 30
1.204
  0
VERTEX
  5
12C7
  8
LOTES
 10
540321.29758225009
 20
1031290.271475101
 30
1.204
  0
VERTEX
  5
12C8
  8
LOTES
 10
540330.22544845659
 20
1031337.204616492
 30
1.204
  0
SEQEND
  5
12C9
  8
LOTES
  0
POLYLINE
  5
307
  8
LOTES
 66
     1
 10
0.0
 20
0.0
 30
0.01
 70
     1
1001
DCO15
1071
        3
1071
        3
1000
datoslink
1004
0000000000EC9240
  0
VERTEX
  5
12CA
  8
LOTES
 10
537392.28766030725
 20
1028933.59811572
 30
0.01
  0
VERTEX
  5
12CB
  8
LOTES
 10
537310.89723934792
 20
1028933.59811572
 30
0.01
  0
VERTEX
  5
12CC
  8
LOTES
 10
537310.23552860785
 20
1029040.13354478
 30
0.01
  0
VERTEX
  5
12CD
  8
LOTES
 10
537382.36199921649
 20
1029068.587106582
 30
0.01
  0
VERTEX
  5
12CE
  8
LOTES
 10
537409.49213953689
 20
1028999.107478929
 30
0.01
  0
SEQEND
  5
12CF
  8
LOTES
  0
POLYLINE
  5
308
  8
LOTES
 66
     1
 10
0.0
 20
0.0
 30
0.125
 70
     1
1001
DCO15
1071
        3
1071
        3
1000
datoslink
1004
0000000000E89240
  0
VERTEX
  5
12D0
  8
LOTES
 10
538948.10195106512
 20
1025773.6646502221
 30
0.125
  0
VERTEX
  5
12D1
  8
LOTES
 10
538897.15022412105
 20
1025773.6646502221
 30
0.125
  0
VERTEX
  5
12D2
  8
LOTES
 10
538897.15022412105
 20
1025825.278087903
 30
0.125
  0
VERTEX
  5
12D3
  8
LOTES
 10
538948.10195106512
 20
1025825.278087903
 30
0.125
  0
SEQEND
  5
12D4
  8
LOTES
  0
POLYLINE
  5
309
  8
LOTES
 66
     1
 10
0.0
 20
0.0
 30
1.736
 70
     1
1001
DCO15
1071
        3
1071
        3
1000
datoslink
1004
0000000000E09240
  0
VERTEX
  5
12D5
  8
LOTES
 10
537805.45984606445
 20
1040646.407573787
 30
1.736
  0
VERTEX
  5
12D6
  8
LOTES
 10
537825.31116824795
 20
1040655.009813398
 30
1.736
  0
VERTEX
  5
12D7
  8
LOTES
 10
537823.98774677154
 20
1040624.571119381
 30
1.736
  0
VERTEX
  5
12D8
  8
LOTES
 10
537812.0769534586
 20
1040618.6157227251
 30
1.736
  0
SEQEND
  5
12D9
  8
LOTES
  0
POLYLINE
  5
30A
  8
LOTES
 66
     1
 10
0.0
 20
0.0
 30
0.75
 70
     1
1001
DCO15
1071
        3
1071
        3
1000
datoslink
1004
0000000000B49240
  0
VERTEX
  5
12DA
  8
LOTES
 10
537326.77829709649
 20
1029516.565277234
 30
0.75
  0
VERTEX
  5
12DB
  8
LOTES
 10
537299.64815677609
 20
1029592.00030154
 30
0.75
  0
VERTEX
  5
12DC
  8
LOTES
 10
537362.51067703031
 20
1029611.189912988
 30
0.75
  0
VERTEX
  5
12DD
  8
LOTES
 10
537386.33226365224
 20
1029534.431467201
 30
0.75
  0
SEQEND
  5
12DE
  8
LOTES
  0
POLYLINE
  5
30B
  8
LOTES
 66
     1
 10
0.0
 20
0.0
 30
0.1222222222222222
 70
     1
1001
DCO15
1071
        3
1071
        3
1000
datoslink
1004
0000000000AC9240
  0
VERTEX
  5
12DF
  8
LOTES
 10
536983.35042328574
 20
1029721.033895744
 30
0.1222222222222222
  0
VERTEX
  5
12E0
  8
LOTES
 10
537017.75938174117
 20
1029732.944689057
 30
0.1222222222222222
  0
VERTEX
  5
12E1
  8
LOTES
 10
537027.68504283391
 20
1029686.6249372941
 30
0.1222222222222222
  0
VERTEX
  5
12E2
  8
LOTES
 10
536999.23148103431
 20
1029674.714143978
 30
0.1222222222222222
  0
SEQEND
  5
12E3
  8
LOTES
  0
POLYLINE
  5
30C
  8
LOTES
 66
     1
 10
0.0
 20
0.0
 30
0.4
 70
     1
1001
DCO15
1071
        3
1071
        3
1000
datoslink
1004
0000000000A89240
  0
VERTEX
  5
12E4
  8
LOTES
 10
536944.97120039351
 20
1029653.539400313
 30
0.4
  0
VERTEX
  5
12E5
  8
LOTES
 10
537006.51029916853
 20
1029675.375854719
 30
0.4
  0
VERTEX
  5
12E6
  8
LOTES
 10
537027.02333209384
 20
1029629.056102954
 30
0.4
  0
VERTEX
  5
12E7
  8
LOTES
 10
536966.80765479815
 20
1029607.219648549
 30
0.4
  0
SEQEND
  5
12E8
  8
LOTES
  0
POLYLINE
  5
30D
  8
LOTES
 66
     1
 10
0.0
 20
0.0
 30
0.5857142857142859
 70
     1
1001
DCO15
1071
        3
1071
        3
1000
datoslink
1004
0000000000A09240
  0
VERTEX
  5
12E9
  8
LOTES
 10
536997.90805955522
 20
1029675.375854719
 30
0.5857142857142859
  0
VERTEX
  5
12EA
  8
LOTES
 10
536943.64777891617
 20
1029654.862821793
 30
0.5857142857142859
  0
VERTEX
  5
12EB
  8
LOTES
 10
536923.79645672999
 20
1029699.859152082
 30
0.5857142857142859
  0
VERTEX
  5
12EC
  8
LOTES
 10
536981.3652910674
 20
1029721.033895744
 30
0.5857142857142859
  0
SEQEND
  5
12ED
  8
LOTES
  0
POLYLINE
  5
30E
  8
LOTES
 66
     1
 10
0.0
 20
0.0
 30
3.2200000000000002
 70
     1
1001
DCO15
1071
        3
1071
        3
1000
datoslink
1004
0000000000A49240
  0
VERTEX
  5
12EE
  8
LOTES
 10
537096.50295974605
 20
1029485.464872477
 30
3.2200000000000002
  0
VERTEX
  5
12EF
  8
LOTES
 10
537146.79297594819
 20
1029503.331062445
 30
3.2200000000000002
  0
VERTEX
  5
12F0
  8
LOTES
 10
537168.62943035178
 20
1029442.453674408
 30
3.2200000000000002
  0
VERTEX
  5
12F1
  8
LOTES
 10
537120.32454636786
 20
1029427.896038139
 30
3.2200000000000002
  0
SEQEND
  5
12F2
  8
LOTES
  0
POLYLINE
  5
30F
  8
LOTES
 66
     1
 10
0.0
 20
0.0
 30
1.0
 70
     1
1001
DCO15
1071
        3
1071
        3
1000
datoslink
1004
00000000009C9240
  0
VERTEX
  5
12F3
  8
LOTES
 10
537044.88952206168
 20
1029476.862632861
 30
1.0
  0
VERTEX
  5
12F4
  8
LOTES
 10
537091.20927382819
 20
1029494.0671120899
 30
1.0
  0
VERTEX
  5
12F5
  8
LOTES
 10
537126.27994302288
 20
1029409.368137432
 30
1.0
  0
VERTEX
  5
12F6
  8
LOTES
 10
537078.63676977914
 20
1029392.163658205
 30
1.0
  0
SEQEND
  5
12F7
  8
LOTES
  0
POLYLINE
  5
310
  8
LOTES
 66
     1
 10
0.0
 20
0.0
 30
0.28
 70
     1
1001
DCO15
1071
        3
1071
        3
1000
datoslink
1004
0000000000989240
  0
VERTEX
  5
12F8
  8
LOTES
 10
536869.5361760892
 20
1029491.420269131
 30
0.28
  0
VERTEX
  5
12F9
  8
LOTES
 10
536890.7109197547
 20
1029433.1897240561
 30
0.28
  0
VERTEX
  5
12FA
  8
LOTES
 10
536832.48037467524
 20
1029414.661823349
 30
0.28
  0
VERTEX
  5
12FB
  8
LOTES
 10
536811.96734175179
 20
1029473.554079167
 30
0.28
  0
SEQEND
  5
12FC
  8
LOTES
  0
POLYLINE
  5
311
  8
LOTES
 66
     1
 10
0.0
 20
0.0
 30
0.02
 70
     1
1001
DCO15
1071
        3
1071
        3
1000
datoslink
1004
0000000000949240
  0
VERTEX
  5
12FD
  8
LOTES
 10
537015.11253878474
 20
1029367.680360844
 30
0.02
  0
VERTEX
  5
12FE
  8
LOTES
 10
536931.73698560428
 20
1029339.226799043
 30
0.02
  0
VERTEX
  5
12FF
  8
LOTES
 10
536903.28342380468
 20
1029417.308666307
 30
0.02
  0
VERTEX
  5
1300
  8
LOTES
 10
536978.71844811086
 20
1029449.070781804
 30
0.02
  0
SEQEND
  5
1301
  8
LOTES
  0
POLYLINE
  5
312
  8
LOTES
 66
     1
 10
0.0
 20
0.0
 30
0.3333333333333333
 70
     1
1001
DCO15
1071
        3
1071
        3
1000
datoslink
1004
0000000000909240
  0
VERTEX
  5
1302
  8
LOTES
 10
537077.9750590371
 20
1029392.825368944
 30
0.3333333333333333
  0
VERTEX
  5
1303
  8
LOTES
 10
537017.75938174117
 20
1029369.003782321
 30
0.3333333333333333
  0
VERTEX
  5
1304
  8
LOTES
 10
536982.02700180933
 20
1029451.717624763
 30
0.3333333333333333
  0
VERTEX
  5
1305
  8
LOTES
 10
537039.5958361458
 20
1029475.539211383
 30
0.3333333333333333
  0
SEQEND
  5
1306
  8
LOTES
  0
POLYLINE
  5
313
  8
LOTES
 66
     1
 10
0.0
 20
0.0
 30
2.0
 70
     1
1001
DCO15
1071
        1
1071
        1
1000
datoslink
1004
00000000008C9240
1001
ADE_ENTITY_LOCK
1071
1342624882
1071
1342625087
  0
VERTEX
  5
1307
  8
LOTES
 10
537065.402554987
 20
1029310.111526506
 30
2.0
  0
VERTEX
  5
1308
  8
LOTES
 10
537134.22047189623
 20
1029337.903377564
 30
2.0
  0
VERTEX
  5
1309
  8
LOTES
 10
537157.38034777902
 20
1029282.319675443
 30
2.0
  0
VERTEX
  5
130A
  8
LOTES
 10
537087.90072012972
 20
1029256.512956604
 30
2.0
  0
SEQEND
  5
130B
  8
LOTES
  0
POLYLINE
  5
314
  8
LOTES
 66
     1
 10
0.0
 20
0.0
 30
0.6111111111111112
 70
     1
1001
DCO15
1071
        3
1071
        3
1000
datoslink
1004
0000000000889240
  0
VERTEX
  5
130C
  8
LOTES
 10
537063.41742276784
 20
1029313.420080203
 30
0.6111111111111112
  0
VERTEX
  5
130D
  8
LOTES
 10
537036.9489931874
 20
1029374.297468237
 30
0.6111111111111112
  0
VERTEX
  5
130E
  8
LOTES
 10
537103.78177787724
 20
1029400.1041870801
 30
0.6111111111111112
  0
VERTEX
  5
130F
  8
LOTES
 10
537133.55876115721
 20
1029341.211931262
 30
0.6111111111111112
  0
SEQEND
  5
1310
  8
LOTES
  0
POLYLINE
  5
315
  8
LOTES
 66
     1
 10
0.0
 20
0.0
 30
2.0
 70
     1
1001
DCO15
1071
        3
1071
        3
1000
datoslink
1004
0000000000849240
  0
VERTEX
  5
1311
  8
LOTES
 10
537002.54003473278
 20
1029290.92191506
 30
2.0
  0
VERTEX
  5
1312
  8
LOTES
 10
536978.71844811086
 20
1029353.784435317
 30
2.0
  0
VERTEX
  5
1313
  8
LOTES
 10
537035.62557170819
 20
1029372.974046757
 30
2.0
  0
VERTEX
  5
1314
  8
LOTES
 10
537062.09400128853
 20
1029311.434947986
 30
2.0
  0
SEQEND
  5
1315
  8
LOTES
  0
POLYLINE
  5
316
  8
LOTES
 66
     1
 10
0.0
 20
0.0
 30
1.5
 70
     1
1001
DCO15
1071
        3
1071
        3
1000
datoslink
1004
0000000000809240
  0
VERTEX
  5
1316
  8
LOTES
 10
537003.20174547192
 20
1029288.9367828401
 30
1.5
  0
VERTEX
  5
1317
  8
LOTES
 10
537063.41742276784
 20
1029310.111526506
 30
1.5
  0
VERTEX
  5
1318
  8
LOTES
 10
537085.91558791324
 20
1029254.527824385
 30
1.5
  0
VERTEX
  5
1319
  8
LOTES
 10
537025.0381998755
 20
1029231.3679485
 30
1.5
  0
SEQEND
  5
131A
  8
LOTES
  0
POLYLINE
  5
317
  8
LOTES
 66
     1
 10
0.0
 20
0.0
 30
0.09
 70
     1
1001
DCO15
1071
        3
1071
        3
1000
datoslink
1004
00000000007C9240
  0
VERTEX
  5
131B
  8
LOTES
 10
536995.9229273377
 20
1029301.50928689
 30
0.09
  0
VERTEX
  5
131C
  8
LOTES
 10
537015.11253878474
 20
1029251.880981426
 30
0.09
  0
VERTEX
  5
131D
  8
LOTES
 10
536966.1459440589
 20
1029237.985055897
 30
0.09
  0
VERTEX
  5
131E
  8
LOTES
 10
536948.27975409199
 20
1029284.966518402
 30
0.09
  0
SEQEND
  5
131F
  8
LOTES
  0
POLYLINE
  5
318
  8
LOTES
 66
     1
 10
0.0
 20
0.0
 30
0.2
 70
     1
1001
DCO15
1071
        3
1071
        3
1000
datoslink
1004
0000000000789240
  0
VERTEX
  5
1320
  8
LOTES
 10
536995.26121659845
 20
1029303.494419109
 30
0.2
  0
VERTEX
  5
1321
  8
LOTES
 10
536946.29462187272
 20
1029286.289939882
 30
0.2
  0
VERTEX
  5
1322
  8
LOTES
 10
536929.09014264774
 20
1029336.579956084
 30
0.2
  0
VERTEX
  5
1323
  8
LOTES
 10
536977.39502663165
 20
1029353.784435317
 30
0.2
  0
SEQEND
  5
1324
  8
LOTES
  0
POLYLINE
  5
319
  8
LOTES
 66
     1
 10
0.0
 20
0.0
 30
1.1479999999999999
 70
     1
1001
DCO15
1071
        3
1071
        3
1000
datoslink
1004
0000000000749240
  0
VERTEX
  5
1325
  8
LOTES
 10
536568.45778961037
 20
1029154.609502719
 30
1.1479999999999999
  0
VERTEX
  5
1326
  8
LOTES
 10
536619.40951655281
 20
1029154.609502719
 30
1.1479999999999999
  0
VERTEX
  5
1327
  8
LOTES
 10
536619.40951655281
 20
1029103.657775777
 30
1.1479999999999999
  0
VERTEX
  5
1328
  8
LOTES
 10
536568.45778961037
 20
1029103.657775777
 30
1.1479999999999999
  0
SEQEND
  5
1329
  8
LOTES
  0
POLYLINE
  5
31A
  8
LOTES
 66
     1
 10
0.0
 20
0.0
 30
2.5
 70
     1
1001
DCO15
1071
        3
1071
        3
1000
datoslink
1004
0000000000709240
  0
VERTEX
  5
132A
  8
LOTES
 10
537088.56243086979
 20
1029253.2044029071
 30
2.5
  0
VERTEX
  5
132B
  8
LOTES
 10
537122.9713893244
 20
1029185.709907476
 30
2.5
  0
VERTEX
  5
132C
  8
LOTES
 10
537050.8449187167
 20
1029184.386485997
 30
2.5
  0
VERTEX
  5
132D
  8
LOTES
 10
537029.67017505318
 20
1029231.3679485
 30
2.5
  0
SEQEND
  5
132E
  8
LOTES
  0
POLYLINE
  5
31B
  8
LOTES
 66
     1
 10
0.0
 20
0.0
 30
2.7777777777777768
 70
     1
1001
DCO15
1071
        3
1071
        3
1000
datoslink
1004
00000000006C9240
  0
VERTEX
  5
132F
  8
LOTES
 10
537190.4658847563
 20
1029212.17833706
 30
2.7777777777777768
  0
VERTEX
  5
1330
  8
LOTES
 10
537125.61823228281
 20
1029184.386485997
 30
2.7777777777777768
  0
VERTEX
  5
1331
  8
LOTES
 10
537089.88585234899
 20
1029255.189535126
 30
2.7777777777777768
  0
VERTEX
  5
1332
  8
LOTES
 10
537152.08666186419
 20
1029277.68770027
 30
2.7777777777777768
  0
SEQEND
  5
1333
  8
LOTES
  0
POLYLINE
  5
31C
  8
LOTES
 66
     1
 10
0.0
 20
0.0
 30
0.14
 70
     1
1001
DCO15
1071
        3
1071
        3
1000
datoslink
1004
0000000000689240
  0
VERTEX
  5
1334
  8
LOTES
 10
537056.13860463351
 20
1029057.338024009
 30
0.14
  0
VERTEX
  5
1335
  8
LOTES
 10
537074.00479460042
 20
1029010.356561504
 30
0.14
  0
VERTEX
  5
1336
  8
LOTES
 10
537025.69991061755
 20
1028995.79892523
 30
0.14
  0
VERTEX
  5
1337
  8
LOTES
 10
537009.818852867
 20
1029042.118676999
 30
0.14
  0
SEQEND
  5
1338
  8
LOTES
  0
POLYLINE
  5
31D
  8
LOTES
 66
     1
 10
0.0
 20
0.0
 30
0.02
 70
     1
1001
DCO15
1071
        3
1071
        3
1000
datoslink
1004
0000000000649240
  0
VERTEX
  5
1339
  8
LOTES
 10
536927.10501042835
 20
1029108.9514616909
 30
0.02
  0
VERTEX
  5
133A
  8
LOTES
 10
536997.2463488169
 20
1029137.4050234871
 30
0.02
  0
VERTEX
  5
133B
  8
LOTES
 10
537036.9489931874
 20
1029097.040668381
 30
0.02
  0
VERTEX
  5
133C
  8
LOTES
 10
536952.91172926966
 20
1029064.616842145
 30
0.02
  0
SEQEND
  5
133D
  8
LOTES
  0
POLYLINE
  5
31E
  8
LOTES
 66
     1
 10
0.0
 20
0.0
 30
1.4839999999999991
 70
     1
1001
DCO15
1071
        3
1071
        3
1000
datoslink
1004
0000000000609240
  0
VERTEX
  5
133E
  8
LOTES
 10
537341.99764410686
 20
1029157.256345674
 30
1.4839999999999991
  0
VERTEX
  5
133F
  8
LOTES
 10
537268.54775201913
 20
1029127.4793623961
 30
1.4839999999999991
  0
VERTEX
  5
1340
  8
LOTES
 10
537244.06445465796
 20
1029184.386485997
 30
1.4839999999999991
  0
VERTEX
  5
1341
  8
LOTES
 10
537314.20579304639
 20
1029214.825180013
 30
1.4839999999999991
  0
SEQEND
  5
1342
  8
LOTES
  0
POLYLINE
  5
31F
  8
LOTES
 66
     1
 10
0.0
 20
0.0
 30
0.04
 70
     1
1001
DCO15
1071
        3
1071
        3
1000
datoslink
1004
00000000005C9240
  0
VERTEX
  5
1343
  8
LOTES
 10
537058.12373685348
 20
1029057.999734748
 30
0.04
  0
VERTEX
  5
1344
  8
LOTES
 10
537105.76691009745
 20
1029074.542503236
 30
0.04
  0
VERTEX
  5
1345
  8
LOTES
 10
537123.63310006424
 20
1029026.237619251
 30
0.04
  0
VERTEX
  5
1346
  8
LOTES
 10
537075.98992681853
 20
1029009.694850763
 30
0.04
  0
SEQEND
  5
1347
  8
LOTES
  0
POLYLINE
  5
320
  8
LOTES
 66
     1
 10
0.0
 20
0.0
 30
0.15
 70
     1
1001
DCO15
1071
        3
1071
        3
1000
datoslink
1004
0000000000589240
  0
VERTEX
  5
1348
  8
LOTES
 10
537104.44348861941
 20
1029075.865924716
 30
0.15
  0
VERTEX
  5
1349
  8
LOTES
 10
537010.48056360625
 20
1029044.103809219
 30
0.15
  0
VERTEX
  5
134A
  8
LOTES
 10
536996.58463807777
 20
1029080.497899893
 30
0.15
  0
VERTEX
  5
134B
  8
LOTES
 10
537079.2984805163
 20
1029110.936593909
 30
0.15
  0
SEQEND
  5
134C
  8
LOTES
  0
POLYLINE
  5
321
  8
LOTES
 66
     1
 10
0.0
 20
0.0
 30
5.0
 70
     1
1001
DCO15
1071
        3
1071
        3
1000
datoslink
1004
0000000000549240
  0
VERTEX
  5
134D
  8
LOTES
 10
537343.3210655842
 20
1029155.271213459
 30
5.0
  0
VERTEX
  5
134E
  8
LOTES
 10
537380.37686699722
 20
1029070.572238803
 30
5.0
  0
VERTEX
  5
134F
  8
LOTES
 10
537308.91210712865
 20
1029043.442098479
 30
5.0
  0
VERTEX
  5
1350
  8
LOTES
 10
537267.22433053982
 20
1029124.832519438
 30
5.0
  0
SEQEND
  5
1351
  8
LOTES
  0
POLYLINE
  5
322
  8
LOTES
 66
     1
 10
0.0
 20
0.0
 30
0.01
 70
     1
1001
DCO15
1071
        3
1071
        3
1000
datoslink
1004
0000000000449240
  0
VERTEX
  5
1352
  8
LOTES
 10
540103.88642321154
 20
1027091.732132656
 30
0.01
  0
VERTEX
  5
1353
  8
LOTES
 10
540052.93032129935
 20
1027091.732132656
 30
0.01
  0
VERTEX
  5
1354
  8
LOTES
 10
540052.93032129935
 20
1027141.414332023
 30
0.01
  0
VERTEX
  5
1355
  8
LOTES
 10
540103.88642321154
 20
1027141.414332023
 30
0.01
  0
SEQEND
  5
1356
  8
LOTES
  0
POLYLINE
  5
323
  8
LOTES
 66
     1
 10
0.0
 20
0.0
 30
0.15625
 70
     1
1001
DCO15
1071
        3
1071
        3
1000
datoslink
1004
00000000003C9240
  0
VERTEX
  5
1357
  8
LOTES
 10
539775.21956587664
 20
1026784.403142998
 30
0.15625
  0
VERTEX
  5
1358
  8
LOTES
 10
539821.08005759865
 20
1026784.403142998
 30
0.15625
  0
VERTEX
  5
1359
  8
LOTES
 10
539821.08005759865
 20
1026733.447041088
 30
0.15625
  0
VERTEX
  5
135A
  8
LOTES
 10
539775.21956587664
 20
1026733.447041088
 30
0.15625
  0
SEQEND
  5
135B
  8
LOTES
  0
POLYLINE
  5
324
  8
LOTES
 66
     1
 10
0.0
 20
0.0
 30
0.14
 70
     1
1001
DCO15
1071
        3
1071
        3
1000
datoslink
1004
0000000000389240
  0
VERTEX
  5
135C
  8
LOTES
 10
540153.9507933408
 20
1026822.811304819
 30
0.14
  0
VERTEX
  5
135D
  8
LOTES
 10
540048.85383314732
 20
1026822.811304819
 30
0.14
  0
VERTEX
  5
135E
  8
LOTES
 10
540048.85383314732
 20
1026873.767406732
 30
0.14
  0
VERTEX
  5
135F
  8
LOTES
 10
540153.9507933408
 20
1026873.767406732
 30
0.14
  0
SEQEND
  5
1360
  8
LOTES
  0
POLYLINE
  5
325
  8
LOTES
 66
     1
 10
0.0
 20
0.0
 30
0.02
 70
     1
1001
DCO15
1071
        3
1071
        3
1000
datoslink
1004
0000000000349240
  0
VERTEX
  5
1361
  8
LOTES
 10
540153.95079334034
 20
1026820.900450996
 30
0.02
  0
VERTEX
  5
1362
  8
LOTES
 10
540153.95079334034
 20
1026769.3073978079
 30
0.02
  0
VERTEX
  5
1363
  8
LOTES
 10
540092.80347104499
 20
1026769.3073978079
 30
0.02
  0
VERTEX
  5
1364
  8
LOTES
 10
540092.80347104499
 20
1026820.900450996
 30
0.02
  0
SEQEND
  5
1365
  8
LOTES
  0
POLYLINE
  5
326
  8
LOTES
 66
     1
 10
0.0
 20
0.0
 30
0.05
 70
     1
1001
DCO15
1071
        3
1071
        3
1000
datoslink
1004
0000000000309240
  0
VERTEX
  5
1366
  8
LOTES
 10
540236.75445894804
 20
1026961.666682526
 30
0.05
  0
VERTEX
  5
1367
  8
LOTES
 10
540236.75445894804
 20
1026882.6847245659
 30
0.05
  0
VERTEX
  5
1368
  8
LOTES
 10
540174.97018537857
 20
1026882.6847245659
 30
0.05
  0
VERTEX
  5
1369
  8
LOTES
 10
540174.97018537857
 20
1026948.290705774
 30
0.05
  0
SEQEND
  5
136A
  8
LOTES
  0
POLYLINE
  5
327
  8
LOTES
 66
     1
 10
0.0
 20
0.0
 30
0.1057692307692308
 70
     1
1001
DCO15
1071
        3
1071
        3
1000
datoslink
1004
00000000002C9240
  0
VERTEX
  5
136B
  8
LOTES
 10
540220.83067710046
 20
1026881.410822017
 30
0.1057692307692308
  0
VERTEX
  5
136C
  8
LOTES
 10
540220.83067710046
 20
1026793.511546217
 30
0.1057692307692308
  0
VERTEX
  5
136D
  8
LOTES
 10
540155.86164716259
 20
1026793.511546217
 30
0.1057692307692308
  0
VERTEX
  5
136E
  8
LOTES
 10
540155.86164716259
 20
1026881.410822017
 30
0.1057692307692308
  0
SEQEND
  5
136F
  8
LOTES
  0
POLYLINE
  5
328
  8
LOTES
 66
     1
 10
0.0
 20
0.0
 30
0.1
 70
     1
1001
DCO15
1071
        3
1071
        3
1000
datoslink
1004
0000000000289240
  0
VERTEX
  5
1370
  8
LOTES
 10
540302.36044016015
 20
1026912.621434437
 30
0.1
  0
VERTEX
  5
1371
  8
LOTES
 10
540238.66531276994
 20
1026912.621434437
 30
0.1
  0
VERTEX
  5
1372
  8
LOTES
 10
540238.66531276994
 20
1026970.58400036
 30
0.1
  0
VERTEX
  5
1373
  8
LOTES
 10
540302.36044016015
 20
1026970.584000366
 30
0.1
  0
SEQEND
  5
1374
  8
LOTES
  0
POLYLINE
  5
329
  8
LOTES
 66
     1
 10
0.0
 20
0.0
 30
0.1964285714285714
 70
     1
1001
DCO15
1071
        3
1071
        3
1000
datoslink
1004
0000000000249240
  0
VERTEX
  5
1375
  8
LOTES
 10
540250.13043570064
 20
1026835.550330292
 30
0.1964285714285714
  0
VERTEX
  5
1376
  8
LOTES
 10
540309.36690417305
 20
1026835.550330296
 30
0.1964285714285714
  0
VERTEX
  5
1377
  8
LOTES
 10
540309.36690417305
 20
1026775.676910544
 30
0.1964285714285714
  0
VERTEX
  5
1378
  8
LOTES
 10
540250.13043570064
 20
1026775.676910544
 30
0.1964285714285714
  0
SEQEND
  5
1379
  8
LOTES
  0
POLYLINE
  5
32A
  8
LOTES
 66
     1
 10
0.0
 20
0.0
 30
0.05
 70
     1
1001
DCO15
1071
        3
1071
        3
1000
datoslink
1004
0000000000209240
  0
VERTEX
  5
137A
  8
LOTES
 10
540274.33458410855
 20
1026971.857902909
 30
0.05
  0
VERTEX
  5
137B
  8
LOTES
 10
540274.33458410855
 20
1027022.814004823
 30
0.05
  0
VERTEX
  5
137C
  8
LOTES
 10
540324.65373474546
 20
1027022.814004823
 30
0.05
  0
VERTEX
  5
137D
  8
LOTES
 10
540324.65373474546
 20
1026971.857902909
 30
0.05
  0
SEQEND
  5
137E
  8
LOTES
  0
POLYLINE
  5
32B
  8
LOTES
 66
     1
 10
0.0
 20
0.0
 30
0.25
 70
     1
1001
DCO15
1071
        3
1071
        3
1000
datoslink
1004
00000000001C9240
  0
VERTEX
  5
137F
  8
LOTES
 10
540429.11374366749
 20
1026813.893986979
 30
0.25
  0
VERTEX
  5
1380
  8
LOTES
 10
540367.96642137226
 20
1026813.893986979
 30
0.25
  0
VERTEX
  5
1381
  8
LOTES
 10
540367.96642137226
 20
1026875.041309275
 30
0.25
  0
VERTEX
  5
1382
  8
LOTES
 10
540428.47679239325
 20
1026875.041309275
 30
0.25
  0
SEQEND
  5
1383
  8
LOTES
  0
POLYLINE
  5
32C
  8
LOTES
 66
     1
 10
0.0
 20
0.0
 30
0.03
 70
     1
1001
DCO15
1071
        3
1071
        3
1000
datoslink
1004
0000000000149240
  0
VERTEX
  5
1384
  8
LOTES
 10
540512.55436054606
 20
1026554.654818501
 30
0.03
  0
VERTEX
  5
1385
  8
LOTES
 10
540457.13959971815
 20
1026554.654818501
 30
0.03
  0
VERTEX
  5
1386
  8
LOTES
 10
540457.13959971815
 20
1026625.356409905
 30
0.03
  0
VERTEX
  5
1387
  8
LOTES
 10
540512.55436054606
 20
1026625.356409905
 30
0.03
  0
SEQEND
  5
1388
  8
LOTES
  0
POLYLINE
  5
32D
  8
LOTES
 66
     1
 10
0.0
 20
0.0
 30
0.18
 70
     1
1001
DCO15
1071
        3
1071
        3
1000
datoslink
1004
0000000000109240
  0
VERTEX
  5
1389
  8
LOTES
 10
540453.31789207365
 20
1026480.131519453
 30
0.18
  0
VERTEX
  5
138A
  8
LOTES
 10
540453.31789207365
 20
1026552.743964679
 30
0.18
  0
VERTEX
  5
138B
  8
LOTES
 10
540517.01301946491
 20
1026552.743964679
 30
0.18
  0
VERTEX
  5
138C
  8
LOTES
 10
540517.01301946491
 20
1026480.131519453
 30
0.18
  0
SEQEND
  5
138D
  8
LOTES
  0
POLYLINE
  5
32E
  8
LOTES
 66
     1
 10
0.0
 20
0.0
 30
0.25
 70
     1
1001
DCO15
1071
        3
1071
        3
1000
datoslink
1004
00000000000C9240
  0
VERTEX
  5
138E
  8
LOTES
 10
540467.33082010085
 20
1026732.364223921
 30
0.25
  0
VERTEX
  5
138F
  8
LOTES
 10
540467.33082010085
 20
1026668.032145259
 30
0.25
  0
VERTEX
  5
1390
  8
LOTES
 10
540413.82691309263
 20
1026668.032145259
 30
0.25
  0
VERTEX
  5
1391
  8
LOTES
 10
540413.82691309263
 20
1026732.364223921
 30
0.25
  0
SEQEND
  5
1392
  8
LOTES
  0
POLYLINE
  5
32F
  8
LOTES
 66
     1
 10
0.0
 20
0.0
 30
0.1
 70
     1
1001
DCO15
1071
        3
1071
        3
1000
datoslink
1004
0000000000089240
  0
VERTEX
  5
1393
  8
LOTES
 10
540173.05933155771
 20
1026561.024331243
 30
0.1
  0
VERTEX
  5
1394
  8
LOTES
 10
540173.05933155771
 20
1026617.076043345
 30
0.1
  0
VERTEX
  5
1395
  8
LOTES
 10
540232.9327513054
 20
1026617.076043345
 30
0.1
  0
VERTEX
  5
1396
  8
LOTES
 10
540232.9327513054
 20
1026561.024331243
 30
0.1
  0
SEQEND
  5
1397
  8
LOTES
  0
POLYLINE
  5
330
  8
LOTES
 66
     1
 10
0.0
 20
0.0
 30
0.1428571428571428
 70
     1
1001
DCO15
1071
        3
1071
        3
1000
datoslink
1004
0000000000049240
  0
VERTEX
  5
1398
  8
LOTES
 10
540453.95484334789
 20
1026478.857616907
 30
0.1428571428571428
  0
VERTEX
  5
1399
  8
LOTES
 10
540518.28692201164
 20
1026478.857616907
 30
0.1428571428571428
  0
VERTEX
  5
139A
  8
LOTES
 10
540518.28692201164
 20
1026424.079807352
 30
0.1428571428571428
  0
VERTEX
  5
139B
  8
LOTES
 10
540453.95484334789
 20
1026424.079807352
 30
0.1428571428571428
  0
SEQEND
  5
139C
  8
LOTES
  0
POLYLINE
  5
331
  8
LOTES
 66
     1
 10
0.0
 20
0.0
 30
0.1041666666666667
 70
     1
1001
DCO15
1071
        3
1071
        3
1000
datoslink
1004
0000000000009240
  0
VERTEX
  5
139D
  8
LOTES
 10
540399.81398506556
 20
1026447.0100532121
 30
0.1041666666666667
  0
VERTEX
  5
139E
  8
LOTES
 10
540399.81398506556
 20
1026520.259449711
 30
0.1041666666666667
  0
VERTEX
  5
139F
  8
LOTES
 10
540452.04398952716
 20
1026520.259449711
 30
0.1041666666666667
  0
VERTEX
  5
13A0
  8
LOTES
 10
540452.04398952716
 20
1026447.0100532121
 30
0.1041666666666667
  0
SEQEND
  5
13A1
  8
LOTES
  0
POLYLINE
  5
332
  8
LOTES
 66
     1
 10
0.0
 20
0.0
 30
0.05
 70
     1
1001
DCO15
1071
        3
1071
        3
1000
datoslink
1004
0000000000FC9140
  0
VERTEX
  5
13A2
  8
LOTES
 10
540266.69116882142
 20
1026679.497268188
 30
0.05
  0
VERTEX
  5
13A3
  8
LOTES
 10
540318.2842220068
 20
1026679.497268188
 30
0.05
  0
VERTEX
  5
13A4
  8
LOTES
 10
540318.2842220068
 20
1026627.904215002
 30
0.05
  0
VERTEX
  5
13A5
  8
LOTES
 10
540266.69116882142
 20
1026627.904215002
 30
0.05
  0
SEQEND
  5
13A6
  8
LOTES
  0
POLYLINE
  5
333
  8
LOTES
 66
     1
 10
0.0
 20
0.0
 30
0.2142857142857143
 70
     1
1001
DCO15
1071
        3
1071
        3
1000
datoslink
1004
0000000000F89140
  0
VERTEX
  5
13A7
  8
LOTES
 10
540266.05421754718
 20
1026734.275077743
 30
0.2142857142857143
  0
VERTEX
  5
13A8
  8
LOTES
 10
540317.01031945832
 20
1026734.275077743
 30
0.2142857142857143
  0
VERTEX
  5
13A9
  8
LOTES
 10
540317.01031945832
 20
1026680.771170737
 30
0.2142857142857143
  0
VERTEX
  5
13AA
  8
LOTES
 10
540266.05421754718
 20
1026680.771170737
 30
0.2142857142857143
  0
SEQEND
  5
13AB
  8
LOTES
  0
POLYLINE
  5
334
  8
LOTES
 66
     1
 10
0.0
 20
0.0
 30
0.1076923076923077
 70
     1
1001
DCO15
1071
        3
1071
        3
1000
datoslink
1004
0000000000F49140
  0
VERTEX
  5
13AC
  8
LOTES
 10
540343.12532168906
 20
1026482.042373277
 30
0.1076923076923077
  0
VERTEX
  5
13AD
  8
LOTES
 10
540397.90313124564
 20
1026482.042373277
 30
0.1076923076923077
  0
VERTEX
  5
13AE
  8
LOTES
 10
540397.90313124564
 20
1026423.442856077
 30
0.1076923076923077
  0
VERTEX
  5
13AF
  8
LOTES
 10
540343.12532168906
 20
1026423.442856077
 30
0.1076923076923077
  0
SEQEND
  5
13B0
  8
LOTES
  0
POLYLINE
  5
335
  8
LOTES
 66
     1
 10
0.0
 20
0.0
 30
0.0208333333333333
 70
     1
1001
DCO15
1071
        3
1071
        3
1000
datoslink
1004
0000000000F09140
  0
VERTEX
  5
13B1
  8
LOTES
 10
540263.50641245034
 20
1026487.1379834689
 30
0.0208333333333333
  0
VERTEX
  5
13B2
  8
LOTES
 10
540263.50641245034
 20
1026425.9906611739
 30
0.0208333333333333
  0
VERTEX
  5
13B3
  8
LOTES
 10
540194.07872359548
 20
1026425.9906611739
 30
0.0208333333333333
  0
VERTEX
  5
13B4
  8
LOTES
 10
540194.71567486972
 20
1026487.1379834689
 30
0.0208333333333333
  0
SEQEND
  5
13B5
  8
LOTES
  0
POLYLINE
  5
336
  8
LOTES
 66
     1
 10
0.0
 20
0.0
 30
0.0333333333333333
 70
     1
1001
DCO15
1071
        3
1071
        3
1000
datoslink
1004
0000000000EC9140
  0
VERTEX
  5
13B6
  8
LOTES
 10
540256.49994843733
 20
1026559.113477422
 30
0.0333333333333333
  0
VERTEX
  5
13B7
  8
LOTES
 10
540256.49994843733
 20
1026488.411886018
 30
0.0333333333333333
  0
VERTEX
  5
13B8
  8
LOTES
 10
540185.7983570341
 20
1026488.411886018
 30
0.0333333333333333
  0
VERTEX
  5
13B9
  8
LOTES
 10
540185.7983570341
 20
1026559.113477422
 30
0.0333333333333333
  0
SEQEND
  5
13BA
  8
LOTES
  0
POLYLINE
  5
337
  8
LOTES
 66
     1
 10
0.0
 20
0.0
 30
0.125
 70
     1
1001
DCO15
1071
        3
1071
        3
1000
datoslink
1004
0000000000E89140
  0
VERTEX
  5
13BB
  8
LOTES
 10
539752.16192976246
 20
1026532.23413366
 30
0.125
  0
VERTEX
  5
13BC
  8
LOTES
 10
539752.16192976246
 20
1026471.723762642
 30
0.125
  0
VERTEX
  5
13BD
  8
LOTES
 10
539696.74716893246
 20
1026471.723762642
 30
0.125
  0
VERTEX
  5
13BE
  8
LOTES
 10
539696.74716893246
 20
1026532.23413366
 30
0.125
  0
SEQEND
  5
13BF
  8
LOTES
  0
POLYLINE
  5
338
  8
LOTES
 66
     1
 10
0.0
 20
0.0
 30
0.0833333333333333
 70
     1
1001
DCO15
1071
        3
1071
        3
1000
datoslink
1004
0000000000E49140
  0
VERTEX
  5
13C0
  8
LOTES
 10
539775.72912689671
 20
1026616.948653092
 30
0.0833333333333333
  0
VERTEX
  5
13C1
  8
LOTES
 10
539826.68522880785
 20
1026616.948653092
 30
0.0833333333333333
  0
VERTEX
  5
13C2
  8
LOTES
 10
539826.68522880785
 20
1026546.247061688
 30
0.0833333333333333
  0
VERTEX
  5
13C3
  8
LOTES
 10
539775.72912689671
 20
1026546.247061688
 30
0.0833333333333333
  0
SEQEND
  5
13C4
  8
LOTES
  0
POLYLINE
  5
339
  8
LOTES
 66
     1
 10
0.0
 20
0.0
 30
0.125
 70
     1
1001
DCO15
1071
        3
1071
        3
1000
datoslink
1004
0000000000DC9140
  0
VERTEX
  5
13C5
  8
LOTES
 10
539691.01460746676
 20
1026380.0027792
 30
0.125
  0
VERTEX
  5
13C6
  8
LOTES
 10
539691.01460746676
 20
1026438.602296399
 30
0.125
  0
VERTEX
  5
13C7
  8
LOTES
 10
539750.25107594021
 20
1026438.602296399
 30
0.125
  0
VERTEX
  5
13C8
  8
LOTES
 10
539750.25107594021
 20
1026380.0027792
 30
0.125
  0
SEQEND
  5
13C9
  8
LOTES
  0
POLYLINE
  5
33A
  8
LOTES
 66
     1
 10
0.0
 20
0.0
 30
0.075
 70
     1
1001
DCO15
1071
        3
1071
        3
1000
datoslink
1004
0000000000E09140
  0
VERTEX
  5
13CA
  8
LOTES
 10
539690.37765619531
 20
1026322.677164549
 30
0.075
  0
VERTEX
  5
13CB
  8
LOTES
 10
539690.37765619531
 20
1026378.728876652
 30
0.075
  0
VERTEX
  5
13CC
  8
LOTES
 10
539752.79888103635
 20
1026378.728876652
 30
0.075
  0
VERTEX
  5
13CD
  8
LOTES
 10
539777.00302944519
 20
1026341.148751491
 30
0.075
  0
SEQEND
  5
13CE
  8
LOTES
  0
POLYLINE
  5
33B
  8
LOTES
 66
     1
 10
0.0
 20
0.0
 30
0.025
 70
     1
1001
DCO15
1071
        3
1071
        3
1000
datoslink
1004
0000000000D49140
  0
VERTEX
  5
13CF
  8
LOTES
 10
539799.29632403154
 20
1026344.015032222
 30
0.025
  0
VERTEX
  5
13D0
  8
LOTES
 10
539773.81827307679
 20
1026245.9245360449
 30
0.025
  0
VERTEX
  5
13D1
  8
LOTES
 10
539698.65802275483
 20
1026245.9245360449
 30
0.025
  0
VERTEX
  5
13D2
  8
LOTES
 10
539691.01460746676
 20
1026319.810883814
 30
0.025
  0
SEQEND
  5
13D3
  8
LOTES
  0
POLYLINE
  5
33C
  8
LOTES
 66
     1
 10
0.0
 20
0.0
 30
0.05
 70
     1
1001
DCO15
1071
        3
1071
        3
1000
datoslink
1004
0000000000CC9140
  0
VERTEX
  5
13D4
  8
LOTES
 10
540226.05367754574
 20
1026165.350199895
 30
0.05
  0
VERTEX
  5
13D5
  8
LOTES
 10
540179.55623455055
 20
1026165.350199895
 30
0.05
  0
VERTEX
  5
13D6
  8
LOTES
 10
540179.55623455055
 20
1026235.414840024
 30
0.05
  0
VERTEX
  5
13D7
  8
LOTES
 10
540226.05367754574
 20
1026235.414840024
 30
0.05
  0
SEQEND
  5
13D8
  8
LOTES
  0
POLYLINE
  5
33D
  8
LOTES
 66
     1
 10
0.0
 20
0.0
 30
0.01
 70
     1
1001
DCO15
1071
        3
1071
        3
1000
datoslink
1004
0000000000C89140
  0
VERTEX
  5
13D9
  8
LOTES
 10
540154.07818359695
 20
1026375.5441202821
 30
0.01
  0
VERTEX
  5
13DA
  8
LOTES
 10
540213.95160334092
 20
1026375.5441202821
 30
0.01
  0
VERTEX
  5
13DB
  8
LOTES
 10
540213.95160334092
 20
1026325.224969642
 30
0.01
  0
VERTEX
  5
13DC
  8
LOTES
 10
540154.07818359695
 20
1026325.224969642
 30
0.01
  0
SEQEND
  5
13DD
  8
LOTES
  0
POLYLINE
  5
33E
  8
LOTES
 66
     1
 10
0.0
 20
0.0
 30
0.13
 70
     1
1001
DCO15
1071
        3
1071
        3
1000
datoslink
1004
0000000000C49140
  0
VERTEX
  5
13DE
  8
LOTES
 10
540295.48136640247
 20
1026251.975573143
 30
0.13
  0
VERTEX
  5
13DF
  8
LOTES
 10
540279.55758455303
 20
1026165.9871511681
 30
0.13
  0
VERTEX
  5
13E0
  8
LOTES
 10
540227.32758009434
 20
1026165.9871511681
 30
0.13
  0
VERTEX
  5
13E1
  8
LOTES
 10
540227.32758009434
 20
1026251.975573143
 30
0.13
  0
SEQEND
  5
13E2
  8
LOTES
  0
POLYLINE
  5
33F
  8
LOTES
 66
     1
 10
0.0
 20
0.0
 30
0.1
 70
     1
1001
DCO15
1071
        3
1071
        3
1000
datoslink
1004
0000000000C09140
  0
VERTEX
  5
13E3
  8
LOTES
 10
540279.55758455303
 20
1026164.076297346
 30
0.1
  0
VERTEX
  5
13E4
  8
LOTES
 10
540279.55758455303
 20
1026074.903118997
 30
0.1
  0
VERTEX
  5
13E5
  8
LOTES
 10
540209.49294442497
 20
1026074.903118997
 30
0.1
  0
VERTEX
  5
13E6
  8
LOTES
 10
540209.49294442497
 20
1026164.076297346
 30
0.1
  0
SEQEND
  5
13E7
  8
LOTES
  0
POLYLINE
  5
340
  8
LOTES
 66
     1
 10
0.0
 20
0.0
 30
0.2083333333333333
 70
     1
1001
DCO15
1071
        3
1071
        3
1000
datoslink
1004
0000000000BC9140
  0
VERTEX
  5
13E8
  8
LOTES
 10
540154.07818359695
 20
1026376.8180228299
 30
0.2083333333333333
  0
VERTEX
  5
13E9
  8
LOTES
 10
540154.07818359695
 20
1026424.589368373
 30
0.2083333333333333
  0
VERTEX
  5
13EA
  8
LOTES
 10
540216.49940843787
 20
1026424.589368373
 30
0.2083333333333333
  0
VERTEX
  5
13EB
  8
LOTES
 10
540217.13635971211
 20
1026376.8180228299
 30
0.2083333333333333
  0
SEQEND
  5
13EC
  8
LOTES
  0
POLYLINE
  5
341
  8
LOTES
 66
     1
 10
0.0
 20
0.0
 30
0.12
 70
     1
1001
DCO15
1071
        3
1071
        3
1000
datoslink
1004
0000000000B89140
  0
VERTEX
  5
13ED
  8
LOTES
 10
540239.42965429765
 20
1026253.249475691
 30
0.12
  0
VERTEX
  5
13EE
  8
LOTES
 10
540239.42965429765
 20
1026315.670700534
 30
0.12
  0
VERTEX
  5
13EF
  8
LOTES
 10
540310.768196975
 20
1026315.670700534
 30
0.12
  0
VERTEX
  5
13F0
  8
LOTES
 10
540310.768196975
 20
1026253.886426964
 30
0.12
  0
SEQEND
  5
13F1
  8
LOTES
  0
POLYLINE
  5
342
  8
LOTES
 66
     1
 10
0.0
 20
0.0
 30
0.05
 70
     1
1001
DCO15
1071
        3
1071
        3
1000
datoslink
1004
0000000000B49140
  0
VERTEX
  5
13F2
  8
LOTES
 10
540361.72429888928
 20
1026371.085461362
 30
0.05
  0
VERTEX
  5
13F3
  8
LOTES
 10
540432.42589029251
 20
1026371.085461362
 30
0.05
  0
VERTEX
  5
13F4
  8
LOTES
 10
540432.42589029251
 20
1026318.855456904
 30
0.05
  0
VERTEX
  5
13F5
  8
LOTES
 10
540361.72429888928
 20
1026318.855456904
 30
0.05
  0
SEQEND
  5
13F6
  8
LOTES
  0
POLYLINE
  5
343
  8
LOTES
 66
     1
 10
0.0
 20
0.0
 30
0.2777777777777778
 70
     1
1001
DCO15
1071
        3
1071
        3
1000
datoslink
1004
0000000000B09140
  0
VERTEX
  5
13F7
  8
LOTES
 10
540401.85222914442
 20
1026422.04156328
 30
0.2777777777777778
  0
VERTEX
  5
13F8
  8
LOTES
 10
540401.85222914442
 20
1026372.359363915
 30
0.2777777777777778
  0
VERTEX
  5
13F9
  8
LOTES
 10
540341.85141914058
 20
1026372.486754169
 30
0.2777777777777778
  0
VERTEX
  5
13FA
  8
LOTES
 10
540341.85141914058
 20
1026422.16895353
 30
0.2777777777777778
  0
SEQEND
  5
13FB
  8
LOTES
  0
POLYLINE
  5
344
  8
LOTES
 66
     1
 10
0.0
 20
0.0
 30
0.05
 70
     1
1001
DCO15
1071
        3
1071
        3
1000
datoslink
1004
0000000000AC9140
  0
VERTEX
  5
13FC
  8
LOTES
 10
540548.98797341529
 20
1026175.222944638
 30
0.05
  0
VERTEX
  5
13FD
  8
LOTES
 10
540477.64943073795
 20
1026175.222944638
 30
0.05
  0
VERTEX
  5
13FE
  8
LOTES
 10
540477.64943073795
 20
1026250.383194959
 30
0.05
  0
VERTEX
  5
13FF
  8
LOTES
 10
540548.98797341529
 20
1026250.383194959
 30
0.05
  0
SEQEND
  5
1400
  8
LOTES
  0
POLYLINE
  5
345
  8
LOTES
 66
     1
 10
0.0
 20
0.0
 30
1.1759999999999999
 70
     1
1001
DCO15
1071
        3
1071
        3
1000
datoslink
1004
0000000000A89140
  0
VERTEX
  5
1401
  8
LOTES
 10
538746.63105099183
 20
1025018.505103085
 30
1.1759999999999999
  0
VERTEX
  5
1402
  8
LOTES
 10
538786.33304450475
 20
1025060.853896167
 30
1.1759999999999999
  0
VERTEX
  5
1403
  8
LOTES
 10
538804.86064147949
 20
1025017.843403196
 30
1.1759999999999999
  0
VERTEX
  5
1404
  8
LOTES
 10
538752.58635001909
 20
1024952.335113894
 30
1.1759999999999999
  0
VERTEX
  5
1405
  8
LOTES
 10
538723.47155477584
 20
1024972.847810544
 30
1.1759999999999999
  0
SEQEND
  5
1406
  8
LOTES
  0
POLYLINE
  5
346
  8
LOTES
 66
     1
 10
0.0
 20
0.0
 30
0.0238095238095238
 70
     1
1001
DCO15
1071
        3
1071
        3
1000
datoslink
1004
0000000000A49140
  0
VERTEX
  5
1407
  8
LOTES
 10
538689.06316039618
 20
1024923.220318649
 30
0.0238095238095238
  0
VERTEX
  5
1408
  8
LOTES
 10
538706.92905747704
 20
1024958.290412921
 30
0.0238095238095238
  0
VERTEX
  5
1409
  8
LOTES
 10
538736.70555261336
 20
1024943.071315406
 30
0.0238095238095238
  0
VERTEX
  5
140A
  8
LOTES
 10
538716.19285596348
 20
1024907.3395212441
 30
0.0238095238095238
  0
SEQEND
  5
140B
  8
LOTES
  0
POLYLINE
  5
347
  8
LOTES
 66
     1
 10
0.0
 20
0.0
 30
0.1285714285714286
 70
     1
1001
DCO15
1071
        3
1071
        3
1000
datoslink
1004
0000000000A09140
  0
VERTEX
  5
140C
  8
LOTES
 10
538669.21216363739
 20
1024791.5420401579
 30
0.1285714285714286
  0
VERTEX
  5
140D
  8
LOTES
 10
538647.37606720533
 20
1024833.890833245
 30
0.1285714285714286
  0
VERTEX
  5
140E
  8
LOTES
 10
538675.82916255761
 20
1024845.8014312939
 30
0.1285714285714286
  0
VERTEX
  5
140F
  8
LOTES
 10
538704.28225790989
 20
1024803.452638212
 30
0.1285714285714286
  0
SEQEND
  5
1410
  8
LOTES
  0
POLYLINE
  5
348
  8
LOTES
 66
     1
 10
0.0
 20
0.0
 30
0.0088888888888889
 70
     1
1001
DCO15
1071
        3
1071
        3
1000
datoslink
1004
00000000009C9140
  0
VERTEX
  5
1411
  8
LOTES
 10
538686.41636082716
 20
1024745.223047726
 30
0.0088888888888889
  0
VERTEX
  5
1412
  8
LOTES
 10
538671.85896320641
 20
1024789.556940483
 30
0.0088888888888889
  0
VERTEX
  5
1413
  8
LOTES
 10
538705.60565769474
 20
1024802.1292384299
 30
0.0088888888888889
  0
VERTEX
  5
1414
  8
LOTES
 10
538724.13325466681
 20
1024757.133645784
 30
0.0088888888888889
  0
SEQEND
  5
1415
  8
LOTES
  0
POLYLINE
  5
349
  8
LOTES
 66
     1
 10
0.0
 20
0.0
 30
1.1479999999999999
 70
     1
1001
DCO15
1071
        3
1071
        3
1000
datoslink
1004
0000000000989140
  0
VERTEX
  5
1416
  8
LOTES
 10
538667.22706396424
 20
1024473.926092045
 30
1.1479999999999999
  0
VERTEX
  5
1417
  8
LOTES
 10
538716.85455585446
 20
1024473.926092045
 30
1.1479999999999999
  0
VERTEX
  5
1418
  8
LOTES
 10
538716.85455585446
 20
1024424.29860015
 30
1.1479999999999999
  0
VERTEX
  5
1419
  8
LOTES
 10
538667.22706396424
 20
1024424.29860015
 30
1.1479999999999999
  0
SEQEND
  5
141A
  8
LOTES
  0
POLYLINE
  5
34A
  8
LOTES
 66
     1
 10
0.0
 20
0.0
 30
0.0205128205128205
 70
     1
1001
DCO15
1071
        3
1071
        3
1000
datoslink
1004
0000000000949140
  0
VERTEX
  5
141B
  8
LOTES
 10
538665.24196428619
 20
1024772.352743296
 30
0.0205128205128205
  0
VERTEX
  5
141C
  8
LOTES
 10
538622.89317120425
 20
1024765.735744376
 30
0.0205128205128205
  0
VERTEX
  5
141D
  8
LOTES
 10
538608.99747347459
 20
1024814.039836483
 30
0.0205128205128205
  0
VERTEX
  5
141E
  8
LOTES
 10
538647.37606720533
 20
1024827.273834325
 30
0.0205128205128205
  0
SEQEND
  5
141F
  8
LOTES
  0
POLYLINE
  5
34B
  8
LOTES
 66
     1
 10
0.0
 20
0.0
 30
0.0769230769230769
 70
     1
1001
DCO15
1071
        3
1071
        3
1000
datoslink
1004
0000000000909140
  0
VERTEX
  5
1420
  8
LOTES
 10
538666.56536407035
 20
1024771.029343513
 30
0.0769230769230769
  0
VERTEX
  5
1421
  8
LOTES
 10
538683.76956126012
 20
1024714.123152809
 30
0.0769230769230769
  0
VERTEX
  5
1422
  8
LOTES
 10
538637.45056882687
 20
1024707.506153887
 30
0.0769230769230769
  0
VERTEX
  5
1423
  8
LOTES
 10
538622.89317120425
 20
1024764.412344593
 30
0.0769230769230769
  0
SEQEND
  5
1424
  8
LOTES
  0
POLYLINE
  5
34C
  8
LOTES
 66
     1
 10
0.0
 20
0.0
 30
0.14
 70
     1
1001
DCO15
1071
        3
1071
        3
1000
datoslink
1004
00000000008C9140
  0
VERTEX
  5
1425
  8
LOTES
 10
538584.51457747363
 20
1024890.135324057
 30
0.14
  0
VERTEX
  5
1426
  8
LOTES
 10
538615.61447239295
 20
1024911.309720594
 30
0.14
  0
VERTEX
  5
1427
  8
LOTES
 10
538646.05266742315
 20
1024870.946027189
 30
0.14
  0
VERTEX
  5
1428
  8
LOTES
 10
538615.61447239295
 20
1024850.433330539
 30
0.14
  0
SEQEND
  5
1429
  8
LOTES
  0
POLYLINE
  5
34D
  8
LOTES
 66
     1
 10
0.0
 20
0.0
 30
0.2
 70
     1
1001
DCO15
1071
        3
1071
        3
1000
datoslink
1004
0000000000889140
  0
VERTEX
  5
142A
  8
LOTES
 10
538582.52947780024
 20
1024889.473624162
 30
0.2
  0
VERTEX
  5
142B
  8
LOTES
 10
538612.3059729347
 20
1024849.109930757
 30
0.2
  0
VERTEX
  5
142C
  8
LOTES
 10
538578.55927844625
 20
1024827.273834325
 30
0.2
  0
VERTEX
  5
142D
  8
LOTES
 10
538548.12108341791
 20
1024865.6524280549
 30
0.2
  0
SEQEND
  5
142E
  8
LOTES
  0
POLYLINE
  5
34E
  8
LOTES
 66
     1
 10
0.0
 20
0.0
 30
0.1666666666666666
 70
     1
1001
DCO15
1071
        3
1071
        3
1000
datoslink
1004
0000000000849140
  0
VERTEX
  5
142F
  8
LOTES
 10
538534.22538568918
 20
1024913.294820271
 30
0.1666666666666666
  0
VERTEX
  5
1430
  8
LOTES
 10
538511.72758936603
 20
1024947.703214651
 30
0.1666666666666666
  0
VERTEX
  5
1431
  8
LOTES
 10
538546.13598374277
 20
1024968.215911301
 30
0.1666666666666666
  0
VERTEX
  5
1432
  8
LOTES
 10
538567.97208017681
 20
1024935.130916703
 30
0.1666666666666666
  0
SEQEND
  5
1433
  8
LOTES
  0
POLYLINE
  5
34F
  8
LOTES
 66
     1
 10
0.0
 20
0.0
 30
0.025
 70
     1
1001
DCO15
1071
        3
1071
        3
1000
datoslink
1004
0000000000749140
  0
VERTEX
  5
1434
  8
LOTES
 10
537968.86899804417
 20
1024784.660361284
 30
0.025
  0
VERTEX
  5
1435
  8
LOTES
 10
537931.15210420452
 20
1024795.9092594479
 30
0.025
  0
VERTEX
  5
1436
  8
LOTES
 10
537944.38610204309
 20
1024834.287853179
 30
0.025
  0
VERTEX
  5
1437
  8
LOTES
 10
537982.7646957729
 20
1024822.377255121
 30
0.025
  0
SEQEND
  5
1438
  8
LOTES
  0
POLYLINE
  5
350
  8
LOTES
 66
     1
 10
0.0
 20
0.0
 30
0.05
 70
     1
1001
DCO15
1071
        3
1071
        3
1000
datoslink
1004
0000000000709140
  0
VERTEX
  5
1439
  8
LOTES
 10
537914.6096069077
 20
1024316.8385377059
 30
0.05
  0
VERTEX
  5
143A
  8
LOTES
 10
537914.6096069077
 20
1024358.525630895
 30
0.05
  0
VERTEX
  5
143B
  8
LOTES
 10
537960.26689944975
 20
1024358.525630895
 30
0.05
  0
VERTEX
  5
143C
  8
LOTES
 10
537960.26689944975
 20
1024316.8385377059
 30
0.05
  0
SEQEND
  5
143D
  8
LOTES
  0
POLYLINE
  5
351
  8
LOTES
 66
     1
 10
0.0
 20
0.0
 30
1.1485714285714279
 70
     1
1001
DCO15
1071
        3
1071
        3
1000
datoslink
1004
00000000006C9140
  0
VERTEX
  5
143E
  8
LOTES
 10
538005.26249209885
 20
1024421.387120627
 30
1.1485714285714279
  0
VERTEX
  5
143F
  8
LOTES
 10
538045.62618550484
 20
1024421.387120627
 30
1.1485714285714279
  0
VERTEX
  5
1440
  8
LOTES
 10
538045.62618550484
 20
1024381.0234272199
 30
1.1485714285714279
  0
VERTEX
  5
1441
  8
LOTES
 10
538005.26249209885
 20
1024381.0234272199
 30
1.1485714285714279
  0
SEQEND
  5
1442
  8
LOTES
  0
POLYLINE
  5
352
  8
LOTES
 66
     1
 10
0.0
 20
0.0
 30
0.0166666666666667
 70
     1
1001
DCO15
1071
        3
1071
        3
1000
datoslink
1004
0000000000689140
  0
VERTEX
  5
1443
  8
LOTES
 10
540562.73257432028
 20
1026083.577249098
 30
0.0166666666666667
  0
VERTEX
  5
1444
  8
LOTES
 10
540522.36888091464
 20
1026083.577249098
 30
0.0166666666666667
  0
VERTEX
  5
1445
  8
LOTES
 10
540522.36888091464
 20
1026130.557941425
 30
0.0166666666666667
  0
VERTEX
  5
1446
  8
LOTES
 10
540562.73257432028
 20
1026130.557941425
 30
0.0166666666666667
  0
SEQEND
  5
1447
  8
LOTES
  0
POLYLINE
  5
353
  8
LOTES
 66
     1
 10
0.0
 20
0.0
 30
0.1875
 70
     1
1001
DCO15
1071
        3
1071
        3
1000
datoslink
1004
0000000000649140
  0
VERTEX
  5
1448
  8
LOTES
 10
540596.47926880606
 20
1025923.445875255
 30
0.1875
  0
VERTEX
  5
1449
  8
LOTES
 10
540556.11557540018
 20
1025923.445875255
 30
0.1875
  0
VERTEX
  5
144A
  8
LOTES
 10
540556.11557540018
 20
1025963.809568662
 30
0.1875
  0
VERTEX
  5
144B
  8
LOTES
 10
540596.47926880606
 20
1025963.809568662
 30
0.1875
  0
SEQEND
  5
144C
  8
LOTES
  0
POLYLINE
  5
354
  8
LOTES
 66
     1
 10
0.0
 20
0.0
 30
0.05
 70
     1
1001
DCO15
1071
        3
1071
        3
1000
datoslink
1004
0000000000609140
  0
VERTEX
  5
144D
  8
LOTES
 10
540301.6078412655
 20
1026072.988028496
 30
0.05
  0
VERTEX
  5
144E
  8
LOTES
 10
540301.6078412655
 20
1026016.743537685
 30
0.05
  0
VERTEX
  5
144F
  8
LOTES
 10
540230.14425294008
 20
1026016.743537685
 30
0.05
  0
VERTEX
  5
1450
  8
LOTES
 10
540230.14425294008
 20
1026072.988028496
 30
0.05
  0
SEQEND
  5
1451
  8
LOTES
  0
POLYLINE
  5
355
  8
LOTES
 66
     1
 10
0.0
 20
0.0
 30
0.0238095238095238
 70
     1
1001
DCO15
1071
        3
1071
        3
1000
datoslink
1004
00000000005C9140
  0
VERTEX
  5
1452
  8
LOTES
 10
540115.07386041526
 20
1026086.619475122
 30
0.0238095238095238
  0
VERTEX
  5
1453
  8
LOTES
 10
540183.89064917434
 20
1026072.7237773869
 30
0.0238095238095238
  0
VERTEX
  5
1454
  8
LOTES
 10
540183.89064917434
 20
1025987.364491334
 30
0.0238095238095238
  0
VERTEX
  5
1455
  8
LOTES
 10
540095.88456355035
 20
1026019.787786035
 30
0.0238095238095238
  0
SEQEND
  5
1456
  8
LOTES
  0
POLYLINE
  5
356
  8
LOTES
 66
     1
 10
0.0
 20
0.0
 30
0.2777777777777778
 70
     1
1001
DCO15
1071
        3
1071
        3
1000
datoslink
1004
0000000000589140
  0
VERTEX
  5
1457
  8
LOTES
 10
540185.21404895838
 20
1025935.090199871
 30
0.2777777777777778
  0
VERTEX
  5
1458
  8
LOTES
 10
540185.21404895838
 20
1025986.041091548
 30
0.2777777777777778
  0
VERTEX
  5
1459
  8
LOTES
 10
540240.13513998594
 20
1025986.041091548
 30
0.2777777777777778
  0
VERTEX
  5
145A
  8
LOTES
 10
540240.13513998594
 20
1025935.090199871
 30
0.2777777777777778
  0
SEQEND
  5
145B
  8
LOTES
  0
POLYLINE
  5
357
  8
LOTES
 66
     1
 10
0.0
 20
0.0
 30
0.0888888888888889
 70
     1
1001
DCO15
1071
        3
1071
        3
1000
datoslink
1004
0000000000549140
  0
VERTEX
  5
145C
  8
LOTES
 10
540056.84426992852
 20
1025787.5311239749
 30
0.0888888888888889
  0
VERTEX
  5
145D
  8
LOTES
 10
540107.13346171274
 20
1025787.5311239749
 30
0.0888888888888889
  0
VERTEX
  5
145E
  8
LOTES
 10
540152.79075425502
 20
1025776.2822258139
 30
0.0888888888888889
  0
VERTEX
  5
145F
  8
LOTES
 10
540152.79075425502
 20
1025725.331334136
 30
0.0888888888888889
  0
VERTEX
  5
1460
  8
LOTES
 10
540072.72506733343
 20
1025741.212131547
 30
0.0888888888888889
  0
SEQEND
  5
1461
  8
LOTES
  0
POLYLINE
  5
358
  8
LOTES
 66
     1
 10
0.0
 20
0.0
 30
0.0520833333333334
 70
     1
1001
DCO15
1071
        3
1071
        3
1000
datoslink
1004
0000000000509140
  0
VERTEX
  5
1462
  8
LOTES
 10
540228.22882131406
 20
1025770.652651237
 30
0.0520833333333334
  0
VERTEX
  5
1463
  8
LOTES
 10
540228.22882131406
 20
1025720.362635035
 30
0.0520833333333334
  0
VERTEX
  5
1464
  8
LOTES
 10
540154.11721848696
 20
1025725.656320948
 30
0.0520833333333334
  0
VERTEX
  5
1465
  8
LOTES
 10
540154.11415403895
 20
1025775.620525921
 30
0.0520833333333334
  0
SEQEND
  5
1466
  8
LOTES
  0
POLYLINE
  5
359
  8
LOTES
 66
     1
 10
0.0
 20
0.0
 30
0.0666666666666667
 70
     1
1001
DCO15
1071
        3
1071
        3
1000
datoslink
1004
00000000004C9140
  0
VERTEX
  5
1467
  8
LOTES
 10
540229.55224279407
 20
1025770.652651237
 30
0.0666666666666667
  0
VERTEX
  5
1468
  8
LOTES
 10
540300.35529192258
 20
1025770.652651237
 30
0.0666666666666667
  0
VERTEX
  5
1469
  8
LOTES
 10
540300.35529192258
 20
1025719.70092429
 30
0.0666666666666667
  0
VERTEX
  5
146A
  8
LOTES
 10
540229.55224279407
 20
1025719.70092429
 30
0.0666666666666667
  0
SEQEND
  5
146B
  8
LOTES
  0
POLYLINE
  5
35A
  8
LOTES
 66
     1
 10
0.0
 20
0.0
 30
0.1714285714285714
 70
     1
1001
DCO15
1071
        3
1071
        3
1000
datoslink
1004
0000000000489140
  0
VERTEX
  5
146C
  8
LOTES
 10
540644.44487647165
 20
1025627.723131502
 30
0.1714285714285714
  0
VERTEX
  5
146D
  8
LOTES
 10
540565.70129846968
 20
1025627.723131502
 30
0.1714285714285714
  0
VERTEX
  5
146E
  8
LOTES
 10
540565.70129846968
 20
1025687.9388087949
 30
0.1714285714285714
  0
VERTEX
  5
146F
  8
LOTES
 10
540633.85750463884
 20
1025687.9388087949
 30
0.1714285714285714
  0
SEQEND
  5
1470
  8
LOTES
  0
POLYLINE
  5
35B
  8
LOTES
 66
     1
 10
0.0
 20
0.0
 30
0.06
 70
     1
1001
DCO15
1071
        3
1071
        3
1000
datoslink
1004
0000000000449140
  0
VERTEX
  5
1471
  8
LOTES
 10
540612.68276097625
 20
1025568.169164942
 30
0.06
  0
VERTEX
  5
1472
  8
LOTES
 10
540612.68276097625
 20
1025626.399710022
 30
0.06
  0
VERTEX
  5
1473
  8
LOTES
 10
540670.9133060528
 20
1025626.399710022
 30
0.06
  0
VERTEX
  5
1474
  8
LOTES
 10
540671.57501679193
 20
1025583.388511952
 30
0.06
  0
VERTEX
  5
1475
  8
LOTES
 10
540652.46127027005
 20
1025565.661407685
 30
0.06
  0
SEQEND
  5
1476
  8
LOTES
  0
POLYLINE
  5
35C
  8
LOTES
 66
     1
 10
0.0
 20
0.0
 30
0.2142857142857143
 70
     1
1001
DCO15
1071
        3
1071
        3
1000
datoslink
1004
0000000000409140
  0
VERTEX
  5
1477
  8
LOTES
 10
540556.43734811619
 20
1025518.540859479
 30
0.2142857142857143
  0
VERTEX
  5
1478
  8
LOTES
 10
540556.43734811619
 20
1025570.154297162
 30
0.2142857142857143
  0
VERTEX
  5
1479
  8
LOTES
 10
540646.43000868906
 20
1025564.198900506
 30
0.2142857142857143
  0
VERTEX
  5
147A
  8
LOTES
 10
540609.37420727778
 20
1025518.540859479
 30
0.2142857142857143
  0
SEQEND
  5
147B
  8
LOTES
  0
POLYLINE
  5
35D
  8
LOTES
 66
     1
 10
0.0
 20
0.0
 30
0.2613636363636363
 70
     1
1001
DCO15
1071
        3
1071
        3
1000
datoslink
1004
00000000003C9140
  0
VERTEX
  5
147C
  8
LOTES
 10
540500.85364599631
 20
1025626.399710022
 30
0.2613636363636363
  0
VERTEX
  5
147D
  8
LOTES
 10
540503.5004889546
 20
1025681.3217014041
 30
0.2613636363636363
  0
VERTEX
  5
147E
  8
LOTES
 10
540563.71616625215
 20
1025687.277098056
 30
0.2613636363636363
  0
VERTEX
  5
147F
  8
LOTES
 10
540563.71616625215
 20
1025626.399710027
 30
0.2613636363636363
  0
SEQEND
  5
1480
  8
LOTES
  0
POLYLINE
  5
35E
  8
LOTES
 66
     1
 10
0.0
 20
0.0
 30
0.1111111111111111
 70
     1
1001
DCO15
1071
        3
1071
        3
1000
datoslink
1004
0000000000389140
  0
VERTEX
  5
1481
  8
LOTES
 10
540493.57482786104
 20
1025571.477718642
 30
0.1111111111111111
  0
VERTEX
  5
1482
  8
LOTES
 10
540498.86851377692
 20
1025625.0762885429
 30
0.1111111111111111
  0
VERTEX
  5
1483
  8
LOTES
 10
540563.71616625041
 20
1025625.0762885429
 30
0.1111111111111111
  0
VERTEX
  5
1484
  8
LOTES
 10
540554.45221589692
 20
1025571.477718642
 30
0.1111111111111111
  0
SEQEND
  5
1485
  8
LOTES
  0
POLYLINE
  5
35F
  8
LOTES
 66
     1
 10
0.0
 20
0.0
 30
0.3333333333333333
 70
     1
1001
DCO15
1071
        3
1071
        3
1000
datoslink
1004
0000000000349140
  0
VERTEX
  5
1486
  8
LOTES
 10
540493.57482786104
 20
1025518.540859479
 30
0.3333333333333333
  0
VERTEX
  5
1487
  8
LOTES
 10
540493.57482786104
 20
1025569.492586422
 30
0.3333333333333333
  0
VERTEX
  5
1488
  8
LOTES
 10
540554.45221589692
 20
1025569.492586422
 30
0.3333333333333333
  0
VERTEX
  5
1489
  8
LOTES
 10
540555.11392663699
 20
1025518.540859479
 30
0.3333333333333333
  0
SEQEND
  5
148A
  8
LOTES
  0
POLYLINE
  5
360
  8
LOTES
 66
     1
 10
0.0
 20
0.0
 30
0.05
 70
     1
1001
DCO15
1071
        3
1071
        3
1000
datoslink
1004
0000000000309140
  0
VERTEX
  5
148B
  8
LOTES
 10
540342.04306851141
 20
1025575.4479830801
 30
0.05
  0
VERTEX
  5
148C
  8
LOTES
 10
540353.95386182319
 20
1025631.69339594
 30
0.05
  0
VERTEX
  5
148D
  8
LOTES
 10
540429.38888612774
 20
1025617.1357596701
 30
0.05
  0
VERTEX
  5
148E
  8
LOTES
 10
540414.83124985918
 20
1025562.875479029
 30
0.05
  0
SEQEND
  5
148F
  8
LOTES
  0
POLYLINE
  5
361
  8
LOTES
 66
     1
 10
0.0
 20
0.0
 30
0.0568181818181818
 70
     1
1001
DCO15
1071
        3
1071
        3
1000
datoslink
1004
00000000002C9140
  0
VERTEX
  5
1490
  8
LOTES
 10
540340.05793629226
 20
1025575.4479830801
 30
0.0568181818181818
  0
VERTEX
  5
1491
  8
LOTES
 10
540281.16568047565
 20
1025584.711933436
 30
0.0568181818181818
  0
VERTEX
  5
1492
  8
LOTES
 10
540275.21028382052
 20
1025633.016817419
 30
0.0568181818181818
  0
VERTEX
  5
1493
  8
LOTES
 10
540351.96872960404
 20
1025632.355106674
 30
0.0568181818181818
  0
SEQEND
  5
1494
  8
LOTES
  0
POLYLINE
  5
362
  8
LOTES
 66
     1
 10
0.0
 20
0.0
 30
0.0833333333333333
 70
     1
1001
DCO15
1071
        3
1071
        3
1000
datoslink
1004
0000000000289140
  0
VERTEX
  5
1495
  8
LOTES
 10
540318.22148188949
 20
1025531.11336353
 30
0.0833333333333333
  0
VERTEX
  5
1496
  8
LOTES
 10
540319.54490336869
 20
1025577.4331153
 30
0.0833333333333333
  0
VERTEX
  5
1497
  8
LOTES
 10
540396.96505989227
 20
1025564.198900506
 30
0.0833333333333333
  0
VERTEX
  5
1498
  8
LOTES
 10
540378.43715918541
 20
1025531.11336353
 30
0.0833333333333333
  0
SEQEND
  5
1499
  8
LOTES
  0
POLYLINE
  5
363
  8
LOTES
 66
     1
 10
0.0
 20
0.0
 30
0.0634920634920635
 70
     1
1001
DCO15
1071
        3
1071
        3
1000
datoslink
1004
0000000000249140
  0
VERTEX
  5
149A
  8
LOTES
 10
540284.47423417401
 20
1025478.176504373
 30
0.0634920634920635
  0
VERTEX
  5
149B
  8
LOTES
 10
540284.47423417401
 20
1025529.128231311
 30
0.0634920634920635
  0
VERTEX
  5
149C
  8
LOTES
 10
540334.76425037719
 20
1025529.128231311
 30
0.0634920634920635
  0
VERTEX
  5
149D
  8
LOTES
 10
540334.76425037719
 20
1025478.176504373
 30
0.0634920634920635
  0
SEQEND
  5
149E
  8
LOTES
  0
POLYLINE
  5
364
  8
LOTES
 66
     1
 10
0.0
 20
0.0
 30
0.0266666666666667
 70
     1
1001
DCO15
1071
        3
1071
        3
1000
datoslink
1004
0000000000209140
  0
VERTEX
  5
149F
  8
LOTES
 10
540554.45221589692
 20
1025465.604000318
 30
0.0266666666666667
  0
VERTEX
  5
14A0
  8
LOTES
 10
540554.45221589692
 20
1025441.782413695
 30
0.0266666666666667
  0
VERTEX
  5
14A1
  8
LOTES
 10
540504.16219969466
 20
1025433.8418848231
 30
0.0266666666666667
  0
VERTEX
  5
14A2
  8
LOTES
 10
540493.57482786104
 20
1025474.86795067
 30
0.0266666666666667
  0
SEQEND
  5
14A3
  8
LOTES
  0
POLYLINE
  5
365
  8
LOTES
 66
     1
 10
0.0
 20
0.0
 30
0.2407407407407407
 70
     1
1001
DCO15
1071
        3
1071
        3
1000
datoslink
1004
00000000001C9140
  0
VERTEX
  5
14A4
  8
LOTES
 10
540173.96854067314
 20
1025628.384842241
 30
0.2407407407407407
  0
VERTEX
  5
14A5
  8
LOTES
 10
540181.24735880829
 20
1025578.7565367779
 30
0.2407407407407407
  0
VERTEX
  5
14A6
  8
LOTES
 10
540146.17668961373
 20
1025579.418247517
 30
0.2407407407407407
  0
VERTEX
  5
14A7
  8
LOTES
 10
540113.0911526382
 20
1025628.384842241
 30
0.2407407407407407
  0
SEQEND
  5
14A8
  8
LOTES
  0
POLYLINE
  5
366
  8
LOTES
 66
     1
 10
0.0
 20
0.0
 30
0.2222222222222222
 70
     1
1001
DCO15
1071
        3
1071
        3
1000
datoslink
1004
0000000000189140
  0
VERTEX
  5
14A9
  8
LOTES
 10
540555.77563737612
 20
1025517.217438001
 30
0.2222222222222222
  0
VERTEX
  5
14AA
  8
LOTES
 10
540609.37420727778
 20
1025517.217438001
 30
0.2222222222222222
  0
VERTEX
  5
14AB
  8
LOTES
 10
540588.86117435165
 20
1025470.235975496
 30
0.2222222222222222
  0
VERTEX
  5
14AC
  8
LOTES
 10
540555.77563737612
 20
1025445.090967392
 30
0.2222222222222222
  0
SEQEND
  5
14AD
  8
LOTES
  0
POLYLINE
  5
367
  8
LOTES
 66
     1
 10
0.0
 20
0.0
 30
0.1333333333333333
 70
     1
1001
DCO15
1071
        3
1071
        3
1000
datoslink
1004
0000000000149140
  0
VERTEX
  5
14AE
  8
LOTES
 10
540554.45221589692
 20
1025517.217438001
 30
0.1333333333333333
  0
VERTEX
  5
14AF
  8
LOTES
 10
540554.45221589692
 20
1025467.5891325379
 30
0.1333333333333333
  0
VERTEX
  5
14B0
  8
LOTES
 10
540494.89824934117
 20
1025476.191372154
 30
0.1333333333333333
  0
VERTEX
  5
14B1
  8
LOTES
 10
540494.89824934117
 20
1025517.217438001
 30
0.1333333333333333
  0
SEQEND
  5
14B2
  8
LOTES
  0
POLYLINE
  5
368
  8
LOTES
 66
     1
 10
0.0
 20
0.0
 30
0.3
 70
     1
1001
DCO15
1071
        3
1071
        3
1000
datoslink
1004
0000000000109140
  0
VERTEX
  5
14B3
  8
LOTES
 10
538361.35579269845
 20
1025210.052565167
 30
0.3
  0
VERTEX
  5
14B4
  8
LOTES
 10
538398.41159410961
 20
1025179.613871146
 30
0.3
  0
VERTEX
  5
14B5
  8
LOTES
 10
538377.89856118616
 20
1025144.543201955
 30
0.3
  0
VERTEX
  5
14B6
  8
LOTES
 10
538340.18104903225
 20
1025178.290449669
 30
0.3
  0
SEQEND
  5
14B7
  8
LOTES
  0
POLYLINE
  5
369
  8
LOTES
 66
     1
 10
0.0
 20
0.0
 30
0.4166666666666667
 70
     1
1001
DCO15
1071
        3
1071
        3
1000
datoslink
1004
00000000000C9140
  0
VERTEX
  5
14B8
  8
LOTES
 10
538502.30018021353
 20
1025376.803671528
 30
0.4166666666666667
  0
VERTEX
  5
14B9
  8
LOTES
 10
538539.35598162934
 20
1025413.197762197
 30
0.4166666666666667
  0
VERTEX
  5
14BA
  8
LOTES
 10
538567.14783268701
 20
1025385.405911138
 30
0.4166666666666667
  0
VERTEX
  5
14BB
  8
LOTES
 10
538532.07716349245
 20
1025349.673531204
 30
0.4166666666666667
  0
SEQEND
  5
14BC
  8
LOTES
  0
POLYLINE
  5
36A
  8
LOTES
 66
     1
 10
0.0
 20
0.0
 30
0.09375
 70
     1
1001
DCO15
1071
        3
1071
        3
1000
datoslink
1004
0000000000089140
  0
VERTEX
  5
14BD
  8
LOTES
 10
538581.70546895626
 20
1025459.517513966
 30
0.09375
  0
VERTEX
  5
14BE
  8
LOTES
 10
538614.79100593447
 20
1025433.049084382
 30
0.09375
  0
VERTEX
  5
14BF
  8
LOTES
 10
538580.38204747695
 20
1025395.99328297
 30
0.09375
  0
VERTEX
  5
14C0
  8
LOTES
 10
538548.61993198085
 20
1025421.800001813
 30
0.09375
  0
SEQEND
  5
14C1
  8
LOTES
  0
POLYLINE
  5
36B
  8
LOTES
 66
     1
 10
0.0
 20
0.0
 30
0.0625
 70
     1
1001
DCO15
1071
        3
1071
        3
1000
datoslink
1004
0000000000049140
  0
VERTEX
  5
14C2
  8
LOTES
 10
538498.99162651761
 20
1025698.395090933
 30
0.0625
  0
VERTEX
  5
14C3
  8
LOTES
 10
538498.99162651761
 20
1025647.443363986
 30
0.0625
  0
VERTEX
  5
14C4
  8
LOTES
 10
538448.70161031536
 20
1025647.443363986
 30
0.0625
  0
VERTEX
  5
14C5
  8
LOTES
 10
538448.70161031536
 20
1025698.395090933
 30
0.0625
  0
SEQEND
  5
14C6
  8
LOTES
  0
POLYLINE
  5
36C
  8
LOTES
 66
     1
 10
0.0
 20
0.0
 30
0.24
 70
     1
1001
DCO15
1071
        3
1071
        3
1000
datoslink
1004
0000000000009140
  0
VERTEX
  5
14C7
  8
LOTES
 10
538330.91709867946
 20
1025736.112603083
 30
0.24
  0
VERTEX
  5
14C8
  8
LOTES
 10
538395.103040413
 20
1025712.291016457
 30
0.24
  0
VERTEX
  5
14C9
  8
LOTES
 10
538383.85395784036
 20
1025648.766785467
 30
0.24
  0
VERTEX
  5
14CA
  8
LOTES
 10
538317.02117315028
 20
1025669.941529132
 30
0.24
  0
SEQEND
  5
14CB
  8
LOTES
  0
POLYLINE
  5
36D
  8
LOTES
 66
     1
 10
0.0
 20
0.0
 30
1.6499999999999999
 70
     1
1001
DCO15
1071
        3
1071
        3
1000
datoslink
1004
0000000000FC9040
  0
VERTEX
  5
14CC
  8
LOTES
 10
538193.28126486018
 20
1025746.699974913
 30
1.6499999999999999
  0
VERTEX
  5
14CD
  8
LOTES
 10
538254.82036363531
 20
1025746.038264174
 30
1.6499999999999999
  0
VERTEX
  5
14CE
  8
LOTES
 10
538275.99510729872
 20
1025676.558636529
 30
1.6499999999999999
  0
VERTEX
  5
14CF
  8
LOTES
 10
538217.10285148222
 20
1025675.235215045
 30
1.6499999999999999
  0
SEQEND
  5
14D0
  8
LOTES
  0
POLYLINE
  5
36E
  8
LOTES
 66
     1
 10
0.0
 20
0.0
 30
0.1
 70
     1
1001
DCO15
1071
        3
1071
        3
1000
datoslink
1004
0000000000F89040
  0
VERTEX
  5
14D1
  8
LOTES
 10
538279.96537173633
 20
1025474.075150234
 30
0.1
  0
VERTEX
  5
14D2
  8
LOTES
 10
538313.71261945192
 20
1025481.353968367
 30
0.1
  0
VERTEX
  5
14D3
  8
LOTES
 10
538323.63828054455
 20
1025442.313034737
 30
0.1
  0
VERTEX
  5
14D4
  8
LOTES
 10
538289.22932208981
 20
1025434.372505862
 30
0.1
  0
SEQEND
  5
14D5
  8
LOTES
  0
POLYLINE
  5
36F
  8
LOTES
 66
     1
 10
0.0
 20
0.0
 30
0.5400000000000002
 70
     1
1001
DCO15
1071
        3
1071
        3
1000
datoslink
1004
0000000000F49040
  0
VERTEX
  5
14D6
  8
LOTES
 10
538133.06558756251
 20
1025747.361685658
 30
0.5400000000000002
  0
VERTEX
  5
14D7
  8
LOTES
 10
538184.01731450669
 20
1025762.581032662
 30
0.5400000000000002
  0
VERTEX
  5
14D8
  8
LOTES
 10
538205.19205817021
 20
1025705.012198327
 30
0.5400000000000002
  0
VERTEX
  5
14D9
  8
LOTES
 10
538156.22546344716
 20
1025693.101405017
 30
0.5400000000000002
  0
SEQEND
  5
14DA
  8
LOTES
  0
POLYLINE
  5
370
  8
LOTES
 66
     1
 10
0.0
 20
0.0
 30
0.0833333333333333
 70
     1
1001
DCO15
1071
        3
1071
        3
1000
datoslink
1004
0000000000F09040
  0
VERTEX
  5
14DB
  8
LOTES
 10
538122.4782157318
 20
1025625.606909582
 30
0.0833333333333333
  0
VERTEX
  5
14DC
  8
LOTES
 10
538118.50795129314
 20
1025675.8969257839
 30
0.0833333333333333
  0
VERTEX
  5
14DD
  8
LOTES
 10
538166.81283527985
 20
1025682.514033181
 30
0.0833333333333333
  0
VERTEX
  5
14DE
  8
LOTES
 10
538172.1065211948
 20
1025629.577174021
 30
0.0833333333333333
  0
SEQEND
  5
14DF
  8
LOTES
  0
POLYLINE
  5
371
  8
LOTES
 66
     1
 10
0.0
 20
0.0
 30
0.4375
 70
     1
1001
DCO15
1071
        3
1071
        3
1000
datoslink
1004
0000000000EC9040
  0
VERTEX
  5
14E0
  8
LOTES
 10
538109.24400094058
 20
1025549.510174541
 30
0.4375
  0
VERTEX
  5
14E1
  8
LOTES
 10
538056.96885251813
 20
1025549.510174541
 30
0.4375
  0
VERTEX
  5
14E2
  8
LOTES
 10
538056.96885251813
 20
1025595.168215565
 30
0.4375
  0
VERTEX
  5
14E3
  8
LOTES
 10
538108.58229020052
 20
1025595.168215565
 30
0.4375
  0
SEQEND
  5
14E4
  8
LOTES
  0
POLYLINE
  5
372
  8
LOTES
 66
     1
 10
0.0
 20
0.0
 30
0.1111111111111111
 70
     1
1001
DCO15
1071
        3
1071
        3
1000
datoslink
1004
0000000000E89040
  0
VERTEX
  5
14E5
  8
LOTES
 10
538103.28860428557
 20
1025546.863331582
 30
0.1111111111111111
  0
VERTEX
  5
14E6
  8
LOTES
 10
538101.3034720663
 20
1025495.911604639
 30
0.1111111111111111
  0
VERTEX
  5
14E7
  8
LOTES
 10
538051.01345586311
 20
1025495.911604639
 30
0.1111111111111111
  0
VERTEX
  5
14E8
  8
LOTES
 10
538052.99858808238
 20
1025546.201620841
 30
0.1111111111111111
  0
SEQEND
  5
14E9
  8
LOTES
  0
POLYLINE
  5
373
  8
LOTES
 66
     1
 10
0.0
 20
0.0
 30
0.05
 70
     1
1001
DCO15
1071
        3
1071
        3
1000
datoslink
1004
0000000000E49040
  0
VERTEX
  5
14EA
  8
LOTES
 10
538033.1472658962
 20
1025386.7293326179
 30
0.05
  0
VERTEX
  5
14EB
  8
LOTES
 10
538063.58595991333
 20
1025418.491448114
 30
0.05
  0
VERTEX
  5
14EC
  8
LOTES
 10
538112.55255463906
 20
1025407.242365543
 30
0.05
  0
VERTEX
  5
14ED
  8
LOTES
 10
538080.79043914285
 20
1025372.17169635
 30
0.05
  0
SEQEND
  5
14EE
  8
LOTES
  0
POLYLINE
  5
374
  8
LOTES
 66
     1
 10
0.0
 20
0.0
 30
0.125
 70
     1
1001
DCO15
1071
        3
1071
        3
1000
datoslink
1004
0000000000E09040
  0
VERTEX
  5
14EF
  8
LOTES
 10
538109.24400094058
 20
1025622.960066624
 30
0.125
  0
VERTEX
  5
14F0
  8
LOTES
 10
538171.44481045473
 20
1025626.930331061
 30
0.125
  0
VERTEX
  5
14F1
  8
LOTES
 10
538177.40020711254
 20
1025573.331761161
 30
0.125
  0
VERTEX
  5
14F2
  8
LOTES
 10
538111.22913315892
 20
1025568.699785983
 30
0.125
  0
SEQEND
  5
14F3
  8
LOTES
  0
POLYLINE
  5
375
  8
LOTES
 66
     1
 10
0.0
 20
0.0
 30
0.0625
 70
     1
1001
DCO15
1071
        3
1071
        3
1000
datoslink
1004
0000000000DC9040
  0
VERTEX
  5
14F4
  8
LOTES
 10
538258.79062807374
 20
1025474.736860974
 30
0.0625
  0
VERTEX
  5
14F5
  8
LOTES
 10
538208.50061186869
 20
1025465.4729106179
 30
0.0625
  0
VERTEX
  5
14F6
  8
LOTES
 10
538186.0024467241
 20
1025511.1309516469
 30
0.0625
  0
VERTEX
  5
14F7
  8
LOTES
 10
538234.96904144902
 20
1025523.041744957
 30
0.0625
  0
SEQEND
  5
14F8
  8
LOTES
  0
POLYLINE
  5
376
  8
LOTES
 66
     1
 10
0.0
 20
0.0
 30
0.0303030303030303
 70
     1
1001
DCO15
1071
        3
1071
        3
1000
datoslink
1004
0000000000D89040
  0
VERTEX
  5
14F9
  8
LOTES
 10
538052.33687734324
 20
1025336.4393164139
 30
0.0303030303030303
  0
VERTEX
  5
14FA
  8
LOTES
 10
538008.66396853526
 20
1025350.9969526849
 30
0.0303030303030303
  0
VERTEX
  5
14FB
  8
LOTES
 10
538029.83871219773
 20
1025386.067621877
 30
0.0303030303030303
  0
VERTEX
  5
14FC
  8
LOTES
 10
538080.12872840278
 20
1025370.84827487
 30
0.0303030303030303
  0
SEQEND
  5
14FD
  8
LOTES
  0
POLYLINE
  5
377
  8
LOTES
 66
     1
 10
0.0
 20
0.0
 30
0.08
 70
     1
1001
DCO15
1071
        3
1071
        3
1000
datoslink
1004
0000000000D49040
  0
VERTEX
  5
14FE
  8
LOTES
 10
538193.94297560025
 20
1025215.346251083
 30
0.08
  0
VERTEX
  5
14FF
  8
LOTES
 10
538197.913240036
 20
1025165.056234875
 30
0.08
  0
VERTEX
  5
1500
  8
LOTES
 10
538147.62322383281
 20
1025161.085970442
 30
0.08
  0
VERTEX
  5
1501
  8
LOTES
 10
538142.99124865804
 20
1025211.375986645
 30
0.08
  0
SEQEND
  5
1502
  8
LOTES
  0
POLYLINE
  5
378
  8
LOTES
 66
     1
 10
0.0
 20
0.0
 30
0.2285714285714286
 70
     1
1001
DCO15
1071
        3
1071
        3
1000
datoslink
1004
0000000000D09040
  0
VERTEX
  5
1503
  8
LOTES
 10
538199.2366615152
 20
1025370.84827487
 30
0.2285714285714286
  0
VERTEX
  5
1504
  8
LOTES
 10
538152.91690974869
 20
1025364.231167473
 30
0.2285714285714286
  0
VERTEX
  5
1505
  8
LOTES
 10
538133.72729830456
 20
1025410.550919238
 30
0.2285714285714286
  0
VERTEX
  5
1506
  8
LOTES
 10
538184.67902524676
 20
1025418.491448114
 30
0.2285714285714286
  0
SEQEND
  5
1507
  8
LOTES
  0
POLYLINE
  5
379
  8
LOTES
 66
     1
 10
0.0
 20
0.0
 30
0.1666666666666666
 70
     1
1001
DCO15
1071
        3
1071
        3
1000
datoslink
1004
0000000000CC9040
  0
VERTEX
  5
1508
  8
LOTES
 10
538178.72362858895
 20
1025321.881680146
 30
0.1666666666666666
  0
VERTEX
  5
1509
  8
LOTES
 10
538158.2105956655
 20
1025363.569456734
 30
0.1666666666666666
  0
VERTEX
  5
150A
  8
LOTES
 10
538205.19205817021
 20
1025370.1865641311
 30
0.1666666666666666
  0
VERTEX
  5
150B
  8
LOTES
 10
538223.71995887719
 20
1025328.498787539
 30
0.1666666666666666
  0
SEQEND
  5
150C
  8
LOTES
  0
POLYLINE
  5
37A
  8
LOTES
 66
     1
 10
0.0
 20
0.0
 30
0.0666666666666667
 70
     1
1001
DCO15
1071
        3
1071
        3
1000
datoslink
1004
0000000000C89040
  0
VERTEX
  5
150D
  8
LOTES
 10
538217.10285148222
 20
1025219.978226257
 30
0.0666666666666667
  0
VERTEX
  5
150E
  8
LOTES
 10
538277.31852877804
 20
1025225.271912174
 30
0.0666666666666667
  0
VERTEX
  5
150F
  8
LOTES
 10
538281.28879321634
 20
1025176.967028191
 30
0.0666666666666667
  0
VERTEX
  5
1510
  8
LOTES
 10
538223.05824813724
 20
1025170.349920794
 30
0.0666666666666667
  0
SEQEND
  5
1511
  8
LOTES
  0
POLYLINE
  5
37B
  8
LOTES
 66
     1
 10
0.0
 20
0.0
 30
0.22
 70
     1
1001
DCO15
1071
        3
1071
        3
1000
datoslink
1004
0000000000C49040
  0
VERTEX
  5
1512
  8
LOTES
 10
538375.91342896689
 20
1025142.558069735
 30
0.22
  0
VERTEX
  5
1513
  8
LOTES
 10
538331.57880941872
 20
1025119.398193851
 30
0.22
  0
VERTEX
  5
1514
  8
LOTES
 10
538308.41893353686
 20
1025165.056234875
 30
0.22
  0
VERTEX
  5
1515
  8
LOTES
 10
538338.1959168138
 20
1025176.967028191
 30
0.22
  0
SEQEND
  5
1516
  8
LOTES
  0
POLYLINE
  5
37C
  8
LOTES
 66
     1
 10
0.0
 20
0.0
 30
1.1759999999999999
 70
     1
1001
DCO15
1071
        3
1071
        3
1000
datoslink
1004
0000000000B09040
  0
VERTEX
  5
1517
  8
LOTES
 10
537363.98988003004
 20
1028847.513238812
 30
1.1759999999999999
  0
VERTEX
  5
1518
  8
LOTES
 10
537397.73712774739
 20
1028778.6953219
 30
1.1759999999999999
  0
VERTEX
  5
1519
  8
LOTES
 10
537335.53631823044
 20
1028765.461107112
 30
1.1759999999999999
  0
VERTEX
  5
151A
  8
LOTES
 10
537291.20169868413
 20
1028847.513238812
 30
1.1759999999999999
  0
SEQEND
  5
151B
  8
LOTES
  0
POLYLINE
  5
37D
  8
LOTES
 66
     1
 10
0.0
 20
0.0
 30
0.3166666666666666
 70
     1
1001
DCO15
1071
        3
1071
        3
1000
datoslink
1004
0000000000AC9040
  0
VERTEX
  5
151C
  8
LOTES
 10
537434.79292915855
 20
1028785.974140038
 30
0.3166666666666666
  0
VERTEX
  5
151D
  8
LOTES
 10
537402.36910292227
 20
1028777.371900422
 30
0.3166666666666666
  0
VERTEX
  5
151E
  8
LOTES
 10
537369.94527668692
 20
1028847.513238812
 30
0.3166666666666666
  0
VERTEX
  5
151F
  8
LOTES
 10
537412.95647475577
 20
1028847.513238812
 30
0.3166666666666666
  0
SEQEND
  5
1520
  8
LOTES
  0
POLYLINE
  5
37E
  8
LOTES
 66
     1
 10
0.0
 20
0.0
 30
1.1479999999999999
 70
     1
1001
DCO15
1071
        3
1071
        3
1000
datoslink
1004
0000000000389040
  0
VERTEX
  5
1521
  8
LOTES
 10
537160.85954675451
 20
1029197.830624312
 30
1.1479999999999999
  0
VERTEX
  5
1522
  8
LOTES
 10
537243.40274391789
 20
1029231.3679485
 30
1.1479999999999999
  0
VERTEX
  5
1523
  8
LOTES
 10
537290.3842064226
 20
1029206.222940402
 30
1.1479999999999999
  0
VERTEX
  5
1524
  8
LOTES
 10
537242.07932243869
 20
1029185.048196737
 30
1.1479999999999999
  0
VERTEX
  5
1525
  8
LOTES
 10
537253.32840501145
 20
1029157.256345674
 30
1.1479999999999999
  0
VERTEX
  5
1526
  8
LOTES
 10
537185.17219883855
 20
1029159.903188632
 30
1.1479999999999999
  0
SEQEND
  5
1527
  8
LOTES
  0
POLYLINE
  5
37F
  8
LOTES
 66
     1
 10
0.0
 20
0.0
 30
0.1875
 70
     1
1001
DCO15
1071
        3
1071
        3
1000
datoslink
1004
0000000000349040
  0
VERTEX
  5
1528
  8
LOTES
 10
539493.64626253024
 20
1023842.284810727
 30
0.1875
  0
VERTEX
  5
1529
  8
LOTES
 10
539526.06955723371
 20
1023803.244517103
 30
0.1875
  0
VERTEX
  5
152A
  8
LOTES
 10
539500.92496134154
 20
1023781.408420671
 30
0.1875
  0
VERTEX
  5
152B
  8
LOTES
 10
539452.62086923234
 20
1023802.582817215
 30
0.1875
  0
SEQEND
  5
152C
  8
LOTES
  0
POLYLINE
  5
380
  8
LOTES
 66
     1
 10
0.0
 20
0.0
 30
0.0071428571428571
 70
     1
1001
DCO15
1071
        3
1071
        3
1000
datoslink
1004
0000000000309040
  0
VERTEX
  5
152D
  8
LOTES
 10
539404.97847701516
 20
1023889.265503054
 30
0.0071428571428571
  0
VERTEX
  5
152E
  8
LOTES
 10
539367.26158317737
 20
1023925.658997105
 30
0.0071428571428571
  0
VERTEX
  5
152F
  8
LOTES
 10
539404.31677712407
 20
1023960.067391483
 30
0.0071428571428571
  0
VERTEX
  5
1530
  8
LOTES
 10
539441.37197106984
 20
1023924.997297216
 30
0.0071428571428571
  0
SEQEND
  5
1531
  8
LOTES
  0
POLYLINE
  5
381
  8
LOTES
 66
     1
 10
0.0
 20
0.0
 30
0.425
 70
     1
1001
DCO15
1071
        3
1071
        3
1000
datoslink
1004
00000000002C9040
  0
VERTEX
  5
1532
  8
LOTES
 10
539489.67606317915
 20
1023840.299711052
 30
0.425
  0
VERTEX
  5
1533
  8
LOTES
 10
539450.63576955721
 20
1023803.244517103
 30
0.425
  0
VERTEX
  5
1534
  8
LOTES
 10
539410.2720761504
 20
1023845.593310185
 30
0.425
  0
VERTEX
  5
1535
  8
LOTES
 10
539451.2974694483
 20
1023882.648504134
 30
0.425
  0
SEQEND
  5
1536
  8
LOTES
  0
POLYLINE
  5
382
  8
LOTES
 66
     1
 10
0.0
 20
0.0
 30
0.0606060606060606
 70
     1
1001
DCO15
1071
        3
1071
        3
1000
datoslink
1004
0000000000249040
  0
VERTEX
  5
1537
  8
LOTES
 10
539262.05130036362
 20
1023391.005484445
 30
0.0606060606060606
  0
VERTEX
  5
1538
  8
LOTES
 10
539302.41499377054
 20
1023460.4839730971
 30
0.0606060606060606
  0
VERTEX
  5
1539
  8
LOTES
 10
539342.77868717629
 20
1023439.309576554
 30
0.0606060606060606
  0
VERTEX
  5
153A
  8
LOTES
 10
539310.35539247282
 20
1023376.4480868221
 30
0.0606060606060606
  0
SEQEND
  5
153B
  8
LOTES
  0
POLYLINE
  5
383
  8
LOTES
 66
     1
 10
0.0
 20
0.0
 30
0.12
 70
     1
1001
DCO15
1071
        3
1071
        3
1000
datoslink
1004
0000000000189040
  0
VERTEX
  5
153C
  8
LOTES
 10
539388.43597971834
 20
1023569.664455261
 30
0.12
  0
VERTEX
  5
153D
  8
LOTES
 10
539343.44038706739
 20
1023521.360363154
 30
0.12
  0
VERTEX
  5
153E
  8
LOTES
 10
539299.76819420327
 20
1023545.843259154
 30
0.12
  0
VERTEX
  5
153F
  8
LOTES
 10
539333.51488868985
 20
1023598.117550613
 30
0.12
  0
SEQEND
  5
1540
  8
LOTES
  0
POLYLINE
  5
384
  8
LOTES
 66
     1
 10
0.0
 20
0.0
 30
0.0666666666666667
 70
     1
1001
DCO15
1071
        3
1071
        3
1000
datoslink
1004
0000000000149040
  0
VERTEX
  5
1541
  8
LOTES
 10
539393.72957885265
 20
1023569.002755368
 30
0.0666666666666667
  0
VERTEX
  5
1542
  8
LOTES
 10
539336.16168825887
 20
1023598.7792505081
 30
0.0666666666666667
  0
VERTEX
  5
1543
  8
LOTES
 10
539360.64458425716
 20
1023643.774843154
 30
0.0666666666666667
  0
VERTEX
  5
1544
  8
LOTES
 10
539400.34657777275
 20
1023620.61534694
 30
0.0666666666666667
  0
VERTEX
  5
1545
  8
LOTES
 10
539418.87417474494
 20
1023611.35154845
 30
0.0666666666666667
  0
SEQEND
  5
1546
  8
LOTES
  0
POLYLINE
  5
385
  8
LOTES
 66
     1
 10
0.0
 20
0.0
 30
0.0083333333333333
 70
     1
1001
DCO15
1071
        3
1071
        3
1000
datoslink
1004
0000000000F88F40
  0
VERTEX
  5
1547
  8
LOTES
 10
537566.19918291271
 20
1029369.703609448
 30
0.0083333333333333
  0
VERTEX
  5
1548
  8
LOTES
 10
537566.8608828038
 20
1029419.992801238
 30
0.0083333333333333
  0
VERTEX
  5
1549
  8
LOTES
 10
537617.15007458825
 20
1029419.992801238
 30
0.0083333333333333
  0
VERTEX
  5
154A
  8
LOTES
 10
537617.15007458825
 20
1029369.703609448
 30
0.0083333333333333
  0
SEQEND
  5
154B
  8
LOTES
  0
POLYLINE
  5
386
  8
LOTES
 66
     1
 10
0.0
 20
0.0
 30
0.14
 70
     1
1001
DCO15
1071
        3
1071
        3
1000
datoslink
1004
0000000000E88F40
  0
VERTEX
  5
154C
  8
LOTES
 10
537490.10369534325
 20
1029355.807911719
 30
0.14
  0
VERTEX
  5
154D
  8
LOTES
 10
537490.10369534325
 20
1029305.518719935
 30
0.14
  0
VERTEX
  5
154E
  8
LOTES
 10
537439.81450355891
 20
1029305.518719935
 30
0.14
  0
VERTEX
  5
154F
  8
LOTES
 10
537439.81450355891
 20
1029355.807911719
 30
0.14
  0
SEQEND
  5
1550
  8
LOTES
  0
POLYLINE
  5
387
  8
LOTES
 66
     1
 10
0.0
 20
0.0
 30
3.1333333333333329
 70
     1
1001
DCO15
1071
        3
1071
        3
1000
datoslink
1004
0000000000E08F40
  0
VERTEX
  5
1551
  8
LOTES
 10
537410.81556101504
 20
1028848.89914106
 30
3.1333333333333329
  0
VERTEX
  5
1552
  8
LOTES
 10
537297.00131381862
 20
1028848.89914106
 30
3.1333333333333329
  0
VERTEX
  5
1553
  8
LOTES
 10
537269.87117349822
 20
1028930.9512727601
 30
3.1333333333333329
  0
VERTEX
  5
1554
  8
LOTES
 10
537389.64081735257
 20
1028931.612983497
 30
3.1333333333333329
  0
SEQEND
  5
1555
  8
LOTES
  0
POLYLINE
  5
388
  8
LOTES
 66
     1
 10
0.0
 20
0.0
 30
0.25
 70
     1
1001
DCO15
1071
        3
1071
        3
1000
datoslink
1004
0000000000D88F40
  0
VERTEX
  5
1556
  8
LOTES
 10
537964.37803500704
 20
1029023.108362194
 30
0.25
  0
VERTEX
  5
1557
  8
LOTES
 10
537964.37803500704
 20
1028973.480870303
 30
0.25
  0
VERTEX
  5
1558
  8
LOTES
 10
537914.08884322003
 20
1028973.480870303
 30
0.25
  0
VERTEX
  5
1559
  8
LOTES
 10
537914.08884322003
 20
1029023.108362194
 30
0.25
  0
SEQEND
  5
155A
  8
LOTES
  0
POLYLINE
  5
389
  8
LOTES
 66
     1
 10
0.0
 20
0.0
 30
1.204
 70
     1
1001
DCO15
1071
        3
1071
        3
1000
datoslink
1004
0000000000C08F40
  0
VERTEX
  5
155B
  8
LOTES
 10
538262.14298636559
 20
1028858.345089111
 30
1.204
  0
VERTEX
  5
155C
  8
LOTES
 10
538312.43217814993
 20
1028858.345089111
 30
1.204
  0
VERTEX
  5
155D
  8
LOTES
 10
538312.43217814993
 20
1028808.055897327
 30
1.204
  0
VERTEX
  5
155E
  8
LOTES
 10
538262.14298636559
 20
1028808.055897327
 30
1.204
  0
SEQEND
  5
155F
  8
LOTES
  0
POLYLINE
  5
38A
  8
LOTES
 66
     1
 10
0.0
 20
0.0
 30
0.1851851851851852
 70
     1
1001
DCO15
1071
        3
1071
        3
1000
datoslink
1004
0000000000A88F40
  0
VERTEX
  5
1560
  8
LOTES
 10
537512.48882771097
 20
1028629.176244551
 30
0.1851851851851852
  0
VERTEX
  5
1561
  8
LOTES
 10
537441.68577858235
 20
1028629.176244551
 30
0.1851851851851852
  0
VERTEX
  5
1562
  8
LOTES
 10
537441.68577858235
 20
1028679.466260755
 30
0.1851851851851852
  0
VERTEX
  5
1563
  8
LOTES
 10
537512.48882771097
 20
1028679.466260755
 30
0.1851851851851852
  0
SEQEND
  5
1564
  8
LOTES
  0
POLYLINE
  5
38B
  8
LOTES
 66
     1
 10
0.0
 20
0.0
 30
0.12
 70
     1
1001
DCO15
1071
        3
1071
        3
1000
datoslink
1004
0000000000A08F40
  0
VERTEX
  5
1565
  8
LOTES
 10
537731.51508249063
 20
1028479.629617419
 30
0.12
  0
VERTEX
  5
1566
  8
LOTES
 10
537676.5930911107
 20
1028479.629617419
 30
0.12
  0
VERTEX
  5
1567
  8
LOTES
 10
537664.68229780055
 20
1028526.6110799219
 30
0.12
  0
VERTEX
  5
1568
  8
LOTES
 10
537731.51508249063
 20
1028526.6110799219
 30
0.12
  0
SEQEND
  5
1569
  8
LOTES
  0
POLYLINE
  5
38C
  8
LOTES
 66
     1
 10
0.0
 20
0.0
 30
0.1875
 70
     1
1001
DCO15
1071
        3
1071
        3
1000
datoslink
1004
0000000000988F40
  0
VERTEX
  5
156A
  8
LOTES
 10
537540.2806787705
 20
1028627.8528230709
 30
0.1875
  0
VERTEX
  5
156B
  8
LOTES
 10
537540.2806787705
 20
1028577.562806869
 30
0.1875
  0
VERTEX
  5
156C
  8
LOTES
 10
537489.32895182632
 20
1028577.562806869
 30
0.1875
  0
VERTEX
  5
156D
  8
LOTES
 10
537489.32895182632
 20
1028627.8528230709
 30
0.1875
  0
SEQEND
  5
156E
  8
LOTES
  0
POLYLINE
  5
38D
  8
LOTES
 66
     1
 10
0.0
 20
0.0
 30
0.025
 70
     1
1001
DCO15
1071
        3
1071
        3
1000
datoslink
1004
0000000000908F40
  0
VERTEX
  5
156F
  8
LOTES
 10
537584.61529831868
 20
1028629.176244551
 30
0.025
  0
VERTEX
  5
1570
  8
LOTES
 10
537513.81224919017
 20
1028629.176244551
 30
0.025
  0
VERTEX
  5
1571
  8
LOTES
 10
537513.81224919017
 20
1028679.466260755
 30
0.025
  0
VERTEX
  5
1572
  8
LOTES
 10
537584.61529831868
 20
1028679.466260755
 30
0.025
  0
SEQEND
  5
1573
  8
LOTES
  0
POLYLINE
  5
38E
  8
LOTES
 66
     1
 10
0.0
 20
0.0
 30
0.3571428571428572
 70
     1
1001
DCO15
1071
        3
1071
        3
1000
datoslink
1004
0000000000888F40
  0
VERTEX
  5
1574
  8
LOTES
 10
537763.93890872691
 20
1028437.280130088
 30
0.3571428571428572
  0
VERTEX
  5
1575
  8
LOTES
 10
537763.93890872691
 20
1028386.99011389
 30
0.3571428571428572
  0
VERTEX
  5
1576
  8
LOTES
 10
537714.31060326379
 20
1028386.99011389
 30
0.3571428571428572
  0
VERTEX
  5
1577
  8
LOTES
 10
537714.31060326379
 20
1028437.280130088
 30
0.3571428571428572
  0
SEQEND
  5
1578
  8
LOTES
  0
POLYLINE
  5
38F
  8
LOTES
 66
     1
 10
0.0
 20
0.0
 30
0.03125
 70
     1
1001
DCO15
1071
        3
1071
        3
1000
datoslink
1004
0000000000788F40
  0
VERTEX
  5
1579
  8
LOTES
 10
537584.61529831868
 20
1028627.852823073
 30
0.03125
  0
VERTEX
  5
157A
  8
LOTES
 10
537584.61529831868
 20
1028576.90109613
 30
0.03125
  0
VERTEX
  5
157B
  8
LOTES
 10
537541.60410024785
 20
1028576.90109613
 30
0.03125
  0
VERTEX
  5
157C
  8
LOTES
 10
537541.60410024785
 20
1028627.852823073
 30
0.03125
  0
SEQEND
  5
157D
  8
LOTES
  0
POLYLINE
  5
390
  8
LOTES
 66
     1
 10
0.0
 20
0.0
 30
0.5600000000000001
 70
     1
1001
DCO15
1071
        3
1071
        3
1000
datoslink
1004
0000000000708F40
  0
VERTEX
  5
157E
  8
LOTES
 10
537763.93890872691
 20
1028438.603551572
 30
0.5600000000000001
  0
VERTEX
  5
157F
  8
LOTES
 10
537714.31060326379
 20
1028438.603551572
 30
0.5600000000000001
  0
VERTEX
  5
1580
  8
LOTES
 10
537680.56335554644
 20
1028478.306195939
 30
0.5600000000000001
  0
VERTEX
  5
1581
  8
LOTES
 10
537763.93890872691
 20
1028478.306195939
 30
0.5600000000000001
  0
SEQEND
  5
1582
  8
LOTES
  0
POLYLINE
  5
391
  8
LOTES
 66
     1
 10
0.0
 20
0.0
 30
0.0476190476190476
 70
     1
1001
DCO15
1071
        3
1071
        3
1000
datoslink
1004
0000000000608F40
  0
VERTEX
  5
1583
  8
LOTES
 10
537640.19900043681
 20
1028613.295186804
 30
0.0476190476190476
  0
VERTEX
  5
1584
  8
LOTES
 10
537585.93871979602
 20
1028613.295186804
 30
0.0476190476190476
  0
VERTEX
  5
1585
  8
LOTES
 10
537585.93871979602
 20
1028663.585203007
 30
0.0476190476190476
  0
VERTEX
  5
1586
  8
LOTES
 10
537639.53728969675
 20
1028663.585203007
 30
0.0476190476190476
  0
SEQEND
  5
1587
  8
LOTES
  0
POLYLINE
  5
392
  8
LOTES
 66
     1
 10
0.0
 20
0.0
 30
0.075
 70
     1
1001
DCO15
1071
        3
1071
        3
1000
datoslink
1004
0000000000688F40
  0
VERTEX
  5
1588
  8
LOTES
 10
537799.67128866073
 20
1028525.949369188
 30
0.075
  0
VERTEX
  5
1589
  8
LOTES
 10
537850.62301560305
 20
1028525.949369188
 30
0.075
  0
VERTEX
  5
158A
  8
LOTES
 10
537850.62301560305
 20
1028479.629617419
 30
0.075
  0
VERTEX
  5
158B
  8
LOTES
 10
537799.67128866073
 20
1028479.629617419
 30
0.075
  0
SEQEND
  5
158C
  8
LOTES
  0
POLYLINE
  5
393
  8
LOTES
 66
     1
 10
0.0
 20
0.0
 30
0.4166666666666667
 70
     1
1001
DCO15
1071
        3
1071
        3
1000
datoslink
1004
0000000000588F40
  0
VERTEX
  5
158D
  8
LOTES
 10
537765.92404094525
 20
1028478.30619594
 30
0.4166666666666667
  0
VERTEX
  5
158E
  8
LOTES
 10
537816.21405714843
 20
1028478.30619594
 30
0.4166666666666667
  0
VERTEX
  5
158F
  8
LOTES
 10
537816.21405714843
 20
1028418.090518642
 30
0.4166666666666667
  0
VERTEX
  5
1590
  8
LOTES
 10
537765.92404094525
 20
1028418.090518642
 30
0.4166666666666667
  0
SEQEND
  5
1591
  8
LOTES
  0
POLYLINE
  5
394
  8
LOTES
 66
     1
 10
0.0
 20
0.0
 30
0.4285714285714286
 70
     1
1001
DCO15
1071
        3
1071
        3
1000
datoslink
1004
0000000000508F40
  0
VERTEX
  5
1592
  8
LOTES
 10
537721.58942139649
 20
1028574.254253171
 30
0.4285714285714286
  0
VERTEX
  5
1593
  8
LOTES
 10
537721.58942139649
 20
1028527.934501402
 30
0.4285714285714286
  0
VERTEX
  5
1594
  8
LOTES
 10
537663.35887631914
 20
1028527.934501402
 30
0.4285714285714286
  0
VERTEX
  5
1595
  8
LOTES
 10
537663.35887631914
 20
1028574.254253171
 30
0.4285714285714286
  0
SEQEND
  5
1596
  8
LOTES
  0
POLYLINE
  5
395
  8
LOTES
 66
     1
 10
0.0
 20
0.0
 30
1.204
 70
     1
1001
DCO15
1071
        3
1071
        3
1000
datoslink
1004
0000000000408F40
  0
VERTEX
  5
1597
  8
LOTES
 10
537789.74562756717
 20
1028527.2727906629
 30
1.204
  0
VERTEX
  5
1598
  8
LOTES
 10
537789.74562756717
 20
1028577.562806869
 30
1.204
  0
VERTEX
  5
1599
  8
LOTES
 10
537840.03564377222
 20
1028577.562806869
 30
1.204
  0
VERTEX
  5
159A
  8
LOTES
 10
537840.03564377222
 20
1028527.2727906629
 30
1.204
  0
SEQEND
  5
159B
  8
LOTES
  0
POLYLINE
  5
396
  8
LOTES
 66
     1
 10
0.0
 20
0.0
 30
1.3440000000000001
 70
     1
1001
DCO15
1071
        3
1071
        3
1000
datoslink
1004
0000000000788E40
  0
VERTEX
  5
159C
  8
LOTES
 10
539761.06717520545
 20
1024371.809506317
 30
1.3440000000000001
  0
VERTEX
  5
159D
  8
LOTES
 10
539710.77715900028
 20
1024371.809506317
 30
1.3440000000000001
  0
VERTEX
  5
159E
  8
LOTES
 10
539710.77715900028
 20
1024422.099522519
 30
1.3440000000000001
  0
VERTEX
  5
159F
  8
LOTES
 10
539761.06717520545
 20
1024422.099522519
 30
1.3440000000000001
  0
SEQEND
  5
15A0
  8
LOTES
  0
POLYLINE
  5
397
  8
LOTES
 66
     1
 10
0.0
 20
0.0
 30
1.232
 70
     1
1001
DCO15
1071
        3
1071
        3
1000
datoslink
1004
0000000000508E40
  0
VERTEX
  5
15A1
  8
LOTES
 10
540422.77791472152
 20
1023774.41705068
 30
1.232
  0
VERTEX
  5
15A2
  8
LOTES
 10
540473.06793092657
 20
1023774.41705068
 30
1.232
  0
VERTEX
  5
15A3
  8
LOTES
 10
540473.06793092657
 20
1023724.127034474
 30
1.232
  0
VERTEX
  5
15A4
  8
LOTES
 10
540422.77791472152
 20
1023724.127034474
 30
1.232
  0
SEQEND
  5
15A5
  8
LOTES
  0
POLYLINE
  5
398
  8
LOTES
 66
     1
 10
0.0
 20
0.0
 30
0.125
 70
     1
1001
DCO15
1071
        3
1071
        3
1000
datoslink
1004
0000000000488E40
  0
VERTEX
  5
15A6
  8
LOTES
 10
540356.60684077197
 20
1024162.8412547749
 30
0.125
  0
VERTEX
  5
15A7
  8
LOTES
 10
540340.06407228427
 20
1024206.514163584
 30
0.125
  0
VERTEX
  5
15A8
  8
LOTES
 10
540385.72211330885
 20
1024219.086667635
 30
0.125
  0
VERTEX
  5
15A9
  8
LOTES
 10
540401.60317105928
 20
1024175.413758828
 30
0.125
  0
SEQEND
  5
15AA
  8
LOTES
  0
POLYLINE
  5
399
  8
LOTES
 66
     1
 10
0.0
 20
0.0
 30
0.1666666666666666
 70
     1
1001
DCO15
1071
        3
1071
        3
1000
datoslink
1004
0000000000308D40
  0
VERTEX
  5
15AB
  8
LOTES
 10
538993.14092614967
 20
1026698.437022056
 30
0.1666666666666666
  0
VERTEX
  5
15AC
  8
LOTES
 10
539028.87330608536
 20
1026662.704642122
 30
0.1666666666666666
  0
VERTEX
  5
15AD
  8
LOTES
 10
538993.14092614967
 20
1026626.972262189
 30
0.1666666666666666
  0
VERTEX
  5
15AE
  8
LOTES
 10
538957.40854621783
 20
1026662.704642122
 30
0.1666666666666666
  0
SEQEND
  5
15AF
  8
LOTES
  0
POLYLINE
  5
39A
  8
LOTES
 66
     1
 10
0.0
 20
0.0
 30
1.1479999999999999
 70
     1
1001
DCO15
1071
        3
1071
        3
1000
datoslink
1004
0000000000588B40
  0
VERTEX
  5
15B0
  8
LOTES
 10
536379.38350505289
 20
1039966.796086581
 30
1.1479999999999999
  0
VERTEX
  5
15B1
  8
LOTES
 10
536333.72546402831
 20
1039987.970830247
 30
1.1479999999999999
  0
VERTEX
  5
15B2
  8
LOTES
 10
536370.11955470219
 20
1040031.643739057
 30
1.1479999999999999
  0
VERTEX
  5
15B3
  8
LOTES
 10
536411.14562055096
 20
1040011.130706131
 30
1.1479999999999999
  0
SEQEND
  5
15B4
  8
LOTES
  0
POLYLINE
  5
39B
  8
LOTES
 66
     1
 10
0.0
 20
0.0
 30
0.25
 70
     1
1001
DCO15
1071
        3
1071
        3
1000
datoslink
1004
0000000000508B40
  0
VERTEX
  5
15B5
  8
LOTES
 10
536522.31302478898
 20
1040181.852076925
 30
0.25
  0
VERTEX
  5
15B6
  8
LOTES
 10
536502.46170260571
 20
1040227.510117955
 30
0.25
  0
VERTEX
  5
15B7
  8
LOTES
 10
536546.13461141381
 20
1040251.993415314
 30
0.25
  0
VERTEX
  5
15B8
  8
LOTES
 10
536566.64764433715
 20
1040205.673663549
 30
0.25
  0
SEQEND
  5
15B9
  8
LOTES
  0
POLYLINE
  5
39C
  8
LOTES
 66
     1
 10
0.0
 20
0.0
 30
0.025
 70
     1
1001
DCO15
1071
        3
1071
        3
1000
datoslink
1004
0000000000088B40
  0
VERTEX
  5
15BA
  8
LOTES
 10
536360.19389360677
 20
1039939.665946262
 30
0.025
  0
VERTEX
  5
15BB
  8
LOTES
 10
536333.72546402831
 20
1039906.5804092881
 30
0.025
  0
VERTEX
  5
15BC
  8
LOTES
 10
536290.0525552202
 20
1039924.446599254
 30
0.025
  0
VERTEX
  5
15BD
  8
LOTES
 10
536305.27190222766
 20
1039954.223582532
 30
0.025
  0
SEQEND
  5
15BE
  8
LOTES
  0
POLYLINE
  5
39D
  8
LOTES
 66
     1
 10
0.0
 20
0.0
 30
0.08
 70
     1
1001
DCO15
1071
        3
1071
        3
1000
datoslink
1004
0000000000008B40
  0
VERTEX
  5
15BF
  8
LOTES
 10
538945.63009505335
 20
1024932.331058286
 30
0.08
  0
VERTEX
  5
15C0
  8
LOTES
 10
538976.73049980961
 20
1024938.286454938
 30
0.08
  0
VERTEX
  5
15C1
  8
LOTES
 10
538982.68589646637
 20
1024909.83289314
 30
0.08
  0
VERTEX
  5
15C2
  8
LOTES
 10
538951.58549170848
 20
1024906.524339443
 30
0.08
  0
SEQEND
  5
15C3
  8
LOTES
  0
POLYLINE
  5
39E
  8
LOTES
 66
     1
 10
0.0
 20
0.0
 30
0.3
 70
     1
1001
DCO15
1071
        3
1071
        3
1000
datoslink
1004
0000000000F08A40
  0
VERTEX
  5
15C4
  8
LOTES
 10
538788.14293904777
 20
1025065.9966276661
 30
0.3
  0
VERTEX
  5
15C5
  8
LOTES
 10
538843.72664116882
 20
1025072.613735059
 30
0.3
  0
VERTEX
  5
15C6
  8
LOTES
 10
538864.23967409227
 20
1025013.059768505
 30
0.3
  0
VERTEX
  5
15C7
  8
LOTES
 10
538817.91992232774
 20
1024997.840421496
 30
0.3
  0
SEQEND
  5
15C8
  8
LOTES
  0
POLYLINE
  5
39F
  8
LOTES
 66
     1
 10
0.0
 20
0.0
 30
0.0333333333333333
 70
     1
1001
DCO15
1071
        3
1071
        3
1000
datoslink
1004
0000000000E08A40
  0
VERTEX
  5
15C9
  8
LOTES
 10
536439.0698137572
 20
1040632.874116979
 30
0.0333333333333333
  0
VERTEX
  5
15CA
  8
LOTES
 10
536439.0698137572
 20
1040673.9001828301
 30
0.0333333333333333
  0
VERTEX
  5
15CB
  8
LOTES
 10
536480.7575903479
 20
1040673.9001828301
 30
0.0333333333333333
  0
VERTEX
  5
15CC
  8
LOTES
 10
536480.7575903479
 20
1040632.874116979
 30
0.0333333333333333
  0
SEQEND
  5
15CD
  8
LOTES
  0
POLYLINE
  5
3A0
  8
LOTES
 66
     1
 10
0.0
 20
0.0
 30
1.1759999999999999
 70
     1
1001
DCO15
1071
        3
1071
        3
1000
datoslink
1004
0000000000D88A40
  0
VERTEX
  5
15CE
  8
LOTES
 10
536018.2217834238
 20
1040707.978285916
 30
1.1759999999999999
  0
VERTEX
  5
15CF
  8
LOTES
 10
536024.17718008067
 20
1040750.658628616
 30
1.1759999999999999
  0
VERTEX
  5
15D0
  8
LOTES
 10
536064.54153519031
 20
1040736.7627030869
 30
1.1759999999999999
  0
VERTEX
  5
15D1
  8
LOTES
 10
536057.2627170562
 20
1040695.736637236
 30
1.1759999999999999
  0
SEQEND
  5
15D2
  8
LOTES
  0
POLYLINE
  5
3A1
  8
LOTES
 66
     1
 10
0.0
 20
0.0
 30
0.0666666666666667
 70
     1
1001
DCO15
1071
        3
1071
        3
1000
datoslink
1004
0000000000D08A40
  0
VERTEX
  5
15D3
  8
LOTES
 10
536048.39579314645
 20
1040388.305827653
 30
0.0666666666666667
  0
VERTEX
  5
15D4
  8
LOTES
 10
536028.54447096027
 20
1040448.5215049509
 30
0.0666666666666667
  0
VERTEX
  5
15D5
  8
LOTES
 10
536079.49619790353
 20
1040448.5215049509
 30
0.0666666666666667
  0
VERTEX
  5
15D6
  8
LOTES
 10
536103.97949526738
 20
1040388.305827653
 30
0.0666666666666667
  0
SEQEND
  5
15D7
  8
LOTES
  0
POLYLINE
  5
3A2
  8
LOTES
 66
     1
 10
0.0
 20
0.0
 30
0.125
 70
     1
1001
DCO15
1071
        3
1071
        3
1000
datoslink
1004
0000000000C88A40
  0
VERTEX
  5
15D8
  8
LOTES
 10
536057.65974349994
 20
1040318.826200004
 30
0.125
  0
VERTEX
  5
15D9
  8
LOTES
 10
536049.05750388652
 20
1040385.6589847
 30
0.125
  0
VERTEX
  5
15DA
  8
LOTES
 10
536105.30291674659
 20
1040385.6589847
 30
0.125
  0
VERTEX
  5
15DB
  8
LOTES
 10
536113.90515636012
 20
1040318.1644892649
 30
0.125
  0
SEQEND
  5
15DC
  8
LOTES
  0
POLYLINE
  5
3A3
  8
LOTES
 66
     1
 10
0.0
 20
0.0
 30
1.1479999999999999
 70
     1
1001
DCO15
1071
        3
1071
        3
1000
datoslink
1004
0000000000C08A40
  0
VERTEX
  5
15DD
  8
LOTES
 10
536329.62285744213
 20
1039905.256987808
 30
1.1479999999999999
  0
VERTEX
  5
15DE
  8
LOTES
 10
536297.86074194591
 20
1039873.494872313
 30
1.1479999999999999
  0
VERTEX
  5
15DF
  8
LOTES
 10
536260.14322979283
 20
1039891.361062279
 30
1.1479999999999999
  0
VERTEX
  5
15E0
  8
LOTES
 10
536288.59679159254
 20
1039923.123177776
 30
1.1479999999999999
  0
SEQEND
  5
15E1
  8
LOTES
  0
POLYLINE
  5
3A4
  8
LOTES
 66
     1
 10
0.0
 20
0.0
 30
1.1479999999999999
 70
     1
1001
DCO15
1071
        3
1071
        3
1000
datoslink
1004
0000000000B88A40
  0
VERTEX
  5
15E2
  8
LOTES
 10
536369.98721255176
 20
1040032.967160536
 30
1.1479999999999999
  0
VERTEX
  5
15E3
  8
LOTES
 10
536397.77906361129
 20
1040075.978358602
 30
1.1479999999999999
  0
VERTEX
  5
15E4
  8
LOTES
 10
536440.12855094299
 20
1040056.127036417
 30
1.1479999999999999
  0
VERTEX
  5
15E5
  8
LOTES
 10
536412.33669988252
 20
1040012.45412761
 30
1.1479999999999999
  0
SEQEND
  5
15E6
  8
LOTES
  0
POLYLINE
  5
3A5
  8
LOTES
 66
     1
 10
0.0
 20
0.0
 30
0.2083333333333333
 70
     1
1001
DCO15
1071
        3
1071
        3
1000
datoslink
1004
0000000000B08A40
  0
VERTEX
  5
15E7
  8
LOTES
 10
536360.06155146088
 20
1039940.989367742
 30
0.2083333333333333
  0
VERTEX
  5
15E8
  8
LOTES
 10
536305.8012708202
 20
1039956.20871475
 30
0.2083333333333333
  0
VERTEX
  5
15E9
  8
LOTES
 10
536332.40204254817
 20
1039987.309119507
 30
0.2083333333333333
  0
VERTEX
  5
15EA
  8
LOTES
 10
536379.25116290525
 20
1039964.810954362
 30
0.2083333333333333
  0
SEQEND
  5
15EB
  8
LOTES
  0
POLYLINE
  5
3A6
  8
LOTES
 66
     1
 10
0.0
 20
0.0
 30
1.288
 70
     1
1001
DCO15
1071
        3
1071
        3
1000
datoslink
1004
0000000000508A40
  0
VERTEX
  5
15EC
  8
LOTES
 10
536911.18170924485
 20
1037976.290512416
 30
1.288
  0
VERTEX
  5
15ED
  8
LOTES
 10
536911.18170924485
 20
1037938.59283071
 30
1.288
  0
VERTEX
  5
15EE
  8
LOTES
 10
536869.5158505179
 20
1037938.59283071
 30
1.288
  0
VERTEX
  5
15EF
  8
LOTES
 10
536868.85448768176
 20
1037976.290512416
 30
1.288
  0
SEQEND
  5
15F0
  8
LOTES
  0
POLYLINE
  5
3A7
  8
LOTES
 66
     1
 10
0.0
 20
0.0
 30
1.1375
 70
     1
1001
DCO15
1071
        3
1071
        3
1000
datoslink
1004
0000000000308A40
  0
VERTEX
  5
15F1
  8
LOTES
 10
536962.76801052503
 20
1037433.972986139
 30
1.1375
  0
VERTEX
  5
15F2
  8
LOTES
 10
536962.76801052503
 20
1037374.450330818
 30
1.1375
  0
VERTEX
  5
15F3
  8
LOTES
 10
536887.37264711689
 20
1037373.7889679821
 30
1.1375
  0
VERTEX
  5
15F4
  8
LOTES
 10
536887.37264711689
 20
1037433.972986139
 30
1.1375
  0
SEQEND
  5
15F5
  8
LOTES
  0
POLYLINE
  5
3A8
  8
LOTES
 66
     1
 10
0.0
 20
0.0
 30
1.3918040621266421
 70
     1
1001
DCO15
1071
        3
1071
        3
1000
datoslink
1004
0000000000208A40
1001
ADE_ENTITY_LOCK
1071
1342624882
1071
1342625087
  0
VERTEX
  5
15F6
  8
LOTES
 10
536951.78938743274
 20
1038032.506353555
 30
1.3918040621266421
  0
VERTEX
  5
15F7
  8
LOTES
 10
536881.02356388222
 20
1038032.506353555
 30
1.3918040621266421
  0
VERTEX
  5
15F8
  8
LOTES
 10
536881.02356388222
 20
1038092.690371713
 30
1.3918040621266421
  0
VERTEX
  5
15F9
  8
LOTES
 10
536951.78938743274
 20
1038092.690371713
 30
1.3918040621266421
  0
SEQEND
  5
15FA
  8
LOTES
  0
POLYLINE
  5
3A9
  8
LOTES
 66
     1
 10
0.0
 20
0.0
 30
1.54
 70
     1
1001
DCO15
1071
        3
1071
        3
1000
datoslink
1004
0000000000108A40
  0
VERTEX
  5
15FB
  8
LOTES
 10
536958.40301579982
 20
1038155.519841222
 30
1.54
  0
VERTEX
  5
15FC
  8
LOTES
 10
537008.66659140575
 20
1038155.519841222
 30
1.54
  0
VERTEX
  5
15FD
  8
LOTES
 10
537015.28021977574
 20
1038102.610814268
 30
1.54
  0
VERTEX
  5
15FE
  8
LOTES
 10
536958.40301579982
 20
1038103.933539946
 30
1.54
  0
SEQEND
  5
15FF
  8
LOTES
  0
POLYLINE
  5
3AA
  8
LOTES
 66
     1
 10
0.0
 20
0.0
 30
0.1
 70
     1
1001
DCO15
1071
        3
1071
        3
1000
datoslink
1004
0000000000E88940
  0
VERTEX
  5
1600
  8
LOTES
 10
537222.94815056957
 20
1038472.974002942
 30
0.1
  0
VERTEX
  5
1601
  8
LOTES
 10
537211.04361950513
 20
1038552.337543378
 30
0.1
  0
VERTEX
  5
1602
  8
LOTES
 10
537259.32310659811
 20
1038537.787560964
 30
0.1
  0
VERTEX
  5
1603
  8
LOTES
 10
537263.95264645852
 20
1038472.974002942
 30
0.1
  0
SEQEND
  5
1604
  8
LOTES
  0
POLYLINE
  5
3AB
  8
LOTES
 66
     1
 10
0.0
 20
0.0
 30
0.17
 70
     1
1001
DCO15
1071
        3
1071
        3
1000
datoslink
1004
0000000000A88940
  0
VERTEX
  5
1605
  8
LOTES
 10
537418.71155029815
 20
1036570.233121121
 30
0.17
  0
VERTEX
  5
1606
  8
LOTES
 10
537418.71155029815
 20
1036651.5807500629
 30
0.17
  0
VERTEX
  5
1607
  8
LOTES
 10
537468.31376306806
 20
1036651.5807500629
 30
0.17
  0
VERTEX
  5
1608
  8
LOTES
 10
537468.9751259042
 20
1036570.233121121
 30
0.17
  0
SEQEND
  5
1609
  8
LOTES
  0
POLYLINE
  5
3AC
  8
LOTES
 66
     1
 10
0.0
 20
0.0
 30
0.40625
 70
     1
1001
DCO15
1071
        3
1071
        3
1000
datoslink
1004
0000000000988940
  0
VERTEX
  5
160A
  8
LOTES
 10
537124.80190557148
 20
1037114.9315536109
 30
0.40625
  0
VERTEX
  5
160B
  8
LOTES
 10
537185.64728656691
 20
1037097.074757011
 30
0.40625
  0
VERTEX
  5
160C
  8
LOTES
 10
537185.64728656691
 20
1037046.811181405
 30
0.40625
  0
VERTEX
  5
160D
  8
LOTES
 10
537124.80190557148
 20
1037061.361163821
 30
0.40625
  0
SEQEND
  5
160E
  8
LOTES
  0
POLYLINE
  5
3AD
  8
LOTES
 66
     1
 10
0.0
 20
0.0
 30
0.02
 70
     1
1001
DCO15
1071
        3
1071
        3
1000
datoslink
1004
0000000000F88840
  0
VERTEX
  5
160F
  8
LOTES
 10
539822.32981887565
 20
1027920.1903685241
 30
0.02
  0
VERTEX
  5
1610
  8
LOTES
 10
539861.37075250875
 20
1027920.1903685241
 30
0.02
  0
VERTEX
  5
1611
  8
LOTES
 10
539861.37075250875
 20
1027869.900352319
 30
0.02
  0
VERTEX
  5
1612
  8
LOTES
 10
539822.32981887565
 20
1027869.900352319
 30
0.02
  0
SEQEND
  5
1613
  8
LOTES
  0
POLYLINE
  5
3AE
  8
LOTES
 66
     1
 10
0.0
 20
0.0
 30
0.1333333333333333
 70
     1
1001
DCO15
1071
        3
1071
        3
1000
datoslink
1004
0000000000F08840
  0
VERTEX
  5
1614
  8
LOTES
 10
539778.65691006754
 20
1027271.7138437961
 30
0.1333333333333333
  0
VERTEX
  5
1615
  8
LOTES
 10
539778.65691006754
 20
1027322.003859999
 30
0.1333333333333333
  0
VERTEX
  5
1616
  8
LOTES
 10
539828.94692627073
 20
1027322.003859999
 30
0.1333333333333333
  0
VERTEX
  5
1617
  8
LOTES
 10
539828.94692627073
 20
1027271.7138437961
 30
0.1333333333333333
  0
SEQEND
  5
1618
  8
LOTES
  0
POLYLINE
  5
3AF
  8
LOTES
 66
     1
 10
0.0
 20
0.0
 30
0.0277777777777778
 70
     1
1001
DCO15
1071
        3
1071
        3
1000
datoslink
1004
0000000000E88840
  0
VERTEX
  5
1619
  8
LOTES
 10
539754.83532344492
 20
1027116.211820011
 30
0.0277777777777778
  0
VERTEX
  5
161A
  8
LOTES
 10
539754.83532344492
 20
1027166.5018362131
 30
0.0277777777777778
  0
VERTEX
  5
161B
  8
LOTES
 10
539805.12533964717
 20
1027166.5018362131
 30
0.0277777777777778
  0
VERTEX
  5
161C
  8
LOTES
 10
539805.12533964717
 20
1027116.211820011
 30
0.0277777777777778
  0
SEQEND
  5
161D
  8
LOTES
  0
POLYLINE
  5
3B0
  8
LOTES
 66
     1
 10
0.0
 20
0.0
 30
0.1
 70
     1
1001
DCO15
1071
        3
1071
        3
1000
datoslink
1004
0000000000E08840
  0
VERTEX
  5
161E
  8
LOTES
 10
540054.98731489107
 20
1025848.50638524
 30
0.1
  0
VERTEX
  5
161F
  8
LOTES
 10
540054.98731489107
 20
1025898.7964014451
 30
0.1
  0
VERTEX
  5
1620
  8
LOTES
 10
540105.27733109426
 20
1025898.7964014451
 30
0.1
  0
VERTEX
  5
1621
  8
LOTES
 10
540105.27733109426
 20
1025848.50638524
 30
0.1
  0
SEQEND
  5
1622
  8
LOTES
  0
POLYLINE
  5
3B1
  8
LOTES
 66
     1
 10
0.0
 20
0.0
 30
0.09375
 70
     1
1001
DCO15
1071
        3
1071
        3
1000
datoslink
1004
0000000000D88840
  0
VERTEX
  5
1623
  8
LOTES
 10
540109.24759553187
 20
1025629.480130458
 30
0.09375
  0
VERTEX
  5
1624
  8
LOTES
 10
540092.04311630514
 20
1025677.785014443
 30
0.09375
  0
VERTEX
  5
1625
  8
LOTES
 10
540142.99484324735
 20
1025677.785014443
 30
0.09375
  0
VERTEX
  5
1626
  8
LOTES
 10
540160.19932247419
 20
1025629.480130458
 30
0.09375
  0
SEQEND
  5
1627
  8
LOTES
  0
POLYLINE
  5
3B2
  8
LOTES
 66
     1
 10
0.0
 20
0.0
 30
0.2777777777777778
 70
     1
1001
DCO15
1071
        3
1071
        3
1000
datoslink
1004
0000000000D08840
  0
VERTEX
  5
1628
  8
LOTES
 10
540054.32560415193
 20
1025846.521253021
 30
0.2777777777777778
  0
VERTEX
  5
1629
  8
LOTES
 10
540104.61562035419
 20
1025846.521253021
 30
0.2777777777777778
  0
VERTEX
  5
162A
  8
LOTES
 10
540107.26246331364
 20
1025788.952418683
 30
0.2777777777777778
  0
VERTEX
  5
162B
  8
LOTES
 10
540057.63415785041
 20
1025788.952418683
 30
0.2777777777777778
  0
SEQEND
  5
162C
  8
LOTES
  0
POLYLINE
  5
3B3
  8
LOTES
 66
     1
 10
0.0
 20
0.0
 30
0.0694444444444445
 70
     1
1001
DCO15
1071
        3
1071
        3
1000
datoslink
1004
0000000000508840
  0
VERTEX
  5
162D
  8
LOTES
 10
540463.79220976681
 20
1028534.257934796
 30
0.0694444444444445
  0
VERTEX
  5
162E
  8
LOTES
 10
540463.79220976681
 20
1028483.306207858
 30
0.0694444444444445
  0
VERTEX
  5
162F
  8
LOTES
 10
540413.50219356176
 20
1028483.306207858
 30
0.0694444444444445
  0
VERTEX
  5
1630
  8
LOTES
 10
540413.50219356176
 20
1028534.257934796
 30
0.0694444444444445
  0
SEQEND
  5
1631
  8
LOTES
  0
POLYLINE
  5
3B4
  8
LOTES
 66
     1
 10
0.0
 20
0.0
 30
0.2666666666666666
 70
     1
1001
DCO15
1071
        3
1071
        3
1000
datoslink
1004
0000000000488840
  0
VERTEX
  5
1632
  8
LOTES
 10
540042.94417943154
 20
1028942.533461079
 30
0.2666666666666666
  0
VERTEX
  5
1633
  8
LOTES
 10
540007.21179949678
 20
1028928.637535549
 30
0.2666666666666666
  0
VERTEX
  5
1634
  8
LOTES
 10
539977.43481621984
 20
1028986.20636989
 30
0.2666666666666666
  0
VERTEX
  5
1635
  8
LOTES
 10
540013.82890689187
 20
1029009.366245774
 30
0.2666666666666666
  0
SEQEND
  5
1636
  8
LOTES
  0
POLYLINE
  5
3B5
  8
LOTES
 66
     1
 10
0.0
 20
0.0
 30
0.0444444444444445
 70
     1
1001
DCO15
1071
        3
1071
        3
1000
datoslink
1004
0000000000408840
1001
ADE_ENTITY_LOCK
1071
1342624882
1071
1342625087
  0
VERTEX
  5
1637
  8
LOTES
 10
540017.79917132948
 20
1028899.5222630129
 30
0.0444444444444445
  0
VERTEX
  5
1638
  8
LOTES
 10
539969.49428734649
 20
1028882.317783786
 30
0.0444444444444445
  0
VERTEX
  5
1639
  8
LOTES
 10
539946.33441146184
 20
1028951.797411434
 30
0.0444444444444445
  0
VERTEX
  5
163A
  8
LOTES
 10
539975.44968400151
 20
1028984.22123767
 30
0.0444444444444445
  0
VERTEX
  5
163B
  8
LOTES
 10
540005.88837801747
 20
1028926.65240333
 30
0.0444444444444445
  0
SEQEND
  5
163C
  8
LOTES
  0
POLYLINE
  5
3B6
  8
LOTES
 66
     1
 10
0.0
 20
0.0
 30
0.0857142857142858
 70
     1
1001
DCO15
1071
        3
1071
        3
1000
datoslink
1004
0000000000388840
  0
VERTEX
  5
163D
  8
LOTES
 10
540142.20079035976
 20
1028814.823288355
 30
0.0857142857142858
  0
VERTEX
  5
163E
  8
LOTES
 10
540142.20079035976
 20
1028861.14304012
 30
0.0857142857142858
  0
VERTEX
  5
163F
  8
LOTES
 10
540188.52054212429
 20
1028861.14304012
 30
0.0857142857142858
  0
VERTEX
  5
1640
  8
LOTES
 10
540191.16738508269
 20
1028814.823288355
 30
0.0857142857142858
  0
SEQEND
  5
1641
  8
LOTES
  0
POLYLINE
  5
3B7
  8
LOTES
 66
     1
 10
0.0
 20
0.0
 30
0.275
 70
     1
1001
DCO15
1071
        3
1071
        3
1000
datoslink
1004
0000000000308840
  0
VERTEX
  5
1642
  8
LOTES
 10
540032.35680759884
 20
1028869.745279735
 30
0.275
  0
VERTEX
  5
1643
  8
LOTES
 10
540007.21179949678
 20
1028927.314114071
 30
0.275
  0
VERTEX
  5
1644
  8
LOTES
 10
540043.60589017067
 20
1028941.210039604
 30
0.275
  0
VERTEX
  5
1645
  8
LOTES
 10
540066.10405531339
 20
1028884.302916005
 30
0.275
  0
SEQEND
  5
1646
  8
LOTES
  0
POLYLINE
  5
3B8
  8
LOTES
 66
     1
 10
0.0
 20
0.0
 30
0.1388888888888889
 70
     1
1001
DCO15
1071
        3
1071
        3
1000
datoslink
1004
0000000000688040
  0
VERTEX
  5
1647
  8
LOTES
 10
538196.16802267078
 20
1035820.47054963
 30
0.1388888888888889
  0
VERTEX
  5
1648
  8
LOTES
 10
538196.16802267078
 20
1035880.478308189
 30
0.1388888888888889
  0
VERTEX
  5
1649
  8
LOTES
 10
538246.46864382003
 20
1035880.478308189
 30
0.1388888888888889
  0
VERTEX
  5
164A
  8
LOTES
 10
538246.46864382003
 20
1035820.47054963
 30
0.1388888888888889
  0
SEQEND
  5
164B
  8
LOTES
  0
POLYLINE
  5
3B9
  8
LOTES
 66
     1
 10
0.0
 20
0.0
 30
0.1666666666666666
 70
     1
1001
DCO15
1071
        3
1071
        3
1000
datoslink
1004
0000000000508040
  0
VERTEX
  5
164C
  8
LOTES
 10
538197.05048970878
 20
1035818.705615554
 30
0.1666666666666666
  0
VERTEX
  5
164D
  8
LOTES
 10
538247.35111085512
 20
1035818.705615554
 30
0.1666666666666666
  0
VERTEX
  5
164E
  8
LOTES
 10
538247.35111085512
 20
1035759.5803240309
 30
0.1666666666666666
  0
VERTEX
  5
164F
  8
LOTES
 10
538197.05048970878
 20
1035759.5803240309
 30
0.1666666666666666
  0
SEQEND
  5
1650
  8
LOTES
  0
POLYLINE
  5
3BA
  8
LOTES
 66
     1
 10
0.0
 20
0.0
 30
0.2
 70
     1
1001
DCO15
1071
        3
1071
        3
1000
datoslink
1004
0000000000388040
1001
ADE_ENTITY_LOCK
1071
1342624882
1071
1342625087
  0
VERTEX
  5
1651
  8
LOTES
 10
538421.19711727719
 20
1035721.634241411
 30
0.2
  0
VERTEX
  5
1652
  8
LOTES
 10
538471.49773842155
 20
1035721.634241411
 30
0.2
  0
VERTEX
  5
1653
  8
LOTES
 10
538471.49773842155
 20
1035671.333620264
 30
0.2
  0
VERTEX
  5
1654
  8
LOTES
 10
538421.19711727719
 20
1035671.333620264
 30
0.2
  0
SEQEND
  5
1655
  8
LOTES
  0
POLYLINE
  5
3BB
  8
LOTES
 66
     1
 10
0.0
 20
0.0
 30
1.2250000000000001
 70
     1
1001
DCO15
1071
        3
1071
        3
1000
datoslink
1004
0000000000208040
  0
VERTEX
  5
1656
  8
LOTES
 10
537908.48376839515
 20
1035635.152471723
 30
1.2250000000000001
  0
VERTEX
  5
1657
  8
LOTES
 10
537971.13892806706
 20
1035635.152471723
 30
1.2250000000000001
  0
VERTEX
  5
1658
  8
LOTES
 10
537971.13892806706
 20
1035582.204449464
 30
1.2250000000000001
  0
VERTEX
  5
1659
  8
LOTES
 10
537927.01557618473
 20
1035552.200570181
 30
1.2250000000000001
  0
VERTEX
  5
165A
  8
LOTES
 10
537927.01557618473
 20
1035596.3239220619
 30
1.2250000000000001
  0
SEQEND
  5
165B
  8
LOTES
  0
POLYLINE
  5
3BC
  8
LOTES
 66
     1
 10
0.0
 20
0.0
 30
0.2307692307692308
 70
     1
1001
DCO15
1071
        3
1071
        3
1000
datoslink
1004
0000000000188040
1001
ADE_ENTITY_LOCK
1071
1342624882
1071
1342625087
  0
VERTEX
  5
165C
  8
LOTES
 10
537835.23900426831
 20
1035672.216087302
 30
0.2307692307692308
  0
VERTEX
  5
165D
  8
LOTES
 10
537888.18702652678
 20
1035672.216087302
 30
0.2307692307692308
  0
VERTEX
  5
165E
  8
LOTES
 10
537922.60324099672
 20
1035598.971323179
 30
0.2307692307692308
  0
VERTEX
  5
165F
  8
LOTES
 10
537868.77275170013
 20
1035598.971323179
 30
0.2307692307692308
  0
SEQEND
  5
1660
  8
LOTES
  0
POLYLINE
  5
3BD
  8
LOTES
 66
     1
 10
0.0
 20
0.0
 30
1.1899999999999999
 70
     1
1001
DCO15
1071
        3
1071
        3
1000
datoslink
1004
0000000000108040
  0
VERTEX
  5
1661
  8
LOTES
 10
538070.85770332348
 20
1035728.693977717
 30
1.1899999999999999
  0
VERTEX
  5
1662
  8
LOTES
 10
538107.92131890636
 20
1035696.9251643569
 30
1.1899999999999999
  0
VERTEX
  5
1663
  8
LOTES
 10
538077.91743962467
 20
1035666.921285078
 30
1.1899999999999999
  0
VERTEX
  5
1664
  8
LOTES
 10
538041.73629108164
 20
1035699.572565468
 30
1.1899999999999999
  0
SEQEND
  5
1665
  8
LOTES
  0
POLYLINE
  5
3BE
  8
LOTES
 66
     1
 10
0.0
 20
0.0
 30
2.4690909090909088
 70
     1
1001
DCO15
1071
        3
1071
        3
1000
datoslink
1004
0000000000088040
1001
ADE_ENTITY_LOCK
1071
1342624882
1071
1342625087
  0
VERTEX
  5
1666
  8
LOTES
 10
537883.77469133958
 20
1035794.879005538
 30
2.4690909090909088
  0
VERTEX
  5
1667
  8
LOTES
 10
537828.17926796619
 20
1035794.879005538
 30
2.4690909090909088
  0
VERTEX
  5
1668
  8
LOTES
 10
537808.76499313861
 20
1035854.004297061
 30
2.4690909090909088
  0
VERTEX
  5
1669
  8
LOTES
 10
537852.47522858623
 20
1035853.965067945
 30
2.4690909090909088
  0
SEQEND
  5
166A
  8
LOTES
  0
POLYLINE
  5
3BF
  8
LOTES
 66
     1
 10
0.0
 20
0.0
 30
0.1
 70
     1
1001
DCO15
1071
        3
1071
        3
1000
datoslink
1004
0000000000008040
1001
ADE_ENTITY_LOCK
1071
1342624882
1071
1342625087
  0
VERTEX
  5
166B
  8
LOTES
 10
537700.22154750489
 20
1035650.154411362
 30
0.1
  0
VERTEX
  5
166C
  8
LOTES
 10
537649.92092635855
 20
1035650.154411362
 30
0.1
  0
VERTEX
  5
166D
  8
LOTES
 10
537632.27158560697
 20
1035731.341378828
 30
0.1
  0
VERTEX
  5
166E
  8
LOTES
 10
537688.74947601557
 20
1035731.341378828
 30
0.1
  0
SEQEND
  5
166F
  8
LOTES
  0
POLYLINE
  5
3C0
  8
LOTES
 66
     1
 10
0.0
 20
0.0
 30
1.2366666666666659
 70
     1
1001
DCO15
1071
        3
1071
        3
1000
datoslink
1004
0000000000F07F40
1001
ADE_ENTITY_LOCK
1071
1342624882
1071
1342625087
  0
VERTEX
  5
1670
  8
LOTES
 10
537883.77469133958
 20
1035793.114071462
 30
1.2366666666666659
  0
VERTEX
  5
1671
  8
LOTES
 10
537883.77469133958
 20
1035728.693977717
 30
1.2366666666666659
  0
VERTEX
  5
1672
  8
LOTES
 10
537835.23900426831
 20
1035728.693977717
 30
1.2366666666666659
  0
VERTEX
  5
1673
  8
LOTES
 10
537828.17926796619
 20
1035793.114071462
 30
1.2366666666666659
  0
SEQEND
  5
1674
  8
LOTES
  0
POLYLINE
  5
3C1
  8
LOTES
 66
     1
 10
0.0
 20
0.0
 30
0.125
 70
     1
1001
DCO15
1071
        3
1071
        3
1000
datoslink
1004
0000000000E07F40
  0
VERTEX
  5
1675
  8
LOTES
 10
537627.85925041698
 20
1035787.81926924
 30
0.125
  0
VERTEX
  5
1676
  8
LOTES
 10
537627.85925041698
 20
1035838.119890382
 30
0.125
  0
VERTEX
  5
1677
  8
LOTES
 10
537678.15987156332
 20
1035838.119890382
 30
0.125
  0
VERTEX
  5
1678
  8
LOTES
 10
537678.15987156332
 20
1035787.81926924
 30
0.125
  0
SEQEND
  5
1679
  8
LOTES
  0
POLYLINE
  5
3C2
  8
LOTES
 66
     1
 10
0.0
 20
0.0
 30
0.1666666666666666
 70
     1
1001
DCO15
1071
        3
1071
        3
1000
datoslink
1004
0000000000D07F40
  0
VERTEX
  5
167A
  8
LOTES
 10
537833.47407019266
 20
1035725.164109565
 30
0.1666666666666666
  0
VERTEX
  5
167B
  8
LOTES
 10
537883.77469134005
 20
1035725.164109565
 30
0.1666666666666666
  0
VERTEX
  5
167C
  8
LOTES
 10
537883.77469134005
 20
1035674.863488417
 30
0.1666666666666666
  0
VERTEX
  5
167D
  8
LOTES
 10
537833.47407019266
 20
1035674.863488417
 30
0.1666666666666666
  0
SEQEND
  5
167E
  8
LOTES
  0
POLYLINE
  5
3C3
  8
LOTES
 66
     1
 10
0.0
 20
0.0
 30
0.84
 70
     1
1001
DCO15
1071
        3
1071
        3
1000
datoslink
1004
0000000000C07F40
  0
VERTEX
  5
167F
  8
LOTES
 10
537774.34877866972
 20
1035306.874733714
 30
0.84
  0
VERTEX
  5
1680
  8
LOTES
 10
537827.29680092819
 20
1035325.4065415
 30
0.84
  0
VERTEX
  5
1681
  8
LOTES
 10
537857.30068020988
 20
1035294.520195186
 30
0.84
  0
VERTEX
  5
1682
  8
LOTES
 10
537855.53574613389
 20
1035280.400722582
 30
0.84
  0
VERTEX
  5
1683
  8
LOTES
 10
537843.18120760645
 20
1035270.693585166
 30
0.84
  0
VERTEX
  5
1684
  8
LOTES
 10
537818.47213055287
 20
1035269.8111181289
 30
0.84
  0
VERTEX
  5
1685
  8
LOTES
 10
537797.29292164929
 20
1035283.048123695
 30
0.84
  0
SEQEND
  5
1686
  8
LOTES
  0
POLYLINE
  5
3C4
  8
LOTES
 66
     1
 10
0.0
 20
0.0
 30
0.4166666666666667
 70
     1
1001
DCO15
1071
        3
1071
        3
1000
datoslink
1004
0000000000B07F40
  0
VERTEX
  5
1687
  8
LOTES
 10
537629.62418449286
 20
1035786.054335164
 30
0.4166666666666667
  0
VERTEX
  5
1688
  8
LOTES
 10
537679.92480564024
 20
1035786.054335164
 30
0.4166666666666667
  0
VERTEX
  5
1689
  8
LOTES
 10
537679.92480564024
 20
1035735.753714015
 30
0.4166666666666667
  0
VERTEX
  5
168A
  8
LOTES
 10
537629.62418449286
 20
1035735.753714015
 30
0.4166666666666667
  0
SEQEND
  5
168B
  8
LOTES
  0
POLYLINE
  5
3C5
  8
LOTES
 66
     1
 10
0.0
 20
0.0
 30
0.12
 70
     1
1001
DCO15
1071
        3
1071
        3
1000
datoslink
1004
0000000000A07F40
  0
VERTEX
  5
168C
  8
LOTES
 10
537709.04621788312
 20
1035267.163717018
 30
0.12
  0
VERTEX
  5
168D
  8
LOTES
 10
537724.04815752245
 20
1035217.745562907
 30
0.12
  0
VERTEX
  5
168E
  8
LOTES
 10
537673.74753637612
 20
1035217.745562907
 30
0.12
  0
VERTEX
  5
168F
  8
LOTES
 10
537661.39299784775
 20
1035267.163717018
 30
0.12
  0
SEQEND
  5
1690
  8
LOTES
  0
POLYLINE
  5
3C6
  8
LOTES
 66
     1
 10
0.0
 20
0.0
 30
1.2075
 70
     1
1001
DCO15
1071
        3
1071
        3
1000
datoslink
1004
0000000000907F40
  0
VERTEX
  5
1691
  8
LOTES
 10
537772.75582759362
 20
1035309.808108779
 30
1.2075
  0
VERTEX
  5
1692
  8
LOTES
 10
537759.76048368216
 20
1035332.549960622
 30
1.2075
  0
VERTEX
  5
1693
  8
LOTES
 10
537752.4506027326
 20
1035360.977275425
 30
1.2075
  0
VERTEX
  5
1694
  8
LOTES
 10
537759.76048368216
 20
1035373.972619336
 30
1.2075
  0
VERTEX
  5
1695
  8
LOTES
 10
537781.69012652989
 20
1035369.09936537
 30
1.2075
  0
VERTEX
  5
1696
  8
LOTES
 10
537798.74651541375
 20
1035358.540648444
 30
1.2075
  0
VERTEX
  5
1697
  8
LOTES
 10
537814.17848630808
 20
1035341.48425956
 30
1.2075
  0
VERTEX
  5
1698
  8
LOTES
 10
537824.73720323388
 20
1035326.864497661
 30
1.2075
  0
SEQEND
  5
1699
  8
LOTES
  0
POLYLINE
  5
3C7
  8
LOTES
 66
     1
 10
0.0
 20
0.0
 30
1.2075
 70
     1
1001
DCO15
1071
        3
1071
        3
1000
datoslink
1004
0000000000507F40
  0
VERTEX
  5
169A
  8
LOTES
 10
537874.24043222039
 20
1035596.874738753
 30
1.2075
  0
VERTEX
  5
169B
  8
LOTES
 10
537924.2432933104
 20
1035596.874738753
 30
1.2075
  0
VERTEX
  5
169C
  8
LOTES
 10
537924.2432933104
 20
1035546.871877665
 30
1.2075
  0
VERTEX
  5
169D
  8
LOTES
 10
537874.24043222039
 20
1035546.871877665
 30
1.2075
  0
SEQEND
  5
169E
  8
LOTES
  0
POLYLINE
  5
3C8
  8
LOTES
 66
     1
 10
0.0
 20
0.0
 30
1.1375
 70
     1
1001
DCO15
1071
        3
1071
        3
1000
datoslink
1004
0000000000707F40
  0
VERTEX
  5
169F
  8
LOTES
 10
537945.83970363345
 20
1035317.9460593
 30
1.1375
  0
VERTEX
  5
16A0
  8
LOTES
 10
537980.69018257409
 20
1035321.734154831
 30
1.1375
  0
VERTEX
  5
16A1
  8
LOTES
 10
538027.66256723367
 20
1035321.734154831
 30
1.1375
  0
VERTEX
  5
16A2
  8
LOTES
 10
538015.54066151555
 20
1035282.337961253
 30
1.1375
  0
VERTEX
  5
16A3
  8
LOTES
 10
537965.53780042566
 20
1035282.337961253
 30
1.1375
  0
SEQEND
  5
16A4
  8
LOTES
  0
POLYLINE
  5
3C9
  8
LOTES
 66
     1
 10
0.0
 20
0.0
 30
1.3440000000000001
 70
     1
1001
DCO15
1071
        3
1071
        3
1000
datoslink
1004
0000000000407F40
  0
VERTEX
  5
16A5
  8
LOTES
 10
537981.44780168065
 20
1035324.764631263
 30
1.3440000000000001
  0
VERTEX
  5
16A6
  8
LOTES
 10
537981.44780168065
 20
1035374.767492355
 30
1.3440000000000001
  0
VERTEX
  5
16A7
  8
LOTES
 10
538031.45066277054
 20
1035374.767492355
 30
1.3440000000000001
  0
VERTEX
  5
16A8
  8
LOTES
 10
538031.45066277054
 20
1035324.764631263
 30
1.3440000000000001
  0
SEQEND
  5
16A9
  8
LOTES
  0
POLYLINE
  5
3CA
  8
LOTES
 66
     1
 10
0.0
 20
0.0
 30
1.3440000000000001
 70
     1
1001
DCO15
1071
        3
1071
        3
1000
datoslink
1004
0000000000007F40
  0
VERTEX
  5
16AA
  8
LOTES
 10
539649.63229669002
 20
1037011.347348658
 30
1.3440000000000001
  0
VERTEX
  5
16AB
  8
LOTES
 10
539699.47243311652
 20
1037011.347348658
 30
1.3440000000000001
  0
VERTEX
  5
16AC
  8
LOTES
 10
539699.47243311652
 20
1036961.948275389
 30
1.3440000000000001
  0
VERTEX
  5
16AD
  8
LOTES
 10
539649.19123353541
 20
1036961.948275389
 30
1.3440000000000001
  0
SEQEND
  5
16AE
  8
LOTES
  0
POLYLINE
  5
3CB
  8
LOTES
 66
     1
 10
0.0
 20
0.0
 30
1.1899999999999999
 70
     1
1001
DCO15
1071
        3
1071
        3
1000
datoslink
1004
0000000000E07E40
1001
ADE_ENTITY_LOCK
1071
1342624882
1071
1342625087
  0
VERTEX
  5
16AF
  8
LOTES
 10
539216.94934240263
 20
1036466.193290049
 30
1.1899999999999999
  0
VERTEX
  5
16B0
  8
LOTES
 10
539216.94934240263
 20
1036544.702531498
 30
1.1899999999999999
  0
VERTEX
  5
16B1
  8
LOTES
 10
539281.34456291888
 20
1036544.702531498
 30
1.1899999999999999
  0
VERTEX
  5
16B2
  8
LOTES
 10
539281.34456291888
 20
1036466.193290049
 30
1.1899999999999999
  0
SEQEND
  5
16B3
  8
LOTES
  0
POLYLINE
  5
3CC
  8
LOTES
 66
     1
 10
0.0
 20
0.0
 30
0.04
 70
     1
1001
DCO15
1071
        3
1071
        3
1000
datoslink
1004
0000000000B07E40
  0
VERTEX
  5
16B4
  8
LOTES
 10
538467.83926863456
 20
1035461.893689704
 30
0.04
  0
VERTEX
  5
16B5
  8
LOTES
 10
538467.83926863456
 20
1035470.227499888
 30
0.04
  0
VERTEX
  5
16B6
  8
LOTES
 10
538482.85692068108
 20
1035470.032437213
 30
0.04
  0
VERTEX
  5
16B7
  8
LOTES
 10
538483.92172213795
 20
1035461.879302243
 30
0.04
  0
SEQEND
  5
16B8
  8
LOTES
  0
POLYLINE
  5
3CD
  8
LOTES
 66
     1
 10
0.0
 20
0.0
 30
0.05
 70
     1
1001
DCO15
1071
        3
1071
        3
1000
datoslink
1004
0000000000E07D40
  0
VERTEX
  5
16B9
  8
LOTES
 10
537947.87178014033
 20
1035073.923013301
 30
0.05
  0
VERTEX
  5
16BA
  8
LOTES
 10
537947.87178014033
 20
1035012.425847361
 30
0.05
  0
VERTEX
  5
16BB
  8
LOTES
 10
537919.84775515273
 20
1035021.767189024
 30
0.05
  0
VERTEX
  5
16BC
  8
LOTES
 10
537900.38662669156
 20
1035051.348104285
 30
0.05
  0
VERTEX
  5
16BD
  8
LOTES
 10
537901.94351696782
 20
1035070.809232749
 30
0.05
  0
VERTEX
  5
16BE
  8
LOTES
 10
537912.84174890735
 20
1035091.82725149
 30
0.05
  0
SEQEND
  5
16BF
  8
LOTES
  0
POLYLINE
  5
3CE
  8
LOTES
 66
     1
 10
0.0
 20
0.0
 30
0.3636363636363637
 70
     1
1001
DCO15
1071
        3
1071
        3
1000
datoslink
1004
0000000000D07D40
  0
VERTEX
  5
16C0
  8
LOTES
 10
537943.97955444641
 20
1035179.013107001
 30
0.3636363636363637
  0
VERTEX
  5
16C1
  8
LOTES
 10
537943.97955444641
 20
1035132.306398691
 30
0.3636363636363637
  0
VERTEX
  5
16C2
  8
LOTES
 10
537895.71595585998
 20
1035132.306398691
 30
0.3636363636363637
  0
VERTEX
  5
16C3
  8
LOTES
 10
537895.71595585998
 20
1035179.013107001
 30
0.3636363636363637
  0
SEQEND
  5
16C4
  8
LOTES
  0
POLYLINE
  5
3CF
  8
LOTES
 66
     1
 10
0.0
 20
0.0
 30
1.1759999999999999
 70
     1
1001
DCO15
1071
        3
1071
        3
1000
datoslink
1004
0000000000B07D40
  0
VERTEX
  5
16C5
  8
LOTES
 10
538012.48272663448
 20
1035073.923013301
 30
1.1759999999999999
  0
VERTEX
  5
16C6
  8
LOTES
 10
538013.26117177494
 20
1035012.425847361
 30
1.1759999999999999
  0
VERTEX
  5
16C7
  8
LOTES
 10
537949.42867041659
 20
1035012.425847361
 30
1.1759999999999999
  0
VERTEX
  5
16C8
  8
LOTES
 10
537949.42867041659
 20
1035073.923013301
 30
1.1759999999999999
  0
SEQEND
  5
16C9
  8
LOTES
  0
POLYLINE
  5
3D0
  8
LOTES
 66
     1
 10
0.0
 20
0.0
 30
0.0615384615384616
 70
     1
1001
DCO15
1071
        3
1071
        3
1000
datoslink
1004
0000000000907D40
  0
VERTEX
  5
16CA
  8
LOTES
 10
537982.90181137354
 20
1035129.971063277
 30
0.0615384615384616
  0
VERTEX
  5
16CB
  8
LOTES
 10
537982.90181137354
 20
1035075.479903579
 30
0.0615384615384616
  0
VERTEX
  5
16CC
  8
LOTES
 10
537947.87178014033
 20
1035075.479903579
 30
0.0615384615384616
  0
VERTEX
  5
16CD
  8
LOTES
 10
537912.06330376863
 20
1035094.1625869049
 30
0.0615384615384616
  0
VERTEX
  5
16CE
  8
LOTES
 10
537912.06330376863
 20
1035129.971063277
 30
0.0615384615384616
  0
SEQEND
  5
16CF
  8
LOTES
  0
POLYLINE
  5
3D1
  8
LOTES
 66
     1
 10
0.0
 20
0.0
 30
0.0416666666666667
 70
     1
1001
DCO15
1071
        3
1071
        3
1000
datoslink
1004
0000000000807D40
  0
VERTEX
  5
16D0
  8
LOTES
 10
538038.94986134488
 20
1035129.192618137
 30
0.0416666666666667
  0
VERTEX
  5
16D1
  8
LOTES
 10
537984.45870164968
 20
1035129.192618137
 30
0.0416666666666667
  0
VERTEX
  5
16D2
  8
LOTES
 10
537984.45870164968
 20
1035179.791552139
 30
0.0416666666666667
  0
VERTEX
  5
16D3
  8
LOTES
 10
538038.94986134488
 20
1035179.791552139
 30
0.0416666666666667
  0
SEQEND
  5
16D4
  8
LOTES
  0
POLYLINE
  5
3D2
  8
LOTES
 66
     1
 10
0.0
 20
0.0
 30
0.8333333333333333
 70
     1
1001
DCO15
1071
        3
1071
        3
1000
datoslink
1004
0000000000707D40
1001
ADE_ENTITY_LOCK
1071
1342624882
1071
1342625087
  0
VERTEX
  5
16D5
  8
LOTES
 10
538051.40498356055
 20
1035074.701458441
 30
0.8333333333333333
  0
VERTEX
  5
16D6
  8
LOTES
 10
537984.45870164968
 20
1035075.479903579
 30
0.8333333333333333
  0
VERTEX
  5
16D7
  8
LOTES
 10
537984.45870164968
 20
1035126.857282724
 30
0.8333333333333333
  0
VERTEX
  5
16D8
  8
LOTES
 10
538051.40498356055
 20
1035126.857282724
 30
0.8333333333333333
  0
SEQEND
  5
16D9
  8
LOTES
  0
POLYLINE
  5
3D3
  8
LOTES
 66
     1
 10
0.0
 20
0.0
 30
0.1388888888888889
 70
     1
1001
DCO15
1071
        3
1071
        3
1000
datoslink
1004
0000000000607D40
  0
VERTEX
  5
16DA
  8
LOTES
 10
538052.96187383682
 20
1035124.521947309
 30
0.1388888888888889
  0
VERTEX
  5
16DB
  8
LOTES
 10
538103.5608078409
 20
1035124.521947309
 30
0.1388888888888889
  0
VERTEX
  5
16DC
  8
LOTES
 10
538103.5608078409
 20
1035074.701458441
 30
0.1388888888888889
  0
VERTEX
  5
16DD
  8
LOTES
 10
538052.96187383682
 20
1035074.701458441
 30
0.1388888888888889
  0
SEQEND
  5
16DE
  8
LOTES
  0
POLYLINE
  5
3D4
  8
LOTES
 66
     1
 10
0.0
 20
0.0
 30
0.04
 70
     1
1001
DCO15
1071
        3
1071
        3
1000
datoslink
1004
0000000000507D40
  0
VERTEX
  5
16DF
  8
LOTES
 10
537859.90747948829
 20
1034956.377797387
 30
0.04
  0
VERTEX
  5
16E0
  8
LOTES
 10
537900.38662669156
 20
1034956.377797387
 30
0.04
  0
VERTEX
  5
16E1
  8
LOTES
 10
537900.38662669156
 20
1034905.778863385
 30
0.04
  0
VERTEX
  5
16E2
  8
LOTES
 10
537859.90747948829
 20
1034905.778863385
 30
0.04
  0
SEQEND
  5
16E3
  8
LOTES
  0
POLYLINE
  5
3D5
  8
LOTES
 66
     1
 10
0.0
 20
0.0
 30
0.25
 70
     1
1001
DCO15
1071
        3
1071
        3
1000
datoslink
1004
0000000000407D40
  0
VERTEX
  5
16E4
  8
LOTES
 10
537969.66824401636
 20
1034901.108192555
 30
0.25
  0
VERTEX
  5
16E5
  8
LOTES
 10
538036.61452592816
 20
1034901.108192555
 30
0.25
  0
VERTEX
  5
16E6
  8
LOTES
 10
538036.61452592816
 20
1034838.054136339
 30
0.25
  0
VERTEX
  5
16E7
  8
LOTES
 10
537969.66824401636
 20
1034838.054136339
 30
0.25
  0
SEQEND
  5
16E8
  8
LOTES
  0
POLYLINE
  5
3D6
  8
LOTES
 66
     1
 10
0.0
 20
0.0
 30
0.1481481481481481
 70
     1
1001
DCO15
1071
        3
1071
        3
1000
datoslink
1004
0000000000307D40
  0
VERTEX
  5
16E9
  8
LOTES
 10
538004.69827524945
 20
1034753.982061375
 30
0.1481481481481481
  0
VERTEX
  5
16EA
  8
LOTES
 10
538004.69827524945
 20
1034805.3594405201
 30
0.1481481481481481
  0
VERTEX
  5
16EB
  8
LOTES
 10
538069.3092217464
 20
1034805.3594405201
 30
0.1481481481481481
  0
VERTEX
  5
16EC
  8
LOTES
 10
538069.3092217464
 20
1034753.982061375
 30
0.1481481481481481
  0
SEQEND
  5
16ED
  8
LOTES
  0
POLYLINE
  5
3D7
  8
LOTES
 66
     1
 10
0.0
 20
0.0
 30
0.2
 70
     1
1001
DCO15
1071
        3
1071
        3
1000
datoslink
1004
0000000000207D40
  0
VERTEX
  5
16EE
  8
LOTES
 10
537932.30287736934
 20
1034804.580995382
 30
0.2
  0
VERTEX
  5
16EF
  8
LOTES
 10
538002.36293983553
 20
1034804.580995382
 30
0.2
  0
VERTEX
  5
16F0
  8
LOTES
 10
538002.36293983553
 20
1034753.982061375
 30
0.2
  0
VERTEX
  5
16F1
  8
LOTES
 10
537948.65022527799
 20
1034753.982061375
 30
0.2
  0
SEQEND
  5
16F2
  8
LOTES
  0
POLYLINE
  5
3D8
  8
LOTES
 66
     1
 10
0.0
 20
0.0
 30
0.04
 70
     1
1001
DCO15
1071
        3
1071
        3
1000
datoslink
1004
0000000000907B40
  0
VERTEX
  5
16F3
  8
LOTES
 10
537548.05260399263
 20
1034715.16914048
 30
0.04
  0
VERTEX
  5
16F4
  8
LOTES
 10
537608.07331199478
 20
1034715.16914048
 30
0.04
  0
VERTEX
  5
16F5
  8
LOTES
 10
537608.07331199478
 20
1034655.148432478
 30
0.04
  0
VERTEX
  5
16F6
  8
LOTES
 10
537548.05260399263
 20
1034655.148432478
 30
0.04
  0
SEQEND
  5
16F7
  8
LOTES
  0
POLYLINE
  5
3D9
  8
LOTES
 66
     1
 10
0.0
 20
0.0
 30
0.2125
 70
     1
1001
DCO15
1071
        3
1071
        3
1000
datoslink
1004
0000000000F07940
  0
VERTEX
  5
16F8
  8
LOTES
 10
538203.07271293656
 20
1034100.398212194
 30
0.2125
  0
VERTEX
  5
16F9
  8
LOTES
 10
538220.01973637287
 20
1034127.230999304
 30
0.2125
  0
VERTEX
  5
16FA
  8
LOTES
 10
538251.08927933965
 20
1034138.529014924
 30
0.2125
  0
VERTEX
  5
16FB
  8
LOTES
 10
538251.08927933965
 20
1034062.267409462
 30
0.2125
  0
VERTEX
  5
16FC
  8
LOTES
 10
538224.25649223116
 20
1034066.504165323
 30
0.2125
  0
SEQEND
  5
16FD
  8
LOTES
  0
POLYLINE
  5
3DA
  8
LOTES
 66
     1
 10
0.0
 20
0.0
 30
0.0303030303030303
 70
     1
1001
DCO15
1071
        3
1071
        3
1000
datoslink
1004
0000000000207740
  0
VERTEX
  5
16FE
  8
LOTES
 10
540275.50843080285
 20
1029498.52423273
 30
0.0303030303030303
  0
VERTEX
  5
16FF
  8
LOTES
 10
540275.50843080285
 20
1029547.4856183199
 30
0.0303030303030303
  0
VERTEX
  5
1700
  8
LOTES
 10
540325.90985714621
 20
1029547.4856183199
 30
0.0303030303030303
  0
VERTEX
  5
1701
  8
LOTES
 10
540325.90985714621
 20
1029498.52423273
 30
0.0303030303030303
  0
SEQEND
  5
1702
  8
LOTES
  0
POLYLINE
  5
3DB
  8
LOTES
 66
     1
 10
0.0
 20
0.0
 30
0.0925925925925926
 70
     1
1001
DCO15
1071
        3
1071
        3
1000
datoslink
1004
0000000000E07640
1001
ADE_ENTITY_LOCK
1071
1342624882
1071
1342625087
  0
VERTEX
  5
1703
  8
LOTES
 10
539053.62130123179
 20
1030280.2298446191
 30
0.0925925925925926
  0
VERTEX
  5
1704
  8
LOTES
 10
539037.45537408825
 20
1030324.318736828
 30
0.0925925925925926
  0
VERTEX
  5
1705
  8
LOTES
 10
539113.87612058467
 20
1030324.318736828
 30
0.0925925925925926
  0
VERTEX
  5
1706
  8
LOTES
 10
539113.87612058467
 20
1030280.2298446191
 30
0.0925925925925926
  0
SEQEND
  5
1707
  8
LOTES
  0
POLYLINE
  5
3DC
  8
LOTES
 66
     1
 10
0.0
 20
0.0
 30
0.0416666666666667
 70
     1
1001
DCO15
1071
        3
1071
        3
1000
datoslink
1004
0000000000A07640
  0
VERTEX
  5
1708
  8
LOTES
 10
539243.20353773236
 20
1030349.302442414
 30
0.0416666666666667
  0
VERTEX
  5
1709
  8
LOTES
 10
539294.6405786433
 20
1030349.302442414
 30
0.0416666666666667
  0
VERTEX
  5
170A
  8
LOTES
 10
539294.6405786433
 20
1030297.865401503
 30
0.0416666666666667
  0
VERTEX
  5
170B
  8
LOTES
 10
539243.20353773236
 20
1030297.865401503
 30
0.0416666666666667
  0
SEQEND
  5
170C
  8
LOTES
  0
POLYLINE
  5
3DD
  8
LOTES
 66
     1
 10
0.0
 20
0.0
 30
0.0071428571428571
 70
     1
1001
DCO15
1071
        3
1071
        3
1000
datoslink
1004
0000000000207540
1001
ADE_ENTITY_LOCK
1071
1342624882
1071
1342625087
  0
VERTEX
  5
170D
  8
LOTES
 10
538191.00811119215
 20
1031670.565137703
 30
0.0071428571428571
  0
VERTEX
  5
170E
  8
LOTES
 10
538193.65444266179
 20
1031707.613778279
 30
0.0071428571428571
  0
VERTEX
  5
170F
  8
LOTES
 10
538225.41042029811
 20
1031707.613778279
 30
0.0071428571428571
  0
VERTEX
  5
1710
  8
LOTES
 10
538235.99574617681
 20
1031670.565137703
 30
0.0071428571428571
  0
SEQEND
  5
1711
  8
LOTES
  0
POLYLINE
  5
3DE
  8
LOTES
 66
     1
 10
0.0
 20
0.0
 30
0.0909090909090909
 70
     1
1001
DCO15
1071
        3
1071
        3
1000
datoslink
1004
0000000000D07340
  0
VERTEX
  5
1712
  8
LOTES
 10
540067.25712320523
 20
1029647.444729122
 30
0.0909090909090909
  0
VERTEX
  5
1713
  8
LOTES
 10
540104.14358123555
 20
1029654.0486340181
 30
0.0909090909090909
  0
VERTEX
  5
1714
  8
LOTES
 10
540128.62427403079
 20
1029612.28745219
 30
0.0909090909090909
  0
VERTEX
  5
1715
  8
LOTES
 10
540089.74317370879
 20
1029587.8067593951
 30
0.0909090909090909
  0
VERTEX
  5
1716
  8
LOTES
 10
540063.82244016079
 20
1029618.047615201
 30
0.0909090909090909
  0
SEQEND
  5
1717
  8
LOTES
  0
POLYLINE
  5
3DF
  8
LOTES
 66
     1
 10
0.0
 20
0.0
 30
0.2
 70
     1
1001
DCO15
1071
        3
1071
        3
1000
datoslink
1004
0000000000C07340
  0
VERTEX
  5
1718
  8
LOTES
 10
539827.24250072008
 20
1029635.234212926
 30
0.2
  0
VERTEX
  5
1719
  8
LOTES
 10
539827.24250072008
 20
1029685.297146537
 30
0.2
  0
VERTEX
  5
171A
  8
LOTES
 10
539877.30543433048
 20
1029685.297146537
 30
0.2
  0
VERTEX
  5
171B
  8
LOTES
 10
539877.30543433048
 20
1029635.234212926
 30
0.2
  0
SEQEND
  5
171C
  8
LOTES
  0
POLYLINE
  5
3E0
  8
LOTES
 66
     1
 10
0.0
 20
0.0
 30
0.5
 70
     1
1001
DCO15
1071
        3
1071
        3
1000
datoslink
1004
0000000000B07340
  0
VERTEX
  5
171D
  8
LOTES
 10
539987.97086652182
 20
1029802.549806834
 30
0.5
  0
VERTEX
  5
171E
  8
LOTES
 10
539915.51135734899
 20
1029802.549806834
 30
0.5
  0
VERTEX
  5
171F
  8
LOTES
 10
539915.51135734899
 20
1029852.612740445
 30
0.5
  0
VERTEX
  5
1720
  8
LOTES
 10
539987.97086652182
 20
1029852.612740445
 30
0.5
  0
SEQEND
  5
1721
  8
LOTES
  0
POLYLINE
  5
3E1
  8
LOTES
 66
     1
 10
0.0
 20
0.0
 30
0.06
 70
     1
1001
DCO15
1071
        3
1071
        3
1000
datoslink
1004
0000000000A07340
  0
VERTEX
  5
1722
  8
LOTES
 10
539847.00418504013
 20
1029806.502143699
 30
0.06
  0
VERTEX
  5
1723
  8
LOTES
 10
539847.00418504013
 20
1029856.565077309
 30
0.06
  0
VERTEX
  5
1724
  8
LOTES
 10
539911.55902048503
 20
1029856.565077309
 30
0.06
  0
VERTEX
  5
1725
  8
LOTES
 10
539911.55902048503
 20
1029806.502143699
 30
0.06
  0
SEQEND
  5
1726
  8
LOTES
  0
POLYLINE
  5
3E2
  8
LOTES
 66
     1
 10
0.0
 20
0.0
 30
0.2777777777777778
 70
     1
1001
DCO15
1071
        3
1071
        3
1000
datoslink
1004
0000000000807340
  0
VERTEX
  5
1727
  8
LOTES
 10
540248.78650250449
 20
1029882.280998285
 30
0.2777777777777778
  0
VERTEX
  5
1728
  8
LOTES
 10
540313.81479496963
 20
1029882.280998285
 30
0.2777777777777778
  0
VERTEX
  5
1729
  8
LOTES
 10
540298.39141791046
 20
1029832.2592348499
 30
0.2777777777777778
  0
VERTEX
  5
172A
  8
LOTES
 10
540248.78650250449
 20
1029832.2592348499
 30
0.2777777777777778
  0
SEQEND
  5
172B
  8
LOTES
  0
POLYLINE
  5
3E3
  8
LOTES
 66
     1
 10
0.0
 20
0.0
 30
0.2333333333333333
 70
     1
1001
DCO15
1071
        3
1071
        3
1000
datoslink
1004
0000000000907340
  0
VERTEX
  5
172C
  8
LOTES
 10
540250.24547060474
 20
1029829.758146678
 30
0.2333333333333333
  0
VERTEX
  5
172D
  8
LOTES
 10
540298.59984192485
 20
1029829.758146678
 30
0.2333333333333333
  0
VERTEX
  5
172E
  8
LOTES
 10
540327.36235589988
 20
1029768.898334499
 30
0.2333333333333333
  0
VERTEX
  5
172F
  8
LOTES
 10
540276.92374443659
 20
1029768.898334499
 30
0.2333333333333333
  0
SEQEND
  5
1730
  8
LOTES
  0
POLYLINE
  5
3E4
  8
LOTES
 66
     1
 10
0.0
 20
0.0
 30
0.3333333333333333
 70
     1
1001
DCO15
1071
        3
1071
        3
1000
datoslink
1004
0000000000707340
  0
VERTEX
  5
1731
  8
LOTES
 10
540365.50395051867
 20
1029934.8038498909
 30
0.3333333333333333
  0
VERTEX
  5
1732
  8
LOTES
 10
540381.76102363493
 20
1029981.490829097
 30
0.3333333333333333
  0
VERTEX
  5
1733
  8
LOTES
 10
540405.10451323783
 20
1029981.490829097
 30
0.3333333333333333
  0
VERTEX
  5
1734
  8
LOTES
 10
540383.845263778
 20
1029934.8038498909
 30
0.3333333333333333
  0
SEQEND
  5
1735
  8
LOTES
  0
POLYLINE
  5
3E5
  8
LOTES
 66
     1
 10
0.0
 20
0.0
 30
0.6818181818181818
 70
     1
1001
DCO15
1071
        3
1071
        3
1000
datoslink
1004
0000000000507340
  0
VERTEX
  5
1736
  8
LOTES
 10
540288.42755257955
 20
1029934.38159672
 30
0.6818181818181818
  0
VERTEX
  5
1737
  8
LOTES
 10
540288.42755257955
 20
1029980.933534798
 30
0.6818181818181818
  0
VERTEX
  5
1738
  8
LOTES
 10
540380.0936315204
 20
1029981.073981068
 30
0.6818181818181818
  0
VERTEX
  5
1739
  8
LOTES
 10
540363.83655840415
 20
1029934.3870018621
 30
0.6818181818181818
  0
SEQEND
  5
173A
  8
LOTES
  0
POLYLINE
  5
3E6
  8
LOTES
 66
     1
 10
0.0
 20
0.0
 30
1.0222222222222219
 70
     1
1001
DCO15
1071
        3
1071
        3
1000
datoslink
1004
0000000000407340
  0
VERTEX
  5
173B
  8
LOTES
 10
540287.36955398682
 20
1029984.1075305759
 30
1.0222222222222219
  0
VERTEX
  5
173C
  8
LOTES
 10
540286.3115553942
 20
1030067.689419397
 30
1.0222222222222219
  0
VERTEX
  5
173D
  8
LOTES
 10
540340.26948362065
 20
1030070.863415175
 30
1.0222222222222219
  0
VERTEX
  5
173E
  8
LOTES
 10
540339.21148502803
 20
1030053.935437692
 30
1.0222222222222219
  0
VERTEX
  5
173F
  8
LOTES
 10
540412.21338792285
 20
1030040.181455987
 30
1.0222222222222219
  0
VERTEX
  5
1740
  8
LOTES
 10
540413.27138651547
 20
1030002.093506651
 30
1.0222222222222219
  0
VERTEX
  5
1741
  8
LOTES
 10
540401.63340199599
 20
1029984.1075305759
 30
1.0222222222222219
  0
SEQEND
  5
1742
  8
LOTES
  0
POLYLINE
  5
3E7
  8
LOTES
 66
     1
 10
0.0
 20
0.0
 30
0.0148148148148148
 70
     1
1001
DCO15
1071
        3
1071
        3
1000
datoslink
1004
0000000000307340
  0
VERTEX
  5
1743
  8
LOTES
 10
540236.58562153834
 20
1029932.265599534
 30
0.0148148148148148
  0
VERTEX
  5
1744
  8
LOTES
 10
540369.89344421565
 20
1029932.265599534
 30
0.0148148148148148
  0
VERTEX
  5
1745
  8
LOTES
 10
540314.87751739635
 20
1029883.597664271
 30
0.0148148148148148
  0
VERTEX
  5
1746
  8
LOTES
 10
540249.20335053315
 20
1029883.53154237
 30
0.0148148148148148
  0
SEQEND
  5
1747
  8
LOTES
  0
POLYLINE
  5
3E8
  8
LOTES
 66
     1
 10
0.0
 20
0.0
 30
0.55
 70
     1
1001
DCO15
1071
        3
1071
        3
1000
datoslink
1004
0000000000207340
  0
VERTEX
  5
1748
  8
LOTES
 10
540234.46962435299
 20
1030012.673492578
 30
0.55
  0
VERTEX
  5
1749
  8
LOTES
 10
540286.3115553942
 20
1030012.673492578
 30
0.55
  0
VERTEX
  5
174A
  8
LOTES
 10
540286.3115553942
 20
1029936.497593905
 30
0.55
  0
VERTEX
  5
174B
  8
LOTES
 10
540234.46962435299
 20
1029936.497593905
 30
0.55
  0
SEQEND
  5
174C
  8
LOTES
  0
POLYLINE
  5
3E9
  8
LOTES
 66
     1
 10
0.0
 20
0.0
 30
0.15
 70
     1
1001
DCO15
1071
        3
1071
        3
1000
datoslink
1004
0000000000107340
  0
VERTEX
  5
174D
  8
LOTES
 10
540070.47984248796
 20
1029988.3395249459
 30
0.15
  0
VERTEX
  5
174E
  8
LOTES
 10
540070.47984248796
 20
1030039.123457395
 30
0.15
  0
VERTEX
  5
174F
  8
LOTES
 10
540121.26377493644
 20
1030039.123457395
 30
0.15
  0
VERTEX
  5
1750
  8
LOTES
 10
540121.26377493644
 20
1029988.3395249459
 30
0.15
  0
SEQEND
  5
1751
  8
LOTES
  0
POLYLINE
  5
3EA
  8
LOTES
 66
     1
 10
0.0
 20
0.0
 30
0.8
 70
     1
1001
DCO15
1071
        3
1071
        3
1000
datoslink
1004
0000000000007340
  0
VERTEX
  5
1752
  8
LOTES
 10
540233.41162576026
 20
1030014.789489763
 30
0.8
  0
VERTEX
  5
1753
  8
LOTES
 10
540233.41162576026
 20
1030065.573422212
 30
0.8
  0
VERTEX
  5
1754
  8
LOTES
 10
540284.19555820874
 20
1030065.573422212
 30
0.8
  0
VERTEX
  5
1755
  8
LOTES
 10
540284.19555820874
 20
1030014.789489763
 30
0.8
  0
SEQEND
  5
1756
  8
LOTES
  0
POLYLINE
  5
3EB
  8
LOTES
 66
     1
 10
0.0
 20
0.0
 30
0.1666666666666666
 70
     1
1001
DCO15
1071
        3
1071
        3
1000
datoslink
1004
0000000000F07240
  0
VERTEX
  5
1757
  8
LOTES
 10
539719.22430971893
 20
1030240.143190003
 30
0.1666666666666666
  0
VERTEX
  5
1758
  8
LOTES
 10
539719.22430971893
 20
1030289.869123859
 30
0.1666666666666666
  0
VERTEX
  5
1759
  8
LOTES
 10
539770.00824216753
 20
1030289.869123859
 30
0.1666666666666666
  0
VERTEX
  5
175A
  8
LOTES
 10
539770.00824216753
 20
1030240.143190003
 30
0.1666666666666666
  0
SEQEND
  5
175B
  8
LOTES
  0
POLYLINE
  5
3EC
  8
LOTES
 66
     1
 10
0.0
 20
0.0
 30
0.1
 70
     1
1001
DCO15
1071
        3
1071
        3
1000
datoslink
1004
0000000000E07240
  0
VERTEX
  5
175C
  8
LOTES
 10
540021.81190722471
 20
1030132.22733355
 30
0.1
  0
VERTEX
  5
175D
  8
LOTES
 10
540021.81190722471
 20
1030183.0112659991
 30
0.1
  0
VERTEX
  5
175E
  8
LOTES
 10
540072.59583967319
 20
1030183.0112659991
 30
0.1
  0
VERTEX
  5
175F
  8
LOTES
 10
540072.59583967319
 20
1030132.22733355
 30
0.1
  0
SEQEND
  5
1760
  8
LOTES
  0
POLYLINE
  5
3ED
  8
LOTES
 66
     1
 10
0.0
 20
0.0
 30
0.1
 70
     1
1001
DCO15
1071
        3
1071
        3
1000
datoslink
1004
0000000000D07240
  0
VERTEX
  5
1761
  8
LOTES
 10
540412.67860191537
 20
1030077.88415304
 30
0.1
  0
VERTEX
  5
1762
  8
LOTES
 10
540412.67860191537
 20
1030043.129431998
 30
0.1
  0
VERTEX
  5
1763
  8
LOTES
 10
540340.10256679915
 20
1030056.418001808
 30
0.1
  0
VERTEX
  5
1764
  8
LOTES
 10
540347.25795054308
 20
1030091.17272285
 30
0.1
  0
SEQEND
  5
1765
  8
LOTES
  0
POLYLINE
  5
3EE
  8
LOTES
 66
     1
 10
0.0
 20
0.0
 30
2.52
 70
     1
1001
DCO15
1071
        3
1071
        3
1000
datoslink
1004
0000000000C07240
  0
VERTEX
  5
1766
  8
LOTES
 10
540413.70079959265
 20
1030079.326255493
 30
2.52
  0
VERTEX
  5
1767
  8
LOTES
 10
540349.30234589893
 20
1030092.614825299
 30
2.52
  0
VERTEX
  5
1768
  8
LOTES
 10
540376.83471338358
 20
1030128.176207296
 30
2.52
  0
VERTEX
  5
1769
  8
LOTES
 10
540413.88834905706
 20
1030114.9427659831
 30
2.52
  0
SEQEND
  5
176A
  8
LOTES
  0
POLYLINE
  5
3EF
  8
LOTES
 66
     1
 10
0.0
 20
0.0
 30
0.3444444444444445
 70
     1
1001
DCO15
1071
        3
1071
        3
1000
datoslink
1004
0000000000907240
  0
VERTEX
  5
176B
  8
LOTES
 10
540415.74519494839
 20
1030114.683269436
 30
0.3444444444444445
  0
VERTEX
  5
176C
  8
LOTES
 10
540449.47771831229
 20
1030114.683269436
 30
0.3444444444444445
  0
VERTEX
  5
176D
  8
LOTES
 10
540455.61090437847
 20
1030074.817560006
 30
0.3444444444444445
  0
VERTEX
  5
176E
  8
LOTES
 10
540415.74519494839
 20
1030074.817560006
 30
0.3444444444444445
  0
SEQEND
  5
176F
  8
LOTES
  0
POLYLINE
  5
3F0
  8
LOTES
 66
     1
 10
0.0
 20
0.0
 30
0.25
 70
     1
1001
DCO15
1071
        3
1071
        3
1000
datoslink
1004
0000000000B07240
  0
VERTEX
  5
1770
  8
LOTES
 10
540415.74519494839
 20
1030072.773164651
 30
0.25
  0
VERTEX
  5
1771
  8
LOTES
 10
540454.58870670083
 20
1030072.773164651
 30
0.25
  0
VERTEX
  5
1772
  8
LOTES
 10
540454.58870670083
 20
1030002.2415248899
 30
0.25
  0
VERTEX
  5
1773
  8
LOTES
 10
540415.74519494839
 20
1030002.2415248899
 30
0.25
  0
SEQEND
  5
1774
  8
LOTES
  0
POLYLINE
  5
3F1
  8
LOTES
 66
     1
 10
0.0
 20
0.0
 30
0.84375
 70
     1
1001
DCO15
1071
        3
1071
        3
1000
datoslink
1004
0000000000A07240
  0
VERTEX
  5
1775
  8
LOTES
 10
540445.38892760314
 20
1030115.985403628
 30
0.84375
  0
VERTEX
  5
1776
  8
LOTES
 10
540415.65280789975
 20
1030115.985403628
 30
0.84375
  0
VERTEX
  5
1777
  8
LOTES
 10
540377.716942803
 20
1030129.4995514241
 30
0.84375
  0
VERTEX
  5
1778
  8
LOTES
 10
540395.30124139425
 20
1030166.073089837
 30
0.84375
  0
VERTEX
  5
1779
  8
LOTES
 10
540445.38892760314
 20
1030166.073089837
 30
0.84375
  0
SEQEND
  5
177A
  8
LOTES
  0
POLYLINE
  5
3F2
  8
LOTES
 66
     1
 10
0.0
 20
0.0
 30
1.6666666666666661
 70
     1
1001
DCO15
1071
        3
1071
        3
1000
datoslink
1004
0000000000807240
  0
VERTEX
  5
177B
  8
LOTES
 10
540311.48103182379
 20
1030283.345886256
 30
1.6666666666666661
  0
VERTEX
  5
177C
  8
LOTES
 10
540373.83509016305
 20
1030283.345886256
 30
1.6666666666666661
  0
VERTEX
  5
177D
  8
LOTES
 10
540361.5687180307
 20
1030225.080618627
 30
1.6666666666666661
  0
VERTEX
  5
177E
  8
LOTES
 10
540323.74740395625
 20
1030225.080618627
 30
1.6666666666666661
  0
SEQEND
  5
177F
  8
LOTES
  0
POLYLINE
  5
3F3
  8
LOTES
 66
     1
 10
0.0
 20
0.0
 30
0.5
 70
     1
1001
DCO15
1071
        3
1071
        3
1000
datoslink
1004
0000000000707240
  0
VERTEX
  5
1780
  8
LOTES
 10
540636.77955530933
 20
1029521.187805224
 30
0.5
  0
VERTEX
  5
1781
  8
LOTES
 10
540685.15622722695
 20
1029523.048446451
 30
0.5
  0
VERTEX
  5
1782
  8
LOTES
 10
540685.15622722695
 20
1029472.811133306
 30
0.5
  0
VERTEX
  5
1783
  8
LOTES
 10
540636.77955530933
 20
1029472.811133306
 30
0.5
  0
SEQEND
  5
1784
  8
LOTES
  0
POLYLINE
  5
3F4
  8
LOTES
 66
     1
 10
0.0
 20
0.0
 30
0.5555555555555556
 70
     1
1001
DCO15
1071
        3
1071
        3
1000
datoslink
1004
0000000000288840
  0
VERTEX
  5
1785
  8
LOTES
 10
539997.28613840416
 20
1028807.5444702191
 30
0.5555555555555556
  0
VERTEX
  5
1786
  8
LOTES
 10
539970.81770882395
 20
1028880.994362306
 30
0.5555555555555556
  0
VERTEX
  5
1787
  8
LOTES
 10
540019.12259280973
 20
1028897.537130793
 30
0.5555555555555556
  0
VERTEX
  5
1788
  8
LOTES
 10
540048.89957608655
 20
1028826.072370926
 30
0.5555555555555556
  0
SEQEND
  5
1789
  8
LOTES
  0
POLYLINE
  5
3F5
  8
LOTES
 66
     1
 10
0.0
 20
0.0
 30
0.125
 70
     1
1001
DCO15
1071
        3
1071
        3
1000
datoslink
1004
0000000000208840
  0
VERTEX
  5
178A
  8
LOTES
 10
539977.43481621984
 20
1028857.834486421
 30
0.125
  0
VERTEX
  5
178B
  8
LOTES
 10
539995.96271692496
 20
1028806.88275948
 30
0.125
  0
VERTEX
  5
178C
  8
LOTES
 10
539946.99612220097
 20
1028789.678280251
 30
0.125
  0
VERTEX
  5
178D
  8
LOTES
 10
539931.11506445345
 20
1028841.953428673
 30
0.125
  0
SEQEND
  5
178E
  8
LOTES
  0
POLYLINE
  5
3F6
  8
LOTES
 66
     1
 10
0.0
 20
0.0
 30
0.0625
 70
     1
1001
DCO15
1071
        3
1071
        3
1000
datoslink
1004
0000000000188840
  0
VERTEX
  5
178F
  8
LOTES
 10
540067.42747679539
 20
1028883.641205264
 30
0.0625
  0
VERTEX
  5
1790
  8
LOTES
 10
540084.63195602037
 20
1028841.291717933
 30
0.0625
  0
VERTEX
  5
1791
  8
LOTES
 10
540050.22299756575
 20
1028826.072370926
 30
0.0625
  0
VERTEX
  5
1792
  8
LOTES
 10
540033.01851833798
 20
1028868.421858251
 30
0.0625
  0
SEQEND
  5
1793
  8
LOTES
  0
POLYLINE
  5
3F7
  8
LOTES
 66
     1
 10
0.0
 20
0.0
 30
0.325
 70
     1
1001
DCO15
1071
        3
1071
        3
1000
datoslink
1004
0000000000108840
  0
VERTEX
  5
1794
  8
LOTES
 10
540111.76209634065
 20
1028906.8010811449
 30
0.325
  0
VERTEX
  5
1795
  8
LOTES
 10
540130.28999704774
 20
1028859.81961864
 30
0.325
  0
VERTEX
  5
1796
  8
LOTES
 10
540085.95537749957
 20
1028843.2768501519
 30
0.325
  0
VERTEX
  5
1797
  8
LOTES
 10
540065.44234457426
 20
1028890.920023396
 30
0.325
  0
SEQEND
  5
1798
  8
LOTES
  0
POLYLINE
  5
3F8
  8
LOTES
 66
     1
 10
0.0
 20
0.0
 30
0.4583333333333333
 70
     1
1001
DCO15
1071
        3
1071
        3
1000
datoslink
1004
0000000000088840
  0
VERTEX
  5
1799
  8
LOTES
 10
540087.27879897878
 20
1028968.3401799219
 30
0.4583333333333333
  0
VERTEX
  5
179A
  8
LOTES
 10
540110.43867486157
 20
1028908.786213364
 30
0.4583333333333333
  0
VERTEX
  5
179B
  8
LOTES
 10
540065.44234457426
 20
1028893.566866355
 30
0.4583333333333333
  0
VERTEX
  5
179C
  8
LOTES
 10
540041.62075795245
 20
1028949.1505684759
 30
0.4583333333333333
  0
SEQEND
  5
179D
  8
LOTES
  0
POLYLINE
  5
3F9
  8
LOTES
 66
     1
 10
0.0
 20
0.0
 30
0.2962962962962963
 70
     1
1001
DCO15
1071
        3
1071
        3
1000
datoslink
1004
0000000000008840
  0
VERTEX
  5
179E
  8
LOTES
 10
540097.86617081147
 20
1028949.1505684759
 30
0.2962962962962963
  0
VERTEX
  5
179F
  8
LOTES
 10
540148.15618701465
 20
1028968.3401799219
 30
0.2962962962962963
  0
VERTEX
  5
17A0
  8
LOTES
 10
540169.33093068004
 20
1028905.4776596701
 30
0.2962962962962963
  0
VERTEX
  5
17A1
  8
LOTES
 10
540121.02604669426
 20
1028886.949758963
 30
0.2962962962962963
  0
SEQEND
  5
17A2
  8
LOTES
  0
POLYLINE
  5
3FA
  8
LOTES
 66
     1
 10
0.0
 20
0.0
 30
0.3333333333333333
 70
     1
1001
DCO15
1071
        3
1071
        3
1000
datoslink
1004
0000000000F88740
  0
VERTEX
  5
17A3
  8
LOTES
 10
540135.58368296456
 20
1029012.674799468
 30
0.3333333333333333
  0
VERTEX
  5
17A4
  8
LOTES
 10
540179.25659177266
 20
1029012.674799468
 30
0.3333333333333333
  0
VERTEX
  5
17A5
  8
LOTES
 10
540205.72502135125
 20
1028914.74161002
 30
0.3333333333333333
  0
VERTEX
  5
17A6
  8
LOTES
 10
540171.31606289931
 20
1028905.4776596701
 30
0.3333333333333333
  0
SEQEND
  5
17A7
  8
LOTES
  0
POLYLINE
  5
3FB
  8
LOTES
 66
     1
 10
0.0
 20
0.0
 30
0.2626262626262626
 70
     1
1001
DCO15
1071
        3
1071
        3
1000
datoslink
1004
0000000000F08740
  0
VERTEX
  5
17A8
  8
LOTES
 10
540181.24172399007
 20
1029012.674799468
 30
0.2626262626262626
  0
VERTEX
  5
17A9
  8
LOTES
 10
540232.19345093425
 20
1029012.674799468
 30
0.2626262626262626
  0
VERTEX
  5
17AA
  8
LOTES
 10
540232.19345093425
 20
1028916.726742239
 30
0.2626262626262626
  0
VERTEX
  5
17AB
  8
LOTES
 10
540207.7101535704
 20
1028916.726742239
 30
0.2626262626262626
  0
SEQEND
  5
17AC
  8
LOTES
  0
POLYLINE
  5
3FC
  8
LOTES
 66
     1
 10
0.0
 20
0.0
 30
0.2666666666666666
 70
     1
1001
DCO15
1071
        3
1071
        3
1000
datoslink
1004
0000000000E88740
  0
VERTEX
  5
17AD
  8
LOTES
 10
540078.01484862529
 20
1028998.778873939
 30
0.2666666666666666
  0
VERTEX
  5
17AE
  8
LOTES
 10
540121.68775743339
 20
1029012.674799468
 30
0.2666666666666666
  0
VERTEX
  5
17AF
  8
LOTES
 10
540133.59855074622
 20
1029012.674799468
 30
0.2666666666666666
  0
VERTEX
  5
17B0
  8
LOTES
 10
540147.49447627459
 20
1028970.325312141
 30
0.2666666666666666
  0
VERTEX
  5
17B1
  8
LOTES
 10
540095.88103859313
 20
1028951.135700695
 30
0.2666666666666666
  0
SEQEND
  5
17B2
  8
LOTES
  0
POLYLINE
  5
3FD
  8
LOTES
 66
     1
 10
0.0
 20
0.0
 30
0.3333333333333333
 70
     1
1001
DCO15
1071
        3
1071
        3
1000
datoslink
1004
0000000000D08740
  0
VERTEX
  5
17B3
  8
LOTES
 10
540121.02604669426
 20
1029066.273369368
 30
0.3333333333333333
  0
VERTEX
  5
17B4
  8
LOTES
 10
540121.02604669426
 20
1029013.9982209461
 30
0.3333333333333333
  0
VERTEX
  5
17B5
  8
LOTES
 10
540076.02971640695
 20
1029000.764006158
 30
0.3333333333333333
  0
VERTEX
  5
17B6
  8
LOTES
 10
540070.73603049095
 20
1029015.983353166
 30
0.3333333333333333
  0
VERTEX
  5
17B7
  8
LOTES
 10
540070.73603049095
 20
1029066.273369368
 30
0.3333333333333333
  0
SEQEND
  5
17B8
  8
LOTES
  0
POLYLINE
  5
3FE
  8
LOTES
 66
     1
 10
0.0
 20
0.0
 30
0.3
 70
     1
1001
DCO15
1071
        3
1071
        3
1000
datoslink
1004
0000000000E08740
  0
VERTEX
  5
17B9
  8
LOTES
 10
540069.41260901187
 20
1029037.8198075721
 30
0.3
  0
VERTEX
  5
17BA
  8
LOTES
 10
540069.41260901187
 20
1029013.336510207
 30
0.3
  0
VERTEX
  5
17BB
  8
LOTES
 10
540086.61708823964
 20
1028970.325312141
 30
0.3
  0
VERTEX
  5
17BC
  8
LOTES
 10
540040.95904721227
 20
1028950.473989954
 30
0.3
  0
VERTEX
  5
17BD
  8
LOTES
 10
540015.15232837095
 20
1029010.027956508
 30
0.3
  0
SEQEND
  5
17BE
  8
LOTES
  0
POLYLINE
  5
3FF
  8
LOTES
 66
     1
 10
0.0
 20
0.0
 30
0.1
 70
     1
1001
DCO15
1071
        3
1071
        3
1000
datoslink
1004
0000000000D88740
  0
VERTEX
  5
17BF
  8
LOTES
 10
540179.25659177266
 20
1029097.373774124
 30
0.1
  0
VERTEX
  5
17C0
  8
LOTES
 10
540179.25659177266
 20
1029013.9982209461
 30
0.1
  0
VERTEX
  5
17C1
  8
LOTES
 10
540122.34946817346
 20
1029013.9982209461
 30
0.1
  0
VERTEX
  5
17C2
  8
LOTES
 10
540121.68775743339
 20
1029097.373774124
 30
0.1
  0
SEQEND
  5
17C3
  8
LOTES
  0
POLYLINE
  5
400
  8
LOTES
 66
     1
 10
0.0
 20
0.0
 30
0.1333333333333333
 70
     1
1001
DCO15
1071
        3
1071
        3
1000
datoslink
1004
0000000000C88740
  0
VERTEX
  5
17C4
  8
LOTES
 10
540231.13471375091
 20
1029014.2629052449
 30
0.1333333333333333
  0
VERTEX
  5
17C5
  8
LOTES
 10
540180.84469754586
 20
1029014.2629052449
 30
0.1333333333333333
  0
VERTEX
  5
17C6
  8
LOTES
 10
540180.84469754586
 20
1029109.549251733
 30
0.1333333333333333
  0
VERTEX
  5
17C7
  8
LOTES
 10
540231.13471375091
 20
1029109.549251733
 30
0.1333333333333333
  0
SEQEND
  5
17C8
  8
LOTES
  0
POLYLINE
  5
401
  8
LOTES
 66
     1
 10
0.0
 20
0.0
 30
0.18
 70
     1
1001
DCO15
1071
        3
1071
        3
1000
datoslink
1004
0000000000C08740
  0
VERTEX
  5
17C9
  8
LOTES
 10
540233.78155670781
 20
1029040.731334826
 30
0.18
  0
VERTEX
  5
17CA
  8
LOTES
 10
540233.78155670781
 20
1029122.121755784
 30
0.18
  0
VERTEX
  5
17CB
  8
LOTES
 10
540254.29458963324
 20
1029116.166359128
 30
0.18
  0
VERTEX
  5
17CC
  8
LOTES
 10
540284.07157291286
 20
1029040.731334826
 30
0.18
  0
SEQEND
  5
17CD
  8
LOTES
  0
POLYLINE
  5
402
  8
LOTES
 66
     1
 10
0.0
 20
0.0
 30
0.4375
 70
     1
1001
DCO15
1071
        3
1071
        3
1000
datoslink
1004
0000000000B88740
  0
VERTEX
  5
17CE
  8
LOTES
 10
540233.70745345578
 20
1028969.049135832
 30
0.4375
  0
VERTEX
  5
17CF
  8
LOTES
 10
540233.70745345578
 20
1029039.153596546
 30
0.4375
  0
VERTEX
  5
17D0
  8
LOTES
 10
540283.97102906089
 20
1029039.153596546
 30
0.4375
  0
VERTEX
  5
17D1
  8
LOTES
 10
540283.97102906089
 20
1028969.049135832
 30
0.4375
  0
SEQEND
  5
17D2
  8
LOTES
  0
POLYLINE
  5
403
  8
LOTES
 66
     1
 10
0.0
 20
0.0
 30
0.2291666666666666
 70
     1
1001
DCO15
1071
        3
1071
        3
1000
datoslink
1004
0000000000B08740
1001
ADE_ENTITY_LOCK
1071
1342624882
1071
1342625087
  0
VERTEX
  5
17D3
  8
LOTES
 10
540233.70745345578
 20
1028967.726410159
 30
0.2291666666666666
  0
VERTEX
  5
17D4
  8
LOTES
 10
540283.97102906089
 20
1028967.726410159
 30
0.2291666666666666
  0
VERTEX
  5
17D5
  8
LOTES
 10
540283.97102906089
 20
1028916.801471717
 30
0.2291666666666666
  0
VERTEX
  5
17D6
  8
LOTES
 10
540233.70745345578
 20
1028916.801471717
 30
0.2291666666666666
  0
SEQEND
  5
17D7
  8
LOTES
  0
POLYLINE
  5
404
  8
LOTES
 66
     1
 10
0.0
 20
0.0
 30
0.225
 70
     1
1001
DCO15
1071
        3
1071
        3
1000
datoslink
1004
0000000000A88740
  0
VERTEX
  5
17D8
  8
LOTES
 10
540192.7029575659
 20
1028813.628869159
 30
0.225
  0
VERTEX
  5
17D9
  8
LOTES
 10
540192.7029575659
 20
1028763.365293553
 30
0.225
  0
VERTEX
  5
17DA
  8
LOTES
 10
540142.43938195985
 20
1028763.365293553
 30
0.225
  0
VERTEX
  5
17DB
  8
LOTES
 10
540142.43938195985
 20
1028813.628869159
 30
0.225
  0
SEQEND
  5
17DC
  8
LOTES
  0
POLYLINE
  5
405
  8
LOTES
 66
     1
 10
0.0
 20
0.0
 30
0.0462962962962963
 70
     1
1001
DCO15
1071
        3
1071
        3
1000
datoslink
1004
0000000000A08740
  0
VERTEX
  5
17DD
  8
LOTES
 10
540474.44352609629
 20
1028950.5309764
 30
0.0462962962962963
  0
VERTEX
  5
17DE
  8
LOTES
 10
540474.44352609629
 20
1028881.087878526
 30
0.0462962962962963
  0
VERTEX
  5
17DF
  8
LOTES
 10
540410.29133091366
 20
1028881.087878526
 30
0.0462962962962963
  0
VERTEX
  5
17E0
  8
LOTES
 10
540410.29133091366
 20
1028950.5309764
 30
0.0462962962962963
  0
SEQEND
  5
17E1
  8
LOTES
  0
POLYLINE
  5
406
  8
LOTES
 66
     1
 10
0.0
 20
0.0
 30
0.05
 70
     1
1001
DCO15
1071
        3
1071
        3
1000
datoslink
1004
0000000000988740
  0
VERTEX
  5
17E2
  8
LOTES
 10
540364.65729516651
 20
1029049.735401939
 30
0.05
  0
VERTEX
  5
17E3
  8
LOTES
 10
540414.92087077175
 20
1029049.735401939
 30
0.05
  0
VERTEX
  5
17E4
  8
LOTES
 10
540414.92087077175
 20
1028999.471826333
 30
0.05
  0
VERTEX
  5
17E5
  8
LOTES
 10
540364.65729516651
 20
1028999.471826333
 30
0.05
  0
SEQEND
  5
17E6
  8
LOTES
  0
POLYLINE
  5
407
  8
LOTES
 66
     1
 10
0.0
 20
0.0
 30
0.4583333333333333
 70
     1
1001
DCO15
1071
        3
1071
        3
1000
datoslink
1004
0000000000908740
  0
VERTEX
  5
17E7
  8
LOTES
 10
540476.42761460599
 20
1028973.017312856
 30
0.4583333333333333
  0
VERTEX
  5
17E8
  8
LOTES
 10
540516.77074765787
 20
1028973.017312856
 30
0.4583333333333333
  0
VERTEX
  5
17E9
  8
LOTES
 10
540516.77074765787
 20
1028932.674179802
 30
0.4583333333333333
  0
VERTEX
  5
17EA
  8
LOTES
 10
540476.42761460599
 20
1028932.674179802
 30
0.4583333333333333
  0
SEQEND
  5
17EB
  8
LOTES
  0
POLYLINE
  5
408
  8
LOTES
 66
     1
 10
0.0
 20
0.0
 30
0.16
 70
     1
1001
DCO15
1071
        3
1071
        3
1000
datoslink
1004
0000000000888740
  0
VERTEX
  5
17EC
  8
LOTES
 10
540410.95269375015
 20
1028661.515416665
 30
0.16
  0
VERTEX
  5
17ED
  8
LOTES
 10
540461.8776321942
 20
1028661.515416665
 30
0.16
  0
VERTEX
  5
17EE
  8
LOTES
 10
540461.8776321942
 20
1028600.008672835
 30
0.16
  0
VERTEX
  5
17EF
  8
LOTES
 10
540410.95269375015
 20
1028600.008672835
 30
0.16
  0
SEQEND
  5
17F0
  8
LOTES
  0
POLYLINE
  5
409
  8
LOTES
 66
     1
 10
0.0
 20
0.0
 30
0.0857142857142858
 70
     1
1001
DCO15
1071
        3
1071
        3
1000
datoslink
1004
0000000000808740
  0
VERTEX
  5
17F1
  8
LOTES
 10
540464.52308353968
 20
1028608.606389711
 30
0.0857142857142858
  0
VERTEX
  5
17F2
  8
LOTES
 10
540516.10938481987
 20
1028608.606389711
 30
0.0857142857142858
  0
VERTEX
  5
17F3
  8
LOTES
 10
540527.35255304817
 20
1028535.856477652
 30
0.0857142857142858
  0
VERTEX
  5
17F4
  8
LOTES
 10
540464.52308353968
 20
1028535.856477652
 30
0.0857142857142858
  0
SEQEND
  5
17F5
  8
LOTES
  0
POLYLINE
  5
40A
  8
LOTES
 66
     1
 10
0.0
 20
0.0
 30
0.1851851851851852
 70
     1
1001
DCO15
1071
        3
1071
        3
1000
datoslink
1004
0000000000788740
  0
VERTEX
  5
17F6
  8
LOTES
 10
540575.63204014394
 20
1028728.313063195
 30
0.1851851851851852
  0
VERTEX
  5
17F7
  8
LOTES
 10
540518.093473332
 20
1028728.313063195
 30
0.1851851851851852
  0
VERTEX
  5
17F8
  8
LOTES
 10
540520.03762262408
 20
1028767.180115107
 30
0.1851851851851852
  0
VERTEX
  5
17F9
  8
LOTES
 10
540550.47631664295
 20
1028818.131842054
 30
0.1851851851851852
  0
VERTEX
  5
17FA
  8
LOTES
 10
540575.63204014394
 20
1028818.919771854
 30
0.1851851851851852
  0
SEQEND
  5
17FB
  8
LOTES
  0
POLYLINE
  5
40B
  8
LOTES
 66
     1
 10
0.0
 20
0.0
 30
0.0476190476190476
 70
     1
1001
DCO15
1071
        3
1071
        3
1000
datoslink
1004
0000000000708740
  0
VERTEX
  5
17FC
  8
LOTES
 10
540461.21626935527
 20
1028662.838142341
 30
0.0476190476190476
  0
VERTEX
  5
17FD
  8
LOTES
 10
540410.29133091413
 20
1028662.838142341
 30
0.0476190476190476
  0
VERTEX
  5
17FE
  8
LOTES
 10
540418.88904779218
 20
1028758.074390856
 30
0.0476190476190476
  0
VERTEX
  5
17FF
  8
LOTES
 10
540469.15262339823
 20
1028758.074390856
 30
0.0476190476190476
  0
SEQEND
  5
1800
  8
LOTES
  0
POLYLINE
  5
40C
  8
LOTES
 66
     1
 10
0.0
 20
0.0
 30
0.2666666666666666
 70
     1
1001
DCO15
1071
        3
1071
        3
1000
datoslink
1004
0000000000608740
  0
VERTEX
  5
1801
  8
LOTES
 10
540463.08478053205
 20
1028661.162238212
 30
0.2666666666666666
  0
VERTEX
  5
1802
  8
LOTES
 10
540513.60519830044
 20
1028661.162238212
 30
0.2666666666666666
  0
VERTEX
  5
1803
  8
LOTES
 10
540513.60519830044
 20
1028610.641820444
 30
0.2666666666666666
  0
VERTEX
  5
1804
  8
LOTES
 10
540463.08478053205
 20
1028610.641820444
 30
0.2666666666666666
  0
SEQEND
  5
1805
  8
LOTES
  0
POLYLINE
  5
40D
  8
LOTES
 66
     1
 10
0.0
 20
0.0
 30
0.01
 70
     1
1001
DCO15
1071
        3
1071
        3
1000
datoslink
1004
0000000000C88640
  0
VERTEX
  5
1806
  8
LOTES
 10
537366.22190854233
 20
1044378.852380791
 30
0.01
  0
VERTEX
  5
1807
  8
LOTES
 10
537416.5119247447
 20
1044378.852380791
 30
0.01
  0
VERTEX
  5
1808
  8
LOTES
 10
537416.5119247447
 20
1044328.562364584
 30
0.01
  0
VERTEX
  5
1809
  8
LOTES
 10
537366.22190854233
 20
1044328.562364584
 30
0.01
  0
SEQEND
  5
180A
  8
LOTES
  0
POLYLINE
  5
40E
  8
LOTES
 66
     1
 10
0.0
 20
0.0
 30
1.1899999999999999
 70
     1
1001
DCO15
1071
        3
1071
        3
1000
datoslink
1004
0000000000488640
  0
VERTEX
  5
180B
  8
LOTES
 10
538032.04784871917
 20
1043532.864663266
 30
1.1899999999999999
  0
VERTEX
  5
180C
  8
LOTES
 10
538053.21145950258
 20
1043506.410149788
 30
1.1899999999999999
  0
VERTEX
  5
180D
  8
LOTES
 10
538009.56151226454
 20
1043483.262450499
 30
1.1899999999999999
  0
VERTEX
  5
180E
  8
LOTES
 10
537997.65698119998
 20
1043511.039689649
 30
1.1899999999999999
  0
SEQEND
  5
180F
  8
LOTES
  0
POLYLINE
  5
40F
  8
LOTES
 66
     1
 10
0.0
 20
0.0
 30
1.1709090909090909
 70
     1
1001
DCO15
1071
        3
1071
        3
1000
datoslink
1004
0000000000408640
  0
VERTEX
  5
1810
  8
LOTES
 10
537859.43214828335
 20
1043612.228203697
 30
1.1709090909090909
  0
VERTEX
  5
1811
  8
LOTES
 10
537909.69572388846
 20
1043612.228203697
 30
1.1709090909090909
  0
VERTEX
  5
1812
  8
LOTES
 10
537909.69572388846
 20
1043561.964628091
 30
1.1709090909090909
  0
VERTEX
  5
1813
  8
LOTES
 10
537859.43214828335
 20
1043561.964628091
 30
1.1709090909090909
  0
SEQEND
  5
1814
  8
LOTES
  0
POLYLINE
  5
410
  8
LOTES
 66
     1
 10
0.0
 20
0.0
 30
1.1759999999999999
 70
     1
1001
DCO15
1071
        3
1071
        3
1000
datoslink
1004
0000000000208640
  0
VERTEX
  5
1815
  8
LOTES
 10
538151.35770450067
 20
1042451.271879766
 30
1.1759999999999999
  0
VERTEX
  5
1816
  8
LOTES
 10
538094.48050052393
 20
1042451.271879766
 30
1.1759999999999999
  0
VERTEX
  5
1817
  8
LOTES
 10
538095.14186336275
 20
1042502.196818206
 30
1.1759999999999999
  0
VERTEX
  5
1818
  8
LOTES
 10
538151.35770450067
 20
1042502.196818206
 30
1.1759999999999999
  0
SEQEND
  5
1819
  8
LOTES
  0
POLYLINE
  5
411
  8
LOTES
 66
     1
 10
0.0
 20
0.0
 30
2.4079999999999999
 70
     1
1001
DCO15
1071
        3
1071
        3
1000
datoslink
1004
0000000000188640
  0
VERTEX
  5
181A
  8
LOTES
 10
538153.34179301094
 20
1042438.705985864
 30
2.4079999999999999
  0
VERTEX
  5
181B
  8
LOTES
 10
538153.34179301094
 20
1042488.96956147
 30
2.4079999999999999
  0
VERTEX
  5
181C
  8
LOTES
 10
538203.60536861885
 20
1042488.96956147
 30
2.4079999999999999
  0
VERTEX
  5
181D
  8
LOTES
 10
538203.60536861885
 20
1042438.705985864
 30
2.4079999999999999
  0
SEQEND
  5
181E
  8
LOTES
  0
POLYLINE
  5
412
  8
LOTES
 66
     1
 10
0.0
 20
0.0
 30
1.1899999999999999
 70
     1
1001
DCO15
1071
        3
1071
        3
1000
datoslink
1004
0000000000108640
  0
VERTEX
  5
181F
  8
LOTES
 10
538143.42135045864
 20
1042249.556214502
 30
1.1899999999999999
  0
VERTEX
  5
1820
  8
LOTES
 10
538155.98724435829
 20
1042329.581117773
 30
1.1899999999999999
  0
VERTEX
  5
1821
  8
LOTES
 10
538208.23490847647
 20
1042329.581117773
 30
1.1899999999999999
  0
VERTEX
  5
1822
  8
LOTES
 10
538191.03947471653
 20
1042249.556214502
 30
1.1899999999999999
  0
SEQEND
  5
1823
  8
LOTES
  0
POLYLINE
  5
413
  8
LOTES
 66
     1
 10
0.0
 20
0.0
 30
1.6131818181818181
 70
     1
1001
DCO15
1071
        3
1071
        3
1000
datoslink
1004
0000000000088640
  0
VERTEX
  5
1824
  8
LOTES
 10
538140.77589911036
 20
1042247.572125994
 30
1.6131818181818181
  0
VERTEX
  5
1825
  8
LOTES
 10
538192.36220038962
 20
1042247.572125994
 30
1.6131818181818181
  0
VERTEX
  5
1826
  8
LOTES
 10
538167.23041258752
 20
1042176.806302443
 30
1.6131818181818181
  0
VERTEX
  5
1827
  8
LOTES
 10
538105.72366875305
 20
1042197.9699132229
 30
1.6131818181818181
  0
SEQEND
  5
1828
  8
LOTES
  0
POLYLINE
  5
414
  8
LOTES
 66
     1
 10
0.0
 20
0.0
 30
1.1836363636363629
 70
     1
1001
DCO15
1071
        3
1071
        3
1000
datoslink
1004
0000000000008640
  0
VERTEX
  5
1829
  8
LOTES
 10
538300.16434280772
 20
1042155.642691662
 30
1.1836363636363629
  0
VERTEX
  5
182A
  8
LOTES
 10
538350.42791841365
 20
1042155.642691662
 30
1.1836363636363629
  0
VERTEX
  5
182B
  8
LOTES
 10
538350.42791841365
 20
1042105.379116056
 30
1.1836363636363629
  0
VERTEX
  5
182C
  8
LOTES
 10
538300.16434280772
 20
1042105.379116056
 30
1.1836363636363629
  0
SEQEND
  5
182D
  8
LOTES
  0
POLYLINE
  5
415
  8
LOTES
 66
     1
 10
0.0
 20
0.0
 30
0.625
 70
     1
1001
DCO15
1071
        3
1071
        3
1000
datoslink
1004
0000000000E88540
  0
VERTEX
  5
182E
  8
LOTES
 10
538139.45317343622
 20
1041948.6361237071
 30
0.625
  0
VERTEX
  5
182F
  8
LOTES
 10
538139.45317343622
 20
1041998.899699313
 30
0.625
  0
VERTEX
  5
1830
  8
LOTES
 10
538189.71674904227
 20
1041998.899699313
 30
0.625
  0
VERTEX
  5
1831
  8
LOTES
 10
538189.71674904227
 20
1041948.6361237071
 30
0.625
  0
SEQEND
  5
1832
  8
LOTES
  0
POLYLINE
  5
416
  8
LOTES
 66
     1
 10
0.0
 20
0.0
 30
1.2133333333333329
 70
     1
1001
DCO15
1071
        3
1071
        3
1000
datoslink
1004
0000000000E08540
1001
ADE_ENTITY_LOCK
1071
1342624882
1071
1342625087
  0
VERTEX
  5
1833
  8
LOTES
 10
537993.29198647663
 20
1042063.713257328
 30
1.2133333333333329
  0
VERTEX
  5
1834
  8
LOTES
 10
537993.29198647663
 20
1042013.449681721
 30
1.2133333333333329
  0
VERTEX
  5
1835
  8
LOTES
 10
537943.02841087058
 20
1042013.449681721
 30
1.2133333333333329
  0
VERTEX
  5
1836
  8
LOTES
 10
537942.36704803526
 20
1042063.713257328
 30
1.2133333333333329
  0
SEQEND
  5
1837
  8
LOTES
  0
POLYLINE
  5
417
  8
LOTES
 66
     1
 10
0.0
 20
0.0
 30
1.2133333333333329
 70
     1
1001
DCO15
1071
        3
1071
        3
1000
datoslink
1004
0000000000D88540
  0
VERTEX
  5
1838
  8
LOTES
 10
537918.55798590358
 20
1042166.22449705
 30
1.2133333333333329
  0
VERTEX
  5
1839
  8
LOTES
 10
537974.77382704243
 20
1042166.22449705
 30
1.2133333333333329
  0
VERTEX
  5
183A
  8
LOTES
 10
537974.77382704243
 20
1042088.845045132
 30
1.2133333333333329
  0
VERTEX
  5
183B
  8
LOTES
 10
537919.21934874263
 20
1042115.960921444
 30
1.2133333333333329
  0
SEQEND
  5
183C
  8
LOTES
  0
POLYLINE
  5
418
  8
LOTES
 66
     1
 10
0.0
 20
0.0
 30
4.4000000000000004
 70
     1
1001
DCO15
1071
        3
1071
        3
1000
datoslink
1004
0000000000D08540
  0
VERTEX
  5
183D
  8
LOTES
 10
538025.03740265046
 20
1042063.051894491
 30
4.4000000000000004
  0
VERTEX
  5
183E
  8
LOTES
 10
537978.74200406391
 20
1042088.183682296
 30
4.4000000000000004
  0
VERTEX
  5
183F
  8
LOTES
 10
537978.74200406391
 20
1042138.447257902
 30
4.4000000000000004
  0
VERTEX
  5
1840
  8
LOTES
 10
538036.94193371478
 20
1042113.315470097
 30
4.4000000000000004
  0
SEQEND
  5
1841
  8
LOTES
  0
POLYLINE
  5
419
  8
LOTES
 66
     1
 10
0.0
 20
0.0
 30
1.8400000000000001
 70
     1
1001
DCO15
1071
        3
1071
        3
1000
datoslink
1004
0000000000C88540
  0
VERTEX
  5
1842
  8
LOTES
 10
538077.94642960175
 20
1042141.754072085
 30
1.8400000000000001
  0
VERTEX
  5
1843
  8
LOTES
 10
538143.42135045864
 20
1042118.606372792
 30
1.8400000000000001
  0
VERTEX
  5
1844
  8
LOTES
 10
538130.85545655631
 20
1042077.601876903
 30
1.8400000000000001
  0
VERTEX
  5
1845
  8
LOTES
 10
538079.26915527601
 20
1042084.215505272
 30
1.8400000000000001
  0
VERTEX
  5
1846
  8
LOTES
 10
538036.94193371478
 20
1042102.733664708
 30
1.8400000000000001
  0
VERTEX
  5
1847
  8
LOTES
 10
538054.79873031098
 20
1042137.124532226
 30
1.8400000000000001
  0
SEQEND
  5
1848
  8
LOTES
  0
POLYLINE
  5
41A
  8
LOTES
 66
     1
 10
0.0
 20
0.0
 30
1.2366666666666659
 70
     1
1001
DCO15
1071
        3
1071
        3
1000
datoslink
1004
0000000000C08540
1001
ADE_ENTITY_LOCK
1071
1342624882
1071
1342625087
  0
VERTEX
  5
1849
  8
LOTES
 10
537951.62612775154
 20
1042235.66759493
 30
1.2366666666666659
  0
VERTEX
  5
184A
  8
LOTES
 10
537989.98517229315
 20
1042203.26081592
 30
1.2366666666666659
  0
VERTEX
  5
184B
  8
LOTES
 10
537962.86929597799
 20
1042168.208585562
 30
1.2366666666666659
  0
VERTEX
  5
184C
  8
LOTES
 10
537917.89662306861
 20
1042168.208585562
 30
1.2366666666666659
  0
VERTEX
  5
184D
  8
LOTES
 10
537917.89662306861
 20
1042203.26081592
 30
1.2366666666666659
  0
SEQEND
  5
184E
  8
LOTES
  0
POLYLINE
  5
41B
  8
LOTES
 66
     1
 10
0.0
 20
0.0
 30
2.2777777777777768
 70
     1
1001
DCO15
1071
        3
1071
        3
1000
datoslink
1004
0000000000B88540
  0
VERTEX
  5
184F
  8
LOTES
 10
538077.94642960175
 20
1042082.231416764
 30
2.2777777777777768
  0
VERTEX
  5
1850
  8
LOTES
 10
538067.36462421145
 20
1042031.967841158
 30
2.2777777777777768
  0
VERTEX
  5
1851
  8
LOTES
 10
538027.68285399582
 20
1042061.0678059791
 30
2.2777777777777768
  0
VERTEX
  5
1852
  8
LOTES
 10
538036.94193371478
 20
1042100.0882133601
 30
2.2777777777777768
  0
SEQEND
  5
1853
  8
LOTES
  0
POLYLINE
  5
41C
  8
LOTES
 66
     1
 10
0.0
 20
0.0
 30
1.8200000000000001
 70
     1
1001
DCO15
1071
        3
1071
        3
1000
datoslink
1004
0000000000B08540
  0
VERTEX
  5
1854
  8
LOTES
 10
538079.93051811401
 20
1042082.231416764
 30
1.8200000000000001
  0
VERTEX
  5
1855
  8
LOTES
 10
538129.53273088206
 20
1042075.617788395
 30
1.8200000000000001
  0
VERTEX
  5
1856
  8
LOTES
 10
538118.95092549175
 20
1042022.047398601
 30
1.8200000000000001
  0
VERTEX
  5
1857
  8
LOTES
 10
538070.01007555996
 20
1042029.983752645
 30
1.8200000000000001
  0
SEQEND
  5
1858
  8
LOTES
  0
POLYLINE
  5
41D
  8
LOTES
 66
     1
 10
0.0
 20
0.0
 30
1.5527272727272721
 70
     1
1001
DCO15
1071
        3
1071
        3
1000
datoslink
1004
0000000000908540
  0
VERTEX
  5
1859
  8
LOTES
 10
539554.7696444476
 20
1042179.451753791
 30
1.5527272727272721
  0
VERTEX
  5
185A
  8
LOTES
 10
539554.7696444476
 20
1042239.635771949
 30
1.5527272727272721
  0
VERTEX
  5
185B
  8
LOTES
 10
539622.89001665264
 20
1042265.42892259
 30
1.5527272727272721
  0
VERTEX
  5
185C
  8
LOTES
 10
539624.21274232678
 20
1042225.0857895371
 30
1.5527272727272721
  0
VERTEX
  5
185D
  8
LOTES
 10
539616.27638828196
 20
1042179.451753791
 30
1.5527272727272721
  0
SEQEND
  5
185E
  8
LOTES
  0
POLYLINE
  5
41E
  8
LOTES
 66
     1
 10
0.0
 20
0.0
 30
0.8571428571428571
 70
     1
1001
DCO15
1071
        3
1071
        3
1000
datoslink
1004
0000000000508540
  0
VERTEX
  5
185F
  8
LOTES
 10
538388.91923552379
 20
1041735.545017648
 30
0.8571428571428571
  0
VERTEX
  5
1860
  8
LOTES
 10
538433.89190843515
 20
1041758.031354105
 30
0.8571428571428571
  0
VERTEX
  5
1861
  8
LOTES
 10
538459.68505907431
 20
1041715.042769704
 30
0.8571428571428571
  0
VERTEX
  5
1862
  8
LOTES
 10
538417.35783751309
 20
1041689.910981899
 30
0.8571428571428571
  0
SEQEND
  5
1863
  8
LOTES
  0
POLYLINE
  5
41F
  8
LOTES
 66
     1
 10
0.0
 20
0.0
 30
0.02
 70
     1
1001
DCO15
1071
        3
1071
        3
1000
datoslink
1004
0000000000488540
  0
VERTEX
  5
1864
  8
LOTES
 10
538217.49398819264
 20
1042533.016326407
 30
0.02
  0
VERTEX
  5
1865
  8
LOTES
 10
538216.83262535743
 20
1042563.439016904
 30
0.02
  0
VERTEX
  5
1866
  8
LOTES
 10
538247.91667869221
 20
1042563.439016904
 30
0.02
  0
VERTEX
  5
1867
  8
LOTES
 10
538247.91667869221
 20
1042533.016326407
 30
0.02
  0
SEQEND
  5
1868
  8
LOTES
  0
POLYLINE
  5
420
  8
LOTES
 66
     1
 10
0.0
 20
0.0
 30
0.0166666666666667
 70
     1
1001
DCO15
1071
        3
1071
        3
1000
datoslink
1004
0000000000308540
  0
VERTEX
  5
1869
  8
LOTES
 10
538603.7298849551
 20
1042540.291317612
 30
0.0166666666666667
  0
VERTEX
  5
186A
  8
LOTES
 10
538638.78211531229
 20
1042505.239087257
 30
0.0166666666666667
  0
VERTEX
  5
186B
  8
LOTES
 10
538601.08443360694
 20
1042471.509582573
 30
0.0166666666666667
  0
VERTEX
  5
186C
  8
LOTES
 10
538566.03220324963
 20
1042504.577724417
 30
0.0166666666666667
  0
SEQEND
  5
186D
  8
LOTES
  0
POLYLINE
  5
421
  8
LOTES
 66
     1
 10
0.0
 20
0.0
 30
2.149999999999999
 70
     1
1001
DCO15
1071
        3
1071
        3
1000
datoslink
1004
0000000000008440
  0
VERTEX
  5
186E
  8
LOTES
 10
539328.58355422132
 20
1041674.964181788
 30
2.149999999999999
  0
VERTEX
  5
186F
  8
LOTES
 10
539329.90627989545
 20
1041718.61412902
 30
2.149999999999999
  0
VERTEX
  5
1870
  8
LOTES
 10
539378.84712982725
 20
1041718.61412902
 30
2.149999999999999
  0
VERTEX
  5
1871
  8
LOTES
 10
539378.84712982725
 20
1041674.964181788
 30
2.149999999999999
  0
SEQEND
  5
1872
  8
LOTES
  0
POLYLINE
  5
422
  8
LOTES
 66
     1
 10
0.0
 20
0.0
 30
0.75
 70
     1
1001
DCO15
1071
        3
1071
        3
1000
datoslink
1004
0000000000F08340
  0
VERTEX
  5
1873
  8
LOTES
 10
539504.63834140834
 20
1041431.714930365
 30
0.75
  0
VERTEX
  5
1874
  8
LOTES
 10
539503.97697857209
 20
1041490.57622285
 30
0.75
  0
VERTEX
  5
1875
  8
LOTES
 10
539555.56327985215
 20
1041490.57622285
 30
0.75
  0
VERTEX
  5
1876
  8
LOTES
 10
539555.56327985215
 20
1041431.714930365
 30
0.75
  0
SEQEND
  5
1877
  8
LOTES
  0
POLYLINE
  5
423
  8
LOTES
 66
     1
 10
0.0
 20
0.0
 30
1.3160000000000001
 70
     1
1001
DCO15
1071
        3
1071
        3
1000
datoslink
1004
0000000000E88340
  0
VERTEX
  5
1878
  8
LOTES
 10
539463.63384552114
 20
1041513.062559308
 30
1.3160000000000001
  0
VERTEX
  5
1879
  8
LOTES
 10
539463.63384552114
 20
1041563.326134912
 30
1.3160000000000001
  0
VERTEX
  5
187A
  8
LOTES
 10
539513.89742112625
 20
1041563.326134912
 30
1.3160000000000001
  0
VERTEX
  5
187B
  8
LOTES
 10
539513.89742112625
 20
1041513.062559308
 30
1.3160000000000001
  0
SEQEND
  5
187C
  8
LOTES
  0
POLYLINE
  5
424
  8
LOTES
 66
     1
 10
0.0
 20
0.0
 30
0.25
 70
     1
1001
DCO15
1071
        3
1071
        3
1000
datoslink
1004
0000000000E08340
1001
ADE_ENTITY_LOCK
1071
1342624882
1071
1342625087
  0
VERTEX
  5
187D
  8
LOTES
 10
539383.60894225165
 20
1041481.978505971
 30
0.25
  0
VERTEX
  5
187E
  8
LOTES
 10
539383.60894225165
 20
1041532.242081577
 30
0.25
  0
VERTEX
  5
187F
  8
LOTES
 10
539433.8725178577
 20
1041532.242081577
 30
0.25
  0
VERTEX
  5
1880
  8
LOTES
 10
539433.8725178577
 20
1041481.978505971
 30
0.25
  0
SEQEND
  5
1881
  8
LOTES
  0
POLYLINE
  5
425
  8
LOTES
 66
     1
 10
0.0
 20
0.0
 30
1.0
 70
     1
1001
DCO15
1071
        3
1071
        3
1000
datoslink
1004
0000000000D88340
  0
VERTEX
  5
1882
  8
LOTES
 10
539149.48649798147
 20
1041607.637444988
 30
1.0
  0
VERTEX
  5
1883
  8
LOTES
 10
539149.48649798147
 20
1041667.821463145
 30
1.0
  0
VERTEX
  5
1884
  8
LOTES
 10
539229.51140125014
 20
1041667.821463145
 30
1.0
  0
VERTEX
  5
1885
  8
LOTES
 10
539228.18867557601
 20
1041607.637444988
 30
1.0
  0
SEQEND
  5
1886
  8
LOTES
  0
POLYLINE
  5
426
  8
LOTES
 66
     1
 10
0.0
 20
0.0
 30
2.066666666666666
 70
     1
1001
DCO15
1071
        3
1071
        3
1000
datoslink
1004
0000000000C88340
  0
VERTEX
  5
1887
  8
LOTES
 10
539200.41143642552
 20
1041546.792063989
 30
2.066666666666666
  0
VERTEX
  5
1888
  8
LOTES
 10
539200.41143642552
 20
1041605.6533564751
 30
2.066666666666666
  0
VERTEX
  5
1889
  8
LOTES
 10
539228.18867557601
 20
1041605.6533564751
 30
2.066666666666666
  0
VERTEX
  5
188A
  8
LOTES
 10
539267.87044579163
 20
1041588.4579227139
 30
2.066666666666666
  0
VERTEX
  5
188B
  8
LOTES
 10
539240.09320664033
 20
1041546.792063989
 30
2.066666666666666
  0
SEQEND
  5
188C
  8
LOTES
  0
POLYLINE
  5
427
  8
LOTES
 66
     1
 10
0.0
 20
0.0
 30
1.5
 70
     1
1001
DCO15
1071
        3
1071
        3
1000
datoslink
1004
0000000000C08340
  0
VERTEX
  5
188D
  8
LOTES
 10
539080.04340010509
 20
1041634.0919584651
 30
1.5
  0
VERTEX
  5
188E
  8
LOTES
 10
539107.82063925825
 20
1041657.239657758
 30
1.5
  0
VERTEX
  5
188F
  8
LOTES
 10
539147.5024094712
 20
1041673.112365842
 30
1.5
  0
VERTEX
  5
1890
  8
LOTES
 10
539147.5024094712
 20
1041606.976082152
 30
1.5
  0
VERTEX
  5
1891
  8
LOTES
 10
539080.04340010509
 20
1041606.976082152
 30
1.5
  0
SEQEND
  5
1892
  8
LOTES
  0
POLYLINE
  5
428
  8
LOTES
 66
     1
 10
0.0
 20
0.0
 30
0.6333333333333333
 70
     1
1001
DCO15
1071
        3
1071
        3
1000
datoslink
1004
0000000000B88340
  0
VERTEX
  5
1893
  8
LOTES
 10
539148.82513514545
 20
1041605.6533564751
 30
0.6333333333333333
  0
VERTEX
  5
1894
  8
LOTES
 10
539199.08871075138
 20
1041605.6533564751
 30
0.6333333333333333
  0
VERTEX
  5
1895
  8
LOTES
 10
539199.08871075138
 20
1041548.776152501
 30
0.6333333333333333
  0
VERTEX
  5
1896
  8
LOTES
 10
539148.82513514545
 20
1041549.437515337
 30
0.6333333333333333
  0
SEQEND
  5
1897
  8
LOTES
  0
POLYLINE
  5
429
  8
LOTES
 66
     1
 10
0.0
 20
0.0
 30
1.7666666666666659
 70
     1
1001
DCO15
1071
        3
1071
        3
1000
datoslink
1004
0000000000B08340
1001
ADE_ENTITY_LOCK
1071
1342624882
1071
1342625087
  0
VERTEX
  5
1898
  8
LOTES
 10
539147.5024094712
 20
1041605.6533564751
 30
1.7666666666666659
  0
VERTEX
  5
1899
  8
LOTES
 10
539147.5024094712
 20
1041550.098878173
 30
1.7666666666666659
  0
VERTEX
  5
189A
  8
LOTES
 10
539080.70476294309
 20
1041554.067055197
 30
1.7666666666666659
  0
VERTEX
  5
189B
  8
LOTES
 10
539080.70476294309
 20
1041605.6533564751
 30
1.7666666666666659
  0
SEQEND
  5
189C
  8
LOTES
  0
POLYLINE
  5
42A
  8
LOTES
 66
     1
 10
0.0
 20
0.0
 30
0.3214285714285714
 70
     1
1001
DCO15
1071
        3
1071
        3
1000
datoslink
1004
0000000000A88340
  0
VERTEX
  5
189D
  8
LOTES
 10
539052.26616095484
 20
1041485.946682993
 30
0.3214285714285714
  0
VERTEX
  5
189E
  8
LOTES
 10
539101.20701088849
 20
1041485.946682993
 30
0.3214285714285714
  0
VERTEX
  5
189F
  8
LOTES
 10
539101.20701088849
 20
1041435.683107387
 30
0.3214285714285714
  0
VERTEX
  5
18A0
  8
LOTES
 10
539051.60479811858
 20
1041435.683107387
 30
0.3214285714285714
  0
SEQEND
  5
18A1
  8
LOTES
  0
POLYLINE
  5
42B
  8
LOTES
 66
     1
 10
0.0
 20
0.0
 30
0.23
 70
     1
1001
DCO15
1071
        3
1071
        3
1000
datoslink
1004
0000000000A08340
  0
VERTEX
  5
18A2
  8
LOTES
 10
539078.72067443095
 20
1041632.769232793
 30
0.23
  0
VERTEX
  5
18A3
  8
LOTES
 10
539078.72067443095
 20
1041582.505657181
 30
0.23
  0
VERTEX
  5
18A4
  8
LOTES
 10
539038.37754137907
 20
1041582.505657181
 30
0.23
  0
VERTEX
  5
18A5
  8
LOTES
 10
539038.37754137907
 20
1041620.864701723
 30
0.23
  0
SEQEND
  5
18A6
  8
LOTES
  0
POLYLINE
  5
42C
  8
LOTES
 66
     1
 10
0.0
 20
0.0
 30
1.8480000000000001
 70
     1
1001
DCO15
1071
        3
1071
        3
1000
datoslink
1004
0000000000988340
1001
ADE_ENTITY_LOCK
1071
1342624882
1071
1342625087
  0
VERTEX
  5
18A7
  8
LOTES
 10
538921.97768208105
 20
1041415.842222281
 30
1.8480000000000001
  0
VERTEX
  5
18A8
  8
LOTES
 10
538945.78674421005
 20
1041460.8148951899
 30
1.8480000000000001
  0
VERTEX
  5
18A9
  8
LOTES
 10
538991.42077995744
 20
1041439.651284409
 30
1.8480000000000001
  0
VERTEX
  5
18AA
  8
LOTES
 10
538967.61171782855
 20
1041395.339974336
 30
1.8480000000000001
  0
SEQEND
  5
18AB
  8
LOTES
  0
POLYLINE
  5
42D
  8
LOTES
 66
     1
 10
0.0
 20
0.0
 30
0.1076923076923077
 70
     1
1001
DCO15
1071
        3
1071
        3
1000
datoslink
1004
0000000000508340
  0
VERTEX
  5
18AC
  8
LOTES
 10
538996.05031981599
 20
1040626.836357832
 30
0.1076923076923077
  0
VERTEX
  5
18AD
  8
LOTES
 10
538996.05031981599
 20
1040677.099933438
 30
0.1076923076923077
  0
VERTEX
  5
18AE
  8
LOTES
 10
539046.3138954239
 20
1040677.099933438
 30
0.1076923076923077
  0
VERTEX
  5
18AF
  8
LOTES
 10
539046.3138954239
 20
1040626.836357832
 30
0.1076923076923077
  0
SEQEND
  5
18B0
  8
LOTES
  0
POLYLINE
  5
42E
  8
LOTES
 66
     1
 10
0.0
 20
0.0
 30
0.0066666666666667
 70
     1
1001
DCO15
1071
        3
1071
        3
1000
datoslink
1004
0000000000488340
  0
VERTEX
  5
18B1
  8
LOTES
 10
538078.0787021704
 20
1039876.8509007629
 30
0.0066666666666667
  0
VERTEX
  5
18B2
  8
LOTES
 10
538078.0787021704
 20
1039897.353148708
 30
0.0066666666666667
  0
VERTEX
  5
18B3
  8
LOTES
 10
538097.91958727688
 20
1039897.353148708
 30
0.0066666666666667
  0
VERTEX
  5
18B4
  8
LOTES
 10
538098.58095011488
 20
1039877.5122636
 30
0.0066666666666667
  0
SEQEND
  5
18B5
  8
LOTES
  0
POLYLINE
  5
42F
  8
LOTES
 66
     1
 10
0.0
 20
0.0
 30
1.2250000000000001
 70
     1
1001
DCO15
1071
        3
1071
        3
1000
datoslink
1004
0000000000188340
  0
VERTEX
  5
18B6
  8
LOTES
 10
540000.04732556362
 20
1040376.414398571
 30
1.2250000000000001
  0
VERTEX
  5
18B7
  8
LOTES
 10
540049.67563102685
 20
1040376.414398571
 30
1.2250000000000001
  0
VERTEX
  5
18B8
  8
LOTES
 10
540050.3373417668
 20
1040326.124382365
 30
1.2250000000000001
  0
VERTEX
  5
18B9
  8
LOTES
 10
540000.04732556362
 20
1040326.124382365
 30
1.2250000000000001
  0
SEQEND
  5
18BA
  8
LOTES
  0
POLYLINE
  5
430
  8
LOTES
 66
     1
 10
0.0
 20
0.0
 30
1.1479999999999999
 70
     1
1001
DCO15
1071
        3
1071
        3
1000
datoslink
1004
0000000000108340
  0
VERTEX
  5
18BB
  8
LOTES
 10
540021.8837799672
 20
1040188.819403916
 30
1.1479999999999999
  0
VERTEX
  5
18BC
  8
LOTES
 10
540021.8837799672
 20
1040238.7785647491
 30
1.1479999999999999
  0
VERTEX
  5
18BD
  8
LOTES
 10
540072.17379617132
 20
1040238.7785647491
 30
1.1479999999999999
  0
VERTEX
  5
18BE
  8
LOTES
 10
540072.17379617132
 20
1040188.819403916
 30
1.1479999999999999
  0
SEQEND
  5
18BF
  8
LOTES
  0
POLYLINE
  5
431
  8
LOTES
 66
     1
 10
0.0
 20
0.0
 30
0.0666666666666667
 70
     1
1001
DCO15
1071
        3
1071
        3
1000
datoslink
1004
0000000000D88240
  0
VERTEX
  5
18C0
  8
LOTES
 10
538933.28678360954
 20
1038487.556545093
 30
0.0666666666666667
  0
VERTEX
  5
18C1
  8
LOTES
 10
538933.28678360954
 20
1038541.366249909
 30
0.0666666666666667
  0
VERTEX
  5
18C2
  8
LOTES
 10
538998.56413043384
 20
1038541.366249909
 30
0.0666666666666667
  0
VERTEX
  5
18C3
  8
LOTES
 10
538998.21204726875
 20
1038527.57824444
 30
0.0666666666666667
  0
VERTEX
  5
18C4
  8
LOTES
 10
538956.22206762806
 20
1038487.556545093
 30
0.0666666666666667
  0
SEQEND
  5
18C5
  8
LOTES
  0
POLYLINE
  5
432
  8
LOTES
 66
     1
 10
0.0
 20
0.0
 30
0.1388888888888889
 70
     1
1001
DCO15
1071
        3
1071
        3
1000
datoslink
1004
0000000000A08240
  0
VERTEX
  5
18C6
  8
LOTES
 10
539502.25825254805
 20
1038426.689829811
 30
0.1388888888888889
  0
VERTEX
  5
18C7
  8
LOTES
 10
539572.82835722435
 20
1038426.689829811
 30
0.1388888888888889
  0
VERTEX
  5
18C8
  8
LOTES
 10
539572.82835722435
 20
1038376.408630231
 30
0.1388888888888889
  0
VERTEX
  5
18C9
  8
LOTES
 10
539502.25825254805
 20
1038376.408630231
 30
0.1388888888888889
  0
SEQEND
  5
18CA
  8
LOTES
  0
POLYLINE
  5
433
  8
LOTES
 66
     1
 10
0.0
 20
0.0
 30
0.0170940170940171
 70
     1
1001
DCO15
1071
        3
1071
        3
1000
datoslink
1004
0000000000908240
  0
VERTEX
  5
18CB
  8
LOTES
 10
540107.3969001323
 20
1038227.329284107
 30
0.0170940170940171
  0
VERTEX
  5
18CC
  8
LOTES
 10
540107.3969001323
 20
1038277.610483685
 30
0.0170940170940171
  0
VERTEX
  5
18CD
  8
LOTES
 10
540157.67809971329
 20
1038277.610483685
 30
0.0170940170940171
  0
VERTEX
  5
18CE
  8
LOTES
 10
540157.67809971329
 20
1038227.329284107
 30
0.0170940170940171
  0
SEQEND
  5
18CF
  8
LOTES
  0
POLYLINE
  5
434
  8
LOTES
 66
     1
 10
0.0
 20
0.0
 30
0.0416666666666667
 70
     1
1001
DCO15
1071
        3
1071
        3
1000
datoslink
1004
0000000000088240
  0
VERTEX
  5
18D0
  8
LOTES
 10
538269.46652428852
 20
1037266.59241205
 30
0.0416666666666667
  0
VERTEX
  5
18D1
  8
LOTES
 10
538219.16590313939
 20
1037266.59241205
 30
0.0416666666666667
  0
VERTEX
  5
18D2
  8
LOTES
 10
538219.16590313939
 20
1037316.893033198
 30
0.0416666666666667
  0
VERTEX
  5
18D3
  8
LOTES
 10
538269.46652428852
 20
1037316.893033198
 30
0.0416666666666667
  0
SEQEND
  5
18D4
  8
LOTES
  0
POLYLINE
  5
435
  8
LOTES
 66
     1
 10
0.0
 20
0.0
 30
1.155
 70
     1
1001
DCO15
1071
        3
1071
        3
1000
datoslink
1004
0000000000F08140
  0
VERTEX
  5
18D5
  8
LOTES
 10
538089.44324860594
 20
1036517.377897075
 30
1.155
  0
VERTEX
  5
18D6
  8
LOTES
 10
538089.44324860594
 20
1036567.678518223
 30
1.155
  0
VERTEX
  5
18D7
  8
LOTES
 10
538139.74386975029
 20
1036567.678518223
 30
1.155
  0
VERTEX
  5
18D8
  8
LOTES
 10
538139.74386975029
 20
1036517.377897075
 30
1.155
  0
SEQEND
  5
18D9
  8
LOTES
  0
POLYLINE
  5
436
  8
LOTES
 66
     1
 10
0.0
 20
0.0
 30
0.282051282051282
 70
     1
1001
DCO15
1071
        3
1071
        3
1000
datoslink
1004
0000000000D88140
  0
VERTEX
  5
18DA
  8
LOTES
 10
537569.00138984516
 20
1036542.699592834
 30
0.282051282051282
  0
VERTEX
  5
18DB
  8
LOTES
 10
537518.73781423923
 20
1036542.699592834
 30
0.282051282051282
  0
VERTEX
  5
18DC
  8
LOTES
 10
537518.73781423923
 20
1036614.126779225
 30
0.282051282051282
  0
VERTEX
  5
18DD
  8
LOTES
 10
537569.00138984516
 20
1036614.126779225
 30
0.282051282051282
  0
SEQEND
  5
18DE
  8
LOTES
  0
POLYLINE
  5
437
  8
LOTES
 66
     1
 10
0.0
 20
0.0
 30
0.4666666666666667
 70
     1
1001
DCO15
1071
        3
1071
        3
1000
datoslink
1004
0000000000D08140
  0
VERTEX
  5
18DF
  8
LOTES
 10
537570.32411551953
 20
1036541.3768671619
 30
0.4666666666666667
  0
VERTEX
  5
18E0
  8
LOTES
 10
537570.32411551953
 20
1036612.804053548
 30
0.4666666666666667
  0
VERTEX
  5
18E1
  8
LOTES
 10
537621.91041679855
 20
1036612.804053548
 30
0.4666666666666667
  0
VERTEX
  5
18E2
  8
LOTES
 10
537630.50813367974
 20
1036541.3768671619
 30
0.4666666666666667
  0
SEQEND
  5
18E3
  8
LOTES
  0
POLYLINE
  5
438
  8
LOTES
 66
     1
 10
0.0
 20
0.0
 30
0.9583333333333333
 70
     1
1001
DCO15
1071
        3
1071
        3
1000
datoslink
1004
0000000000C88140
  0
VERTEX
  5
18E4
  8
LOTES
 10
537518.07645140134
 20
1036487.806477371
 30
0.9583333333333333
  0
VERTEX
  5
18E5
  8
LOTES
 10
537518.07645140134
 20
1036540.715504326
 30
0.9583333333333333
  0
VERTEX
  5
18E6
  8
LOTES
 10
537568.34002700739
 20
1036540.715504326
 30
0.9583333333333333
  0
VERTEX
  5
18E7
  8
LOTES
 10
537568.34002700739
 20
1036487.806477371
 30
0.9583333333333333
  0
SEQEND
  5
18E8
  8
LOTES
  0
POLYLINE
  5
439
  8
LOTES
 66
     1
 10
0.0
 20
0.0
 30
0.0714285714285714
 70
     1
1001
DCO15
1071
        3
1071
        3
1000
datoslink
1004
0000000000C08140
  0
VERTEX
  5
18E9
  8
LOTES
 10
537574.95365537715
 20
1036337.677113391
 30
0.0714285714285714
  0
VERTEX
  5
18EA
  8
LOTES
 10
537613.31269991864
 20
1036323.127130978
 30
0.0714285714285714
  0
VERTEX
  5
18EB
  8
LOTES
 10
537629.18540800537
 20
1036278.154458068
 30
0.0714285714285714
  0
VERTEX
  5
18EC
  8
LOTES
 10
537588.84227495361
 20
1036250.377218915
 30
0.0714285714285714
  0
VERTEX
  5
18ED
  8
LOTES
 10
537574.95365537715
 20
1036292.0430776461
 30
0.0714285714285714
  0
SEQEND
  5
18EE
  8
LOTES
  0
POLYLINE
  5
43A
  8
LOTES
 66
     1
 10
0.0
 20
0.0
 30
0.16
 70
     1
1001
DCO15
1071
        3
1071
        3
1000
datoslink
1004
0000000000B88140
  0
VERTEX
  5
18EF
  8
LOTES
 10
537505.51055750065
 20
1036373.390706584
 30
0.16
  0
VERTEX
  5
18F0
  8
LOTES
 10
537572.96956686769
 20
1036373.390706584
 30
0.16
  0
VERTEX
  5
18F1
  8
LOTES
 10
537573.63092970289
 20
1036293.365803316
 30
0.16
  0
VERTEX
  5
18F2
  8
LOTES
 10
537514.76963721681
 20
1036293.365803316
 30
0.16
  0
SEQEND
  5
18F3
  8
LOTES
  0
POLYLINE
  5
43B
  8
LOTES
 66
     1
 10
0.0
 20
0.0
 30
0.2666666666666666
 70
     1
1001
DCO15
1071
        3
1071
        3
1000
datoslink
1004
0000000000A88140
  0
VERTEX
  5
18F4
  8
LOTES
 10
537612.6513370825
 20
1036368.099803887
 30
0.2666666666666666
  0
VERTEX
  5
18F5
  8
LOTES
 10
537670.85126673058
 20
1036368.099803887
 30
0.2666666666666666
  0
VERTEX
  5
18F6
  8
LOTES
 10
537718.46939098835
 20
1036282.122635089
 30
0.2666666666666666
  0
VERTEX
  5
18F7
  8
LOTES
 10
537663.57627552468
 20
1036282.122635089
 30
0.2666666666666666
  0
SEQEND
  5
18F8
  8
LOTES
  0
POLYLINE
  5
43C
  8
LOTES
 66
     1
 10
0.0
 20
0.0
 30
0.6
 70
     1
1001
DCO15
1071
        3
1071
        3
1000
datoslink
1004
0000000000A08140
1001
ADE_ENTITY_LOCK
1071
1342624882
1071
1342625087
  0
VERTEX
  5
18F9
  8
LOTES
 10
537576.93774388731
 20
1036430.929273393
 30
0.6
  0
VERTEX
  5
18FA
  8
LOTES
 10
537654.97855864372
 20
1036430.929273393
 30
0.6
  0
VERTEX
  5
18FB
  8
LOTES
 10
537669.52854105656
 20
1036370.083892399
 30
0.6
  0
VERTEX
  5
18FC
  8
LOTES
 10
537610.66724857036
 20
1036370.083892399
 30
0.6
  0
SEQEND
  5
18FD
  8
LOTES
  0
POLYLINE
  5
43D
  8
LOTES
 66
     1
 10
0.0
 20
0.0
 30
0.3939393939393939
 70
     1
1001
DCO15
1071
        3
1071
        3
1000
datoslink
1004
0000000000988140
1001
ADE_ENTITY_LOCK
1071
1342624882
1071
1342625087
  0
VERTEX
  5
18FE
  8
LOTES
 10
537518.07645140216
 20
1036486.483751697
 30
0.3939393939393939
  0
VERTEX
  5
18FF
  8
LOTES
 10
537568.34002700727
 20
1036486.483751697
 30
0.3939393939393939
  0
VERTEX
  5
1900
  8
LOTES
 10
537568.34002700727
 20
1036436.220176091
 30
0.3939393939393939
  0
VERTEX
  5
1901
  8
LOTES
 10
537508.15600884706
 20
1036436.220176091
 30
0.3939393939393939
  0
SEQEND
  5
1902
  8
LOTES
  0
POLYLINE
  5
43E
  8
LOTES
 66
     1
 10
0.0
 20
0.0
 30
0.0666666666666667
 70
     1
1001
DCO15
1071
        3
1071
        3
1000
datoslink
1004
0000000000888140
  0
VERTEX
  5
1903
  8
LOTES
 10
538532.60704323836
 20
1036328.418033674
 30
0.0666666666666667
  0
VERTEX
  5
1904
  8
LOTES
 10
538532.60704323836
 20
1036379.342972116
 30
0.0666666666666667
  0
VERTEX
  5
1905
  8
LOTES
 10
538582.87061884336
 20
1036379.342972116
 30
0.0666666666666667
  0
VERTEX
  5
1906
  8
LOTES
 10
538582.87061884336
 20
1036328.418033674
 30
0.0666666666666667
  0
SEQEND
  5
1907
  8
LOTES
  0
POLYLINE
  5
43F
  8
LOTES
 66
     1
 10
0.0
 20
0.0
 30
0.1375
 70
     1
1001
DCO15
1071
        3
1071
        3
1000
datoslink
1004
0000000000588140
  0
VERTEX
  5
1908
  8
LOTES
 10
537674.15808091499
 20
1036179.611395368
 30
0.1375
  0
VERTEX
  5
1909
  8
LOTES
 10
537741.61709028122
 20
1036179.611395364
 30
0.1375
  0
VERTEX
  5
190A
  8
LOTES
 10
537741.61709028122
 20
1036138.606899476
 30
0.1375
  0
VERTEX
  5
190B
  8
LOTES
 10
537692.01487751398
 20
1036137.945536639
 30
0.1375
  0
SEQEND
  5
190C
  8
LOTES
  0
POLYLINE
  5
440
  8
LOTES
 66
     1
 10
0.0
 20
0.0
 30
0.4
 70
     1
1001
DCO15
1071
        3
1071
        3
1000
datoslink
1004
0000000000608140
1001
ADE_ENTITY_LOCK
1071
1342624882
1071
1342625087
  0
VERTEX
  5
190D
  8
LOTES
 10
537723.7602936849
 20
1036270.879466865
 30
0.4
  0
VERTEX
  5
190E
  8
LOTES
 10
537774.02386929095
 20
1036229.87497097
 30
0.4
  0
VERTEX
  5
190F
  8
LOTES
 10
537774.68523212895
 20
1036181.595483877
 30
0.4
  0
VERTEX
  5
1910
  8
LOTES
 10
537723.7602936849
 20
1036181.595483877
 30
0.4
  0
SEQEND
  5
1911
  8
LOTES
  0
POLYLINE
  5
441
  8
LOTES
 66
     1
 10
0.0
 20
0.0
 30
0.575
 70
     1
1001
DCO15
1071
        3
1071
        3
1000
datoslink
1004
0000000000508140
  0
VERTEX
  5
1912
  8
LOTES
 10
537670.85126673058
 20
1036280.799909416
 30
0.575
  0
VERTEX
  5
1913
  8
LOTES
 10
537721.77620517462
 20
1036280.799909416
 30
0.575
  0
VERTEX
  5
1914
  8
LOTES
 10
537721.77620517462
 20
1036230.53633381
 30
0.575
  0
VERTEX
  5
1915
  8
LOTES
 10
537671.51262956846
 20
1036230.53633381
 30
0.575
  0
SEQEND
  5
1916
  8
LOTES
  0
POLYLINE
  5
442
  8
LOTES
 66
     1
 10
0.0
 20
0.0
 30
0.0925925925925926
 70
     1
1001
DCO15
1071
        3
1071
        3
1000
datoslink
1004
0000000000488140
1001
ADE_ENTITY_LOCK
1071
1342624882
1071
1342625087
  0
VERTEX
  5
1917
  8
LOTES
 10
537672.17399240495
 20
1036229.213608134
 30
0.0925925925925926
  0
VERTEX
  5
1918
  8
LOTES
 10
537722.43756801286
 20
1036229.213608138
 30
0.0925925925925926
  0
VERTEX
  5
1919
  8
LOTES
 10
537722.43756801286
 20
1036182.256846716
 30
0.0925925925925926
  0
VERTEX
  5
191A
  8
LOTES
 10
537672.17399240786
 20
1036182.256846716
 30
0.0925925925925926
  0
SEQEND
  5
191B
  8
LOTES
  0
POLYLINE
  5
443
  8
LOTES
 66
     1
 10
0.0
 20
0.0
 30
1.22
 70
     1
1001
DCO15
1071
        3
1071
        3
1000
datoslink
1004
0000000000408140
1001
ADE_ENTITY_LOCK
1071
1342624882
1071
1342625087
  0
VERTEX
  5
191C
  8
LOTES
 10
537706.5648599267
 20
1036092.3115008899
 30
1.22
  0
VERTEX
  5
191D
  8
LOTES
 10
537691.35351467598
 20
1036136.622810967
 30
1.22
  0
VERTEX
  5
191E
  8
LOTES
 10
537784.60567468125
 20
1036137.2841738031
 30
1.22
  0
VERTEX
  5
191F
  8
LOTES
 10
537784.60567468323
 20
1036092.3115008899
 30
1.22
  0
SEQEND
  5
1920
  8
LOTES
  0
POLYLINE
  5
444
  8
LOTES
 66
     1
 10
0.0
 20
0.0
 30
0.1
 70
     1
1001
DCO15
1071
        3
1071
        3
1000
datoslink
1004
0000000000188140
  0
VERTEX
  5
1921
  8
LOTES
 10
537612.40051878337
 20
1035973.010378594
 30
0.1
  0
VERTEX
  5
1922
  8
LOTES
 10
537612.40051878337
 20
1035930.021794192
 30
0.1
  0
VERTEX
  5
1923
  8
LOTES
 10
537555.52331480943
 20
1035930.021794192
 30
0.1
  0
VERTEX
  5
1924
  8
LOTES
 10
537550.89377495181
 20
1035973.010378594
 30
0.1
  0
SEQEND
  5
1925
  8
LOTES
  0
POLYLINE
  5
445
  8
LOTES
 66
     1
 10
0.0
 20
0.0
 30
0.4285714285714286
 70
     1
1001
DCO15
1071
        3
1071
        3
1000
datoslink
1004
0000000000088140
1001
ADE_ENTITY_LOCK
1071
1342624882
1071
1342625087
  0
VERTEX
  5
1926
  8
LOTES
 10
537638.85503226053
 20
1036075.521618318
 30
0.4285714285714286
  0
VERTEX
  5
1927
  8
LOTES
 10
537638.85503226053
 20
1036026.580768384
 30
0.4285714285714286
  0
VERTEX
  5
1928
  8
LOTES
 10
537568.08920871001
 20
1036026.580768384
 30
0.4285714285714286
  0
VERTEX
  5
1929
  8
LOTES
 10
537568.08920871001
 20
1036075.521618318
 30
0.4285714285714286
  0
SEQEND
  5
192A
  8
LOTES
  0
POLYLINE
  5
446
  8
LOTES
 66
     1
 10
0.0
 20
0.0
 30
0.2083333333333333
 70
     1
1001
DCO15
1071
        3
1071
        3
1000
datoslink
1004
0000000000F88040
1001
ADE_ENTITY_LOCK
1071
1342624882
1071
1342625087
  0
VERTEX
  5
192B
  8
LOTES
 10
537785.67758205824
 20
1035976.978555614
 30
0.2083333333333333
  0
VERTEX
  5
192C
  8
LOTES
 10
537800.22756447084
 20
1035934.651334053
 30
0.2083333333333333
  0
VERTEX
  5
192D
  8
LOTES
 10
537800.22756447084
 20
1035914.149086106
 30
0.2083333333333333
  0
VERTEX
  5
192E
  8
LOTES
 10
537742.02763481997
 20
1035933.989971216
 30
0.2083333333333333
  0
VERTEX
  5
192F
  8
LOTES
 10
537734.75264361408
 20
1035976.978555614
 30
0.2083333333333333
  0
SEQEND
  5
1930
  8
LOTES
  0
POLYLINE
  5
447
  8
LOTES
 66
     1
 10
0.0
 20
0.0
 30
0.5
 70
     1
1001
DCO15
1071
        3
1071
        3
1000
datoslink
1004
0000000000E88040
  0
VERTEX
  5
1931
  8
LOTES
 10
537641.5004836088
 20
1036027.2421312199
 30
0.5
  0
VERTEX
  5
1932
  8
LOTES
 10
537641.5004836088
 20
1036075.521618318
 30
0.5
  0
VERTEX
  5
1933
  8
LOTES
 10
537684.07852346916
 20
1036075.77742997
 30
0.5
  0
VERTEX
  5
1934
  8
LOTES
 10
537687.38533765357
 20
1036027.497942876
 30
0.5
  0
SEQEND
  5
1935
  8
LOTES
  0
POLYLINE
  5
448
  8
LOTES
 66
     1
 10
0.0
 20
0.0
 30
1.2250000000000001
 70
     1
1001
DCO15
1071
        3
1071
        3
1000
datoslink
1004
0000000000E08040
1001
ADE_ENTITY_LOCK
1071
1342624882
1071
1342625087
  0
VERTEX
  5
1936
  8
LOTES
 10
537852.47522858623
 20
1035855.287793621
 30
1.2250000000000001
  0
VERTEX
  5
1937
  8
LOTES
 10
537806.84119283885
 20
1035855.287793621
 30
1.2250000000000001
  0
VERTEX
  5
1938
  8
LOTES
 10
537801.55029014498
 20
1035908.858183412
 30
1.2250000000000001
  0
VERTEX
  5
1939
  8
LOTES
 10
537801.55029014498
 20
1035934.651334053
 30
1.2250000000000001
  0
VERTEX
  5
193A
  8
LOTES
 10
537852.47522858623
 20
1035934.651334053
 30
1.2250000000000001
  0
SEQEND
  5
193B
  8
LOTES
  0
POLYLINE
  5
449
  8
LOTES
 66
     1
 10
0.0
 20
0.0
 30
0.0333333333333333
 70
     1
1001
DCO15
1071
        3
1071
        3
1000
datoslink
1004
0000000000D88040
1001
ADE_ENTITY_LOCK
1071
1342624882
1071
1342625087
  0
VERTEX
  5
193C
  8
LOTES
 10
537615.04597013164
 20
1035974.994467102
 30
0.0333333333333333
  0
VERTEX
  5
193D
  8
LOTES
 10
537615.04597013164
 20
1036025.2580427059
 30
0.0333333333333333
  0
VERTEX
  5
193E
  8
LOTES
 10
537685.15043084614
 20
1036025.2580427059
 30
0.0333333333333333
  0
VERTEX
  5
193F
  8
LOTES
 10
537685.15043084614
 20
1035974.994467102
 30
0.0333333333333333
  0
SEQEND
  5
1940
  8
LOTES
  0
POLYLINE
  5
44A
  8
LOTES
 66
     1
 10
0.0
 20
0.0
 30
1.178333333333333
 70
     1
1001
DCO15
1071
        3
1071
        3
1000
datoslink
1004
0000000000D08040
1001
ADE_ENTITY_LOCK
1071
1342624882
1071
1342625087
  0
VERTEX
  5
1941
  8
LOTES
 10
537785.67758205824
 20
1036048.405742
 30
1.178333333333333
  0
VERTEX
  5
1942
  8
LOTES
 10
537785.67758205824
 20
1036016.660325831
 30
1.178333333333333
  0
VERTEX
  5
1943
  8
LOTES
 10
537734.75264361408
 20
1036016.660325831
 30
1.178333333333333
  0
VERTEX
  5
1944
  8
LOTES
 10
537724.42165652115
 20
1036048.661553657
 30
1.178333333333333
  0
SEQEND
  5
1945
  8
LOTES
  0
POLYLINE
  5
44B
  8
LOTES
 66
     1
 10
0.0
 20
0.0
 30
3.333333333333333
 70
     1
1001
DCO15
1071
        3
1071
        3
1000
datoslink
1004
0000000000C88040
1001
ADE_ENTITY_LOCK
1071
1342624882
1071
1342625087
  0
VERTEX
  5
1946
  8
LOTES
 10
537894.14108731411
 20
1035935.974059723
 30
3.333333333333333
  0
VERTEX
  5
1947
  8
LOTES
 10
537833.9570691539
 20
1035935.974059723
 30
3.333333333333333
  0
VERTEX
  5
1948
  8
LOTES
 10
537833.9570691539
 20
1035986.898998169
 30
3.333333333333333
  0
VERTEX
  5
1949
  8
LOTES
 10
537894.14108731411
 20
1035986.898998169
 30
3.333333333333333
  0
SEQEND
  5
194A
  8
LOTES
  0
POLYLINE
  5
44C
  8
LOTES
 66
     1
 10
0.0
 20
0.0
 30
0.05
 70
     1
1001
DCO15
1071
        3
1071
        3
1000
datoslink
1004
0000000000C08040
1001
ADE_ENTITY_LOCK
1071
1342624882
1071
1342625087
  0
VERTEX
  5
194B
  8
LOTES
 10
537550.23241211381
 20
1036025.2580427059
 30
0.05
  0
VERTEX
  5
194C
  8
LOTES
 10
537613.06188162137
 20
1036025.2580427059
 30
0.05
  0
VERTEX
  5
194D
  8
LOTES
 10
537613.06188162137
 20
1035974.333104266
 30
0.05
  0
VERTEX
  5
194E
  8
LOTES
 10
537550.23241211381
 20
1035974.333104266
 30
0.05
  0
SEQEND
  5
194F
  8
LOTES
  0
POLYLINE
  5
44D
  8
LOTES
 66
     1
 10
0.0
 20
0.0
 30
0.075
 70
     1
1001
DCO15
1071
        3
1071
        3
1000
datoslink
1004
0000000000B88040
1001
ADE_ENTITY_LOCK
1071
1342624882
1071
1342625087
  0
VERTEX
  5
1950
  8
LOTES
 10
537785.67758205824
 20
1036049.728467677
 30
0.075
  0
VERTEX
  5
1951
  8
LOTES
 10
537723.7602936849
 20
1036049.984279327
 30
0.075
  0
VERTEX
  5
1952
  8
LOTES
 10
537709.2103112723
 20
1036090.988775218
 30
0.075
  0
VERTEX
  5
1953
  8
LOTES
 10
537785.67758205824
 20
1036090.732963566
 30
0.075
  0
SEQEND
  5
1954
  8
LOTES
  0
POLYLINE
  5
44E
  8
LOTES
 66
     1
 10
0.0
 20
0.0
 30
0.18
 70
     1
1001
DCO15
1071
        3
1071
        3
1000
datoslink
1004
0000000000B08040
1001
ADE_ENTITY_LOCK
1071
1342624882
1071
1342625087
  0
VERTEX
  5
1955
  8
LOTES
 10
537735.41400645208
 20
1036015.337600155
 30
0.18
  0
VERTEX
  5
1956
  8
LOTES
 10
537785.67758205824
 20
1036015.337600155
 30
0.18
  0
VERTEX
  5
1957
  8
LOTES
 10
537785.67758205824
 20
1035978.30128129
 30
0.18
  0
VERTEX
  5
1958
  8
LOTES
 10
537735.41400645208
 20
1035978.30128129
 30
0.18
  0
SEQEND
  5
1959
  8
LOTES
  0
ENDSEC
  0
EOF
