  0
SECTION
  2
HEADER
  9
$ACADVER
  1
AC1009
  9
$INSBASE
 10
0.0
 20
0.0
 30
0.0
  9
$EXTMIN
 10
535942.0420581544749439
 20
1024053.8270275569520891
 30
-0.0015258207003583
  9
$EXTMAX
 10
543083.7874881000025198
 20
1045067.3393162880092859
 30
0.0000000349246037
  9
$LIMMIN
 10
535962.8449409999884665
 20
1024075.0531849999679253
  9
$LIMMAX
 10
542960.0597520000301301
 20
1045046.11306100001093
  9
$ORTHOMODE
 70
     0
  9
$REGENMODE
 70
     1
  9
$FILLMODE
 70
     1
  9
$QTEXTMODE
 70
     0
  9
$MIRRTEXT
 70
     0
  9
$DRAGMODE
 70
     2
  9
$LTSCALE
 40
1.0
  9
$OSMODE
 70
    37
  9
$ATTMODE
 70
     1
  9
$TEXTSIZE
 40
0.2
  9
$TRACEWID
 40
0.05
  9
$TEXTSTYLE
  7
STANDARD
  9
$CLAYER
  8
LABELS
  9
$CELTYPE
  6
CONTINUOUS
  9
$CECOLOR
 62
   256
  9
$DIMSCALE
 40
1.0
  9
$DIMASZ
 40
0.18
  9
$DIMEXO
 40
0.0625
  9
$DIMDLI
 40
0.38
  9
$DIMRND
 40
0.0
  9
$DIMDLE
 40
0.0
  9
$DIMEXE
 40
0.18
  9
$DIMTP
 40
0.0
  9
$DIMTM
 40
0.0
  9
$DIMTXT
 40
0.18
  9
$DIMCEN
 40
0.09
  9
$DIMTSZ
 40
0.0
  9
$DIMTOL
 70
     0
  9
$DIMLIM
 70
     0
  9
$DIMTIH
 70
     1
  9
$DIMTOH
 70
     1
  9
$DIMSE1
 70
     0
  9
$DIMSE2
 70
     0
  9
$DIMTAD
 70
     0
  9
$DIMZIN
 70
     0
  9
$DIMBLK
  1

  9
$DIMASO
 70
     1
  9
$DIMSHO
 70
     1
  9
$DIMPOST
  1

  9
$DIMAPOST
  1

  9
$DIMALT
 70
     0
  9
$DIMALTD
 70
     2
  9
$DIMALTF
 40
25.3999999999999986
  9
$DIMLFAC
 40
1.0
  9
$DIMTOFL
 70
     0
  9
$DIMTVP
 40
0.0
  9
$DIMTIX
 70
     0
  9
$DIMSOXD
 70
     0
  9
$DIMSAH
 70
     0
  9
$DIMBLK1
  1

  9
$DIMBLK2
  1

  9
$DIMSTYLE
  2
STANDARD
  9
$DIMCLRD
 70
     0
  9
$DIMCLRE
 70
     0
  9
$DIMCLRT
 70
     0
  9
$DIMTFAC
 40
1.0
  9
$DIMGAP
 40
0.09
  9
$LUNITS
 70
     2
  9
$LUPREC
 70
     4
  9
$SKETCHINC
 40
0.1
  9
$FILLETRAD
 40
0.0
  9
$AUNITS
 70
     0
  9
$AUPREC
 70
     0
  9
$MENU
  1
.
  9
$ELEVATION
 40
0.0
  9
$PELEVATION
 40
0.0
  9
$THICKNESS
 40
0.0
  9
$LIMCHECK
 70
     0
  9
$BLIPMODE
 70
     0
  9
$CHAMFERA
 40
0.0
  9
$CHAMFERB
 40
0.0
  9
$SKPOLY
 70
     0
  9
$TDCREATE
 40
2458031.3996919682249427
  9
$TDUPDATE
 40
2458031.4107332760468125
  9
$TDINDWG
 40
0.0110447917
  9
$TDUSRTIMER
 40
0.0110447917
  9
$USRTIMER
 70
     1
  9
$ANGBASE
 50
0.0
  9
$ANGDIR
 70
     0
  9
$PDMODE
 70
     0
  9
$PDSIZE
 40
0.0
  9
$PLINEWID
 40
0.0
  9
$COORDS
 70
     1
  9
$SPLFRAME
 70
     0
  9
$SPLINETYPE
 70
     6
  9
$SPLINESEGS
 70
     8
  9
$ATTDIA
 70
     1
  9
$ATTREQ
 70
     1
  9
$HANDLING
 70
     1
  9
$HANDSEED
  5
3EE
  9
$SURFTAB1
 70
     6
  9
$SURFTAB2
 70
     6
  9
$SURFTYPE
 70
     6
  9
$SURFU
 70
     6
  9
$SURFV
 70
     6
  9
$UCSNAME
  2

  9
$UCSORG
 10
0.0
 20
0.0
 30
0.0
  9
$UCSXDIR
 10
1.0
 20
0.0
 30
0.0
  9
$UCSYDIR
 10
0.0
 20
1.0
 30
0.0
  9
$PUCSNAME
  2

  9
$PUCSORG
 10
0.0
 20
0.0
 30
0.0
  9
$PUCSXDIR
 10
1.0
 20
0.0
 30
0.0
  9
$PUCSYDIR
 10
0.0
 20
1.0
 30
0.0
  9
$USERI1
 70
     0
  9
$USERI2
 70
     0
  9
$USERI3
 70
     0
  9
$USERI4
 70
     0
  9
$USERI5
 70
     0
  9
$USERR1
 40
0.0
  9
$USERR2
 40
0.0
  9
$USERR3
 40
0.0
  9
$USERR4
 40
0.0
  9
$USERR5
 40
0.0
  9
$WORLDVIEW
 70
     1
  9
$SHADEDGE
 70
     3
  9
$SHADEDIF
 70
    70
  9
$TILEMODE
 70
     1
  9
$MAXACTVP
 70
    64
  9
$PLIMCHECK
 70
     0
  9
$PEXTMIN
 10
1.0000000000000000E+20
 20
1.0000000000000000E+20
 30
1.0000000000000000E+20
  9
$PEXTMAX
 10
-1.0000000000000000E+20
 20
-1.0000000000000000E+20
 30
-1.0000000000000000E+20
  9
$PLIMMIN
 10
0.0
 20
0.0
  9
$PLIMMAX
 10
12.0
 20
9.0
  9
$UNITMODE
 70
     0
  9
$VISRETAIN
 70
     1
  9
$PLINEGEN
 70
     1
  9
$PSLTSCALE
 70
     1
  0
ENDSEC
  0
SECTION
  2
TABLES
  0
TABLE
  2
VPORT
 70
     1
  0
VPORT
  2
*ACTIVE
 70
     0
 10
0.0
 20
0.0
 11
1.0
 21
1.0
 12
539512.9147731271805242
 22
1034560.5831719220150262
 13
0.0
 23
0.0
 14
1.0
 24
1.0
 15
0.0
 25
0.0
 16
0.0
 26
0.0
 36
1.0
 17
0.0
 27
0.0
 37
0.0
 40
21210.8222632733013597
 41
1.4043887147335421
 42
50.0
 43
0.0
 44
0.0
 50
0.0
 51
0.0
 71
     0
 72
   100
 73
     1
 74
     1
 75
     0
 76
     0
 77
     0
 78
     0
  0
ENDTAB
  0
TABLE
  2
LTYPE
 70
     1
  0
LTYPE
  2
CONTINUOUS
 70
     0
  3
Solid line
 72
    65
 73
     0
 40
0.0
  0
ENDTAB
  0
TABLE
  2
LAYER
 70
     4
  0
LAYER
  2
0
 70
     0
 62
     7
  6
CONTINUOUS
  0
LAYER
  2
LABELS
 70
     0
 62
    40
  6
CONTINUOUS
  0
LAYER
  2
CHIRIQUI
 70
     0
 62
     1
  6
CONTINUOUS
  0
LAYER
  2
NONCHIRIQUI
 70
     0
 62
     3
  6
CONTINUOUS
  0
ENDTAB
  0
TABLE
  2
STYLE
 70
     2
  0
STYLE
  2
STANDARD
 70
     0
 40
0.0
 41
1.0
 50
0.0
 71
     0
 42
0.2
  3
TXT
  4

  0
STYLE
  2
ANNOTATIVE
 70
     0
 40
0.0
 41
1.0
 50
0.0
 71
     0
 42
0.2
  3
txt
  4

  0
ENDTAB
  0
TABLE
  2
VIEW
 70
     2
  0
ENDTAB
  0
TABLE
  2
UCS
 70
     0
  0
ENDTAB
  0
TABLE
  2
APPID
 70
     7
  0
APPID
  2
ACAD
 70
     0
  0
APPID
  2
ARCV2CAD
 70
     0
  0
APPID
  2
ACADANNOTATIVE
 70
     0
  0
APPID
  2
ACAD_NAV_VCDISPLAY
 70
     0
  0
APPID
  2
ACAD_MLEADERVER
 70
     0
  0
APPID
  2
ACAECLAYERSTANDARD
 70
     0
  0
APPID
  2
ACCMTRANSPARENCY
 70
     0
  0
ENDTAB
  0
TABLE
  2
DIMSTYLE
 70
     2
  0
DIMSTYLE
  2
STANDARD
 70
     0
  3

  4

  5

  6

  7

 40
1.0
 41
0.18
 42
0.0625
 43
0.38
 44
0.18
 45
0.0
 46
0.0
 47
0.0
 48
0.0
140
0.18
141
0.09
142
0.0
143
25.3999999999999986
144
1.0
145
0.0
146
1.0
147
0.09
 71
     0
 72
     0
 73
     1
 74
     1
 75
     0
 76
     0
 77
     0
 78
     0
170
     0
171
     2
172
     0
173
     0
174
     0
175
     0
176
     0
177
     0
178
     0
  0
DIMSTYLE
  2
ANNOTATIVE
 70
     0
  3

  4

  5

  6

  7

 40
1.0
 41
0.18
 42
0.0625
 43
0.38
 44
0.18
 45
0.0
 46
0.0
 47
0.0
 48
0.0
140
0.18
141
0.09
142
0.0
143
25.3999999999999986
144
1.0
145
0.0
146
1.0
147
0.09
 71
     0
 72
     0
 73
     1
 74
     1
 75
     0
 76
     0
 77
     0
 78
     0
170
     0
171
     2
172
     0
173
     0
174
     0
175
     0
176
     0
177
     0
178
     0
  0
ENDTAB
  0
ENDSEC
  0
SECTION
  2
BLOCKS
  0
BLOCK
  8
0
  2
$MODEL_SPACE
 70
     0
 10
0.0
 20
0.0
 30
0.0
  3
$MODEL_SPACE
  1

  0
ENDBLK
  5
37
  8
0
  0
BLOCK
 67
     1
  8
0
  2
$PAPER_SPACE
 70
     0
 10
0.0
 20
0.0
 30
0.0
  3
$PAPER_SPACE
  1

  0
ENDBLK
  5
3A
 67
     1
  8
0
  0
BLOCK
  8
0
  2
UNNAMED
 70
     2
 10
0.0
 20
0.0
 30
0.0
  3
UNNAMED
  1

  0
LINE
  5
3D
  8
0
 62
     0
 10
-0.5
 20
0.0
 30
0.0
 11
0.5
 21
0.0
 31
0.0
  0
LINE
  5
3E
  8
0
 62
     0
 10
0.0
 20
-0.5
 30
0.0
 11
0.0
 21
0.5
 31
0.0
  0
ENDBLK
  5
3F
  8
0
  0
ENDSEC
  0
SECTION
  2
ENTITIES
  0
INSERT
  5
41
  8
CHIRIQUI
  2
UNNAMED
 10
541090.4692520000971854
 20
1033290.4307310000294819
 30
0.0
 41
41.169928000000013
 42
41.169928000000013
 43
41.169928000000013
  0
INSERT
  5
43
  8
NONCHIRIQUI
  2
UNNAMED
 10
541141.2394039999926463
 20
1033434.7434420000063255
 30
0.0
 41
41.169928000000013
 42
41.169928000000013
 43
41.169928000000013
  0
INSERT
  5
45
  8
CHIRIQUI
  2
UNNAMED
 10
541165.8872699999483302
 20
1033442.8065469999564812
 30
0.0
 41
41.169928000000013
 42
41.169928000000013
 43
41.169928000000013
  0
INSERT
  5
47
  8
CHIRIQUI
  2
UNNAMED
 10
541366.386589000117965
 20
1033649.7772419999819249
 30
0.0
 41
41.169928000000013
 42
41.169928000000013
 43
41.169928000000013
  0
INSERT
  5
49
  8
CHIRIQUI
  2
UNNAMED
 10
541386.6091770000057295
 20
1033663.5922370000043884
 30
0.0
 41
41.169928000000013
 42
41.169928000000013
 43
41.169928000000013
  0
INSERT
  5
4B
  8
CHIRIQUI
  2
UNNAMED
 10
539664.7815709999995306
 20
1029288.30217200005427
 30
0.0
 41
41.169928000000013
 42
41.169928000000013
 43
41.169928000000013
  0
INSERT
  5
4D
  8
CHIRIQUI
  2
UNNAMED
 10
539665.0604260001564398
 20
1029286.3183910000370815
 30
0.0
 41
41.169928000000013
 42
41.169928000000013
 43
41.169928000000013
  0
INSERT
  5
4F
  8
NONCHIRIQUI
  2
UNNAMED
 10
539668.2250759999733418
 20
1029144.316095000016503
 30
0.0
 41
41.169928000000013
 42
41.169928000000013
 43
41.169928000000013
  0
INSERT
  5
51
  8
CHIRIQUI
  2
UNNAMED
 10
541153.8524159999797121
 20
1033436.0087680000578985
 30
0.0
 41
41.169928000000013
 42
41.169928000000013
 43
41.169928000000013
  0
INSERT
  5
53
  8
NONCHIRIQUI
  2
UNNAMED
 10
539609.0951859999913722
 20
1029150.2257590000517666
 30
0.0
 41
41.169928000000013
 42
41.169928000000013
 43
41.169928000000013
  0
INSERT
  5
55
  8
NONCHIRIQUI
  2
UNNAMED
 10
541335.1332399999955669
 20
1033672.3539119999622926
 30
0.0
 41
41.169928000000013
 42
41.169928000000013
 43
41.169928000000013
  0
INSERT
  5
57
  8
CHIRIQUI
  2
UNNAMED
 10
541385.6531480000121519
 20
1033687.6190690000075847
 30
0.0
 41
41.169928000000013
 42
41.169928000000013
 43
41.169928000000013
  0
INSERT
  5
59
  8
CHIRIQUI
  2
UNNAMED
 10
541403.4422999999951571
 20
1033651.4480980000225827
 30
0.0
 41
41.169928000000013
 42
41.169928000000013
 43
41.169928000000013
  0
INSERT
  5
5B
  8
CHIRIQUI
  2
UNNAMED
 10
541443.62460199999623
 20
1033794.3697590000228956
 30
0.0
 41
41.169928000000013
 42
41.169928000000013
 43
41.169928000000013
  0
INSERT
  5
5D
  8
CHIRIQUI
  2
UNNAMED
 10
541348.1729359999299049
 20
1033497.062720000045374
 30
0.0
 41
41.169928000000013
 42
41.169928000000013
 43
41.169928000000013
  0
INSERT
  5
5F
  8
NONCHIRIQUI
  2
UNNAMED
 10
541224.0052840000716969
 20
1033283.6293839999707416
 30
0.0
 41
41.169928000000013
 42
41.169928000000013
 43
41.169928000000013
  0
INSERT
  5
61
  8
CHIRIQUI
  2
UNNAMED
 10
541177.3780620000325143
 20
1033477.2104469999903813
 30
0.0
 41
41.169928000000013
 42
41.169928000000013
 43
41.169928000000013
  0
INSERT
  5
63
  8
CHIRIQUI
  2
UNNAMED
 10
541357.5885740000521764
 20
1033568.7671369999879971
 30
0.0
 41
41.169928000000013
 42
41.169928000000013
 43
41.169928000000013
  0
INSERT
  5
65
  8
NONCHIRIQUI
  2
UNNAMED
 10
539454.297584000043571
 20
1029552.6796940000494942
 30
0.0
 41
41.169928000000013
 42
41.169928000000013
 43
41.169928000000013
  0
INSERT
  5
67
  8
NONCHIRIQUI
  2
UNNAMED
 10
539454.8833380000432953
 20
1029556.2399930000538006
 30
0.0
 41
41.169928000000013
 42
41.169928000000013
 43
41.169928000000013
  0
INSERT
  5
69
  8
CHIRIQUI
  2
UNNAMED
 10
539643.7889340000692755
 20
1029233.0971200000494719
 30
0.0
 41
41.169928000000013
 42
41.169928000000013
 43
41.169928000000013
  0
INSERT
  5
6B
  8
CHIRIQUI
  2
UNNAMED
 10
541480.1998359999852255
 20
1034073.1840460000094026
 30
0.0
 41
41.169928000000013
 42
41.169928000000013
 43
41.169928000000013
  0
INSERT
  5
6D
  8
CHIRIQUI
  2
UNNAMED
 10
541324.1518409999553114
 20
1033980.46596399997361
 30
0.0
 41
41.169928000000013
 42
41.169928000000013
 43
41.169928000000013
  0
INSERT
  5
6F
  8
NONCHIRIQUI
  2
UNNAMED
 10
541380.870429000002332
 20
1033838.139852000051178
 30
0.0
 41
41.169928000000013
 42
41.169928000000013
 43
41.169928000000013
  0
INSERT
  5
71
  8
CHIRIQUI
  2
UNNAMED
 10
538144.8606790001504123
 20
1024112.2150929999770597
 30
0.0
 41
41.169928000000013
 42
41.169928000000013
 43
41.169928000000013
  0
INSERT
  5
73
  8
CHIRIQUI
  2
UNNAMED
 10
538462.2679340000031516
 20
1027835.1310450000455603
 30
0.0
 41
41.169928000000013
 42
41.169928000000013
 43
41.169928000000013
  0
INSERT
  5
75
  8
CHIRIQUI
  2
UNNAMED
 10
537653.1785079999826849
 20
1028282.0582260000519454
 30
0.0
 41
41.169928000000013
 42
41.169928000000013
 43
41.169928000000013
  0
INSERT
  5
77
  8
CHIRIQUI
  2
UNNAMED
 10
538445.1843469998566434
 20
1030046.9421449999790639
 30
0.0
 41
41.169928000000013
 42
41.169928000000013
 43
41.169928000000013
  0
INSERT
  5
79
  8
CHIRIQUI
  2
UNNAMED
 10
537310.2297369999578223
 20
1039306.4009640000294894
 30
0.0
 41
41.169928000000013
 42
41.169928000000013
 43
41.169928000000013
  0
INSERT
  5
7B
  8
NONCHIRIQUI
  2
UNNAMED
 10
536943.6670369999483228
 20
1038259.5816740000154823
 30
0.0
 41
41.169928000000013
 42
41.169928000000013
 43
41.169928000000013
  0
INSERT
  5
7D
  8
NONCHIRIQUI
  2
UNNAMED
 10
536942.989367000060156
 20
1038256.170285000000149
 30
0.0
 41
41.169928000000013
 42
41.169928000000013
 43
41.169928000000013
  0
INSERT
  5
7F
  8
NONCHIRIQUI
  2
UNNAMED
 10
536947.6036770000355318
 20
1038272.9441789999837056
 30
0.0
 41
41.169928000000013
 42
41.169928000000013
 43
41.169928000000013
  0
INSERT
  5
81
  8
NONCHIRIQUI
  2
UNNAMED
 10
536948.1873229999328032
 20
1038278.2001979999477044
 30
0.0
 41
41.169928000000013
 42
41.169928000000013
 43
41.169928000000013
  0
INSERT
  5
83
  8
NONCHIRIQUI
  2
UNNAMED
 10
536942.5063239999581128
 20
1038241.0504220000002533
 30
0.0
 41
41.169928000000013
 42
41.169928000000013
 43
41.169928000000013
  0
INSERT
  5
85
  8
NONCHIRIQUI
  2
UNNAMED
 10
536888.1020380000118166
 20
1038239.3947290000505745
 30
0.0
 41
41.169928000000013
 42
41.169928000000013
 43
41.169928000000013
  0
INSERT
  5
87
  8
NONCHIRIQUI
  2
UNNAMED
 10
536902.43515100015793
 20
1038277.9429480000399053
 30
0.0
 41
41.169928000000013
 42
41.169928000000013
 43
41.169928000000013
  0
INSERT
  5
89
  8
NONCHIRIQUI
  2
UNNAMED
 10
536865.5740729999961331
 20
1038270.3065240000141785
 30
0.0
 41
41.169928000000013
 42
41.169928000000013
 43
41.169928000000013
  0
INSERT
  5
8B
  8
NONCHIRIQUI
  2
UNNAMED
 10
536996.6937560000224039
 20
1037162.8883970000315458
 30
0.0
 41
41.169928000000013
 42
41.169928000000013
 43
41.169928000000013
  0
INSERT
  5
8D
  8
CHIRIQUI
  2
UNNAMED
 10
536826.3119489999953657
 20
1040109.6397240000078455
 30
0.0
 41
41.169928000000013
 42
41.169928000000013
 43
41.169928000000013
  0
INSERT
  5
8F
  8
CHIRIQUI
  2
UNNAMED
 10
536904.7627300000749528
 20
1040144.5134969999780878
 30
0.0
 41
41.169928000000013
 42
41.169928000000013
 43
41.169928000000013
  0
INSERT
  5
91
  8
CHIRIQUI
  2
UNNAMED
 10
537423.3960640000877902
 20
1040477.5087510000448674
 30
0.0
 41
41.169928000000013
 42
41.169928000000013
 43
41.169928000000013
  0
INSERT
  5
93
  8
NONCHIRIQUI
  2
UNNAMED
 10
536154.4239120000274852
 20
1041073.5306460000574589
 30
0.0
 41
41.169928000000013
 42
41.169928000000013
 43
41.169928000000013
  0
INSERT
  5
95
  8
NONCHIRIQUI
  2
UNNAMED
 10
535962.8449409999884665
 20
1040731.9395429999567568
 30
0.0
 41
41.169928000000013
 42
41.169928000000013
 43
41.169928000000013
  0
INSERT
  5
97
  8
CHIRIQUI
  2
UNNAMED
 10
537715.6143879999872297
 20
1043967.2874389999778941
 30
0.0
 41
41.169928000000013
 42
41.169928000000013
 43
41.169928000000013
  0
INSERT
  5
99
  8
CHIRIQUI
  2
UNNAMED
 10
538032.5386540000326931
 20
1043680.5374709999887273
 30
0.0
 41
41.169928000000013
 42
41.169928000000013
 43
41.169928000000013
  0
INSERT
  5
9B
  8
CHIRIQUI
  2
UNNAMED
 10
537527.8010350000113249
 20
1044943.2134160000132397
 30
0.0
 41
41.169928000000013
 42
41.169928000000013
 43
41.169928000000013
  0
INSERT
  5
9D
  8
CHIRIQUI
  2
UNNAMED
 10
537496.6717909999424592
 20
1044962.6963469999609515
 30
0.0
 41
41.169928000000013
 42
41.169928000000013
 43
41.169928000000013
  0
INSERT
  5
9F
  8
CHIRIQUI
  2
UNNAMED
 10
537485.9272439999040216
 20
1045022.9778769999975339
 30
0.0
 41
41.169928000000013
 42
41.169928000000013
 43
41.169928000000013
  0
INSERT
  5
A1
  8
CHIRIQUI
  2
UNNAMED
 10
538107.0553199999267235
 20
1041530.5338970000157133
 30
0.0
 41
41.169928000000013
 42
41.169928000000013
 43
41.169928000000013
  0
INSERT
  5
A3
  8
NONCHIRIQUI
  2
UNNAMED
 10
539244.3882310000481084
 20
1036727.2403280000435188
 30
0.0
 41
41.169928000000013
 42
41.169928000000013
 43
41.169928000000013
  0
INSERT
  5
A5
  8
NONCHIRIQUI
  2
UNNAMED
 10
539253.340965999988839
 20
1036704.3253229999681935
 30
0.0
 41
41.169928000000013
 42
41.169928000000013
 43
41.169928000000013
  0
INSERT
  5
A7
  8
CHIRIQUI
  2
UNNAMED
 10
538136.2072230000048876
 20
1033274.4706599999917671
 30
0.0
 41
41.169928000000013
 42
41.169928000000013
 43
41.169928000000013
  0
INSERT
  5
A9
  8
CHIRIQUI
  2
UNNAMED
 10
537933.3846409999532625
 20
1033475.0581960000563413
 30
0.0
 41
41.169928000000013
 42
41.169928000000013
 43
41.169928000000013
  0
INSERT
  5
AB
  8
CHIRIQUI
  2
UNNAMED
 10
537939.1943119999486953
 20
1033483.9258230000268668
 30
0.0
 41
41.169928000000013
 42
41.169928000000013
 43
41.169928000000013
  0
INSERT
  5
AD
  8
CHIRIQUI
  2
UNNAMED
 10
538051.9966880000429228
 20
1033090.3608170000370592
 30
0.0
 41
41.169928000000013
 42
41.169928000000013
 43
41.169928000000013
  0
INSERT
  5
AF
  8
CHIRIQUI
  2
UNNAMED
 10
538047.8171459999866784
 20
1033240.3162530000554398
 30
0.0
 41
41.169928000000013
 42
41.169928000000013
 43
41.169928000000013
  0
INSERT
  5
B1
  8
CHIRIQUI
  2
UNNAMED
 10
537887.9163399999961257
 20
1036160.0028519999468699
 30
0.0
 41
41.169928000000013
 42
41.169928000000013
 43
41.169928000000013
  0
INSERT
  5
B3
  8
CHIRIQUI
  2
UNNAMED
 10
538012.8425979999592528
 20
1032900.2889639999484643
 30
0.0
 41
41.169928000000013
 42
41.169928000000013
 43
41.169928000000013
  0
INSERT
  5
B5
  8
NONCHIRIQUI
  2
UNNAMED
 10
537687.8031340000452474
 20
1033983.4681969999801368
 30
0.0
 41
41.169928000000013
 42
41.169928000000013
 43
41.169928000000013
  0
INSERT
  5
B7
  8
NONCHIRIQUI
  2
UNNAMED
 10
538131.7471580000128597
 20
1033980.2973319999873638
 30
0.0
 41
41.169928000000013
 42
41.169928000000013
 43
41.169928000000013
  0
INSERT
  5
B9
  8
CHIRIQUI
  2
UNNAMED
 10
538157.8364630000432953
 20
1034104.1779000000096858
 30
0.0
 41
41.169928000000013
 42
41.169928000000013
 43
41.169928000000013
  0
INSERT
  5
BB
  8
CHIRIQUI
  2
UNNAMED
 10
537530.4463489999761805
 20
1035515.7832659999839962
 30
0.0
 41
41.169928000000013
 42
41.169928000000013
 43
41.169928000000013
  0
INSERT
  5
BD
  8
CHIRIQUI
  2
UNNAMED
 10
538837.69952399993781
 20
1030313.9997509999666363
 30
0.0
 41
41.169928000000013
 42
41.169928000000013
 43
41.169928000000013
  0
INSERT
  5
BF
  8
NONCHIRIQUI
  2
UNNAMED
 10
538591.8834920000517741
 20
1033997.6983750000363216
 30
0.0
 41
41.169928000000013
 42
41.169928000000013
 43
41.169928000000013
  0
INSERT
  5
C1
  8
CHIRIQUI
  2
UNNAMED
 10
537417.4846449998440221
 20
1044966.2154919999884441
 30
0.0
 41
41.169928000000013
 42
41.169928000000013
 43
41.169928000000013
  0
INSERT
  5
C3
  8
CHIRIQUI
  2
UNNAMED
 10
537592.5166110000573099
 20
1042697.2456630000378937
 30
0.0
 41
41.169928000000013
 42
41.169928000000013
 43
41.169928000000013
  0
INSERT
  5
C5
  8
CHIRIQUI
  2
UNNAMED
 10
537348.5838999999687076
 20
1042364.5126960000488907
 30
0.0
 41
41.169928000000013
 42
41.169928000000013
 43
41.169928000000013
  0
INSERT
  5
C7
  8
CHIRIQUI
  2
UNNAMED
 10
536872.5326859999913722
 20
1045046.11306100001093
 30
0.0
 41
41.169928000000013
 42
41.169928000000013
 43
41.169928000000013
  0
INSERT
  5
C9
  8
NONCHIRIQUI
  2
UNNAMED
 10
537067.8456229999428615
 20
1038467.9042119999649003
 30
0.0
 41
41.169928000000013
 42
41.169928000000013
 43
41.169928000000013
  0
INSERT
  5
CB
  8
NONCHIRIQUI
  2
UNNAMED
 10
537069.5057259999448434
 20
1038301.6034300000173971
 30
0.0
 41
41.169928000000013
 42
41.169928000000013
 43
41.169928000000013
  0
INSERT
  5
CD
  8
CHIRIQUI
  2
UNNAMED
 10
537056.35688300000038
 20
1036933.6906690000323579
 30
0.0
 41
41.169928000000013
 42
41.169928000000013
 43
41.169928000000013
  0
INSERT
  5
CF
  8
CHIRIQUI
  2
UNNAMED
 10
537005.3847860000096262
 20
1036941.6510570000391454
 30
0.0
 41
41.169928000000013
 42
41.169928000000013
 43
41.169928000000013
  0
INSERT
  5
D1
  8
CHIRIQUI
  2
UNNAMED
 10
536973.4540490000508726
 20
1036907.4887619999935851
 30
0.0
 41
41.169928000000013
 42
41.169928000000013
 43
41.169928000000013
  0
INSERT
  5
D3
  8
CHIRIQUI
  2
UNNAMED
 10
536358.0407060000579804
 20
1040263.9465629999758676
 30
0.0
 41
41.169928000000013
 42
41.169928000000013
 43
41.169928000000013
  0
INSERT
  5
D5
  8
CHIRIQUI
  2
UNNAMED
 10
536247.929761000094004
 20
1040349.3855380000313744
 30
0.0
 41
41.169928000000013
 42
41.169928000000013
 43
41.169928000000013
  0
INSERT
  5
D7
  8
CHIRIQUI
  2
UNNAMED
 10
537397.8484259999822825
 20
1040547.212876999983564
 30
0.0
 41
41.169928000000013
 42
41.169928000000013
 43
41.169928000000013
  0
INSERT
  5
D9
  8
CHIRIQUI
  2
UNNAMED
 10
537300.5658109999494627
 20
1040511.9758389999624342
 30
0.0
 41
41.169928000000013
 42
41.169928000000013
 43
41.169928000000013
  0
INSERT
  5
DB
  8
CHIRIQUI
  2
UNNAMED
 10
536666.4831520000007004
 20
1042501.3294780000578612
 30
0.0
 41
41.169928000000013
 42
41.169928000000013
 43
41.169928000000013
  0
INSERT
  5
DD
  8
CHIRIQUI
  2
UNNAMED
 10
539225.6633350000483915
 20
1027819.7905800000298768
 30
0.0
 41
41.169928000000013
 42
41.169928000000013
 43
41.169928000000013
  0
INSERT
  5
DF
  8
CHIRIQUI
  2
UNNAMED
 10
537776.5635750001529232
 20
1036662.2602209999458864
 30
0.0
 41
41.169928000000013
 42
41.169928000000013
 43
41.169928000000013
  0
INSERT
  5
E1
  8
CHIRIQUI
  2
UNNAMED
 10
540290.3429649999598041
 20
1040364.5471240000333637
 30
0.0
 41
41.169928000000013
 42
41.169928000000013
 43
41.169928000000013
  0
INSERT
  5
E3
  8
NONCHIRIQUI
  2
UNNAMED
 10
537422.0393619999522343
 20
1035499.2704029999440536
 30
0.0
 41
41.169928000000013
 42
41.169928000000013
 43
41.169928000000013
  0
INSERT
  5
E5
  8
NONCHIRIQUI
  2
UNNAMED
 10
538308.5263499999418855
 20
1032433.1997780000092462
 30
0.0
 41
41.169928000000013
 42
41.169928000000013
 43
41.169928000000013
  0
INSERT
  5
E7
  8
CHIRIQUI
  2
UNNAMED
 10
538157.7049239999614656
 20
1033031.9900769999949262
 30
0.0
 41
41.169928000000013
 42
41.169928000000013
 43
41.169928000000013
  0
INSERT
  5
E9
  8
CHIRIQUI
  2
UNNAMED
 10
538041.8257509999675676
 20
1032984.5539100000169128
 30
0.0
 41
41.169928000000013
 42
41.169928000000013
 43
41.169928000000013
  0
INSERT
  5
EB
  8
CHIRIQUI
  2
UNNAMED
 10
537758.8527479999465868
 20
1033670.0848499999847263
 30
0.0
 41
41.169928000000013
 42
41.169928000000013
 43
41.169928000000013
  0
INSERT
  5
ED
  8
NONCHIRIQUI
  2
UNNAMED
 10
537691.7255140000488609
 20
1033992.5385529999621212
 30
0.0
 41
41.169928000000013
 42
41.169928000000013
 43
41.169928000000013
  0
INSERT
  5
EF
  8
CHIRIQUI
  2
UNNAMED
 10
537450.7839029999449849
 20
1035410.4830310000106692
 30
0.0
 41
41.169928000000013
 42
41.169928000000013
 43
41.169928000000013
  0
INSERT
  5
F1
  8
CHIRIQUI
  2
UNNAMED
 10
537442.8181630000472069
 20
1035413.1362240000162274
 30
0.0
 41
41.169928000000013
 42
41.169928000000013
 43
41.169928000000013
  0
INSERT
  5
F3
  8
CHIRIQUI
  2
UNNAMED
 10
537424.096447000047192
 20
1035418.8369510000338778
 30
0.0
 41
41.169928000000013
 42
41.169928000000013
 43
41.169928000000013
  0
INSERT
  5
F5
  8
CHIRIQUI
  2
UNNAMED
 10
538298.1545109999133274
 20
1031775.6743250000290573
 30
0.0
 41
41.169928000000013
 42
41.169928000000013
 43
41.169928000000013
  0
INSERT
  5
F7
  8
CHIRIQUI
  2
UNNAMED
 10
538866.8599110000068322
 20
1030277.4221329999854788
 30
0.0
 41
41.169928000000013
 42
41.169928000000013
 43
41.169928000000013
  0
INSERT
  5
F9
  8
CHIRIQUI
  2
UNNAMED
 10
538812.4662460000254214
 20
1030300.0982640000293031
 30
0.0
 41
41.169928000000013
 42
41.169928000000013
 43
41.169928000000013
  0
INSERT
  5
FB
  8
NONCHIRIQUI
  2
UNNAMED
 10
538652.6139830000465736
 20
1034013.7033629999496043
 30
0.0
 41
41.169928000000013
 42
41.169928000000013
 43
41.169928000000013
  0
INSERT
  5
FD
  8
NONCHIRIQUI
  2
UNNAMED
 10
537206.287339000031352
 20
1039185.8461520000128075
 30
0.0
 41
41.169928000000013
 42
41.169928000000013
 43
41.169928000000013
  0
INSERT
  5
FF
  8
NONCHIRIQUI
  2
UNNAMED
 10
536866.6392609999747947
 20
1038263.5690079999621958
 30
0.0
 41
41.169928000000013
 42
41.169928000000013
 43
41.169928000000013
  0
INSERT
  5
101
  8
NONCHIRIQUI
  2
UNNAMED
 10
536865.4556970001431182
 20
1038268.9073880000505596
 30
0.0
 41
41.169928000000013
 42
41.169928000000013
 43
41.169928000000013
  0
INSERT
  5
103
  8
NONCHIRIQUI
  2
UNNAMED
 10
536844.8558209999464452
 20
1038246.3429779999423772
 30
0.0
 41
41.169928000000013
 42
41.169928000000013
 43
41.169928000000013
  0
INSERT
  5
105
  8
NONCHIRIQUI
  2
UNNAMED
 10
536899.0328699999954551
 20
1038274.2790080000413582
 30
0.0
 41
41.169928000000013
 42
41.169928000000013
 43
41.169928000000013
  0
INSERT
  5
107
  8
NONCHIRIQUI
  2
UNNAMED
 10
538581.1958960000192747
 20
1034051.7961499999510124
 30
0.0
 41
41.169928000000013
 42
41.169928000000013
 43
41.169928000000013
  0
INSERT
  5
109
  8
NONCHIRIQUI
  2
UNNAMED
 10
538552.9744250000221655
 20
1033990.0673050000332296
 30
0.0
 41
41.169928000000013
 42
41.169928000000013
 43
41.169928000000013
  0
INSERT
  5
10B
  8
NONCHIRIQUI
  2
UNNAMED
 10
537042.094539999961853
 20
1038403.5454159999499097
 30
0.0
 41
41.169928000000013
 42
41.169928000000013
 43
41.169928000000013
  0
INSERT
  5
10D
  8
CHIRIQUI
  2
UNNAMED
 10
537337.3521549999713898
 20
1040765.2394779999740422
 30
0.0
 41
41.169928000000013
 42
41.169928000000013
 43
41.169928000000013
  0
INSERT
  5
10F
  8
CHIRIQUI
  2
UNNAMED
 10
538481.8754850002005696
 20
1042004.8534989999607205
 30
0.0
 41
41.169928000000013
 42
41.169928000000013
 43
41.169928000000013
  0
INSERT
  5
111
  8
CHIRIQUI
  2
UNNAMED
 10
538475.0619230000302196
 20
1042007.4887929999968037
 30
0.0
 41
41.169928000000013
 42
41.169928000000013
 43
41.169928000000013
  0
INSERT
  5
113
  8
CHIRIQUI
  2
UNNAMED
 10
537447.8369500000262633
 20
1045025.9344399999827147
 30
0.0
 41
41.169928000000013
 42
41.169928000000013
 43
41.169928000000013
  0
INSERT
  5
115
  8
CHIRIQUI
  2
UNNAMED
 10
537486.861710999859497
 20
1045036.4570199999725446
 30
0.0
 41
41.169928000000013
 42
41.169928000000013
 43
41.169928000000013
  0
INSERT
  5
117
  8
CHIRIQUI
  2
UNNAMED
 10
537099.7867379999952391
 20
1042375.997994999983348
 30
0.0
 41
41.169928000000013
 42
41.169928000000013
 43
41.169928000000013
  0
INSERT
  5
119
  8
CHIRIQUI
  2
UNNAMED
 10
537418.7718309999909252
 20
1044996.3528149999910966
 30
0.0
 41
41.169928000000013
 42
41.169928000000013
 43
41.169928000000013
  0
INSERT
  5
11B
  8
CHIRIQUI
  2
UNNAMED
 10
540882.1120210000080988
 20
1033460.0918280000332743
 30
0.0
 41
41.169928000000013
 42
41.169928000000013
 43
41.169928000000013
  0
INSERT
  5
11D
  8
NONCHIRIQUI
  2
UNNAMED
 10
537020.4946009999839589
 20
1038387.5348920000251383
 30
0.0
 41
41.169928000000013
 42
41.169928000000013
 43
41.169928000000013
  0
INSERT
  5
11F
  8
NONCHIRIQUI
  2
UNNAMED
 10
537001.9628660000162199
 20
1038474.9411189999664202
 30
0.0
 41
41.169928000000013
 42
41.169928000000013
 43
41.169928000000013
  0
INSERT
  5
121
  8
NONCHIRIQUI
  2
UNNAMED
 10
536987.2832870001439005
 20
1038451.9941170000238344
 30
0.0
 41
41.169928000000013
 42
41.169928000000013
 43
41.169928000000013
  0
INSERT
  5
123
  8
CHIRIQUI
  2
UNNAMED
 10
537358.9541500000050291
 20
1040559.2819189999718219
 30
0.0
 41
41.169928000000013
 42
41.169928000000013
 43
41.169928000000013
  0
INSERT
  5
125
  8
CHIRIQUI
  2
UNNAMED
 10
540888.8453219999792054
 20
1031413.4515230000251904
 30
0.0
 41
41.169928000000013
 42
41.169928000000013
 43
41.169928000000013
  0
INSERT
  5
127
  8
CHIRIQUI
  2
UNNAMED
 10
540983.7709330000216141
 20
1032740.6182699999772012
 30
0.0
 41
41.169928000000013
 42
41.169928000000013
 43
41.169928000000013
  0
INSERT
  5
129
  8
CHIRIQUI
  2
UNNAMED
 10
541662.4506550000514835
 20
1033985.2502970000496134
 30
0.0
 41
41.169928000000013
 42
41.169928000000013
 43
41.169928000000013
  0
INSERT
  5
12B
  8
CHIRIQUI
  2
UNNAMED
 10
541716.0562439999775961
 20
1034109.9430119999451563
 30
0.0
 41
41.169928000000013
 42
41.169928000000013
 43
41.169928000000013
  0
INSERT
  5
12D
  8
CHIRIQUI
  2
UNNAMED
 10
541735.7691859999904409
 20
1034142.7700429999968037
 30
0.0
 41
41.169928000000013
 42
41.169928000000013
 43
41.169928000000013
  0
INSERT
  5
12F
  8
CHIRIQUI
  2
UNNAMED
 10
541754.3336960000451654
 20
1034148.6117749999975786
 30
0.0
 41
41.169928000000013
 42
41.169928000000013
 43
41.169928000000013
  0
INSERT
  5
131
  8
CHIRIQUI
  2
UNNAMED
 10
541940.3985320000210777
 20
1034142.7312170000514016
 30
0.0
 41
41.169928000000013
 42
41.169928000000013
 43
41.169928000000013
  0
INSERT
  5
133
  8
CHIRIQUI
  2
UNNAMED
 10
542116.5257780000101775
 20
1034395.7149839999619871
 30
0.0
 41
41.169928000000013
 42
41.169928000000013
 43
41.169928000000013
  0
INSERT
  5
135
  8
CHIRIQUI
  2
UNNAMED
 10
542386.1628339999588206
 20
1034571.2582140000304207
 30
0.0
 41
41.169928000000013
 42
41.169928000000013
 43
41.169928000000013
  0
INSERT
  5
137
  8
CHIRIQUI
  2
UNNAMED
 10
542476.5312909999629483
 20
1035137.7060279999859631
 30
0.0
 41
41.169928000000013
 42
41.169928000000013
 43
41.169928000000013
  0
INSERT
  5
139
  8
CHIRIQUI
  2
UNNAMED
 10
542879.3727489999728277
 20
1036108.5691949999891222
 30
0.0
 41
41.169928000000013
 42
41.169928000000013
 43
41.169928000000013
  0
INSERT
  5
13B
  8
CHIRIQUI
  2
UNNAMED
 10
542960.0597520000301301
 20
1036362.8232779999962077
 30
0.0
 41
41.169928000000013
 42
41.169928000000013
 43
41.169928000000013
  0
INSERT
  5
13D
  8
CHIRIQUI
  2
UNNAMED
 10
542525.8653310000663623
 20
1035735.8964400000404567
 30
0.0
 41
41.169928000000013
 42
41.169928000000013
 43
41.169928000000013
  0
INSERT
  5
13F
  8
CHIRIQUI
  2
UNNAMED
 10
542020.5782690000487491
 20
1033440.7577240000246093
 30
0.0
 41
41.169928000000013
 42
41.169928000000013
 43
41.169928000000013
  0
INSERT
  5
141
  8
NONCHIRIQUI
  2
UNNAMED
 10
541827.657236999948509
 20
1032646.1411360000493005
 30
0.0
 41
41.169928000000013
 42
41.169928000000013
 43
41.169928000000013
  0
INSERT
  5
143
  8
NONCHIRIQUI
  2
UNNAMED
 10
540550.0891960000153631
 20
1031622.4387959999730811
 30
0.0
 41
41.169928000000013
 42
41.169928000000013
 43
41.169928000000013
  0
INSERT
  5
145
  8
NONCHIRIQUI
  2
UNNAMED
 10
540715.4817160001257434
 20
1030980.2147660000482574
 30
0.0
 41
41.169928000000013
 42
41.169928000000013
 43
41.169928000000013
  0
INSERT
  5
147
  8
NONCHIRIQUI
  2
UNNAMED
 10
540808.7558620000490919
 20
1031118.6201710000168532
 30
0.0
 41
41.169928000000013
 42
41.169928000000013
 43
41.169928000000013
  0
INSERT
  5
149
  8
NONCHIRIQUI
  2
UNNAMED
 10
540797.4178890000330284
 20
1031060.4487130000488833
 30
0.0
 41
41.169928000000013
 42
41.169928000000013
 43
41.169928000000013
  0
INSERT
  5
14B
  8
NONCHIRIQUI
  2
UNNAMED
 10
540814.198841999983415
 20
1031275.4735319999745116
 30
0.0
 41
41.169928000000013
 42
41.169928000000013
 43
41.169928000000013
  0
INSERT
  5
14D
  8
NONCHIRIQUI
  2
UNNAMED
 10
540851.1535189999267459
 20
1031313.7416669999947771
 30
0.0
 41
41.169928000000013
 42
41.169928000000013
 43
41.169928000000013
  0
INSERT
  5
14F
  8
NONCHIRIQUI
  2
UNNAMED
 10
540863.4646220001159236
 20
1031243.469457000028342
 30
0.0
 41
41.169928000000013
 42
41.169928000000013
 43
41.169928000000013
  0
INSERT
  5
151
  8
NONCHIRIQUI
  2
UNNAMED
 10
540634.9545609999913722
 20
1030820.1773609999800101
 30
0.0
 41
41.169928000000013
 42
41.169928000000013
 43
41.169928000000013
  0
INSERT
  5
153
  8
CHIRIQUI
  2
UNNAMED
 10
540857.0332009999547154
 20
1035142.8585530000273138
 30
0.0
 41
41.169928000000013
 42
41.169928000000013
 43
41.169928000000013
  0
INSERT
  5
155
  8
NONCHIRIQUI
  2
UNNAMED
 10
540680.0285630001453683
 20
1033697.8106860000407323
 30
0.0
 41
41.169928000000013
 42
41.169928000000013
 43
41.169928000000013
  0
INSERT
  5
157
  8
NONCHIRIQUI
  2
UNNAMED
 10
540649.7693819999694824
 20
1033737.482473999960348
 30
0.0
 41
41.169928000000013
 42
41.169928000000013
 43
41.169928000000013
  0
INSERT
  5
159
  8
CHIRIQUI
  2
UNNAMED
 10
538495.2475439999252558
 20
1033480.3954859999939799
 30
0.0
 41
41.169928000000013
 42
41.169928000000013
 43
41.169928000000013
  0
INSERT
  5
15B
  8
CHIRIQUI
  2
UNNAMED
 10
541251.3120189999463037
 20
1034460.8130670000100508
 30
0.0
 41
41.169928000000013
 42
41.169928000000013
 43
41.169928000000013
  0
INSERT
  5
15D
  8
CHIRIQUI
  2
UNNAMED
 10
541014.8407779999542981
 20
1032613.6805170000297949
 30
0.0
 41
41.169928000000013
 42
41.169928000000013
 43
41.169928000000013
  0
INSERT
  5
15F
  8
NONCHIRIQUI
  2
UNNAMED
 10
540308.6076970001449808
 20
1033173.855695000034757
 30
0.0
 41
41.169928000000013
 42
41.169928000000013
 43
41.169928000000013
  0
INSERT
  5
161
  8
NONCHIRIQUI
  2
UNNAMED
 10
540803.0877819998422638
 20
1031623.4183190000476316
 30
0.0
 41
41.169928000000013
 42
41.169928000000013
 43
41.169928000000013
  0
INSERT
  5
163
  8
NONCHIRIQUI
  2
UNNAMED
 10
538495.6437369999475777
 20
1033415.4967640000395477
 30
0.0
 41
41.169928000000013
 42
41.169928000000013
 43
41.169928000000013
  0
INSERT
  5
165
  8
NONCHIRIQUI
  2
UNNAMED
 10
540932.9097479999763891
 20
1033709.7945619999663904
 30
0.0
 41
41.169928000000013
 42
41.169928000000013
 43
41.169928000000013
  0
INSERT
  5
167
  8
CHIRIQUI
  2
UNNAMED
 10
541095.6777930000098422
 20
1033292.7167190000182018
 30
0.0
 41
41.169928000000013
 42
41.169928000000013
 43
41.169928000000013
  0
INSERT
  5
169
  8
CHIRIQUI
  2
UNNAMED
 10
541266.1130290000000969
 20
1033434.8950130000011995
 30
0.0
 41
41.169928000000013
 42
41.169928000000013
 43
41.169928000000013
  0
INSERT
  5
16B
  8
CHIRIQUI
  2
UNNAMED
 10
541184.8883979999227449
 20
1033444.3938649999909103
 30
0.0
 41
41.169928000000013
 42
41.169928000000013
 43
41.169928000000013
  0
INSERT
  5
16D
  8
CHIRIQUI
  2
UNNAMED
 10
541179.6428559999912977
 20
1033442.8399620000272989
 30
0.0
 41
41.169928000000013
 42
41.169928000000013
 43
41.169928000000013
  0
INSERT
  5
16F
  8
NONCHIRIQUI
  2
UNNAMED
 10
541239.6650460000382736
 20
1033466.9039880000054836
 30
0.0
 41
41.169928000000013
 42
41.169928000000013
 43
41.169928000000013
  0
INSERT
  5
171
  8
CHIRIQUI
  2
UNNAMED
 10
541194.2223600000143051
 20
1033446.9153960000257939
 30
0.0
 41
41.169928000000013
 42
41.169928000000013
 43
41.169928000000013
  0
INSERT
  5
173
  8
CHIRIQUI
  2
UNNAMED
 10
541296.4684719999786466
 20
1033581.9488970000529662
 30
0.0
 41
41.169928000000013
 42
41.169928000000013
 43
41.169928000000013
  0
INSERT
  5
175
  8
CHIRIQUI
  2
UNNAMED
 10
541307.8807019999949262
 20
1033620.4491960000013933
 30
0.0
 41
41.169928000000013
 42
41.169928000000013
 43
41.169928000000013
  0
INSERT
  5
177
  8
NONCHIRIQUI
  2
UNNAMED
 10
541355.9950069999322295
 20
1033595.7040349999442697
 30
0.0
 41
41.169928000000013
 42
41.169928000000013
 43
41.169928000000013
  0
INSERT
  5
179
  8
CHIRIQUI
  2
UNNAMED
 10
541347.205426000058651
 20
1033653.3356200000271201
 30
0.0
 41
41.169928000000013
 42
41.169928000000013
 43
41.169928000000013
  0
INSERT
  5
17B
  8
CHIRIQUI
  2
UNNAMED
 10
541375.2864890000782907
 20
1033644.187324000056833
 30
0.0
 41
41.169928000000013
 42
41.169928000000013
 43
41.169928000000013
  0
INSERT
  5
17D
  8
CHIRIQUI
  2
UNNAMED
 10
541515.4003469999879599
 20
1033890.1023940000450239
 30
0.0
 41
41.169928000000013
 42
41.169928000000013
 43
41.169928000000013
  0
INSERT
  5
17F
  8
CHIRIQUI
  2
UNNAMED
 10
541533.2899700000416487
 20
1033897.5380690000019968
 30
0.0
 41
41.169928000000013
 42
41.169928000000013
 43
41.169928000000013
  0
INSERT
  5
181
  8
NONCHIRIQUI
  2
UNNAMED
 10
541580.0616500000469387
 20
1033923.0991869999561459
 30
0.0
 41
41.169928000000013
 42
41.169928000000013
 43
41.169928000000013
  0
INSERT
  5
183
  8
CHIRIQUI
  2
UNNAMED
 10
541605.4907550001516938
 20
1033906.0052859999705106
 30
0.0
 41
41.169928000000013
 42
41.169928000000013
 43
41.169928000000013
  0
INSERT
  5
185
  8
CHIRIQUI
  2
UNNAMED
 10
541733.5712300000013784
 20
1033764.590349999954924
 30
0.0
 41
41.169928000000013
 42
41.169928000000013
 43
41.169928000000013
  0
INSERT
  5
187
  8
CHIRIQUI
  2
UNNAMED
 10
540879.1570989999454468
 20
1031730.2045859999489039
 30
0.0
 41
41.169928000000013
 42
41.169928000000013
 43
41.169928000000013
  0
INSERT
  5
189
  8
CHIRIQUI
  2
UNNAMED
 10
541347.7333159999689087
 20
1033494.2077969999518245
 30
0.0
 41
41.169928000000013
 42
41.169928000000013
 43
41.169928000000013
  0
INSERT
  5
18B
  8
CHIRIQUI
  2
UNNAMED
 10
541183.3384320001350716
 20
1033188.1051710000028834
 30
0.0
 41
41.169928000000013
 42
41.169928000000013
 43
41.169928000000013
  0
INSERT
  5
18D
  8
CHIRIQUI
  2
UNNAMED
 10
541194.4899120000191033
 20
1033211.7279209999833256
 30
0.0
 41
41.169928000000013
 42
41.169928000000013
 43
41.169928000000013
  0
INSERT
  5
18F
  8
NONCHIRIQUI
  2
UNNAMED
 10
541352.4248050000751391
 20
1033498.2262920000357553
 30
0.0
 41
41.169928000000013
 42
41.169928000000013
 43
41.169928000000013
  0
INSERT
  5
191
  8
CHIRIQUI
  2
UNNAMED
 10
541623.4183320000302047
 20
1033929.2085690000094473
 30
0.0
 41
41.169928000000013
 42
41.169928000000013
 43
41.169928000000013
  0
INSERT
  5
193
  8
CHIRIQUI
  2
UNNAMED
 10
541650.1963279999326915
 20
1033822.1969090000493452
 30
0.0
 41
41.169928000000013
 42
41.169928000000013
 43
41.169928000000013
  0
INSERT
  5
195
  8
CHIRIQUI
  2
UNNAMED
 10
541739.04968000005465
 20
1033781.3381189999636263
 30
0.0
 41
41.169928000000013
 42
41.169928000000013
 43
41.169928000000013
  0
INSERT
  5
197
  8
CHIRIQUI
  2
UNNAMED
 10
541810.9173409999348223
 20
1033791.2784769999561831
 30
0.0
 41
41.169928000000013
 42
41.169928000000013
 43
41.169928000000013
  0
INSERT
  5
199
  8
CHIRIQUI
  2
UNNAMED
 10
541817.9787810000125319
 20
1033791.5548450000351295
 30
0.0
 41
41.169928000000013
 42
41.169928000000013
 43
41.169928000000013
  0
INSERT
  5
19B
  8
CHIRIQUI
  2
UNNAMED
 10
541865.5474089999916032
 20
1034185.404043999966234
 30
0.0
 41
41.169928000000013
 42
41.169928000000013
 43
41.169928000000013
  0
INSERT
  5
19D
  8
CHIRIQUI
  2
UNNAMED
 10
542349.996993999928236
 20
1034380.4697610000148416
 30
0.0
 41
41.169928000000013
 42
41.169928000000013
 43
41.169928000000013
  0
INSERT
  5
19F
  8
CHIRIQUI
  2
UNNAMED
 10
542176.7296649999916553
 20
1034791.497419000021182
 30
0.0
 41
41.169928000000013
 42
41.169928000000013
 43
41.169928000000013
  0
INSERT
  5
1A1
  8
CHIRIQUI
  2
UNNAMED
 10
541978.3114899999927729
 20
1034534.5773119999794289
 30
0.0
 41
41.169928000000013
 42
41.169928000000013
 43
41.169928000000013
  0
INSERT
  5
1A3
  8
CHIRIQUI
  2
UNNAMED
 10
541164.995128000038676
 20
1035044.5154839999740943
 30
0.0
 41
41.169928000000013
 42
41.169928000000013
 43
41.169928000000013
  0
INSERT
  5
1A5
  8
CHIRIQUI
  2
UNNAMED
 10
542822.5573600000934675
 20
1035845.5350950000574812
 30
0.0
 41
41.169928000000013
 42
41.169928000000013
 43
41.169928000000013
  0
INSERT
  5
1A7
  8
CHIRIQUI
  2
UNNAMED
 10
539530.5597869999473915
 20
1033655.4065780000528321
 30
0.0
 41
41.169928000000013
 42
41.169928000000013
 43
41.169928000000013
  0
INSERT
  5
1A9
  8
CHIRIQUI
  2
UNNAMED
 10
541438.1078330000163987
 20
1033262.7771990000037476
 30
0.0
 41
41.169928000000013
 42
41.169928000000013
 43
41.169928000000013
  0
INSERT
  5
1AB
  8
CHIRIQUI
  2
UNNAMED
 10
541541.2649359999923036
 20
1033243.4306580000557005
 30
0.0
 41
41.169928000000013
 42
41.169928000000013
 43
41.169928000000013
  0
INSERT
  5
1AD
  8
NONCHIRIQUI
  2
UNNAMED
 10
540745.377487999969162
 20
1030893.1361980000510812
 30
0.0
 41
41.169928000000013
 42
41.169928000000013
 43
41.169928000000013
  0
INSERT
  5
1AF
  8
CHIRIQUI
  2
UNNAMED
 10
539491.4337279999163002
 20
1030983.846045000012964
 30
0.0
 41
41.169928000000013
 42
41.169928000000013
 43
41.169928000000013
  0
INSERT
  5
1B1
  8
CHIRIQUI
  2
UNNAMED
 10
540264.5143839999800548
 20
1034759.7870310000143945
 30
0.0
 41
41.169928000000013
 42
41.169928000000013
 43
41.169928000000013
  0
INSERT
  5
1B3
  8
CHIRIQUI
  2
UNNAMED
 10
541138.3467850000597537
 20
1033055.3490880000172183
 30
0.0
 41
41.169928000000013
 42
41.169928000000013
 43
41.169928000000013
  0
INSERT
  5
1B5
  8
CHIRIQUI
  2
UNNAMED
 10
541383.4378100000321865
 20
1033641.1745769999688491
 30
0.0
 41
41.169928000000013
 42
41.169928000000013
 43
41.169928000000013
  0
INSERT
  5
1B7
  8
CHIRIQUI
  2
UNNAMED
 10
542078.3857759999809787
 20
1034511.0750230000121519
 30
0.0
 41
41.169928000000013
 42
41.169928000000013
 43
41.169928000000013
  0
INSERT
  5
1B9
  8
CHIRIQUI
  2
UNNAMED
 10
541966.599218999966979
 20
1034357.2951480000047013
 30
0.0
 41
41.169928000000013
 42
41.169928000000013
 43
41.169928000000013
  0
INSERT
  5
1BB
  8
CHIRIQUI
  2
UNNAMED
 10
541504.513245000038296
 20
1033379.0757669999729842
 30
0.0
 41
41.169928000000013
 42
41.169928000000013
 43
41.169928000000013
  0
INSERT
  5
1BD
  8
CHIRIQUI
  2
UNNAMED
 10
540915.6254930000286549
 20
1031364.2750259999884292
 30
0.0
 41
41.169928000000013
 42
41.169928000000013
 43
41.169928000000013
  0
INSERT
  5
1BF
  8
CHIRIQUI
  2
UNNAMED
 10
540956.9659020000835881
 20
1030719.4274839999852702
 30
0.0
 41
41.169928000000013
 42
41.169928000000013
 43
41.169928000000013
  0
INSERT
  5
1C1
  8
CHIRIQUI
  2
UNNAMED
 10
541139.8408999999519438
 20
1033312.8332220000447705
 30
0.0
 41
41.169928000000013
 42
41.169928000000013
 43
41.169928000000013
  0
INSERT
  5
1C3
  8
NONCHIRIQUI
  2
UNNAMED
 10
541132.7728180000558496
 20
1033310.4523539999499917
 30
0.0
 41
41.169928000000013
 42
41.169928000000013
 43
41.169928000000013
  0
INSERT
  5
1C5
  8
CHIRIQUI
  2
UNNAMED
 10
541676.0918470000615343
 20
1033825.9971539999824017
 30
0.0
 41
41.169928000000013
 42
41.169928000000013
 43
41.169928000000013
  0
INSERT
  5
1C7
  8
CHIRIQUI
  2
UNNAMED
 10
541017.8158040000125766
 20
1031689.4982509999535978
 30
0.0
 41
41.169928000000013
 42
41.169928000000013
 43
41.169928000000013
  0
INSERT
  5
1C9
  8
NONCHIRIQUI
  2
UNNAMED
 10
540309.1461390000768006
 20
1033177.8796929999953136
 30
0.0
 41
41.169928000000013
 42
41.169928000000013
 43
41.169928000000013
  0
INSERT
  5
1CB
  8
CHIRIQUI
  2
UNNAMED
 10
542835.349004999967292
 20
1036091.2509350000182167
 30
0.0
 41
41.169928000000013
 42
41.169928000000013
 43
41.169928000000013
  0
INSERT
  5
1CD
  8
NONCHIRIQUI
  2
UNNAMED
 10
539750.7486920000519603
 20
1034921.656669000047259
 30
0.0
 41
41.169928000000013
 42
41.169928000000013
 43
41.169928000000013
  0
INSERT
  5
1CF
  8
NONCHIRIQUI
  2
UNNAMED
 10
539750.7486920000519603
 20
1034921.656669000047259
 30
0.0
 41
41.169928000000013
 42
41.169928000000013
 43
41.169928000000013
  0
INSERT
  5
1D1
  8
CHIRIQUI
  2
UNNAMED
 10
538014.2902529999846593
 20
1032898.0939990000333637
 30
0.0
 41
41.169928000000013
 42
41.169928000000013
 43
41.169928000000013
  0
INSERT
  5
1D3
  8
CHIRIQUI
  2
UNNAMED
 10
540372.0282140000490472
 20
1024075.0531849999679253
 30
0.0
 41
41.169928000000013
 42
41.169928000000013
 43
41.169928000000013
  0
INSERT
  5
1D5
  8
CHIRIQUI
  2
UNNAMED
 10
537868.8900140001205727
 20
1041161.4945659999502823
 30
0.0
 41
41.169928000000013
 42
41.169928000000013
 43
41.169928000000013
  0
TEXT
  5
40
  8
LABELS
 10
541111.0542160000186414
 20
1033269.8457669999916106
 30
0.0
 40
41.169928000000013
  1
P171
  0
TEXT
  5
42
  8
LABELS
 10
541161.8243680000305176
 20
1033414.1584779999684542
 30
0.0
 40
41.169928000000013
  1
P172
  0
TEXT
  5
44
  8
LABELS
 10
541186.4722339999862015
 20
1033422.2215830000350252
 30
0.0
 40
41.169928000000013
  1
P174
  0
TEXT
  5
46
  8
LABELS
 10
541386.9715529999230057
 20
1033629.1922779999440536
 30
0.0
 40
41.169928000000013
  1
P177
  0
TEXT
  5
48
  8
LABELS
 10
541407.1941410000436008
 20
1033643.0072729999665171
 30
0.0
 40
41.169928000000013
  1
P178
  0
TEXT
  5
4A
  8
LABELS
 10
539685.3665350000374019
 20
1029267.7172080000163987
 30
0.0
 40
41.169928000000013
  1
P184
  0
TEXT
  5
4C
  8
LABELS
 10
539685.6453899998450652
 20
1029265.7334269999992102
 30
0.0
 40
41.169928000000013
  1
P185
  0
TEXT
  5
4E
  8
LABELS
 10
539688.8100400000112131
 20
1029123.7311309999786317
 30
0.0
 40
41.169928000000013
  1
P186
  0
TEXT
  5
50
  8
LABELS
 10
541174.4373800001339987
 20
1033415.4238040000200272
 30
0.0
 40
41.169928000000013
  1
P173
  0
TEXT
  5
52
  8
LABELS
 10
539629.6801500001456589
 20
1029129.6407950000138953
 30
0.0
 40
41.169928000000013
  1
P183
  0
TEXT
  5
54
  8
LABELS
 10
541355.7182040000334382
 20
1033651.7689480000408366
 30
0.0
 40
41.169928000000013
  1
P187
  0
TEXT
  5
56
  8
LABELS
 10
541406.2381119999336079
 20
1033667.0341049999697134
 30
0.0
 40
41.169928000000013
  1
P188
  0
TEXT
  5
58
  8
LABELS
 10
541424.0272640000330284
 20
1033630.8631339999847114
 30
0.0
 40
41.169928000000013
  1
P189
  0
TEXT
  5
5A
  8
LABELS
 10
541464.2095660000341013
 20
1033773.7847949999850243
 30
0.0
 40
41.169928000000013
  1
P190
  0
TEXT
  5
5C
  8
LABELS
 10
541368.7578999999677762
 20
1033476.4777560000075027
 30
0.0
 40
41.169928000000013
  1
P23
  0
TEXT
  5
5E
  8
LABELS
 10
541244.5902479999931529
 20
1033263.0444200000492856
 30
0.0
 40
41.169928000000013
  1
P16
  0
TEXT
  5
60
  8
LABELS
 10
541197.9630260000703856
 20
1033456.62548299995251
 30
0.0
 40
41.169928000000013
  1
P175
  0
TEXT
  5
62
  8
LABELS
 10
541378.1735379999736324
 20
1033548.1821729999501258
 30
0.0
 40
41.169928000000013
  1
P176
  0
TEXT
  5
64
  8
LABELS
 10
539474.882547999965027
 20
1029532.0947300000116229
 30
0.0
 40
41.169928000000013
  1
P180
  0
TEXT
  5
66
  8
LABELS
 10
539475.4683020000811666
 20
1029535.6550290000159293
 30
0.0
 40
41.169928000000013
  1
P181
  0
TEXT
  5
68
  8
LABELS
 10
539664.3738979998743162
 20
1029212.5121560000116006
 30
0.0
 40
41.169928000000013
  1
P182
  0
TEXT
  5
6A
  8
LABELS
 10
541500.7848000001395121
 20
1034052.5990819999715313
 30
0.0
 40
41.169928000000013
  1
P191
  0
TEXT
  5
6C
  8
LABELS
 10
541344.7368049999931827
 20
1033959.8810000000521541
 30
0.0
 40
41.169928000000013
  1
P192
  0
TEXT
  5
6E
  8
LABELS
 10
541401.4553930001566187
 20
1033817.5548880000133067
 30
0.0
 40
41.169928000000013
  1
PET-LO
  0
TEXT
  5
70
  8
LABELS
 10
538165.4456430000718683
 20
1024091.6301290000556037
 30
0.0
 40
41.169928000000013
  1
P164
  0
TEXT
  5
72
  8
LABELS
 10
538482.8528979999246076
 20
1027814.546081000007689
 30
0.0
 40
41.169928000000013
  1
P169
  0
TEXT
  5
74
  8
LABELS
 10
537673.7634720001369715
 20
1028261.4732620000140741
 30
0.0
 40
41.169928000000013
  1
P162
  0
TEXT
  5
76
  8
LABELS
 10
538465.76931100001093
 20
1030026.3571810000576079
 30
0.0
 40
41.169928000000013
  1
P163
  0
TEXT
  5
78
  8
LABELS
 10
537330.8147009999956936
 20
1039285.8159999999916181
 30
0.0
 40
41.169928000000013
  1
p131
  0
TEXT
  5
7A
  8
LABELS
 10
536964.2520009999861941
 20
1038238.996709999977611
 30
0.0
 40
41.169928000000013
  1
P135
  0
TEXT
  5
7C
  8
LABELS
 10
536963.5743310000980273
 20
1038235.5853209999622777
 30
0.0
 40
41.169928000000013
  1
P136
  0
TEXT
  5
7E
  8
LABELS
 10
536968.1886409999569878
 20
1038252.3592149999458343
 30
0.0
 40
41.169928000000013
  1
P141
  0
TEXT
  5
80
  8
LABELS
 10
536968.7722869999706745
 20
1038257.6152340000262484
 30
0.0
 40
41.169928000000013
  1
P142
  0
TEXT
  5
82
  8
LABELS
 10
536963.0912879999959841
 20
1038220.465457999962382
 30
0.0
 40
41.169928000000013
  1
P143
  0
TEXT
  5
84
  8
LABELS
 10
536908.6870020000496879
 20
1038218.8097650000127032
 30
0.0
 40
41.169928000000013
  1
P144
  0
TEXT
  5
86
  8
LABELS
 10
536923.0201149998465553
 20
1038257.357984000002034
 30
0.0
 40
41.169928000000013
  1
P145
  0
TEXT
  5
88
  8
LABELS
 10
536886.1590370000340044
 20
1038249.7215599999763072
 30
0.0
 40
41.169928000000013
  1
P146
  0
TEXT
  5
8A
  8
LABELS
 10
537017.2787199999438599
 20
1037142.3034329999936745
 30
0.0
 40
41.169928000000013
  1
P147
  0
TEXT
  5
8C
  8
LABELS
 10
536846.8969130001496524
 20
1040089.0547599999699742
 30
0.0
 40
41.169928000000013
  1
P153
  0
TEXT
  5
8E
  8
LABELS
 10
536925.3476939999964088
 20
1040123.9285330000566319
 30
0.0
 40
41.169928000000013
  1
P154
  0
TEXT
  5
90
  8
LABELS
 10
537443.9810280001256615
 20
1040456.9237870000069961
 30
0.0
 40
41.169928000000013
  1
P155
  0
TEXT
  5
92
  8
LABELS
 10
536175.0088759999489412
 20
1041052.9456820000195876
 30
0.0
 40
41.169928000000013
  1
Pied Ind6
  0
TEXT
  5
94
  8
LABELS
 10
535983.4299050000263378
 20
1040711.3545790000353009
 30
0.0
 40
41.169928000000013
  1
Pied Indio4
  0
TEXT
  5
96
  8
LABELS
 10
537736.199352000025101
 20
1043946.7024750000564381
 30
0.0
 40
41.169928000000013
  1
P118
  0
TEXT
  5
98
  8
LABELS
 10
538053.1236180000705644
 20
1043659.952506999950856
 30
0.0
 40
41.169928000000013
  1
P119
  0
TEXT
  5
9A
  8
LABELS
 10
537548.3859990000491962
 20
1044922.6284519999753684
 30
0.0
 40
41.169928000000013
  1
P121
  0
TEXT
  5
9C
  8
LABELS
 10
537517.2567549998639151
 20
1044942.1113830000394955
 30
0.0
 40
41.169928000000013
  1
P122
  0
TEXT
  5
9E
  8
LABELS
 10
537506.5122079999418929
 20
1045002.3929129999596626
 30
0.0
 40
41.169928000000013
  1
P123
  0
TEXT
  5
A0
  8
LABELS
 10
538127.6402839999645948
 20
1041509.948932999977842
 30
0.0
 40
41.169928000000013
  1
P115
  0
TEXT
  5
A2
  8
LABELS
 10
539264.9731949999695644
 20
1036706.6553640000056475
 30
0.0
 40
41.169928000000013
  1
P112
  0
TEXT
  5
A4
  8
LABELS
 10
539273.9259300000267103
 20
1036683.7403590000467375
 30
0.0
 40
41.169928000000013
  1
P113
  0
TEXT
  5
A6
  8
LABELS
 10
538156.7921870000427589
 20
1033253.8856959999538958
 30
0.0
 40
41.169928000000013
  1
P103
  0
TEXT
  5
A8
  8
LABELS
 10
537953.9696049999911338
 20
1033454.47323200001847
 30
0.0
 40
41.169928000000013
  1
P104
  0
TEXT
  5
AA
  8
LABELS
 10
537959.7792759999865666
 20
1033463.3408589999889955
 30
0.0
 40
41.169928000000013
  1
P105
  0
TEXT
  5
AC
  8
LABELS
 10
538072.5816520000807941
 20
1033069.7758529999991879
 30
0.0
 40
41.169928000000013
  1
P106
  0
TEXT
  5
AE
  8
LABELS
 10
538068.402110000140965
 20
1033219.7312890000175685
 30
0.0
 40
41.169928000000013
  1
P108
  0
TEXT
  5
B0
  8
LABELS
 10
537908.501304000033997
 20
1036139.4178880000254139
 30
0.0
 40
41.169928000000013
  1
P110
  0
TEXT
  5
B2
  8
LABELS
 10
538033.4275619999971241
 20
1032879.7040000000270084
 30
0.0
 40
41.169928000000013
  1
P90
  0
TEXT
  5
B4
  8
LABELS
 10
537708.388097999850288
 20
1033962.8832329999422655
 30
0.0
 40
41.169928000000013
  1
P93actual
  0
TEXT
  5
B6
  8
LABELS
 10
538152.332122000050731
 20
1033959.7123679999494925
 30
0.0
 40
41.169928000000013
  1
P94
  0
TEXT
  5
B8
  8
LABELS
 10
538178.4214270000811666
 20
1034083.5929359999718145
 30
0.0
 40
41.169928000000013
  1
P95
  0
TEXT
  5
BA
  8
LABELS
 10
537551.0313130000140518
 20
1035495.1983019999461249
 30
0.0
 40
41.169928000000013
  1
P99
  0
TEXT
  5
BC
  8
LABELS
 10
538858.2844879999756813
 20
1030293.4147870000451803
 30
0.0
 40
41.169928000000013
  1
P88
  0
TEXT
  5
BE
  8
LABELS
 10
538612.4684560002060607
 20
1033977.1134109999984503
 30
0.0
 40
41.169928000000013
  1
P84
  0
TEXT
  5
C0
  8
LABELS
 10
537438.0696089999983087
 20
1044945.6305279999505728
 30
0.0
 40
41.169928000000013
  1
P125
  0
TEXT
  5
C2
  8
LABELS
 10
537613.1015749999787658
 20
1042676.6606990000000224
 30
0.0
 40
41.169928000000013
  1
P126
  0
TEXT
  5
C4
  8
LABELS
 10
537369.1688640001229942
 20
1042343.9277320000110194
 30
0.0
 40
41.169928000000013
  1
P128
  0
TEXT
  5
C6
  8
LABELS
 10
536893.1176500001456589
 20
1045025.5280969999730587
 30
0.0
 40
41.169928000000013
  1
P129
  0
TEXT
  5
C8
  8
LABELS
 10
537088.4305869998643175
 20
1038447.3192480000434443
 30
0.0
 40
41.169928000000013
  1
P130
  0
TEXT
  5
CA
  8
LABELS
 10
537090.09069000009913
 20
1038281.0184659999795258
 30
0.0
 40
41.169928000000013
  1
P134
  0
TEXT
  5
CC
  8
LABELS
 10
537076.9418470000382513
 20
1036913.1057049999944866
 30
0.0
 40
41.169928000000013
  1
P148
  0
TEXT
  5
CE
  8
LABELS
 10
537025.9697500000474975
 20
1036921.066093000001274
 30
0.0
 40
41.169928000000013
  1
P149
  0
TEXT
  5
D0
  8
LABELS
 10
536994.0390129999723285
 20
1036886.9037979999557137
 30
0.0
 40
41.169928000000013
  1
P150
  0
TEXT
  5
D2
  8
LABELS
 10
536378.6256699999794364
 20
1040243.3615990000544116
 30
0.0
 40
41.169928000000013
  1
P151
  0
TEXT
  5
D4
  8
LABELS
 10
536268.5147250001318753
 20
1040328.8005739999935031
 30
0.0
 40
41.169928000000013
  1
P152
  0
TEXT
  5
D6
  8
LABELS
 10
537418.4333899999037385
 20
1040526.6279129999456927
 30
0.0
 40
41.169928000000013
  1
P156
  0
TEXT
  5
D8
  8
LABELS
 10
537321.1507749998709187
 20
1040491.3908750000409782
 30
0.0
 40
41.169928000000013
  1
P159
  0
TEXT
  5
DA
  8
LABELS
 10
536687.0681160000385717
 20
1042480.7445140000199899
 30
0.0
 40
41.169928000000013
  1
P161
  0
TEXT
  5
DC
  8
LABELS
 10
539246.2482989999698475
 20
1027799.2056159999920055
 30
0.0
 40
41.169928000000013
  1
P170
  0
TEXT
  5
DE
  8
LABELS
 10
537797.1485390000743791
 20
1036641.6752570000244305
 30
0.0
 40
41.169928000000013
  1
P111
  0
TEXT
  5
E0
  8
LABELS
 10
540310.9279289999976754
 20
1040343.9621599999954924
 30
0.0
 40
41.169928000000013
  1
P114
  0
TEXT
  5
E2
  8
LABELS
 10
537442.6243259999901056
 20
1035478.6854390000225976
 30
0.0
 40
41.169928000000013
  1
P100
  0
TEXT
  5
E4
  8
LABELS
 10
538329.1113139999797568
 20
1032412.6148139999713749
 30
0.0
 40
41.169928000000013
  1
P101
  0
TEXT
  5
E6
  8
LABELS
 10
538178.2898879999993369
 20
1033011.4051129999570549
 30
0.0
 40
41.169928000000013
  1
P102
  0
TEXT
  5
E8
  8
LABELS
 10
538062.4107150000054389
 20
1032963.9689459999790415
 30
0.0
 40
41.169928000000013
  1
P107
  0
TEXT
  5
EA
  8
LABELS
 10
537779.4377119999844581
 20
1033649.499885999946855
 30
0.0
 40
41.169928000000013
  1
P92
  0
TEXT
  5
EC
  8
LABELS
 10
537712.3104779999703169
 20
1033971.9535890000406653
 30
0.0
 40
41.169928000000013
  1
P93
  0
TEXT
  5
EE
  8
LABELS
 10
537471.3688669998664409
 20
1035389.8980669999727979
 30
0.0
 40
41.169928000000013
  1
P96
  0
TEXT
  5
F0
  8
LABELS
 10
537463.4031270002014935
 20
1035392.5512599999783561
 30
0.0
 40
41.169928000000013
  1
P97
  0
TEXT
  5
F2
  8
LABELS
 10
537444.681410999968648
 20
1035398.2519869999960065
 30
0.0
 40
41.169928000000013
  1
P98
  0
TEXT
  5
F4
  8
LABELS
 10
538318.7394749999511987
 20
1031755.089360999991186
 30
0.0
 40
41.169928000000013
  1
P86
  0
TEXT
  5
F6
  8
LABELS
 10
538887.4448750000447035
 20
1030256.8371689999476075
 30
0.0
 40
41.169928000000013
  1
P87
  0
TEXT
  5
F8
  8
LABELS
 10
538833.0512100000632927
 20
1030279.5132999999914318
 30
0.0
 40
41.169928000000013
  1
P89
  0
TEXT
  5
FA
  8
LABELS
 10
538673.1989470000844449
 20
1033993.1183990000281483
 30
0.0
 40
41.169928000000013
  1
P82
  0
TEXT
  5
FC
  8
LABELS
 10
537226.872302999952808
 20
1039165.2611879999749362
 30
0.0
 40
41.169928000000013
  1
P130
  0
TEXT
  5
FE
  8
LABELS
 10
536887.2242250001290813
 20
1038242.9840440000407398
 30
0.0
 40
41.169928000000013
  1
P139
  0
TEXT
  5
100
  8
LABELS
 10
536886.0406609999481589
 20
1038248.3224240000126883
 30
0.0
 40
41.169928000000013
  1
P140
  0
TEXT
  5
102
  8
LABELS
 10
536865.4407849999843165
 20
1038225.7580140000209212
 30
0.0
 40
41.169928000000013
  1
P141
  0
TEXT
  5
104
  8
LABELS
 10
536919.6178340001497418
 20
1038253.6940440000034869
 30
0.0
 40
41.169928000000013
  1
P145
  0
TEXT
  5
106
  8
LABELS
 10
538601.780860000057146
 20
1034031.2111860000295565
 30
0.0
 40
41.169928000000013
  1
P83
  0
TEXT
  5
108
  8
LABELS
 10
538573.5593889999436215
 20
1033969.4823409999953583
 30
0.0
 40
41.169928000000013
  1
P85
  0
TEXT
  5
10A
  8
LABELS
 10
537062.6795039999997243
 20
1038382.9604520000284538
 30
0.0
 40
41.169928000000013
  1
P132
  0
TEXT
  5
10C
  8
LABELS
 10
537357.9371190000092611
 20
1040744.6545140000525862
 30
0.0
 40
41.169928000000013
  1
P158
  0
TEXT
  5
10E
  8
LABELS
 10
538502.4604490000056103
 20
1041984.2685350000392646
 30
0.0
 40
41.169928000000013
  1
P116
  0
TEXT
  5
110
  8
LABELS
 10
538495.6468869999516755
 20
1041986.9038289999589324
 30
0.0
 40
41.169928000000013
  1
P117
  0
TEXT
  5
112
  8
LABELS
 10
537468.4219139999477193
 20
1045005.3494759999448434
 30
0.0
 40
41.169928000000013
  1
P120
  0
TEXT
  5
114
  8
LABELS
 10
537507.4466750000137836
 20
1045015.8720560000510886
 30
0.0
 40
41.169928000000013
  1
P124
  0
TEXT
  5
116
  8
LABELS
 10
537120.3717020001495257
 20
1042355.4130309999454767
 30
0.0
 40
41.169928000000013
  1
P127
  0
TEXT
  5
118
  8
LABELS
 10
537439.3567950001452118
 20
1044975.7678509999532253
 30
0.0
 40
41.169928000000013
  1
P166
  0
TEXT
  5
11A
  8
LABELS
 10
540902.6969850000459701
 20
1033439.506863999995403
 30
0.0
 40
41.169928000000013
  1
P168
  0
TEXT
  5
11C
  8
LABELS
 10
537041.0795649999054149
 20
1038366.949927999987267
 30
0.0
 40
41.169928000000013
  1
P133
  0
TEXT
  5
11E
  8
LABELS
 10
537022.5478300000540912
 20
1038454.3561550000449643
 30
0.0
 40
41.169928000000013
  1
P137
  0
TEXT
  5
120
  8
LABELS
 10
537007.8682510000653565
 20
1038431.4091529999859631
 30
0.0
 40
41.169928000000013
  1
P138
  0
TEXT
  5
122
  8
LABELS
 10
537379.5391140000429004
 20
1040538.6969550000503659
 30
0.0
 40
41.169928000000013
  1
P157
  0
TEXT
  5
124
  8
LABELS
 10
540909.4302860000170767
 20
1031392.8665589999873191
 30
0.0
 40
41.169928000000013
  1
P4
  0
TEXT
  5
126
  8
LABELS
 10
541004.3558969999430701
 20
1032720.0333060000557452
 30
0.0
 40
41.169928000000013
  1
P3
  0
TEXT
  5
128
  8
LABELS
 10
541683.0356189999729395
 20
1033964.6653330000117421
 30
0.0
 40
41.169928000000013
  1
P38
  0
TEXT
  5
12A
  8
LABELS
 10
541736.6412080000154674
 20
1034089.3580480000237003
 30
0.0
 40
41.169928000000013
  1
P42
  0
TEXT
  5
12C
  8
LABELS
 10
541756.3541500000283122
 20
1034122.1850789999589324
 30
0.0
 40
41.169928000000013
  1
P43
  0
TEXT
  5
12E
  8
LABELS
 10
541774.9186600000830367
 20
1034128.0268109999597073
 30
0.0
 40
41.169928000000013
  1
P45
  0
TEXT
  5
130
  8
LABELS
 10
541960.983496000058949
 20
1034122.1462530000135303
 30
0.0
 40
41.169928000000013
  1
P48
  0
TEXT
  5
132
  8
LABELS
 10
542137.1107420000480488
 20
1034375.1300200000405312
 30
0.0
 40
41.169928000000013
  1
P49
  0
TEXT
  5
134
  8
LABELS
 10
542406.7477979999966919
 20
1034550.6732499999925494
 30
0.0
 40
41.169928000000013
  1
P51
  0
TEXT
  5
136
  8
LABELS
 10
542497.1162550001172349
 20
1035117.1210639999480918
 30
0.0
 40
41.169928000000013
  1
P76
  0
TEXT
  5
138
  8
LABELS
 10
542899.957713000010699
 20
1036087.9842309999512509
 30
0.0
 40
41.169928000000013
  1
P79
  0
TEXT
  5
13A
  8
LABELS
 10
542980.6447159999515861
 20
1036342.2383139999583364
 30
0.0
 40
41.169928000000013
  1
P80
  0
TEXT
  5
13C
  8
LABELS
 10
542546.4502949999878183
 20
1035715.3114760000025854
 30
0.0
 40
41.169928000000013
  1
P81
  0
TEXT
  5
13E
  8
LABELS
 10
542041.1632329999702051
 20
1033420.172759999986738
 30
0.0
 40
41.169928000000013
  1
P62
  0
TEXT
  5
140
  8
LABELS
 10
541848.2422010001027957
 20
1032625.5561720000114292
 30
0.0
 40
41.169928000000013
  1
Pind4
  0
TEXT
  5
142
  8
LABELS
 10
540570.6741600000532344
 20
1031601.8538320000516251
 30
0.0
 40
41.169928000000013
  1
p1
  0
TEXT
  5
144
  8
LABELS
 10
540736.0666800000471994
 20
1030959.6298020000103861
 30
0.0
 40
41.169928000000013
  1
P64
  0
TEXT
  5
146
  8
LABELS
 10
540829.3408259999705479
 20
1031098.0352069999789819
 30
0.0
 40
41.169928000000013
  1
P65actual
  0
TEXT
  5
148
  8
LABELS
 10
540818.0028529999544844
 20
1031039.863749000011012
 30
0.0
 40
41.169928000000013
  1
P65original
  0
TEXT
  5
14A
  8
LABELS
 10
540834.7838060000212863
 20
1031254.8885680000530556
 30
0.0
 40
41.169928000000013
  1
P66
  0
TEXT
  5
14C
  8
LABELS
 10
540871.7384829999646172
 20
1031293.1567029999569058
 30
0.0
 40
41.169928000000013
  1
P67
  0
TEXT
  5
14E
  8
LABELS
 10
540884.0495859999209642
 20
1031222.8844929999904707
 30
0.0
 40
41.169928000000013
  1
P68
  0
TEXT
  5
150
  8
LABELS
 10
540655.5395250000292435
 20
1030799.5923969999421388
 30
0.0
 40
41.169928000000013
  1
P71
  0
TEXT
  5
152
  8
LABELS
 10
540877.6181649999925867
 20
1035122.2735889999894425
 30
0.0
 40
41.169928000000013
  1
P74
  0
TEXT
  5
154
  8
LABELS
 10
540700.6135270000668243
 20
1033677.225722000002861
 30
0.0
 40
41.169928000000013
  1
P5 Actual
  0
TEXT
  5
156
  8
LABELS
 10
540670.3543460000073537
 20
1033716.897510000038892
 30
0.0
 40
41.169928000000013
  1
P6
  0
TEXT
  5
158
  8
LABELS
 10
538515.8325079998467118
 20
1033459.8105219999561086
 30
0.0
 40
41.169928000000013
  1
P8
  0
TEXT
  5
15A
  8
LABELS
 10
541271.896982999984175
 20
1034440.2281029999721795
 30
0.0
 40
41.169928000000013
  1
P7
  0
TEXT
  5
15C
  8
LABELS
 10
541035.4257419998757541
 20
1032593.0955529999919236
 30
0.0
 40
41.169928000000013
  1
P9
  0
TEXT
  5
15E
  8
LABELS
 10
540329.1926609999500215
 20
1033153.2707309999968857
 30
0.0
 40
41.169928000000013
  1
Pied Ind
  0
TEXT
  5
160
  8
LABELS
 10
540823.6727459999965504
 20
1031602.8333550000097603
 30
0.0
 40
41.169928000000013
  1
Pied Ind3
  0
TEXT
  5
162
  8
LABELS
 10
538516.228700999985449
 20
1033394.9118000000016764
 30
0.0
 40
41.169928000000013
  1
Piedra Chirrip
  0
TEXT
  5
164
  8
LABELS
 10
540953.4947120000142604
 20
1033689.2095980000449345
 30
0.0
 40
41.169928000000013
  1
Pind3
  0
TEXT
  5
166
  8
LABELS
 10
541116.2627570000477135
 20
1033272.1317549999803305
 30
0.0
 40
41.169928000000013
  1
P15
  0
TEXT
  5
168
  8
LABELS
 10
541286.6979930001543835
 20
1033414.3100489999633282
 30
0.0
 40
41.169928000000013
  1
P17
  0
TEXT
  5
16A
  8
LABELS
 10
541205.4733619998442009
 20
1033423.808900999953039
 30
0.0
 40
41.169928000000013
  1
P18
  0
TEXT
  5
16C
  8
LABELS
 10
541200.2278200001455843
 20
1033422.2549979999894276
 30
0.0
 40
41.169928000000013
  1
P19
  0
TEXT
  5
16E
  8
LABELS
 10
541260.2500100000761449
 20
1033446.3190239999676123
 30
0.0
 40
41.169928000000013
  1
P20
  0
TEXT
  5
170
  8
LABELS
 10
541214.8073240000521764
 20
1033426.3304319999879226
 30
0.0
 40
41.169928000000013
  1
P21
  0
TEXT
  5
172
  8
LABELS
 10
541317.0534360000165179
 20
1033561.3639330000150949
 30
0.0
 40
41.169928000000013
  1
P24
  0
TEXT
  5
174
  8
LABELS
 10
541328.4656660001492128
 20
1033599.864231999963522
 30
0.0
 40
41.169928000000013
  1
P25
  0
TEXT
  5
176
  8
LABELS
 10
541376.5799709999701008
 20
1033575.1190710000228137
 30
0.0
 40
41.169928000000013
  1
P26
  0
TEXT
  5
178
  8
LABELS
 10
541367.7903899999801069
 20
1033632.7506559999892488
 30
0.0
 40
41.169928000000013
  1
P27
  0
TEXT
  5
17A
  8
LABELS
 10
541395.8714529999997467
 20
1033623.6023600000189617
 30
0.0
 40
41.169928000000013
  1
P28
  0
TEXT
  5
17C
  8
LABELS
 10
541535.9853110000258312
 20
1033869.5174300000071526
 30
0.0
 40
41.169928000000013
  1
P30
  0
TEXT
  5
17E
  8
LABELS
 10
541553.8749339999631047
 20
1033876.9531049999641255
 30
0.0
 40
41.169928000000013
  1
P31
  0
TEXT
  5
180
  8
LABELS
 10
541600.64661400008481
 20
1033902.5142230000346899
 30
0.0
 40
41.169928000000013
  1
P32
  0
TEXT
  5
182
  8
LABELS
 10
541626.0757189999567345
 20
1033885.4203220000490546
 30
0.0
 40
41.169928000000013
  1
P33
  0
TEXT
  5
184
  8
LABELS
 10
541754.1561939999228343
 20
1033744.005386000033468
 30
0.0
 40
41.169928000000013
  1
P36
  0
TEXT
  5
186
  8
LABELS
 10
540899.7420629999833182
 20
1031709.6196220000274479
 30
0.0
 40
41.169928000000013
  1
P10
  0
TEXT
  5
188
  8
LABELS
 10
541368.31828000000678
 20
1033473.6228330000303686
 30
0.0
 40
41.169928000000013
  1
P22
  0
TEXT
  5
18A
  8
LABELS
 10
541203.9233960000565276
 20
1033167.5202069999650121
 30
0.0
 40
41.169928000000013
  1
P13
  0
TEXT
  5
18C
  8
LABELS
 10
541215.0748760000569746
 20
1033191.1429569999454543
 30
0.0
 40
41.169928000000013
  1
P14
  0
TEXT
  5
18E
  8
LABELS
 10
541373.0097689999965951
 20
1033477.641327999997884
 30
0.0
 40
41.169928000000013
  1
P23
  0
TEXT
  5
190
  8
LABELS
 10
541644.0032959999516606
 20
1033908.623604999971576
 30
0.0
 40
41.169928000000013
  1
P29
  0
TEXT
  5
192
  8
LABELS
 10
541670.7812919999705628
 20
1033801.6119450000114739
 30
0.0
 40
41.169928000000013
  1
P34
  0
TEXT
  5
194
  8
LABELS
 10
541759.6346439998596907
 20
1033760.7531550000421703
 30
0.0
 40
41.169928000000013
  1
P37
  0
TEXT
  5
196
  8
LABELS
 10
541831.5023049998562783
 20
1033770.6935130000347272
 30
0.0
 40
41.169928000000013
  1
P40
  0
TEXT
  5
198
  8
LABELS
 10
541838.5637450000504032
 20
1033770.9698809999972582
 30
0.0
 40
41.169928000000013
  1
P41
  0
TEXT
  5
19A
  8
LABELS
 10
541886.1323729999130592
 20
1034164.819080000044778
 30
0.0
 40
41.169928000000013
  1
P47
  0
TEXT
  5
19C
  8
LABELS
 10
542370.5819579999661073
 20
1034359.8847969999769703
 30
0.0
 40
41.169928000000013
  1
P50
  0
TEXT
  5
19E
  8
LABELS
 10
542197.3146290000295267
 20
1034770.9124549999833107
 30
0.0
 40
41.169928000000013
  1
P52
  0
TEXT
  5
1A0
  8
LABELS
 10
541998.8964540000306442
 20
1034513.992348000057973
 30
0.0
 40
41.169928000000013
  1
P54
  0
TEXT
  5
1A2
  8
LABELS
 10
541185.5800919999601319
 20
1035023.9305200000526384
 30
0.0
 40
41.169928000000013
  1
P56
  0
TEXT
  5
1A4
  8
LABELS
 10
542843.1423240001313388
 20
1035824.9501310000196099
 30
0.0
 40
41.169928000000013
  1
P77
  0
TEXT
  5
1A6
  8
LABELS
 10
539551.1447509999852628
 20
1033634.8216140000149608
 30
0.0
 40
41.169928000000013
  1
P58
  0
TEXT
  5
1A8
  8
LABELS
 10
541458.69279700005427
 20
1033242.1922349999658763
 30
0.0
 40
41.169928000000013
  1
P60
  0
TEXT
  5
1AA
  8
LABELS
 10
541561.8499000000301749
 20
1033222.8456940000178292
 30
0.0
 40
41.169928000000013
  1
P61
  0
TEXT
  5
1AC
  8
LABELS
 10
540765.9624520000070333
 20
1030872.5512340000132099
 30
0.0
 40
41.169928000000013
  1
P72
  0
TEXT
  5
1AE
  8
LABELS
 10
539512.0186919999541715
 20
1030963.2610809999750927
 30
0.0
 40
41.169928000000013
  1
P73
  0
TEXT
  5
1B0
  8
LABELS
 10
540285.0993479999015108
 20
1034739.2020669999765232
 30
0.0
 40
41.169928000000013
  1
P75
  0
TEXT
  5
1B2
  8
LABELS
 10
541158.9317489999812096
 20
1033034.764123999979347
 30
0.0
 40
41.169928000000013
  1
P39
  0
TEXT
  5
1B4
  8
LABELS
 10
541404.0227739999536425
 20
1033620.5896130000473931
 30
0.0
 40
41.169928000000013
  1
P44
  0
TEXT
  5
1B6
  8
LABELS
 10
542098.97074000001885
 20
1034490.4900589999742806
 30
0.0
 40
41.169928000000013
  1
P53
  0
TEXT
  5
1B8
  8
LABELS
 10
541987.1841830000048503
 20
1034336.71018399996683
 30
0.0
 40
41.169928000000013
  1
P55
  0
TEXT
  5
1BA
  8
LABELS
 10
541525.098208999959752
 20
1033358.4908030000515282
 30
0.0
 40
41.169928000000013
  1
P63
  0
TEXT
  5
1BC
  8
LABELS
 10
540936.2104569999501109
 20
1031343.6900619999505579
 30
0.0
 40
41.169928000000013
  1
P69
  0
TEXT
  5
1BE
  8
LABELS
 10
540977.5508660001214594
 20
1030698.8425199999473989
 30
0.0
 40
41.169928000000013
  1
P70
  0
TEXT
  5
1C0
  8
LABELS
 10
541160.4258639999898151
 20
1033292.2482580000068992
 30
0.0
 40
41.169928000000013
  1
P11
  0
TEXT
  5
1C2
  8
LABELS
 10
541153.3577819999773055
 20
1033289.8673900000285357
 30
0.0
 40
41.169928000000013
  1
P12
  0
TEXT
  5
1C4
  8
LABELS
 10
541696.6768109999829903
 20
1033805.4121899999445304
 30
0.0
 40
41.169928000000013
  1
P35
  0
TEXT
  5
1C6
  8
LABELS
 10
541038.4007680000504479
 20
1031668.9132870000321418
 30
0.0
 40
41.169928000000013
  1
P2
  0
TEXT
  5
1C8
  8
LABELS
 10
540329.7311030001146719
 20
1033157.2947289999574423
 30
0.0
 40
41.169928000000013
  1
PIND
  0
TEXT
  5
1CA
  8
LABELS
 10
542855.9339690000051633
 20
1036070.6659709999803454
 30
0.0
 40
41.169928000000013
  1
P78
  0
TEXT
  5
1CC
  8
LABELS
 10
539771.3336560000898317
 20
1034901.0717050000093877
 30
0.0
 40
41.169928000000013
  1
Piedraa
  0
TEXT
  5
1CE
  8
LABELS
 10
539771.3336560000898317
 20
1034901.0717050000093877
 30
0.0
 40
41.169928000000013
  1
Piedraa
  0
TEXT
  5
1D0
  8
LABELS
 10
538034.8752170000225306
 20
1032877.5090349999954924
 30
0.0
 40
41.169928000000013
  1
P91
  0
TEXT
  5
1D2
  8
LABELS
 10
540392.6131779999705032
 20
1024054.4682210000464693
 30
0.0
 40
41.169928000000013
  1
P165
  0
TEXT
  5
1D4
  8
LABELS
 10
537889.4749779999256134
 20
1041140.9096020000288263
 30
0.0
 40
41.169928000000013
  1
P193
  0
ENDSEC
  0
EOF
