  0
SECTION
  2
HEADER
  9
$ACADVER
  1
AC1021
  9
$ACADMAINTVER
 70
    50
  9
$DWGCODEPAGE
  3
ANSI_1252
  9
$LASTSAVEDBY
  1
Ricardo
  9
$INSBASE
 10
0.0
 20
0.0
 30
0.0
  9
$EXTMIN
 10
536305.8012708202
 20
1022956.268655464
 30
0.005
  9
$EXTMAX
 10
543141.5042329581
 20
1044612.70174646
 30
9.0
  9
$LIMMIN
 10
0.0
 20
0.0
  9
$LIMMAX
 10
420.0
 20
297.0
  9
$ORTHOMODE
 70
     0
  9
$REGENMODE
 70
     1
  9
$FILLMODE
 70
     1
  9
$QTEXTMODE
 70
     0
  9
$MIRRTEXT
 70
     0
  9
$LTSCALE
 40
1.0
  9
$ATTMODE
 70
     1
  9
$TEXTSIZE
 40
2.5
  9
$TRACEWID
 40
1.0
  9
$TEXTSTYLE
  7
STANDARD
  9
$CLAYER
  8
0
  9
$CELTYPE
  6
ByLayer
  9
$CECOLOR
 62
   256
  9
$CELTSCALE
 40
1.0
  9
$DISPSILH
 70
     0
  9
$DIMSCALE
 40
1.0
  9
$DIMASZ
 40
2.5
  9
$DIMEXO
 40
0.625
  9
$DIMDLI
 40
3.75
  9
$DIMRND
 40
0.0
  9
$DIMDLE
 40
0.0
  9
$DIMEXE
 40
1.25
  9
$DIMTP
 40
0.0
  9
$DIMTM
 40
0.0
  9
$DIMTXT
 40
2.5
  9
$DIMCEN
 40
2.5
  9
$DIMTSZ
 40
0.0
  9
$DIMTOL
 70
     0
  9
$DIMLIM
 70
     0
  9
$DIMTIH
 70
     0
  9
$DIMTOH
 70
     0
  9
$DIMSE1
 70
     0
  9
$DIMSE2
 70
     0
  9
$DIMTAD
 70
     1
  9
$DIMZIN
 70
     8
  9
$DIMBLK
  1

  9
$DIMASO
 70
     1
  9
$DIMSHO
 70
     1
  9
$DIMPOST
  1

  9
$DIMAPOST
  1

  9
$DIMALT
 70
     0
  9
$DIMALTD
 70
     3
  9
$DIMALTF
 40
0.03937007874016
  9
$DIMLFAC
 40
1.0
  9
$DIMTOFL
 70
     1
  9
$DIMTVP
 40
0.0
  9
$DIMTIX
 70
     0
  9
$DIMSOXD
 70
     0
  9
$DIMSAH
 70
     0
  9
$DIMBLK1
  1

  9
$DIMBLK2
  1

  9
$DIMSTYLE
  2
ISO-25
  9
$DIMCLRD
 70
     0
  9
$DIMCLRE
 70
     0
  9
$DIMCLRT
 70
     0
  9
$DIMTFAC
 40
1.0
  9
$DIMGAP
 40
0.625
  9
$DIMJUST
 70
     0
  9
$DIMSD1
 70
     0
  9
$DIMSD2
 70
     0
  9
$DIMTOLJ
 70
     1
  9
$DIMTZIN
 70
     0
  9
$DIMALTZ
 70
     0
  9
$DIMALTTZ
 70
     0
  9
$DIMUPT
 70
     0
  9
$DIMDEC
 70
     4
  9
$DIMTDEC
 70
     4
  9
$DIMALTU
 70
     2
  9
$DIMALTTD
 70
     2
  9
$DIMTXSTY
  7
STANDARD
  9
$DIMAUNIT
 70
     0
  9
$DIMADEC
 70
     0
  9
$DIMALTRND
 40
0.0
  9
$DIMAZIN
 70
     0
  9
$DIMDSEP
 70
    46
  9
$DIMATFIT
 70
     3
  9
$DIMFRAC
 70
     0
  9
$DIMLDRBLK
  1

  9
$DIMLUNIT
 70
     2
  9
$DIMLWD
 70
    -2
  9
$DIMLWE
 70
    -2
  9
$DIMTMOVE
 70
     0
  9
$DIMFXL
 40
1.0
  9
$DIMFXLON
 70
     0
  9
$DIMJOGANG
 40
0.7853981633974483
  9
$DIMTFILL
 70
     0
  9
$DIMTFILLCLR
 70
     0
  9
$DIMARCSYM
 70
     0
  9
$DIMLTYPE
  6

  9
$DIMLTEX1
  6

  9
$DIMLTEX2
  6

  9
$LUNITS
 70
     2
  9
$LUPREC
 70
     4
  9
$SKETCHINC
 40
1.0
  9
$FILLETRAD
 40
0.0
  9
$AUNITS
 70
     0
  9
$AUPREC
 70
     0
  9
$MENU
  1
.
  9
$ELEVATION
 40
0.0
  9
$PELEVATION
 40
0.0
  9
$THICKNESS
 40
0.0
  9
$LIMCHECK
 70
     0
  9
$CHAMFERA
 40
0.0
  9
$CHAMFERB
 40
0.0
  9
$CHAMFERC
 40
0.0
  9
$CHAMFERD
 40
0.0
  9
$SKPOLY
 70
     0
  9
$TDCREATE
 40
2456127.949767604
  9
$TDUCREATE
 40
2456128.199767604
  9
$TDUPDATE
 40
2456199.482659132
  9
$TDUUPDATE
 40
2456199.732659132
  9
$TDINDWG
 40
0.0008192593
  9
$TDUSRTIMER
 40
0.0008192014
  9
$USRTIMER
 70
     1
  9
$ANGBASE
 50
0.0
  9
$ANGDIR
 70
     0
  9
$PDMODE
 70
     0
  9
$PDSIZE
 40
0.0
  9
$PLINEWID
 40
0.0
  9
$SPLFRAME
 70
     0
  9
$SPLINETYPE
 70
     6
  9
$SPLINESEGS
 70
     8
  9
$HANDSEED
  5
18E4
  9
$SURFTAB1
 70
     6
  9
$SURFTAB2
 70
     6
  9
$SURFTYPE
 70
     6
  9
$SURFU
 70
     6
  9
$SURFV
 70
     6
  9
$UCSBASE
  2

  9
$UCSNAME
  2

  9
$UCSORG
 10
0.0
 20
0.0
 30
0.0
  9
$UCSXDIR
 10
1.0
 20
0.0
 30
0.0
  9
$UCSYDIR
 10
0.0
 20
1.0
 30
0.0
  9
$UCSORTHOREF
  2

  9
$UCSORTHOVIEW
 70
     0
  9
$UCSORGTOP
 10
0.0
 20
0.0
 30
0.0
  9
$UCSORGBOTTOM
 10
0.0
 20
0.0
 30
0.0
  9
$UCSORGLEFT
 10
0.0
 20
0.0
 30
0.0
  9
$UCSORGRIGHT
 10
0.0
 20
0.0
 30
0.0
  9
$UCSORGFRONT
 10
0.0
 20
0.0
 30
0.0
  9
$UCSORGBACK
 10
0.0
 20
0.0
 30
0.0
  9
$PUCSBASE
  2

  9
$PUCSNAME
  2

  9
$PUCSORG
 10
0.0
 20
0.0
 30
0.0
  9
$PUCSXDIR
 10
1.0
 20
0.0
 30
0.0
  9
$PUCSYDIR
 10
0.0
 20
1.0
 30
0.0
  9
$PUCSORTHOREF
  2

  9
$PUCSORTHOVIEW
 70
     0
  9
$PUCSORGTOP
 10
0.0
 20
0.0
 30
0.0
  9
$PUCSORGBOTTOM
 10
0.0
 20
0.0
 30
0.0
  9
$PUCSORGLEFT
 10
0.0
 20
0.0
 30
0.0
  9
$PUCSORGRIGHT
 10
0.0
 20
0.0
 30
0.0
  9
$PUCSORGFRONT
 10
0.0
 20
0.0
 30
0.0
  9
$PUCSORGBACK
 10
0.0
 20
0.0
 30
0.0
  9
$USERI1
 70
     0
  9
$USERI2
 70
     0
  9
$USERI3
 70
     0
  9
$USERI4
 70
     0
  9
$USERI5
 70
     0
  9
$USERR1
 40
0.0
  9
$USERR2
 40
0.0
  9
$USERR3
 40
0.0
  9
$USERR4
 40
0.0
  9
$USERR5
 40
0.0
  9
$WORLDVIEW
 70
     1
  9
$SHADEDGE
 70
     3
  9
$SHADEDIF
 70
    70
  9
$TILEMODE
 70
     1
  9
$MAXACTVP
 70
    64
  9
$PINSBASE
 10
0.0
 20
0.0
 30
0.0
  9
$PLIMCHECK
 70
     0
  9
$PEXTMIN
 10
1.000000000000000E+20
 20
1.000000000000000E+20
 30
1.000000000000000E+20
  9
$PEXTMAX
 10
-1.000000000000000E+20
 20
-1.000000000000000E+20
 30
-1.000000000000000E+20
  9
$PLIMMIN
 10
0.0
 20
0.0
  9
$PLIMMAX
 10
420.0
 20
297.0
  9
$UNITMODE
 70
     0
  9
$VISRETAIN
 70
     1
  9
$PLINEGEN
 70
     0
  9
$PSLTSCALE
 70
     1
  9
$TREEDEPTH
 70
  3020
  9
$CMLSTYLE
  2
Standard
  9
$CMLJUST
 70
     0
  9
$CMLSCALE
 40
1.0
  9
$PROXYGRAPHICS
 70
     1
  9
$MEASUREMENT
 70
     0
  9
$CELWEIGHT
370
    -1
  9
$ENDCAPS
280
     0
  9
$JOINSTYLE
280
     0
  9
$LWDISPLAY
290
     0
  9
$INSUNITS
 70
     0
  9
$HYPERLINKBASE
  1

  9
$STYLESHEET
  1

  9
$XEDIT
290
     1
  9
$CEPSNTYPE
380
     0
  9
$PSTYLEMODE
290
     1
  9
$FINGERPRINTGUID
  2
{D00630F3-20A6-4686-8058-2C46F732BE24}
  9
$VERSIONGUID
  2
{E86C029D-97E9-446E-8C9D-581660CB022F}
  9
$EXTNAMES
290
     1
  9
$PSVPSCALE
 40
0.0
  9
$OLESTARTUP
290
     0
  9
$SORTENTS
280
   127
  9
$INDEXCTL
280
     0
  9
$HIDETEXT
280
     0
  9
$XCLIPFRAME
290
     0
  9
$HALOGAP
280
     0
  9
$OBSCOLOR
 70
   257
  9
$OBSLTYPE
280
     0
  9
$INTERSECTIONDISPLAY
280
     0
  9
$INTERSECTIONCOLOR
 70
   257
  9
$DIMASSOC
280
     1
  9
$PROJECTNAME
  1

  9
$CAMERADISPLAY
290
     0
  9
$LENSLENGTH
 40
50.0
  9
$CAMERAHEIGHT
 40
0.0
  9
$STEPSPERSEC
 40
2.0
  9
$STEPSIZE
 40
6.0
  9
$3DDWFPREC
 40
2.0
  9
$PSOLWIDTH
 40
0.25
  9
$PSOLHEIGHT
 40
4.0
  9
$LOFTANG1
 40
1.570796326794896
  9
$LOFTANG2
 40
1.570796326794896
  9
$LOFTMAG1
 40
0.0
  9
$LOFTMAG2
 40
0.0
  9
$LOFTPARAM
 70
     7
  9
$LOFTNORMALS
280
     1
  9
$LATITUDE
 40
37.795
  9
$LONGITUDE
 40
-122.394
  9
$NORTHDIRECTION
 40
0.0
  9
$TIMEZONE
 70
 -8000
  9
$LIGHTGLYPHDISPLAY
280
     1
  9
$TILEMODELIGHTSYNCH
280
     1
  9
$CMATERIAL
347
181A
  9
$SOLIDHIST
280
     0
  9
$SHOWHIST
280
     1
  9
$DWFFRAME
280
     2
  9
$DGNFRAME
280
     0
  9
$REALWORLDSCALE
290
     1
  9
$INTERFERECOLOR
 62
     1
  9
$INTERFEREOBJVS
345
183C
  9
$INTERFEREVPVS
346
1839
  9
$CSHADOW
280
     0
  9
$SHADOWPLANELOCATION
 40
0.0
  0
ENDSEC
  0
SECTION
  2
CLASSES
  0
CLASS
  1
ACDBDICTIONARYWDFLT
  2
AcDbDictionaryWithDefault
  3
ObjectDBX Classes
 90
        0
 91
        1
280
     0
281
     0
  0
CLASS
  1
MATERIAL
  2
AcDbMaterial
  3
ObjectDBX Classes
 90
     1153
 91
        3
280
     0
281
     0
  0
CLASS
  1
VISUALSTYLE
  2
AcDbVisualStyle
  3
ObjectDBX Classes
 90
     4095
 91
       24
280
     0
281
     0
  0
CLASS
  1
SCALE
  2
AcDbScale
  3
ObjectDBX Classes
 90
     1153
 91
       17
280
     0
281
     0
  0
CLASS
  1
TABLESTYLE
  2
AcDbTableStyle
  3
ObjectDBX Classes
 90
     4095
 91
        2
280
     0
281
     0
  0
CLASS
  1
MLEADERSTYLE
  2
AcDbMLeaderStyle
  3
ACDB_MLEADERSTYLE_CLASS
 90
     4095
 91
        1
280
     0
281
     0
  0
CLASS
  1
DMMAPMANAGER
  2
AcMapDMMapManager
  3
AcMapDisplayManagement
 90
     1024
 91
        1
280
     0
281
     0
  0
CLASS
  1
DMSTYLELIBRARY
  2
AcMapDMStyleLibrary
  3
AcMapDisplayManagement
 90
     1024
 91
        1
280
     0
281
     0
  0
CLASS
  1
DMSTYLECATEGORY
  2
AcMapDMStyleCategory
  3
AcMapDisplayManagement
 90
     1024
 91
        1
280
     0
281
     0
  0
CLASS
  1
DATATABLE
  2
AcDbDataTable
  3
ObjectDBX Classes
 90
        0
 91
        1
280
     0
281
     0
  0
CLASS
  1
MAPGWSUNDOOBJECT
  2
AcMapGWSUndoRecorder
  3
AcMapFeatureSourceManager
 90
     1025
 91
        1
280
     0
281
     0
  0
CLASS
  1
DMMAP
  2
AcMapDMMap
  3
AcMapDisplayManagement
 90
     1024
 91
        1
280
     0
281
     0
  0
CLASS
  1
DMBASEELEMENT
  2
AcMapDMBaseElement
  3
AcMapDisplayManagement
 90
     1024
 91
        1
280
     0
281
     0
  0
CLASS
  1
DMDEFAULTSTYLE
  2
AcMapDMDefaultStyle
  3
AcMapDisplayManagement
 90
     1024
 91
        1
280
     0
281
     0
  0
CLASS
  1
DMSTYLEREFERENCE
  2
AcMapDMStyleReference
  3
AcMapDisplayManagement
 90
     1024
 91
        1
280
     0
281
     0
  0
CLASS
  1
DMSURROGATESTYLESETS
  2
AcMapDMSurrogateStyleSets
  3
AcMapDisplayManagement
 90
     1153
 91
        1
280
     0
281
     0
  0
CLASS
  1
SORTENTSTABLE
  2
AcDbSortentsTable
  3
ObjectDBX Classes
 90
        0
 91
        1
280
     0
281
     0
  0
CLASS
  1
DMSTYLIZEDENTITIESTABLE
  2
AcMapDMStylizedEntitiesTable
  3
AcMapDisplayManagement
 90
     1024
 91
        1
280
     0
281
     0
  0
CLASS
  1
MAPRESOURCEMANAGEROBJECT
  2
AcMapResourceManager
  3
AcMapSharedComponents
 90
     1024
 91
        1
280
     0
281
     0
  0
CLASS
  1
DICTIONARYVAR
  2
AcDbDictionaryVar
  3
ObjectDBX Classes
 90
        0
 91
        8
280
     0
281
     0
  0
CLASS
  1
CELLSTYLEMAP
  2
AcDbCellStyleMap
  3
ObjectDBX Classes
 90
     1152
 91
        2
280
     0
281
     0
  0
ENDSEC
  0
SECTION
  2
TABLES
  0
TABLE
  2
VPORT
  5
1811
330
0
100
AcDbSymbolTable
 70
     1
  0
VPORT
  5
1878
330
1811
100
AcDbSymbolTableRecord
100
AcDbViewportTableRecord
  2
*ACTIVE
 70
     0
 10
0.0
 20
0.0
 11
1.0
 21
1.0
 12
543816.1990269691
 22
1033185.543429623
 13
0.0
 23
0.0
 14
10.0
 24
10.0
 15
10.0
 25
10.0
 16
0.0
 26
0.0
 36
1.0
 17
0.0
 27
0.0
 37
0.0
 40
31410.28493800886
 41
2.62531017369727
 42
50.0
 43
0.0
 44
0.0
 50
0.0
 51
0.0
 71
     0
 72
  1000
 73
     1
 74
     3
 75
     0
 76
     0
 77
     0
 78
     0
281
     0
 65
     1
110
0.0
120
0.0
130
0.0
111
1.0
121
0.0
131
0.0
112
0.0
122
1.0
132
0.0
 79
     0
146
0.0
348
1838
 60
     3
 61
     5
292
     1
282
     0
141
0.0
142
0.0
 63
   250
421
  3355443
1001
ACAD_NAV_VCDISPLAY
1070
     3
  0
ENDTAB
  0
TABLE
  2
LTYPE
  5
180E
330
0
100
AcDbSymbolTable
 70
     1
  0
LTYPE
  5
1863
330
180E
100
AcDbSymbolTableRecord
100
AcDbLinetypeTableRecord
  2
ByBlock
 70
     0
  3

 72
    65
 73
     0
 40
0.0
  0
LTYPE
  5
1864
330
180E
100
AcDbSymbolTableRecord
100
AcDbLinetypeTableRecord
  2
ByLayer
 70
     0
  3

 72
    65
 73
     0
 40
0.0
  0
LTYPE
  5
1865
330
180E
100
AcDbSymbolTableRecord
100
AcDbLinetypeTableRecord
  2
CONTINUOUS
 70
     0
  3
Solid line
 72
    65
 73
     0
 40
0.0
  0
ENDTAB
  0
TABLE
  2
LAYER
  5
180B
330
0
100
AcDbSymbolTable
 70
     2
  0
LAYER
  5
185D
102
{ACAD_XDICTIONARY
360
189C
102
}
330
180B
100
AcDbSymbolTableRecord
100
AcDbLayerTableRecord
  2
0
 70
     0
 62
     7
  6
CONTINUOUS
370
    -3
390
1818
347
182A
  0
LAYER
  5
1879
102
{ACAD_XDICTIONARY
360
189E
102
}
330
180B
100
AcDbSymbolTableRecord
100
AcDbLayerTableRecord
  2
lotes chiriquí
 70
     0
 62
     1
  6
CONTINUOUS
370
    -3
390
1818
347
182A
  0
ENDTAB
  0
TABLE
  2
STYLE
  5
180C
330
0
100
AcDbSymbolTable
 70
     3
  0
STYLE
  5
185E
330
180C
100
AcDbSymbolTableRecord
100
AcDbTextStyleTableRecord
  2
STANDARD
 70
     0
 40
0.0
 41
1.0
 50
0.0
 71
     0
 42
2.5
  3
txt
  4

  0
STYLE
  5
1862
330
180C
100
AcDbSymbolTableRecord
100
AcDbTextStyleTableRecord
  2
Annotative
 70
     0
 40
0.0
 41
1.0
 50
0.0
 71
     0
 42
0.2
  3
txt
  4

1001
AcadAnnotative
1000
AnnotativeData
1002
{
1070
     1
1070
     1
1002
}
  0
STYLE
  5
188D
330
180C
100
AcDbSymbolTableRecord
100
AcDbTextStyleTableRecord
  2
Legend
 70
     0
 40
0.0
 41
1.0
 50
0.0
 71
     0
 42
2.5
  3
CALIBRI.TTF
  4

1001
ACAD
1000
Calibri
1071
      256
  0
ENDTAB
  0
TABLE
  2
VIEW
  5
180F
330
0
100
AcDbSymbolTable
 70
     0
  0
ENDTAB
  0
TABLE
  2
UCS
  5
1810
330
0
100
AcDbSymbolTable
 70
     0
  0
ENDTAB
  0
TABLE
  2
APPID
  5
1812
330
0
100
AcDbSymbolTable
 70
     9
  0
APPID
  5
185F
330
1812
100
AcDbSymbolTableRecord
100
AcDbRegAppTableRecord
  2
ACAD
 70
     0
  0
APPID
  5
1866
330
1812
100
AcDbSymbolTableRecord
100
AcDbRegAppTableRecord
  2
AcadAnnotative
 70
     0
  0
APPID
  5
187A
330
1812
100
AcDbSymbolTableRecord
100
AcDbRegAppTableRecord
  2
DCO15
 70
     0
  0
APPID
  5
187B
330
1812
100
AcDbSymbolTableRecord
100
AcDbRegAppTableRecord
  2
ADE
 70
     0
  0
APPID
  5
187C
330
1812
100
AcDbSymbolTableRecord
100
AcDbRegAppTableRecord
  2
ADE_ENTITY_LOCK
 70
     0
  0
APPID
  5
1891
330
1812
100
AcDbSymbolTableRecord
100
AcDbRegAppTableRecord
  2
AcMapDMDisplayStyleRegapp
 70
     0
  0
APPID
  5
18A3
330
1812
100
AcDbSymbolTableRecord
100
AcDbRegAppTableRecord
  2
MapGWS
 70
     0
  0
APPID
  5
18AD
330
1812
100
AcDbSymbolTableRecord
100
AcDbRegAppTableRecord
  2
ACAD_NAV_VCDISPLAY
 70
     0
  0
APPID
  5
18E3
330
1812
100
AcDbSymbolTableRecord
100
AcDbRegAppTableRecord
  2
ACAD_MLEADERVER
 70
     0
  0
ENDTAB
  0
TABLE
  2
DIMSTYLE
  5
1813
330
0
100
AcDbSymbolTable
 70
     3
100
AcDbDimStyleTable
 71
     0
  0
DIMSTYLE
105
1860
330
1813
100
AcDbSymbolTableRecord
100
AcDbDimStyleTableRecord
  2
Standard
 70
     0
340
185E
  0
DIMSTYLE
105
1861
330
1813
100
AcDbSymbolTableRecord
100
AcDbDimStyleTableRecord
  2
Annotative
 70
     0
340
185E
1001
AcadAnnotative
1000
AnnotativeData
1002
{
1070
     1
1070
     1
1002
}
  0
DIMSTYLE
105
187D
330
1813
100
AcDbSymbolTableRecord
100
AcDbDimStyleTableRecord
  2
ISO-25
 70
     0
 41
2.5
 42
0.625
 43
3.75
 44
1.25
 73
     0
 74
     0
 77
     1
 78
     8
140
2.5
141
2.5
143
0.03937007874016
147
0.625
171
     3
172
     1
274
     3
279
     2
284
     8
285
     8
286
     8
340
185E
  0
ENDTAB
  0
TABLE
  2
BLOCK_RECORD
  5
180A
330
0
100
AcDbSymbolTable
 70
     2
  0
BLOCK_RECORD
  5
1874
102
{ACAD_XDICTIONARY
360
1895
102
}
330
180A
100
AcDbSymbolTableRecord
100
AcDbBlockTableRecord
  2
*Model_Space
340
1877
 70
     0
280
     1
281
     0
  0
BLOCK_RECORD
  5
1870
330
180A
100
AcDbSymbolTableRecord
100
AcDbBlockTableRecord
  2
*Paper_Space
340
1873
 70
     0
280
     1
281
     0
  0
BLOCK_RECORD
  5
187F
330
180A
100
AcDbSymbolTableRecord
100
AcDbBlockTableRecord
  2
$MODEL_SPACE
340
0
 70
     0
280
     1
281
     0
  0
BLOCK_RECORD
  5
1881
330
180A
100
AcDbSymbolTableRecord
100
AcDbBlockTableRecord
  2
$PAPER_SPACE
340
0
 70
     0
280
     1
281
     0
  0
ENDTAB
  0
ENDSEC
  0
SECTION
  2
BLOCKS
  0
BLOCK
  5
1875
330
1874
100
AcDbEntity
  8
0
100
AcDbBlockBegin
  2
*Model_Space
 70
     0
 10
0.0
 20
0.0
 30
0.0
  3
*Model_Space
  1

  0
ENDBLK
  5
1876
330
1874
100
AcDbEntity
  8
0
100
AcDbBlockEnd
  0
BLOCK
  5
1871
330
1870
100
AcDbEntity
 67
     1
  8
0
100
AcDbBlockBegin
  2
*Paper_Space
 70
     0
 10
0.0
 20
0.0
 30
0.0
  3
*Paper_Space
  1

  0
ENDBLK
  5
1872
330
1870
100
AcDbEntity
 67
     1
  8
0
100
AcDbBlockEnd
  0
BLOCK
  5
1880
330
187F
100
AcDbEntity
  8
0
100
AcDbBlockBegin
  2
$MODEL_SPACE
 70
     0
 10
0.0
 20
0.0
 30
0.0
  3
$MODEL_SPACE
  1

  0
ENDBLK
  5
23
330
187F
100
AcDbEntity
  8
0
100
AcDbBlockEnd
  0
BLOCK
  5
1882
330
1881
100
AcDbEntity
  8
0
100
AcDbBlockBegin
  2
$PAPER_SPACE
 70
     0
 10
0.0
 20
0.0
 30
0.0
  3
$PAPER_SPACE
  1

  0
ENDBLK
  5
1F
330
1881
100
AcDbEntity
  8
0
100
AcDbBlockEnd
  0
ENDSEC
  0
SECTION
  2
ENTITIES
  0
LWPOLYLINE
  5
227
330
1874
100
AcDbEntity
  8
lotes chiriquí
100
AcDbPolyline
 90
        4
 70
     1
 43
0.0
 38
1.288
 10
540379.2095542493
 20
1033370.79713729
 10
540427.5550525871
 20
1033370.79713729
 10
540427.5550525871
 20
1033320.302950138
 10
540379.2095542493
 20
1033320.302950138
1001
DCO15
1071
        3
1071
        3
1000
datoslink
1004
0000000000004240
  0
LWPOLYLINE
  5
228
330
1874
100
AcDbEntity
  8
lotes chiriquí
100
AcDbPolyline
 90
        4
 70
     1
 43
0.0
 38
1.231999999999999
 10
539868.0006736789
 20
1032621.97908526
 10
539916.704286819
 20
1032621.97908526
 10
539916.704286819
 20
1032571.84301291
 10
539866.5682144688
 20
1032571.84301291
1001
DCO15
1071
        3
1071
        3
1000
datoslink
1004
0000000000003F40
  0
LWPOLYLINE
  5
229
330
1874
100
AcDbEntity
  8
lotes chiriquí
100
AcDbPolyline
 90
        4
 70
     1
 43
0.0
 38
1.147999999999999
 10
540985.6933806096
 20
1031180.236135869
 10
540985.6933806096
 20
1031230.899301555
 10
541036.3565462954
 20
1031230.899301555
 10
541036.3565462954
 20
1031180.236135869
1001
DCO15
1071
        3
1071
        3
1000
datoslink
1004
0000000000003040
  0
LWPOLYLINE
  5
22A
330
1874
100
AcDbEntity
  8
lotes chiriquí
100
AcDbPolyline
 90
        4
 70
     1
 43
0.0
 38
1.708
 10
540972.6190152712
 20
1031355.105772268
 10
541023.2821809569
 20
1031355.105772268
 10
541023.2821809569
 20
1031304.442606582
 10
540972.6190152712
 20
1031304.442606582
1001
DCO15
1071
        3
1071
        3
1000
datoslink
1004
0000000000002240
  0
LWPOLYLINE
  5
22B
330
1874
100
AcDbEntity
  8
lotes chiriquí
100
AcDbPolyline
 90
        4
 70
     1
 43
0.0
 38
1.175999999999999
 10
540817.0209774514
 20
1031390.47891207
 10
540857.970414675
 20
1031369.010275081
 10
540825.7674591887
 20
1031322.892462289
 10
540785.6131566698
 20
1031344.361099275
1001
DCO15
1071
        3
1071
        3
1000
datoslink
1004
0000000000002C40
  0
LWPOLYLINE
  5
22C
330
1874
100
AcDbEntity
  8
lotes chiriquí
100
AcDbPolyline
 90
        4
 70
     1
 43
0.0
 38
1.147999999999999
 10
540906.4796738544
 20
1032009.007374627
 10
540956.3343230516
 20
1032009.007374627
 10
540956.3343230516
 20
1031957.840760977
 10
540906.4796738544
 20
1031959.15272543
1001
DCO15
1071
        3
1071
        3
1000
datoslink
1004
0000000000001440
  0
LWPOLYLINE
  5
22D
330
1874
100
AcDbEntity
  8
lotes chiriquí
100
AcDbPolyline
 90
        6
 70
     1
 43
0.0
 38
9.0
 10
540923.8513816569
 20
1032272.217127008
 10
540979.7659391454
 20
1032272.217127008
 10
540973.2258507032
 20
1032235.621048217
 10
540952.2200253989
 20
1032233.287067627
 10
540936.3489573924
 20
1032233.287067627
 10
540917.9105107356
 20
1032240.289009396
1001
DCO15
1071
        3
1071
        3
1000
datoslink
1004
0000000000000040
  0
LWPOLYLINE
  5
22E
330
1874
100
AcDbEntity
  8
lotes chiriquí
100
AcDbPolyline
 90
        4
 70
     1
 43
0.0
 38
5.2
 10
540984.6295112783
 20
1032355.01614983
 10
540984.6295112783
 20
1032308.034687327
 10
540931.6926521173
 20
1032308.034687327
 10
540932.0036765357
 20
1032355.020761704
1001
DCO15
1071
        3
1071
        3
1000
datoslink
1004
000000000000F03F
  0
LWPOLYLINE
  5
22F
330
1874
100
AcDbEntity
  8
lotes chiriquí
100
AcDbPolyline
 90
        4
 70
     1
 43
0.0
 38
1.175999999999999
 10
540983.3891121931
 20
1032413.784224657
 10
540952.3382661371
 20
1032446.599323332
 10
540988.6818700442
 20
1032474.47451468
 10
541020.4384171469
 20
1032442.012266528
1001
DCO15
1071
        3
1071
        3
1000
datoslink
1004
0000000000000840
  0
LWPOLYLINE
  5
230
330
1874
100
AcDbEntity
  8
lotes chiriquí
100
AcDbPolyline
 90
        4
 70
     1
 43
0.0
 38
1.197777777777776
 10
540940.4962011678
 20
1031118.792798763
 10
540991.2184639025
 20
1031118.792798763
 10
540991.2184639025
 20
1031068.070536028
 10
540940.4962011678
 20
1031068.070536028
1001
DCO15
1071
        3
1071
        3
1000
datoslink
1004
0000000000002640
  0
LWPOLYLINE
  5
231
330
1874
100
AcDbEntity
  8
lotes chiriquí
100
AcDbPolyline
 90
        5
 70
     1
 43
0.0
 38
0.0904761904761905
 10
540825.8793478907
 20
1032524.715529336
 10
540883.6466954499
 20
1032524.715529336
 10
540882.0585896745
 20
1032495.732598943
 10
540875.5076533538
 20
1032483.42477919
 10
540831.6362313228
 20
1032488.189096514
1001
DCO15
1071
        3
1071
        3
1000
datoslink
1004
0000000000FC9340
  0
LWPOLYLINE
  5
232
330
1874
100
AcDbEntity
  8
lotes chiriquí
100
AcDbPolyline
 90
        5
 70
     1
 43
0.0
 38
0.1
 10
539262.3272885224
 20
1029442.129485471
 10
539282.8399851696
 20
1029419.631689146
 10
539305.9994813874
 20
1029389.85519401
 10
539262.3272885224
 20
1029371.327597035
 10
539224.6103946829
 20
1029414.999789903
1001
DCO15
1071
        3
1071
        3
1000
datoslink
1004
0000000000E89340
1001
ADE_ENTITY_LOCK
1071
1342624882
1071
1342625087
  0
LWPOLYLINE
  5
233
330
1874
100
AcDbEntity
  8
lotes chiriquí
100
AcDbPolyline
 90
        4
 70
     1
 43
0.0
 38
0.28125
 10
541572.7186311038
 20
1033508.407661214
 10
541606.862345525
 20
1033482.998385366
 10
541572.3216111669
 20
1033463.941428482
 10
541546.9123353176
 20
1033485.380504977
1001
DCO15
1071
        3
1071
        3
1000
datoslink
1004
0000000000D49340
  0
LWPOLYLINE
  5
234
330
1874
100
AcDbEntity
  8
lotes chiriquí
100
AcDbPolyline
 90
        4
 70
     1
 43
0.0
 38
0.15625
 10
541567.227942829
 20
1033505.883458808
 10
541521.5706502898
 20
1033542.276952861
 10
541553.3322451003
 20
1033576.023647349
 10
541600.3129374236
 20
1033540.291853185
1001
DCO15
1071
        3
1071
        3
1000
datoslink
1004
0000000000C89340
  0
LWPOLYLINE
  5
235
330
1874
100
AcDbEntity
  8
lotes chiriquí
100
AcDbPolyline
 90
        4
 70
     1
 43
0.0
 38
1.147999999999999
 10
541411.7284682309
 20
1033490.002661401
 10
541455.400661096
 20
1033554.849250806
 10
541504.3664530954
 20
1033519.779156539
 10
541454.738961204
 20
1033452.947467454
1001
DCO15
1071
        3
1071
        3
1000
datoslink
1004
0000000000C49340
  0
LWPOLYLINE
  5
236
330
1874
100
AcDbEntity
  8
lotes chiriquí
100
AcDbPolyline
 90
        4
 70
     1
 43
0.0
 38
1.147999999999999
 10
541411.0667683389
 20
1033487.355861833
 10
541452.7538615279
 20
1033450.962367777
 10
541421.6539666094
 20
1033404.643375344
 10
541374.6732742833
 20
1033452.947467454
1001
DCO15
1071
        3
1071
        3
1000
datoslink
1004
0000000000C09340
  0
LWPOLYLINE
  5
237
330
1874
100
AcDbEntity
  8
lotes chiriquí
100
AcDbPolyline
 90
        4
 70
     1
 43
0.0
 38
0.125
 10
539676.8051562021
 20
1028334.726056244
 10
539727.7300946453
 20
1028315.546533972
 10
539727.7300946453
 20
1028213.696657084
 10
539676.8051562021
 20
1028245.442073259
1001
DCO15
1071
        3
1071
        3
1000
datoslink
1004
0000000000B09340
  0
LWPOLYLINE
  5
238
330
1874
100
AcDbEntity
  8
lotes chiriquí
100
AcDbPolyline
 90
        4
 70
     1
 43
0.0
 38
0.06875
 10
539625.2188549211
 20
1028310.255631275
 10
539625.2188549228
 20
1028373.746463623
 10
539675.482430527
 20
1028359.857844045
 10
539675.482430527
 20
1028278.510215105
1001
DCO15
1071
        3
1071
        3
1000
datoslink
1004
0000000000AC9340
  0
LWPOLYLINE
  5
239
330
1874
100
AcDbEntity
  8
lotes chiriquí
100
AcDbPolyline
 90
        4
 70
     1
 43
0.0
 38
0.0727272727272727
 10
540954.9492052298
 20
1029433.737667526
 10
540954.9492052298
 20
1029483.974980671
 10
541029.3748543341
 20
1029483.974980671
 10
541029.3748543341
 20
1029433.737667526
1001
DCO15
1071
        3
1071
        3
1000
datoslink
1004
0000000000207240
  0
LWPOLYLINE
  5
23A
330
1874
100
AcDbEntity
  8
lotes chiriquí
100
AcDbPolyline
 90
        4
 70
     1
 43
0.0
 38
0.2142857142857143
 10
541033.0961367893
 20
1029470.950492078
 10
541033.0961367893
 20
1029519.327163996
 10
541083.3334499346
 20
1029519.327163996
 10
541083.3334499346
 20
1029470.950492078
1001
DCO15
1071
        3
1071
        3
1000
datoslink
1004
0000000000107240
  0
LWPOLYLINE
  5
23B
330
1874
100
AcDbEntity
  8
lotes chiriquí
100
AcDbPolyline
 90
        4
 70
     1
 43
0.0
 38
1.206349206349206
 10
540995.612015453
 20
1029932.928909738
 10
541035.9292003266
 20
1029932.928909738
 10
541044.7256770262
 20
1029887.48044679
 10
540995.612015453
 20
1029887.48044679
1001
DCO15
1071
        3
1071
        3
1000
datoslink
1004
0000000000D07140
1001
ADE_ENTITY_LOCK
1071
1342624882
1071
1342625087
  0
LWPOLYLINE
  5
23C
330
1874
100
AcDbEntity
  8
lotes chiriquí
100
AcDbPolyline
 90
        4
 70
     1
 43
0.0
 38
0.3055555555555556
 10
541053.545859372
 20
1029596.029110352
 10
541053.545859372
 20
1029646.622095825
 10
541104.1388448452
 20
1029646.622095825
 10
541104.1388448452
 20
1029596.029110352
1001
DCO15
1071
        3
1071
        3
1000
datoslink
1004
0000000000E07140
  0
LWPOLYLINE
  5
23D
330
1874
100
AcDbEntity
  8
lotes chiriquí
100
AcDbPolyline
 90
        4
 70
     1
 43
0.0
 38
0.3
 10
540929.6297065463
 20
1029716.27910481
 10
540929.6297065463
 20
1029766.872090283
 10
540979.4894603461
 20
1029766.872090283
 10
540979.4894603461
 20
1029716.27910481
1001
DCO15
1071
        3
1071
        3
1000
datoslink
1004
0000000000C07140
  0
LWPOLYLINE
  5
23E
330
1874
100
AcDbEntity
  8
lotes chiriquí
100
AcDbPolyline
 90
        4
 70
     1
 43
0.0
 38
0.4380952380952383
 10
540947.2313936049
 20
1029884.54828789
 10
540999.2772140778
 20
1029884.54828789
 10
540999.2772140778
 20
1029842.765023567
 10
540961.8921881046
 20
1029842.765023567
1001
DCO15
1071
        3
1071
        3
1000
datoslink
1004
0000000000B07140
1001
ADE_ENTITY_LOCK
1071
1342624882
1071
1342625087
  0
LWPOLYLINE
  5
23F
330
1874
100
AcDbEntity
  8
lotes chiriquí
100
AcDbPolyline
 90
        4
 70
     1
 43
0.0
 38
4.083333333333333
 10
540936.2357977303
 20
1029933.661949463
 10
540994.145936003
 20
1029933.661949463
 10
540994.145936003
 20
1029887.48044679
 10
540944.2992347051
 20
1029887.48044679
1001
DCO15
1071
        3
1071
        3
1000
datoslink
1004
0000000000A07140
  0
LWPOLYLINE
  5
240
330
1874
100
AcDbEntity
  8
lotes chiriquí
100
AcDbPolyline
 90
        4
 70
     1
 43
0.0
 38
0.2777777777777778
 10
540761.7385430842
 20
1029844.947770817
 10
540761.7385430842
 20
1029890.514534124
 10
540811.8619827224
 20
1029890.514534124
 10
540811.8619827224
 20
1029844.947770817
1001
DCO15
1071
        3
1071
        3
1000
datoslink
1004
0000000000907140
  0
LWPOLYLINE
  5
241
330
1874
100
AcDbEntity
  8
lotes chiriquí
100
AcDbPolyline
 90
        4
 70
     1
 43
0.0
 38
0.2272727272727272
 10
540890.0849264001
 20
1029960.383571195
 10
540969.0673161328
 20
1029960.383571195
 10
540969.0673161328
 20
1029935.321851376
 10
540893.1227106206
 20
1029935.321851376
1001
DCO15
1071
        3
1071
        3
1000
datoslink
1004
0000000000C07040
1001
ADE_ENTITY_LOCK
1071
1342624882
1071
1342625087
  0
LWPOLYLINE
  5
242
330
1874
100
AcDbEntity
  8
lotes chiriquí
100
AcDbPolyline
 90
        4
 70
     1
 43
0.0
 38
0.0714285714285714
 10
540940.8834291983
 20
1030015.612175982
 10
540897.3418553713
 20
1030015.612175982
 10
540901.3922343319
 20
1030067.25450773
 10
540940.8834291983
 20
1030067.25450773
1001
DCO15
1071
        3
1071
        3
1000
datoslink
1004
0000000000707140
1001
ADE_ENTITY_LOCK
1071
1342624882
1071
1342625087
  0
LWPOLYLINE
  5
243
330
1874
100
AcDbEntity
  8
lotes chiriquí
100
AcDbPolyline
 90
        4
 70
     1
 43
0.0
 38
3.722222222222221
 10
540968.2234871829
 20
1030013.586986502
 10
540968.2234871829
 20
1029961.944654753
 10
540891.2662869303
 20
1029961.944654753
 10
540897.3418553713
 20
1030013.586986502
1001
DCO15
1071
        3
1071
        3
1000
datoslink
1004
0000000000607140
1001
ADE_ENTITY_LOCK
1071
1342624882
1071
1342625087
  0
LWPOLYLINE
  5
244
330
1874
100
AcDbEntity
  8
lotes chiriquí
100
AcDbPolyline
 90
        4
 70
     1
 43
0.0
 38
0.6507936507936508
 10
540970.5862082429
 20
1030013.418220712
 10
541000.9640504478
 20
1030013.418220712
 10
541019.8658189312
 20
1029935.617191509
 10
540970.2486766629
 20
1029935.617191509
1001
DCO15
1071
        3
1071
        3
1000
datoslink
1004
0000000000407140
  0
LWPOLYLINE
  5
245
330
1874
100
AcDbEntity
  8
lotes chiriquí
100
AcDbPolyline
 90
        4
 70
     1
 43
0.0
 38
0.4012345679012346
 10
540942.9086186786
 20
1030067.25450773
 10
540992.5257609465
 20
1030067.25450773
 10
540998.6013293878
 20
1030015.612175982
 10
540942.9086186786
 20
1030015.612175982
1001
DCO15
1071
        3
1071
        3
1000
datoslink
1004
0000000000307140
1001
ADE_ENTITY_LOCK
1071
1342624882
1071
1342625087
  0
LWPOLYLINE
  5
246
330
1874
100
AcDbEntity
  8
lotes chiriquí
100
AcDbPolyline
 90
        4
 70
     1
 43
0.0
 38
0.075
 10
540710.0118284411
 20
1030097.632349935
 10
540710.0118284411
 20
1030149.274681683
 10
540778.8682707721
 20
1030149.274681683
 10
540778.8682707721
 20
1030098.644944675
1001
DCO15
1071
        3
1071
        3
1000
datoslink
1004
0000000000207140
  0
LWPOLYLINE
  5
247
330
1874
100
AcDbEntity
  8
lotes chiriquí
100
AcDbPolyline
 90
        4
 70
     1
 43
0.0
 38
0.2916666666666667
 10
540943.9212134188
 20
1030326.478761212
 10
540943.9212134188
 20
1030361.919577118
 10
540979.3620293244
 20
1030361.919577118
 10
540979.3620293244
 20
1030326.478761212
1001
DCO15
1071
        3
1071
        3
1000
datoslink
1004
0000000000007140
  0
LWPOLYLINE
  5
248
330
1874
100
AcDbEntity
  8
lotes chiriquí
100
AcDbPolyline
 90
        5
 70
     1
 43
0.0
 38
0.0416666666666667
 10
540806.2083287561
 20
1030311.28984011
 10
540831.5231972604
 20
1030338.629898094
 10
540861.9010394652
 20
1030319.390598031
 10
540861.9010394652
 20
1030268.760861023
 10
540811.2713024571
 20
1030268.760861023
1001
DCO15
1071
        3
1071
        3
1000
datoslink
1004
0000000000F07040
  0
LWPOLYLINE
  5
249
330
1874
100
AcDbEntity
  8
lotes chiriquí
100
AcDbPolyline
 90
        4
 70
     1
 43
0.0
 38
0.08
 10
538403.134917259
 20
1033156.691979572
 10
538403.134917259
 20
1033181.043071463
 10
538455.0133304176
 20
1033181.043071463
 10
538455.0133304176
 20
1033156.691979572
1001
DCO15
1071
        3
1071
        3
1000
datoslink
1004
0000000000607040
1001
ADE_ENTITY_LOCK
1071
1342624882
1071
1342625087
  0
LWPOLYLINE
  5
24A
330
1874
100
AcDbEntity
  8
lotes chiriquí
100
AcDbPolyline
 90
        4
 70
     1
 43
0.0
 38
0.1
 10
538377.7250822426
 20
1033204.335420228
 10
538377.7250822426
 20
1033233.980227747
 10
538428.5447522753
 20
1033233.980227747
 10
538428.5447522753
 20
1033204.335420228
1001
DCO15
1071
        3
1071
        3
1000
datoslink
1004
0000000000507040
  0
LWPOLYLINE
  5
24B
330
1874
100
AcDbEntity
  8
lotes chiriquí
100
AcDbPolyline
 90
        4
 70
     1
 43
0.0
 38
0.04
 10
538435.903670544
 20
1031981.911914402
 10
538435.903670544
 20
1032032.731584435
 10
538486.7233405769
 20
1032032.731584435
 10
538486.7233405769
 20
1031981.911914402
1001
DCO15
1071
        3
1071
        3
1000
datoslink
1004
0000000000007040
1001
ADE_ENTITY_LOCK
1071
1342624882
1071
1342625087
  0
LWPOLYLINE
  5
24C
330
1874
100
AcDbEntity
  8
lotes chiriquí
100
AcDbPolyline
 90
        4
 70
     1
 43
0.0
 38
0.37
 10
539196.0812347861
 20
1030768.592292367
 10
539196.0812347861
 20
1030819.4119624
 10
539246.9009048189
 20
1030819.4119624
 10
539246.9009048189
 20
1030768.592292367
1001
DCO15
1071
        3
1071
        3
1000
datoslink
1004
0000000000606F40
  0
LWPOLYLINE
  5
24D
330
1874
100
AcDbEntity
  8
lotes chiriquí
100
AcDbPolyline
 90
        4
 70
     1
 43
0.0
 38
0.03125
 10
539042.5634815616
 20
1031044.924248171
 10
539042.5634815616
 20
1031086.215230073
 10
539087.0306928404
 20
1031086.215230073
 10
539087.0306928404
 20
1031044.924248171
1001
DCO15
1071
        3
1071
        3
1000
datoslink
1004
0000000000206F40
  0
LWPOLYLINE
  5
24E
330
1874
100
AcDbEntity
  8
lotes chiriquí
100
AcDbPolyline
 90
        4
 70
     1
 43
0.0
 38
0.125
 10
539027.7410778019
 20
1030990.928348761
 10
539027.7410778019
 20
1031041.748018794
 10
539078.560747835
 20
1031041.748018794
 10
539078.560747835
 20
1030990.928348761
1001
DCO15
1071
        3
1071
        3
1000
datoslink
1004
0000000000006F40
  0
LWPOLYLINE
  5
24F
330
1874
100
AcDbEntity
  8
lotes chiriquí
100
AcDbPolyline
 90
        4
 70
     1
 43
0.0
 38
0.04
 10
538858.3421776925
 20
1030726.24256734
 10
538858.3421776925
 20
1030777.062237373
 10
538938.8066552445
 20
1030777.062237373
 10
538938.8066552445
 20
1030727.301310465
1001
DCO15
1071
        3
1071
        3
1000
datoslink
1004
0000000000E06E40
  0
LWPOLYLINE
  5
250
330
1874
100
AcDbEntity
  8
lotes chiriquí
100
AcDbPolyline
 90
        4
 70
     1
 43
0.0
 38
0.175
 10
538393.1432328383
 20
1033183.238779719
 10
538393.1432328383
 20
1033203.669511354
 10
538443.1985253456
 20
1033203.669511354
 10
538443.1985253456
 20
1033183.238779719
1001
DCO15
1071
        3
1071
        3
1000
datoslink
1004
0000000000A06D40
1001
ADE_ENTITY_LOCK
1071
1342624882
1071
1342625087
  0
LWPOLYLINE
  5
251
330
1874
100
AcDbEntity
  8
lotes chiriquí
100
AcDbPolyline
 90
        4
 70
     1
 43
0.0
 38
0.125
 10
538551.2260188694
 20
1033096.918938558
 10
538551.2260188694
 20
1033146.974231065
 10
538601.2813113771
 20
1033146.974231065
 10
538601.2813113771
 20
1033096.918938558
1001
DCO15
1071
        3
1071
        3
1000
datoslink
1004
0000000000806D40
  0
LWPOLYLINE
  5
252
330
1874
100
AcDbEntity
  8
lotes chiriquí
100
AcDbPolyline
 90
        4
 70
     1
 43
0.0
 38
0.3
 10
538154.7240131394
 20
1034407.174982453
 10
538154.7240131394
 20
1034435.628703956
 10
538265.2303268829
 20
1034446.216135213
 10
538283.0966171288
 20
1034410.483554721
1001
DCO15
1071
        3
1071
        3
1000
datoslink
1004
0000000000E06C40
1001
ADE_ENTITY_LOCK
1071
1342624882
1071
1342625087
  0
LWPOLYLINE
  5
253
330
1874
100
AcDbEntity
  8
lotes chiriquí
100
AcDbPolyline
 90
        6
 70
     1
 43
0.0
 38
0.55
 10
538255.3260351978
 20
1034066.504165323
 10
538253.3194667185
 20
1034198.404072359
 10
538312.87376754
 20
1034198.404072359
 10
538311.5503386315
 20
1034120.321766842
 10
538307.5793574575
 20
1034100.398212194
 10
538287.8078301158
 20
1034077.802180948
1001
DCO15
1071
        3
1071
        3
1000
datoslink
1004
0000000000606A40
1001
ADE_ENTITY_LOCK
1071
1342624882
1071
1342625087
  0
LWPOLYLINE
  5
254
330
1874
100
AcDbEntity
  8
lotes chiriquí
100
AcDbPolyline
 90
        4
 70
     1
 43
0.0
 38
0.0625
 10
539357.0763833658
 20
1031940.048334317
 10
539357.0763833658
 20
1031991.789178539
 10
539408.8172275882
 20
1031991.789178539
 10
539408.8172275882
 20
1031940.048334317
1001
DCO15
1071
        3
1071
        3
1000
datoslink
1004
0000000000206A40
  0
LWPOLYLINE
  5
255
330
1874
100
AcDbEntity
  8
lotes chiriquí
100
AcDbPolyline
 90
        4
 70
     1
 43
0.0
 38
0.2
 10
543022.8157994696
 20
1032020.985240944
 10
543022.8157994696
 20
1032060.595400954
 10
543064.9814536744
 20
1032060.595400954
 10
543064.9814536744
 20
1032020.985240944
1001
DCO15
1071
        3
1071
        3
1000
datoslink
1004
0000000000006940
  0
LWPOLYLINE
  5
256
330
1874
100
AcDbEntity
  8
lotes chiriquí
100
AcDbPolyline
 90
        4
 70
     1
 43
0.0
 38
0.1785714285714286
 10
542765.6504233397
 20
1032053.70289662
 10
542765.6504233397
 20
1032105.316623997
 10
542815.9407218098
 20
1032105.316623997
 10
542815.9407218098
 20
1032053.70289662
1001
DCO15
1071
        3
1071
        3
1000
datoslink
1004
0000000000206940
  0
LWPOLYLINE
  5
257
330
1874
100
AcDbEntity
  8
lotes chiriquí
100
AcDbPolyline
 90
        4
 70
     1
 43
0.0
 38
1.175999999999999
 10
543105.7716524662
 20
1032147.666349024
 10
543141.5042329581
 20
1032147.666349024
 10
543141.5042329581
 20
1032117.227484161
 10
543105.7716524662
 20
1032118.550913068
1001
DCO15
1071
        3
1071
        3
1000
datoslink
1004
0000000000E06840
  0
LWPOLYLINE
  5
258
330
1874
100
AcDbEntity
  8
lotes chiriquí
100
AcDbPolyline
 90
        4
 70
     1
 43
0.0
 38
0.26
 10
541591.0491389372
 20
1033619.695840217
 10
541621.3555500425
 20
1033646.170563493
 10
541648.6170295337
 20
1033617.710740538
 10
541619.5022342894
 20
1033591.242744865
1001
DCO15
1071
        3
1071
        3
1000
datoslink
1004
0000000000C06940
  0
LWPOLYLINE
  5
259
330
1874
100
AcDbEntity
  8
lotes chiriquí
100
AcDbPolyline
 90
        4
 70
     1
 43
0.0
 38
2.694999999999999
 10
542240.5655175356
 20
1035319.219465848
 10
542240.5655175356
 20
1035369.490399723
 10
542290.8364514108
 20
1035369.490399723
 10
542290.8364514108
 20
1035319.219465848
1001
DCO15
1071
        3
1071
        3
1000
datoslink
1004
0000000000406840
  0
LWPOLYLINE
  5
25A
330
1874
100
AcDbEntity
  8
lotes chiriquí
100
AcDbPolyline
 90
        4
 70
     1
 43
0.0
 38
0.0666666666666667
 10
542175.7424712228
 20
1035382.719592848
 10
542235.2738402855
 20
1035382.719592848
 10
542235.2738402855
 20
1035332.448658973
 10
542175.7424712228
 20
1035332.448658973
1001
DCO15
1071
        3
1071
        3
1000
datoslink
1004
0000000000806840
  0
LWPOLYLINE
  5
25B
330
1874
100
AcDbEntity
  8
lotes chiriquí
100
AcDbPolyline
 90
        4
 70
     1
 43
0.0
 38
0.06
 10
542778.993677725
 20
1035284.823563723
 10
542829.2646116006
 20
1035284.823563723
 10
542830.587530913
 20
1035234.552629847
 10
542780.3165970377
 20
1035234.552629847
1001
DCO15
1071
        3
1071
        3
1000
datoslink
1004
0000000000606840
  0
LWPOLYLINE
  5
25C
330
1874
100
AcDbEntity
  8
lotes chiriquí
100
AcDbPolyline
 90
        4
 70
     1
 43
0.0
 38
0.3333333333333333
 10
542607.8961133079
 20
1035820.826371839
 10
542607.8961133079
 20
1035871.979251923
 10
542657.2851009749
 20
1035871.979251923
 10
542657.2851009749
 20
1035820.826371839
1001
DCO15
1071
        3
1071
        3
1000
datoslink
1004
0000000000206840
  0
LWPOLYLINE
  5
25D
330
1874
100
AcDbEntity
  8
lotes chiriquí
100
AcDbPolyline
 90
        4
 70
     1
 43
0.0
 38
0.16
 10
542865.4244061423
 20
1035607.395389422
 10
542816.0354184754
 20
1035607.395389422
 10
542816.0354184754
 20
1035656.784377088
 10
542865.4244061423
 20
1035656.784377088
1001
DCO15
1071
        3
1071
        3
1000
datoslink
1004
0000000000006840
  0
LWPOLYLINE
  5
25E
330
1874
100
AcDbEntity
  8
lotes chiriquí
100
AcDbPolyline
 90
        4
 70
     1
 43
0.0
 38
0.2
 10
542657.2851009749
 20
1035279.311399921
 10
542708.4379810583
 20
1035279.311399921
 10
542706.6740886417
 20
1035229.922412254
 10
542657.2851009749
 20
1035229.922412254
1001
DCO15
1071
        3
1071
        3
1000
datoslink
1004
0000000000E06740
  0
LWPOLYLINE
  5
25F
330
1874
100
AcDbEntity
  8
lotes chiriquí
100
AcDbPolyline
 90
        4
 70
     1
 43
0.0
 38
0.0357142857142857
 10
542524.1112235158
 20
1034941.085029023
 10
542574.382157391
 20
1034941.085029023
 10
542574.382157391
 20
1034890.814095148
 10
542524.1112235158
 20
1034890.814095148
1001
DCO15
1071
        3
1071
        3
1000
datoslink
1004
0000000000C06740
  0
LWPOLYLINE
  5
260
330
1874
100
AcDbEntity
  8
lotes chiriquí
100
AcDbPolyline
 90
        5
 70
     1
 43
0.0
 38
0.1666666666666666
 10
542439.4443875154
 20
1034688.407440335
 10
542501.6215952033
 20
1034675.17824721
 10
542508.2361917658
 20
1034657.980296147
 10
542476.4861282657
 20
1034623.584394022
 10
542428.8610330155
 20
1034639.459425772
1001
DCO15
1071
        3
1071
        3
1000
datoslink
1004
0000000000806740
  0
LWPOLYLINE
  5
261
330
1874
100
AcDbEntity
  8
lotes chiriquí
100
AcDbPolyline
 90
        4
 70
     1
 43
0.0
 38
0.01
 10
539250.2125718098
 20
1034082.175582295
 10
539284.6084739351
 20
1034082.175582295
 10
539284.6084739351
 20
1034057.040115357
 10
539250.2125718098
 20
1034057.040115357
1001
DCO15
1071
        3
1071
        3
1000
datoslink
1004
0000000000606740
  0
LWPOLYLINE
  5
262
330
1874
100
AcDbEntity
  8
lotes chiriquí
100
AcDbPolyline
 90
        4
 70
     1
 43
0.0
 38
0.07
 10
539737.0468788118
 20
1034621.926661797
 10
539785.9948933744
 20
1034590.176598297
 10
539760.8594264371
 20
1034567.686969984
 10
539717.203089124
 20
1034600.759952797
1001
DCO15
1071
        3
1071
        3
1000
datoslink
1004
0000000000406740
  0
LWPOLYLINE
  5
263
330
1874
100
AcDbEntity
  8
lotes chiriquí
100
AcDbPolyline
 90
        4
 70
     1
 43
0.0
 38
0.6
 10
539711.9114118741
 20
1034408.936652484
 10
539759.5365071243
 20
1034408.936652484
 10
539759.5365071243
 20
1034365.280315171
 10
539711.9114118741
 20
1034365.280315171
1001
DCO15
1071
        3
1071
        3
1000
datoslink
1004
0000000000206740
  0
LWPOLYLINE
  5
264
330
1874
100
AcDbEntity
  8
lotes chiriquí
100
AcDbPolyline
 90
        4
 70
     1
 43
0.0
 38
0.075
 10
539434.8045041692
 20
1030628.877888559
 10
539434.8045041692
 20
1030679.679517203
 10
539485.6061328137
 20
1030679.679517203
 10
539485.6061328137
 20
1030628.877888559
1001
DCO15
1071
        3
1071
        3
1000
datoslink
1004
0000000000006540
  0
LWPOLYLINE
  5
265
330
1874
100
AcDbEntity
  8
lotes chiriquí
100
AcDbPolyline
 90
        4
 70
     1
 43
0.0
 38
0.0333333333333333
 10
540114.5688440926
 20
1030965.90332737
 10
540114.5688440926
 20
1031027.856533034
 10
540165.3704727368
 20
1031027.856533034
 10
540165.3704727368
 20
1030965.90332737
1001
DCO15
1071
        3
1071
        3
1000
datoslink
1004
0000000000806440
  0
LWPOLYLINE
  5
266
330
1874
100
AcDbEntity
  8
lotes chiriquí
100
AcDbPolyline
 90
        4
 70
     1
 43
0.0
 38
1.666666666666666
 10
540746.5379938599
 20
1030908.085051862
 10
540746.5379938599
 20
1030949.382523169
 10
540787.8354651671
 20
1030949.382523169
 10
540787.8354651671
 20
1030908.085051862
1001
DCO15
1071
        3
1071
        3
1000
datoslink
1004
0000000000C06240
  0
LWPOLYLINE
  5
267
330
1874
100
AcDbEntity
  8
lotes chiriquí
100
AcDbPolyline
 90
        4
 70
     1
 43
0.0
 38
0.1666666666666666
 10
541358.4101114821
 20
1030684.141482929
 10
541358.4101114821
 20
1030733.895734358
 10
541408.6382129255
 20
1030733.895734358
 10
541408.6382129255
 20
1030684.141482929
1001
DCO15
1071
        3
1071
        3
1000
datoslink
1004
0000000000206240
  0
LWPOLYLINE
  5
268
330
1874
100
AcDbEntity
  8
lotes chiriquí
100
AcDbPolyline
 90
        4
 70
     1
 43
0.0
 38
0.2533333333333334
 10
541415.7459631298
 20
1030636.282631553
 10
541415.7459631298
 20
1030686.036882983
 10
541465.9740645733
 20
1030686.036882983
 10
541465.9740645733
 20
1030636.282631553
1001
DCO15
1071
        3
1071
        3
1000
datoslink
1004
0000000000006240
  0
LWPOLYLINE
  5
269
330
1874
100
AcDbEntity
  8
lotes chiriquí
100
AcDbPolyline
 90
        4
 70
     1
 43
0.0
 38
2.299999999999998
 10
541146.4909367222
 20
1030363.389942464
 10
541146.4909367222
 20
1030413.908318148
 10
541197.0093124065
 20
1030413.908318148
 10
541197.0093124065
 20
1030363.389942464
1001
DCO15
1071
        3
1071
        3
1000
datoslink
1004
0000000000606140
  0
LWPOLYLINE
  5
26A
330
1874
100
AcDbEntity
  8
lotes chiriquí
100
AcDbPolyline
 90
        4
 70
     1
 43
0.0
 38
0.2
 10
541228.3227651138
 20
1030832.153739142
 10
541278.6540033437
 20
1030832.153739142
 10
541278.6540033437
 20
1030797.401217508
 10
541228.3227651138
 20
1030797.401217508
1001
DCO15
1071
        3
1071
        3
1000
datoslink
1004
0000000000406140
  0
LWPOLYLINE
  5
26B
330
1874
100
AcDbEntity
  8
lotes chiriquí
100
AcDbPolyline
 90
        4
 70
     1
 43
0.0
 38
0.05
 10
541378.1669484796
 20
1033080.188172356
 10
541425.8152409843
 20
1033074.011541846
 10
541414.3443557517
 20
1033023.71612198
 10
541364.9313116728
 20
1033031.657504064
1001
DCO15
1071
        3
1071
        3
1000
datoslink
1004
0000000000C05F40
  0
LWPOLYLINE
  5
26C
330
1874
100
AcDbEntity
  8
lotes chiriquí
100
AcDbPolyline
 90
        4
 70
     1
 43
0.0
 38
0.05
 10
541506.7732194532
 20
1032939.449234309
 10
541557.0686393193
 20
1032939.449234309
 10
541557.0686393193
 20
1032889.153814443
 10
541506.7732194532
 20
1032889.153814443
1001
DCO15
1071
        3
1071
        3
1000
datoslink
1004
0000000000805F40
  0
LWPOLYLINE
  5
26D
330
1874
100
AcDbEntity
  8
lotes chiriquí
100
AcDbPolyline
 90
        4
 70
     1
 43
0.0
 38
0.04
 10
541631.8499872785
 20
1032878.565304998
 10
541631.8499872785
 20
1032928.198943023
 10
541682.1454071445
 20
1032928.198943023
 10
541682.1454071445
 20
1032877.903523157
1001
DCO15
1071
        3
1071
        3
1000
datoslink
1004
0000000000005F40
  0
LWPOLYLINE
  5
26E
330
1874
100
AcDbEntity
  8
lotes chiriquí
100
AcDbPolyline
 90
        4
 70
     1
 43
0.0
 38
0.005
 10
541322.7978678376
 20
1032785.254065509
 10
541371.769724023
 20
1032773.341992383
 10
541357.8723053758
 20
1032725.031918038
 10
541308.9004491903
 20
1032736.943991164
1001
DCO15
1071
        3
1071
        3
1000
datoslink
1004
0000000000206040
  0
LWPOLYLINE
  5
26F
330
1874
100
AcDbEntity
  8
lotes chiriquí
100
AcDbPolyline
 90
        4
 70
     1
 43
0.0
 38
0.1428571428571428
 10
541621.5074336585
 20
1032676.445104699
 10
541672.0045198562
 20
1032676.445104699
 10
541672.0045198562
 20
1032625.948018501
 10
541621.5074336585
 20
1032625.948018501
1001
DCO15
1071
        3
1071
        3
1000
datoslink
1004
0000000000805D40
  0
LWPOLYLINE
  5
270
330
1874
100
AcDbEntity
  8
lotes chiriquí
100
AcDbPolyline
 90
        4
 70
     1
 43
0.0
 38
0.08
 10
541221.2256528238
 20
1032512.637483618
 10
541221.2256528238
 20
1032532.343663598
 10
541240.9318328033
 20
1032532.343663598
 10
541240.9318328033
 20
1032512.637483618
1001
DCO15
1071
        3
1071
        3
1000
datoslink
1004
0000000000405D40
  0
LWPOLYLINE
  5
271
330
1874
100
AcDbEntity
  8
lotes chiriquí
100
AcDbPolyline
 90
        4
 70
     1
 43
0.0
 38
0.015
 10
539860.892603848
 20
1033790.477777571
 10
539901.1378131316
 20
1033800.539079892
 10
539901.1378131316
 20
1033762.809196189
 10
539860.892603848
 20
1033762.809196189
1001
DCO15
1071
        3
1071
        3
1000
datoslink
1004
0000000000805C40
  0
LWPOLYLINE
  5
272
330
1874
100
AcDbEntity
  8
lotes chiriquí
100
AcDbPolyline
 90
        4
 70
     1
 43
0.0
 38
0.13
 10
539975.6543334451
 20
1033656.575992387
 10
539975.6543334451
 20
1033707.511335387
 10
540026.5896764445
 20
1033707.511335387
 10
540026.5896764445
 20
1033656.575992387
1001
DCO15
1071
        3
1071
        3
1000
datoslink
1004
0000000000405B40
  0
LWPOLYLINE
  5
273
330
1874
100
AcDbEntity
  8
lotes chiriquí
100
AcDbPolyline
 90
        4
 70
     1
 43
0.0
 38
0.1714285714285714
 10
539846.1936699885
 20
1033400.838124411
 10
539846.1936699885
 20
1033450.712314431
 10
539897.1290129878
 20
1033450.712314431
 10
539897.1290129878
 20
1033399.776971432
1001
DCO15
1071
        3
1071
        3
1000
datoslink
1004
0000000000805A40
  0
LWPOLYLINE
  5
274
330
1874
100
AcDbEntity
  8
lotes chiriquí
100
AcDbPolyline
 90
        4
 70
     1
 43
0.0
 38
0.4833333333333333
 10
539820.549139659
 20
1033334.516063214
 10
539871.4844826583
 20
1033334.516063214
 10
539871.4844826583
 20
1033283.580720215
 10
539820.549139659
 20
1033283.580720215
1001
DCO15
1071
        3
1071
        3
1000
datoslink
1004
0000000000405A40
  0
LWPOLYLINE
  5
275
330
1874
100
AcDbEntity
  8
lotes chiriquí
100
AcDbPolyline
 90
        4
 70
     1
 43
0.0
 38
0.2857142857142857
 10
541591.0491389372
 20
1033682.557329947
 10
541618.9968261122
 20
1033646.170070808
 10
541590.3874390451
 20
1033621.019240001
 10
541560.6109439089
 20
1033651.457435027
1001
DCO15
1071
        3
1071
        3
1000
datoslink
1004
0000000000805040
  0
LWPOLYLINE
  5
276
330
1874
100
AcDbEntity
  8
lotes chiriquí
100
AcDbPolyline
 90
        4
 70
     1
 43
0.0
 38
0.1875
 10
541021.1812376488
 20
1033526.464350153
 10
541021.1812376488
 20
1033567.53198423
 10
541083.490751421
 20
1033566.115858917
 10
541083.490751421
 20
1033525.04822484
1001
DCO15
1071
        3
1071
        3
1000
datoslink
1004
0000000000C05640
  0
LWPOLYLINE
  5
277
330
1874
100
AcDbEntity
  8
lotes chiriquí
100
AcDbPolyline
 90
        4
 70
     1
 43
0.0
 38
0.48
 10
541011.2683604578
 20
1033672.325257392
 10
541062.2488717258
 20
1033672.325257392
 10
541062.2488717258
 20
1033621.344746124
 10
541011.2683604578
 20
1033621.344746124
1001
DCO15
1071
        3
1071
        3
1000
datoslink
1004
0000000000405640
  0
LWPOLYLINE
  5
278
330
1874
100
AcDbEntity
  8
lotes chiriquí
100
AcDbPolyline
 90
        4
 70
     1
 43
0.0
 38
1.372
 10
541789.2194236099
 20
1033894.027542505
 10
541838.783809565
 20
1033894.027542505
 10
541838.783809565
 20
1033843.047031237
 10
541789.2194236099
 20
1033843.047031237
1001
DCO15
1071
        3
1071
        3
1000
datoslink
1004
0000000000806940
  0
LWPOLYLINE
  5
279
330
1874
100
AcDbEntity
  8
lotes chiriquí
100
AcDbPolyline
 90
        4
 70
     1
 43
0.0
 38
1.6
 10
541833.119308313
 20
1034146.09784822
 10
541884.0998195811
 20
1034146.09784822
 10
541884.0998195811
 20
1034096.533462265
 10
541833.119308313
 20
1034096.533462265
1001
DCO15
1071
        3
1071
        3
1000
datoslink
1004
0000000000C05340
  0
LWPOLYLINE
  5
27A
330
1874
100
AcDbEntity
  8
lotes chiriquí
100
AcDbPolyline
 90
        4
 70
     1
 43
0.0
 38
0.7000000000000001
 10
541697.1712782647
 20
1034044.136825684
 10
541748.1517895328
 20
1034044.136825684
 10
541748.1517895328
 20
1033993.156314416
 10
541697.1712782647
 20
1033993.156314416
1001
DCO15
1071
        3
1071
        3
1000
datoslink
1004
0000000000405440
  0
LWPOLYLINE
  5
27B
330
1874
100
AcDbEntity
  8
lotes chiriquí
100
AcDbPolyline
 90
        4
 70
     1
 43
0.0
 38
1.483999999999999
 10
541877.0191930161
 20
1034022.894945989
 10
541877.0191930161
 20
1034073.875457257
 10
541926.5835789712
 20
1034073.875457257
 10
541926.5835789712
 20
1034022.894945989
1001
DCO15
1071
        3
1071
        3
1000
datoslink
1004
0000000000005440
  0
LWPOLYLINE
  5
27C
330
1874
100
AcDbEntity
  8
lotes chiriquí
100
AcDbPolyline
 90
        4
 70
     1
 43
0.0
 38
9.0
 10
542231.1291948953
 20
1034116.20186939
 10
542280.6935808503
 20
1034116.20186939
 10
542280.6935808503
 20
1034065.221358122
 10
542231.1291948953
 20
1034065.221358122
1001
DCO15
1071
        3
1071
        3
1000
datoslink
1004
0000000000405340
  0
LWPOLYLINE
  5
27D
330
1874
100
AcDbEntity
  8
lotes chiriquí
100
AcDbPolyline
 90
        4
 70
     1
 43
0.0
 38
0.2
 10
542154.658427993
 20
1034179.927508475
 10
542204.2228139481
 20
1034179.927508475
 10
542204.2228139481
 20
1034130.36312252
 10
542154.658427993
 20
1034130.36312252
1001
DCO15
1071
        3
1071
        3
1000
datoslink
1004
0000000000005340
  0
LWPOLYLINE
  5
27E
330
1874
100
AcDbEntity
  8
lotes chiriquí
100
AcDbPolyline
 90
        4
 70
     1
 43
0.0
 38
0.3666666666666666
 10
541841.6947338194
 20
1033947.682957142
 10
541891.2591197745
 20
1033947.682957142
 10
541891.2591197745
 20
1033898.118571187
 10
541841.6947338194
 20
1033898.118571187
1001
DCO15
1071
        3
1071
        3
1000
datoslink
1004
0000000000C05240
  0
LWPOLYLINE
  5
27F
330
1874
100
AcDbEntity
  8
lotes chiriquí
100
AcDbPolyline
 90
        4
 70
     1
 43
0.0
 38
2.25
 10
541787.8819719253
 20
1033947.682957142
 10
541838.8624831933
 20
1033947.682957142
 10
541838.8624831933
 20
1033898.118571187
 10
541789.2980972383
 20
1033898.118571187
1001
DCO15
1071
        3
1071
        3
1000
datoslink
1004
0000000000805240
  0
LWPOLYLINE
  5
280
330
1874
100
AcDbEntity
  8
lotes chiriquí
100
AcDbPolyline
 90
        4
 70
     1
 43
0.0
 38
1.0
 10
541725.5724581531
 20
1033769.251167704
 10
541775.1368441082
 20
1033769.251167704
 10
541775.1368441082
 20
1033719.686781749
 10
541725.5724581531
 20
1033719.686781749
1001
DCO15
1071
        3
1071
        3
1000
datoslink
1004
0000000000405240
  0
LWPOLYLINE
  5
281
330
1874
100
AcDbEntity
  8
lotes chiriquí
100
AcDbPolyline
 90
        4
 70
     1
 43
0.0
 38
1.147999999999999
 10
541882.7623678965
 20
1033803.238175216
 10
541933.7428791647
 20
1033803.238175216
 10
541932.3267538516
 20
1033753.673789261
 10
541882.7623678965
 20
1033753.673789261
1001
DCO15
1071
        3
1071
        3
1000
datoslink
1004
0000000000005240
  0
LWPOLYLINE
  5
282
330
1874
100
AcDbEntity
  8
lotes chiriquí
100
AcDbPolyline
 90
        4
 70
     1
 43
0.0
 38
1.231999999999999
 10
541315.3669558903
 20
1033339.923175461
 10
541358.3781539585
 20
1033380.287530575
 10
541399.7350751767
 20
1033342.239163054
 10
541358.709009327
 20
1033298.566254243
1001
DCO15
1071
        3
1071
        3
1000
datoslink
1004
0000000000C05140
  0
LWPOLYLINE
  5
283
330
1874
100
AcDbEntity
  8
lotes chiriquí
100
AcDbPolyline
 90
        4
 70
     1
 43
0.0
 38
1.166666666666666
 10
541846.9407903438
 20
1033696.065178332
 10
541897.5228680961
 20
1033696.922501683
 10
541897.5228680961
 20
1033646.340423931
 10
541846.9407903438
 20
1033646.340423931
1001
DCO15
1071
        3
1071
        3
1000
datoslink
1004
0000000000805140
1001
ADE_ENTITY_LOCK
1071
1342624882
1071
1342625087
  0
LWPOLYLINE
  5
284
330
1874
100
AcDbEntity
  8
lotes chiriquí
100
AcDbPolyline
 90
        4
 70
     1
 43
0.0
 38
1.166666666666666
 10
541593.6959385053
 20
1033682.557329947
 10
541640.0149309393
 20
1033712.333825079
 10
541672.4382256418
 20
1033671.308431785
 10
541620.6074254876
 20
1033648.055070635
1001
DCO15
1071
        3
1071
        3
1000
datoslink
1004
0000000000405140
  0
LWPOLYLINE
  5
285
330
1874
100
AcDbEntity
  8
lotes chiriquí
100
AcDbPolyline
 90
        4
 70
     1
 43
0.0
 38
1.288
 10
541200.1631161384
 20
1033130.094699962
 10
541200.4278004348
 20
1033176.282109581
 10
541218.9557011416
 20
1033184.222638458
 10
541240.1304448071
 20
1033147.166837044
1001
DCO15
1071
        3
1071
        3
1000
datoslink
1004
0000000000005140
  0
LWPOLYLINE
  5
286
330
1874
100
AcDbEntity
  8
lotes chiriquí
100
AcDbPolyline
 90
        4
 70
     1
 43
0.0
 38
1.6875
 10
541691.655826554
 20
1033488.951407737
 10
541741.9102677627
 20
1033488.951407737
 10
541743.0270331228
 20
1033438.696966528
 10
541692.7725919144
 20
1033438.696966528
1001
DCO15
1071
        3
1071
        3
1000
datoslink
1004
0000000000C05040
  0
LWPOLYLINE
  5
287
330
1874
100
AcDbEntity
  8
lotes chiriquí
100
AcDbPolyline
 90
        4
 70
     1
 43
0.0
 38
1.399999999999999
 10
541633.3303412013
 20
1033464.338448414
 10
541690.501211863
 20
1033464.338448414
 10
541690.501211863
 20
1033412.461176889
 10
541633.3303412013
 20
1033412.461176889
1001
DCO15
1071
        3
1071
        3
1000
datoslink
1004
0000000000805B40
  0
LWPOLYLINE
  5
288
330
1874
100
AcDbEntity
  8
lotes chiriquí
100
AcDbPolyline
 90
        4
 70
     1
 43
0.0
 38
1.175999999999999
 10
541510.9834520166
 20
1033614.402241081
 10
541559.2875441238
 20
1033650.795735132
 10
541615.5320349364
 20
1033591.904444754
 10
541569.8747423952
 20
1033566.09814897
1001
DCO15
1071
        3
1071
        3
1000
datoslink
1004
0000000000405040
  0
LWPOLYLINE
  5
289
330
1874
100
AcDbEntity
  8
lotes chiriquí
100
AcDbPolyline
 90
        4
 70
     1
 43
0.0
 38
0.065
 10
541456.0623609879
 20
1033558.157750265
 10
541507.6749525564
 20
1033614.402241081
 10
541552.0088453162
 20
1033576.685347238
 10
541503.0430533141
 20
1033524.411055781
1001
DCO15
1071
        3
1071
        3
1000
datoslink
1004
0000000000005040
1001
ADE_ENTITY_LOCK
1071
1342624882
1071
1342625087
  0
LWPOLYLINE
  5
28A
330
1874
100
AcDbEntity
  8
lotes chiriquí
100
AcDbPolyline
 90
        4
 70
     1
 43
0.0
 38
1.231999999999999
 10
541234.8367588893
 20
1033300.683728611
 10
541280.4947999165
 20
1033312.594521923
 10
541298.3609898835
 20
1033261.642794979
 10
541256.0115025537
 20
1033247.085158713
1001
DCO15
1071
        3
1071
        3
1000
datoslink
1004
0000000000004F40
1001
ADE_ENTITY_LOCK
1071
1342624882
1071
1342625087
  0
LWPOLYLINE
  5
28B
330
1874
100
AcDbEntity
  8
lotes chiriquí
100
AcDbPolyline
 90
        4
 70
     1
 43
0.0
 38
1.511999999999999
 10
541103.6051022429
 20
1032996.379284106
 10
541164.0916317618
 20
1032996.465885449
 10
541164.0916317618
 20
1032956.101530341
 10
541103.6051022429
 20
1032956.147271145
1001
DCO15
1071
        3
1071
        3
1000
datoslink
1004
0000000000004D40
  0
LWPOLYLINE
  5
28C
330
1874
100
AcDbEntity
  8
lotes chiriquí
100
AcDbPolyline
 90
        4
 70
     1
 43
0.0
 38
1.344
 10
541108.0843401809
 20
1032904.428069737
 10
541108.0843401809
 20
1032954.682510944
 10
541146.8871525325
 20
1032954.77810886
 10
541146.8871525325
 20
1032904.488092657
1001
DCO15
1071
        3
1071
        3
1000
datoslink
1004
0000000000004E40
  0
LWPOLYLINE
  5
28D
330
1874
100
AcDbEntity
  8
lotes chiriquí
100
AcDbPolyline
 90
        5
 70
     1
 43
0.0
 38
1.316
 10
541155.549395295
 20
1033160.119606601
 10
541198.9576198068
 20
1033174.147874281
 10
541198.9576198068
 20
1033128.357491102
 10
541173.0185588179
 20
1033093.948532654
 10
541155.549395295
 20
1033093.948532654
1001
DCO15
1071
        3
1071
        3
1000
datoslink
1004
0000000000804D40
  0
LWPOLYLINE
  5
28E
330
1874
100
AcDbEntity
  8
lotes chiriquí
100
AcDbPolyline
 90
        4
 70
     1
 43
0.0
 38
0.05
 10
541028.5683731697
 20
1033024.216871642
 10
541066.7871667079
 20
1033024.216871642
 10
541066.7871667079
 20
1032988.829099847
 10
541028.5683731697
 20
1032988.829099847
1001
DCO15
1071
        3
1071
        3
1000
datoslink
1004
0000000000804B40
  0
LWPOLYLINE
  5
28F
330
1874
100
AcDbEntity
  8
lotes chiriquí
100
AcDbPolyline
 90
        4
 70
     1
 43
0.0
 38
0.0333333333333333
 10
540811.6447227253
 20
1032853.511917789
 10
540861.8991639337
 20
1032853.511917789
 10
540861.8991639337
 20
1032803.257476581
 10
540811.6447227253
 20
1032805.491007301
1001
DCO15
1071
        3
1071
        3
1000
datoslink
1004
0000000000004C40
  0
LWPOLYLINE
  5
290
330
1874
100
AcDbEntity
  8
lotes chiriquí
100
AcDbPolyline
 90
        4
 70
     1
 43
0.0
 38
0.0166666666666667
 10
539722.9021459362
 20
1028859.649739906
 10
539721.3244547285
 20
1028805.282963913
 10
539661.770488172
 20
1028790.725327642
 10
539647.8745626406
 20
1028839.030211629
1001
DCO15
1071
        3
1071
        3
1000
datoslink
1004
0000000000989340
1001
ADE_ENTITY_LOCK
1071
1342624882
1071
1342625087
  0
LWPOLYLINE
  5
291
330
1874
100
AcDbEntity
  8
lotes chiriquí
100
AcDbPolyline
 90
        4
 70
     1
 43
0.0
 38
0.1
 10
539633.3169263713
 20
1028685.513320062
 10
539683.6069425745
 20
1028685.513320062
 10
539683.6069425745
 20
1028635.223303856
 10
539633.3169263713
 20
1028635.223303856
1001
DCO15
1071
        3
1071
        3
1000
datoslink
1004
0000000000949340
  0
LWPOLYLINE
  5
292
330
1874
100
AcDbEntity
  8
lotes chiriquí
100
AcDbPolyline
 90
        4
 70
     1
 43
0.0
 38
0.1666666666666666
 10
539622.0678437994
 20
1028927.69945072
 10
539581.0417779498
 20
1028903.877864102
 10
539561.6817404479
 20
1028938.566124907
 10
539610.1181725338
 20
1028963.181360885
1001
DCO15
1071
        3
1071
        3
1000
datoslink
1004
0000000000909340
1001
ADE_ENTITY_LOCK
1071
1342624882
1071
1342625087
  0
LWPOLYLINE
  5
293
330
1874
100
AcDbEntity
  8
lotes chiriquí
100
AcDbPolyline
 90
        5
 70
     1
 43
0.0
 38
0.0133333333333333
 10
539623.258296906
 20
1028926.904771616
 10
539630.5371150421
 20
1028905.068317206
 10
539646.0517842854
 20
1028839.676582234
 10
539592.8120759148
 20
1028828.433414004
 10
539581.2382262666
 20
1028902.109234035
1001
DCO15
1071
        3
1071
        3
1000
datoslink
1004
00000000007C9340
1001
ADE_ENTITY_LOCK
1071
1342624882
1071
1342625087
  0
LWPOLYLINE
  5
294
330
1874
100
AcDbEntity
  8
lotes chiriquí
100
AcDbPolyline
 90
        4
 70
     1
 43
0.0
 38
0.75
 10
539603.1689028433
 20
1029065.092887064
 10
539638.6106122864
 20
1029015.045268342
 10
539581.7034886897
 20
1028983.944863586
 10
539547.1890919879
 20
1029032.537252379
1001
DCO15
1071
        3
1071
        3
1000
datoslink
1004
00000000006C9340
1001
ADE_ENTITY_LOCK
1071
1342624882
1071
1342625087
  0
LWPOLYLINE
  5
295
330
1874
100
AcDbEntity
  8
lotes chiriquí
100
AcDbPolyline
 90
        4
 70
     1
 43
0.0
 38
0.15
 10
539161.5171690937
 20
1029365.090249546
 10
539195.264416811
 20
1029392.220389867
 10
539228.3499537875
 20
1029353.841166973
 10
539199.2346812487
 20
1029335.974977007
1001
DCO15
1071
        3
1071
        3
1000
datoslink
1004
00000000005C9340
1001
ADE_ENTITY_LOCK
1071
1342624882
1071
1342625087
  0
LWPOLYLINE
  5
296
330
1874
100
AcDbEntity
  8
lotes chiriquí
100
AcDbPolyline
 90
        5
 70
     1
 43
0.0
 38
0.0333333333333333
 10
539480.7926009139
 20
1029278.604655891
 10
539431.8260061901
 20
1029269.340705534
 10
539408.3352749365
 20
1029349.209191793
 10
539399.0713245822
 20
1029361.781695848
 10
539437.7814028458
 20
1029387.125217169
1001
DCO15
1071
        3
1071
        3
1000
datoslink
1004
0000000000E49340
1001
ADE_ENTITY_LOCK
1071
1342624882
1071
1342625087
  0
LWPOLYLINE
  5
297
330
1874
100
AcDbEntity
  8
lotes chiriquí
100
AcDbPolyline
 90
        4
 70
     1
 43
0.0
 38
0.0284090909090909
 10
539443.7367995018
 20
1029507.556571763
 10
539485.4245760897
 20
1029408.961671574
 10
539438.4431135841
 20
1029391.095481604
 10
539392.1233618185
 20
1029483.073274404
1001
DCO15
1071
        3
1071
        3
1000
datoslink
1004
0000000000289340
1001
ADE_ENTITY_LOCK
1071
1342624882
1071
1342625087
  0
LWPOLYLINE
  5
298
330
1874
100
AcDbEntity
  8
lotes chiriquí
100
AcDbPolyline
 90
        6
 70
     1
 43
0.0
 38
0.075
 10
540817.44829474
 20
1031392.108757911
 10
540850.5338317166
 20
1031447.030749291
 10
540864.4297572477
 20
1031451.001013726
 10
540888.9130546089
 20
1031440.413641894
 10
540894.2067405246
 20
1031433.796534499
 10
540858.4743605928
 20
1031370.272303506
1001
DCO15
1071
        3
1071
        3
1000
datoslink
1004
0000000000249340
  0
LWPOLYLINE
  5
299
330
1874
100
AcDbEntity
  8
lotes chiriquí
100
AcDbPolyline
 90
        4
 70
     1
 43
0.0
 38
0.375
 10
541085.110288876
 20
1031839.921500878
 10
541135.400305079
 20
1031839.921500878
 10
541135.400305079
 20
1031789.300629308
 10
541085.110288876
 20
1031789.300629308
1001
DCO15
1071
        3
1071
        3
1000
datoslink
1004
0000000000209340
  0
LWPOLYLINE
  5
29A
330
1874
100
AcDbEntity
  8
lotes chiriquí
100
AcDbPolyline
 90
        4
 70
     1
 43
0.0
 38
1.175999999999999
 10
541133.7460282297
 20
1031995.787465572
 10
541149.6270859792
 20
1031948.144292327
 10
541100.9251755522
 20
1031934.380708944
 10
541086.102854984
 20
1031983.082619374
1001
DCO15
1071
        3
1071
        3
1000
datoslink
1004
00000000001C9340
  0
LWPOLYLINE
  5
29B
330
1874
100
AcDbEntity
  8
lotes chiriquí
100
AcDbPolyline
 90
        4
 70
     1
 43
0.0
 38
3.25
 10
540984.0670589517
 20
1032307.287796201
 10
540980.758505254
 20
1032273.209693115
 10
540924.1822370263
 20
1032273.209693115
 10
540931.4610551596
 20
1032307.287796201
1001
DCO15
1071
        3
1071
        3
1000
datoslink
1004
0000000000002440
  0
LWPOLYLINE
  5
29C
330
1874
100
AcDbEntity
  8
lotes chiriquí
100
AcDbPolyline
 90
        6
 70
     1
 43
0.0
 38
1.147999999999999
 10
540784.8180219652
 20
1031343.565964576
 10
540825.3698918363
 20
1031321.30219288
 10
540798.7328792747
 20
1031283.13572712
 10
540784.4204546158
 20
1031281.147890364
 10
540761.361548218
 20
1031292.677343556
 10
540760.168846163
 20
1031305.399498813
1001
DCO15
1071
        3
1071
        3
1000
datoslink
1004
0000000000002E40
  0
LWPOLYLINE
  5
29D
330
1874
100
AcDbEntity
  8
lotes chiriquí
100
AcDbPolyline
 90
        4
 70
     1
 43
0.0
 38
1.651999999999999
 10
541105.4578923128
 20
1032997.504192368
 10
541105.4578923128
 20
1033038.530258214
 10
541163.4299210216
 20
1033038.81537278
 10
541163.4299210216
 20
1032997.789306929
1001
DCO15
1071
        3
1071
        3
1000
datoslink
1004
0000000000F09240
  0
LWPOLYLINE
  5
29E
330
1874
100
AcDbEntity
  8
lotes chiriquí
100
AcDbPolyline
 90
        5
 70
     1
 43
0.0
 38
3.359999999999999
 10
537320.293531849
 20
1044328.298470614
 10
537307.0593170599
 20
1044357.413743155
 10
537337.4980110768
 20
1044379.250197556
 10
537364.6281513972
 20
1044379.250197556
 10
537364.6281513972
 20
1044328.298470614
1001
DCO15
1071
        3
1071
        3
1000
datoslink
1004
0000000000E49240
  0
LWPOLYLINE
  5
29F
330
1874
100
AcDbEntity
  8
lotes chiriquí
100
AcDbPolyline
 90
        4
 70
     1
 43
0.0
 38
5.599999999999999
 10
537805.4598460646
 20
1040646.407573787
 10
537825.311168248
 20
1040655.009813398
 10
537823.9877467716
 20
1040624.571119381
 10
537812.0769534586
 20
1040618.615722725
1001
DCO15
1071
        3
1071
        3
1000
datoslink
1004
0000000000E09240
  0
LWPOLYLINE
  5
2A0
330
1874
100
AcDbEntity
  8
lotes chiriquí
100
AcDbPolyline
 90
        4
 70
     1
 43
0.0
 38
1.26
 10
537931.1848865738
 20
1040964.69043949
 10
537978.1663490776
 20
1041012.33361274
 10
538015.2221504916
 20
1040981.233207982
 10
537967.5789772477
 20
1040934.913456214
1001
DCO15
1071
        3
1071
        3
1000
datoslink
1004
0000000000DC9240
  0
LWPOLYLINE
  5
2A1
330
1874
100
AcDbEntity
  8
lotes chiriquí
100
AcDbPolyline
 90
        4
 70
     1
 43
0.0
 38
1.0
 10
537369.3924687207
 20
1044612.040035715
 10
537368.7307579807
 20
1044561.088308774
 10
537309.176791425
 20
1044561.088308774
 10
537308.5150806848
 20
1044612.70174646
1001
DCO15
1071
        3
1071
        3
1000
datoslink
1004
0000000000D89240
  0
LWPOLYLINE
  5
2A2
330
1874
100
AcDbEntity
  8
lotes chiriquí
100
AcDbPolyline
 90
        4
 70
     1
 43
0.0
 38
1.130937499999999
 10
538279.509419855
 20
1032136.542779282
 10
538320.5354857044
 20
1032135.881068542
 10
538319.8737749672
 20
1032096.178424174
 10
538279.509419855
 20
1032096.178424174
1001
DCO15
1071
        3
1071
        3
1000
datoslink
1004
0000000000BC9240
  0
LWPOLYLINE
  5
2A3
330
1874
100
AcDbEntity
  8
lotes chiriquí
100
AcDbPolyline
 90
        4
 70
     1
 43
0.0
 38
0.01
 10
540379.0879550456
 20
1027608.924187334
 10
540429.3779712487
 20
1027608.924187334
 10
540429.3779712487
 20
1027538.121138206
 10
540379.0879550456
 20
1027538.121138206
1001
DCO15
1071
        3
1071
        3
1000
datoslink
1004
0000000000509240
  0
LWPOLYLINE
  5
2A4
330
1874
100
AcDbEntity
  8
lotes chiriquí
100
AcDbPolyline
 90
        4
 70
     1
 43
0.0
 38
0.0285714285714286
 10
539603.2427219255
 20
1025812.097023388
 10
539653.5618725624
 20
1025812.097023388
 10
539654.1988238365
 20
1025761.140921473
 10
539603.2427219255
 20
1025761.140921473
1001
DCO15
1071
        3
1071
        3
1000
datoslink
1004
0000000000489240
  0
LWPOLYLINE
  5
2A5
330
1874
100
AcDbEntity
  8
lotes chiriquí
100
AcDbPolyline
 90
        4
 70
     1
 43
0.0
 38
0.02
 10
540153.9507933403
 20
1026820.900450996
 10
540153.9507933403
 20
1026769.307397808
 10
540092.803471045
 20
1026769.307397808
 10
540092.803471045
 20
1026820.900450996
1001
DCO15
1071
        3
1071
        3
1000
datoslink
1004
0000000000349240
  0
LWPOLYLINE
  5
2A6
330
1874
100
AcDbEntity
  8
lotes chiriquí
100
AcDbPolyline
 90
        4
 70
     1
 43
0.0
 38
0.0416666666666667
 10
540468.604722648
 20
1026668.669096529
 10
540468.604722648
 20
1026734.275077743
 10
540523.3825322025
 20
1026745.740200674
 10
540524.019483476
 20
1026692.236293664
1001
DCO15
1071
        3
1071
        3
1000
datoslink
1004
0000000000189240
  0
LWPOLYLINE
  5
2A7
330
1874
100
AcDbEntity
  8
lotes chiriquí
100
AcDbPolyline
 90
        4
 70
     1
 43
0.0
 38
1.143333333333333
 10
539698.6580227547
 20
1026244.969109131
 10
539773.8182730768
 20
1026244.969109131
 10
539760.4422963244
 20
1026183.184835562
 10
539709.4861944104
 20
1026183.184835562
1001
DCO15
1071
        3
1071
        3
1000
datoslink
1004
0000000000D89140
  0
LWPOLYLINE
  5
2A8
330
1874
100
AcDbEntity
  8
lotes chiriquí
100
AcDbPolyline
 90
        4
 70
     1
 43
0.0
 38
0.0833333333333333
 10
540177.6453807289
 20
1026220.764960723
 10
540177.6453807289
 20
1026165.350199895
 10
540126.6892788179
 20
1026169.17190754
 10
540126.6892788179
 20
1026220.764960723
1001
DCO15
1071
        3
1071
        3
1000
datoslink
1004
0000000000D09140
  0
LWPOLYLINE
  5
2A9
330
1874
100
AcDbEntity
  8
lotes chiriquí
100
AcDbPolyline
 90
        4
 70
     1
 43
0.0
 38
0.01
 10
538141.5726698321
 20
1023793.433923207
 10
538104.5174758853
 20
1023809.976420505
 10
538115.104674155
 20
1023833.135916725
 10
538152.1598681007
 20
1023817.916819207
1001
DCO15
1071
        3
1071
        3
1000
datoslink
1004
0000000000809140
  0
LWPOLYLINE
  5
2AA
330
1874
100
AcDbEntity
  8
lotes chiriquí
100
AcDbPolyline
 90
        4
 70
     1
 43
0.0
 38
0.02
 10
538361.3557926985
 20
1025210.052565167
 10
538398.4115941096
 20
1025179.613871146
 10
538377.8985611861
 20
1025144.543201955
 10
538340.1810490322
 20
1025178.290449669
1001
DCO15
1071
        3
1071
        3
1000
datoslink
1004
0000000000109140
  0
LWPOLYLINE
  5
2AB
330
1874
100
AcDbEntity
  8
lotes chiriquí
100
AcDbPolyline
 90
        4
 70
     1
 43
0.0
 38
0.0283333333333333
 10
537434.7929291586
 20
1028785.974140038
 10
537402.3691029223
 20
1028777.371900422
 10
537369.9452766869
 20
1028847.513238812
 10
537412.9564747558
 20
1028847.513238812
1001
DCO15
1071
        3
1071
        3
1000
datoslink
1004
0000000000AC9040
  0
LWPOLYLINE
  5
2AC
330
1874
100
AcDbEntity
  8
lotes chiriquí
100
AcDbPolyline
 90
        4
 70
     1
 43
0.0
 38
0.17
 10
538399.561744405
 20
1029711.971440321
 10
538386.3277465664
 20
1029758.952132648
 10
538424.7063402971
 20
1029768.215931138
 10
538439.9254378108
 20
1029719.911839025
1001
DCO15
1071
        3
1071
        3
1000
datoslink
1004
0000000000A89040
  0
LWPOLYLINE
  5
2AD
330
1874
100
AcDbEntity
  8
lotes chiriquí
100
AcDbPolyline
 90
        4
 70
     1
 43
0.0
 38
0.24
 10
538372.4320488369
 20
1029799.977525947
 10
538397.5766447289
 20
1029711.971440321
 10
538336.0385547821
 20
1029700.060842268
 10
538312.8790585651
 20
1029784.758428432
1001
DCO15
1071
        3
1071
        3
1000
datoslink
1004
0000000000A49040
  0
LWPOLYLINE
  5
2AE
330
1874
100
AcDbEntity
  8
lotes chiriquí
100
AcDbPolyline
 90
        4
 70
     1
 43
0.0
 38
0.2
 10
538780.0391822513
 20
1029164.745629718
 10
538834.2985733869
 20
1029171.362628635
 10
538845.5474715494
 20
1029106.516039228
 10
538795.2582797651
 20
1029099.237340418
1001
DCO15
1071
        3
1071
        3
1000
datoslink
1004
00000000009C9040
  0
LWPOLYLINE
  5
2AF
330
1874
100
AcDbEntity
  8
lotes chiriquí
100
AcDbPolyline
 90
        4
 70
     1
 43
0.0
 38
0.1
 10
538791.949780305
 20
1029168.054129178
 10
538716.5159926284
 20
1029158.790330691
 10
538702.6202948988
 20
1029223.636920094
 10
538777.392382684
 20
1029238.194317717
1001
DCO15
1071
        3
1071
        3
1000
datoslink
1004
0000000000989040
  0
LWPOLYLINE
  5
2B0
330
1874
100
AcDbEntity
  8
lotes chiriquí
100
AcDbPolyline
 90
        4
 70
     1
 43
0.0
 38
0.6666666666666666
 10
538633.8035061396
 20
1029177.979627555
 10
538706.59049425
 20
1029199.815723986
 10
538720.4861919796
 20
1029127.690435771
 10
538656.3013024656
 20
1029132.984034903
1001
DCO15
1071
        3
1071
        3
1000
datoslink
1004
0000000000949040
  0
LWPOLYLINE
  5
2B1
330
1874
100
AcDbEntity
  8
lotes chiriquí
100
AcDbPolyline
 90
        4
 70
     1
 43
0.0
 38
0.0833333333333333
 10
538782.0242819278
 20
1029224.298619984
 10
538826.3581746847
 20
1029222.313520315
 10
538833.636873496
 20
1029174.009428206
 10
538793.9348799812
 20
1029168.054129175
1001
DCO15
1071
        3
1071
        3
1000
datoslink
1004
0000000000909040
  0
LWPOLYLINE
  5
2B2
330
1874
100
AcDbEntity
  8
lotes chiriquí
100
AcDbPolyline
 90
        4
 70
     1
 43
0.0
 38
0.075
 10
538690.7096968442
 20
1029223.6369201
 10
538672.8437997615
 20
1029297.747307991
 10
538709.2372938163
 20
1029303.702607019
 10
538728.4265906821
 20
1029230.253919015
1001
DCO15
1071
        3
1071
        3
1000
datoslink
1004
00000000008C9040
  0
LWPOLYLINE
  5
2B3
330
1874
100
AcDbEntity
  8
lotes chiriquí
100
AcDbPolyline
 90
        4
 70
     1
 43
0.0
 38
0.3090909090909091
 10
538633.1418062468
 20
1029291.792008964
 10
538670.8587000854
 20
1029297.747307991
 10
538688.0628972752
 20
1029222.975220205
 10
538652.9928030055
 20
1029219.005020849
1001
DCO15
1071
        3
1071
        3
1000
datoslink
1004
0000000000889040
  0
LWPOLYLINE
  5
2B4
330
1874
100
AcDbEntity
  8
lotes chiriquí
100
AcDbPolyline
 90
        4
 70
     1
 43
0.0
 38
0.055
 10
538630.4950066795
 20
1029291.792008964
 10
538643.7290045181
 20
1029242.826216962
 10
538607.9972103547
 20
1029234.224118366
 10
538586.1611139215
 20
1029282.528210476
1001
DCO15
1071
        3
1071
        3
1000
datoslink
1004
0000000000849040
  0
LWPOLYLINE
  5
2B5
330
1874
100
AcDbEntity
  8
lotes chiriquí
100
AcDbPolyline
 90
        4
 70
     1
 43
0.0
 38
0.15
 10
538710.5606936011
 20
1029303.702607019
 10
538758.8647857104
 20
1029312.30470561
 10
538776.0689828992
 20
1029239.517717499
 10
538729.7499904661
 20
1029230.915618909
1001
DCO15
1071
        3
1071
        3
1000
datoslink
1004
0000000000809040
  0
LWPOLYLINE
  5
2B6
330
1874
100
AcDbEntity
  8
lotes chiriquí
100
AcDbPolyline
 90
        4
 70
     1
 43
0.0
 38
0.0538461538461539
 10
538641.0822049509
 20
1029432.73408594
 10
538651.6694032207
 20
1029383.106594045
 10
538602.0419113273
 20
1029375.827895235
 10
538591.4547130577
 20
1029424.793687237
1001
DCO15
1071
        3
1071
        3
1000
datoslink
1004
00000000007C9040
  0
LWPOLYLINE
  5
2B7
330
1874
100
AcDbEntity
  8
lotes chiriquí
100
AcDbPolyline
 90
        4
 70
     1
 43
0.0
 38
0.0125
 10
538753.5711865742
 20
1029338.772701287
 10
538801.2135787922
 20
1029346.051400101
 10
538816.432676306
 20
1029297.747307991
 10
538766.8051844129
 20
1029288.483509501
1001
DCO15
1071
        3
1071
        3
1000
datoslink
1004
0000000000789040
  0
LWPOLYLINE
  5
2B8
330
1874
100
AcDbEntity
  8
lotes chiriquí
100
AcDbPolyline
 90
        4
 70
     1
 43
0.0
 38
0.3174603174603174
 10
538688.7245971664
 20
1029302.379207236
 10
538625.8631074372
 20
1029292.453708853
 10
538603.3653111113
 20
1029350.021599451
 10
538674.1671995465
 20
1029357.961998155
1001
DCO15
1071
        3
1071
        3
1000
datoslink
1004
0000000000749040
  0
LWPOLYLINE
  5
2B9
330
1874
100
AcDbEntity
  8
lotes chiriquí
100
AcDbPolyline
 90
        4
 70
     1
 43
0.0
 38
0.01
 10
538676.8139991127
 20
1029358.623698048
 10
538742.3222884117
 20
1029372.519395778
 10
538758.2030858183
 20
1029314.289805289
 10
538692.0330966264
 20
1029302.379207236
1001
DCO15
1071
        3
1071
        3
1000
datoslink
1004
0000000000709040
  0
LWPOLYLINE
  5
2BA
330
1874
100
AcDbEntity
  8
lotes chiriquí
100
AcDbPolyline
 90
        5
 70
     1
 43
0.0
 38
0.359375
 10
538604.6887108963
 20
1029514.123172646
 10
538627.8482071124
 20
1029520.740171561
 10
538627.1865072194
 20
1029478.391378479
 10
538589.4696133826
 20
1029458.540381724
 10
538561.6782179205
 20
1029488.316876858
1001
DCO15
1071
        3
1071
        3
1000
datoslink
1004
00000000006C9040
  0
LWPOLYLINE
  5
2BB
330
1874
100
AcDbEntity
  8
lotes chiriquí
100
AcDbPolyline
 90
        4
 70
     1
 43
0.0
 38
0.9
 10
538418.7510412697
 20
1029427.440486807
 10
538465.7317335941
 20
1029446.629783669
 10
538490.2146295953
 20
1029402.295890912
 10
538443.2339372709
 20
1029383.768293937
1001
DCO15
1071
        3
1071
        3
1000
datoslink
1004
0000000000689040
  0
LWPOLYLINE
  5
2BC
330
1874
100
AcDbEntity
  8
lotes chiriquí
100
AcDbPolyline
 90
        4
 70
     1
 43
0.0
 38
0.3142857142857143
 10
538468.3785331631
 20
1029635.214252861
 10
538509.403926461
 20
1029567.720863888
 10
538451.1743359736
 20
1029547.869867131
 10
538410.8106425674
 20
1029615.363256104
1001
DCO15
1071
        3
1071
        3
1000
datoslink
1004
0000000000649040
  0
LWPOLYLINE
  5
2BD
330
1874
100
AcDbEntity
  8
lotes chiriquí
100
AcDbPolyline
 90
        4
 70
     1
 43
0.0
 38
0.05
 10
538604.0270110024
 20
1029516.108272318
 10
538557.7080185693
 20
1029488.316876858
 10
538535.2102222443
 20
1029533.974169403
 10
538586.1611139215
 20
1029559.780465185
1001
DCO15
1071
        3
1071
        3
1000
datoslink
1004
0000000000609040
  0
LWPOLYLINE
  5
2BE
330
1874
100
AcDbEntity
  8
lotes chiriquí
100
AcDbPolyline
 90
        4
 70
     1
 43
0.0
 38
0.08
 10
538667.5502006253
 20
1029549.854966808
 10
538717.8393924106
 20
1029557.133665617
 10
538740.9988886295
 20
1029514.784872535
 10
538685.416097709
 20
1029500.227474911
1001
DCO15
1071
        3
1071
        3
1000
datoslink
1004
00000000005C9040
  0
LWPOLYLINE
  5
2BF
330
1874
100
AcDbEntity
  8
lotes chiriquí
100
AcDbPolyline
 90
        4
 70
     1
 43
0.0
 38
0.0625
 10
538589.4696133826
 20
1029555.810265835
 10
538652.9928030055
 20
1029573.676162915
 10
538670.8587000854
 20
1029533.974169403
 10
538605.3504107874
 20
1029516.769972211
1001
DCO15
1071
        3
1071
        3
1000
datoslink
1004
0000000000589040
  0
LWPOLYLINE
  5
2C0
330
1874
100
AcDbEntity
  8
lotes chiriquí
100
AcDbPolyline
 90
        4
 70
     1
 43
0.0
 38
0.15
 10
538565.6484172726
 20
1029614.039856322
 10
538625.2014075434
 20
1029633.229153189
 10
538650.3460034365
 20
1029574.337862808
 10
538588.8079134906
 20
1029557.133665617
1001
DCO15
1071
        3
1071
        3
1000
datoslink
1004
0000000000549040
  0
LWPOLYLINE
  5
2C1
330
1874
100
AcDbEntity
  8
lotes chiriquí
100
AcDbPolyline
 90
        4
 70
     1
 43
0.0
 38
0.476923076923077
 10
538399.561744405
 20
1029613.378156429
 10
538373.7554486208
 20
1029705.354441406
 10
538443.8956371622
 20
1029718.588439243
 10
538476.3189318655
 20
1029639.184452217
1001
DCO15
1071
        3
1071
        3
1000
datoslink
1004
0000000000509040
1001
ADE_ENTITY_LOCK
1071
1342624882
1071
1342625087
  0
LWPOLYLINE
  5
2C2
330
1874
100
AcDbEntity
  8
lotes chiriquí
100
AcDbPolyline
 90
        4
 70
     1
 43
0.0
 38
0.09
 10
538371.1086490517
 20
1029704.031041624
 10
538393.6064453777
 20
1029626.612154269
 10
538324.1279567275
 20
1029614.039856322
 10
538304.93865986
 20
1029691.458743671
1001
DCO15
1071
        3
1071
        3
1000
datoslink
1004
00000000004C9040
1001
ADE_ENTITY_LOCK
1071
1342624882
1071
1342625087
  0
LWPOLYLINE
  5
2C3
330
1874
100
AcDbEntity
  8
lotes chiriquí
100
AcDbPolyline
 90
        4
 70
     1
 43
0.0
 38
0.26
 10
538445.8807368381
 20
1029717.265039459
 10
538502.7869275425
 20
1029754.320233403
 10
538543.8123208396
 20
1029659.035448972
 10
538478.3040315416
 20
1029638.522752322
1001
DCO15
1071
        3
1071
        3
1000
datoslink
1004
0000000000489040
1001
ADE_ENTITY_LOCK
1071
1342624882
1071
1342625087
  0
LWPOLYLINE
  5
2C4
330
1874
100
AcDbEntity
  8
lotes chiriquí
100
AcDbPolyline
 90
        4
 70
     1
 43
0.0
 38
0.03
 10
538541.8272211644
 20
1029669.622647239
 10
538600.7185115452
 20
1029690.135343888
 10
538629.8333067885
 20
1029637.199352536
 10
538564.3250174895
 20
1029615.363256104
1001
DCO15
1071
        3
1071
        3
1000
datoslink
1004
0000000000449040
  0
LWPOLYLINE
  5
2C5
330
1874
100
AcDbEntity
  8
lotes chiriquí
100
AcDbPolyline
 90
        4
 70
     1
 43
0.0
 38
0.6666666666666666
 10
538520.6528246236
 20
1029719.911839025
 10
538583.5143143525
 20
1029740.424535675
 10
538600.0568116513
 20
1029692.120443566
 10
538540.5038213797
 20
1029671.607746916
1001
DCO15
1071
        3
1071
        3
1000
datoslink
1004
0000000000409040
  0
LWPOLYLINE
  5
2C6
330
1874
100
AcDbEntity
  8
lotes chiriquí
100
AcDbPolyline
 90
        4
 70
     1
 43
0.0
 38
0.27
 10
538518.6677249475
 20
1029721.235238811
 10
538502.7869275425
 20
1029757.628732866
 10
538547.7825201918
 20
1029772.847830377
 10
538566.3101171657
 20
1029736.454336322
1001
DCO15
1071
        3
1071
        3
1000
datoslink
1004
00000000003C9040
  0
LWPOLYLINE
  5
2C7
330
1874
100
AcDbEntity
  8
lotes chiriquí
100
AcDbPolyline
 90
        4
 70
     1
 43
0.0
 38
1.147999999999999
 10
540601.993581474
 20
1022956.268655464
 10
540558.9830885008
 20
1022998.617448546
 10
540601.3318815827
 20
1023029.717343464
 10
540636.4019758535
 20
1022978.766451791
1001
DCO15
1071
        3
1071
        3
1000
datoslink
1004
0000000000289040
  0
LWPOLYLINE
  5
2C8
330
1874
100
AcDbEntity
  8
lotes chiriquí
100
AcDbPolyline
 90
        4
 70
     1
 43
0.0
 38
1.203999999999999
 10
540550.3809899055
 20
1023085.961834274
 10
540593.3914828803
 20
1023110.444730276
 10
540618.5360787725
 20
1023066.110837519
 10
540577.5106854729
 20
1023047.583240548
1001
DCO15
1071
        3
1071
        3
1000
datoslink
1004
0000000000209040
  0
LWPOLYLINE
  5
2C9
330
1874
100
AcDbEntity
  8
lotes chiriquí
100
AcDbPolyline
 90
        4
 70
     1
 43
0.0
 38
1.203999999999999
 10
540482.2259010402
 20
1023072.727836439
 10
540535.8235922847
 20
1023099.195832116
 10
540574.8638859066
 20
1023046.259840762
 10
540521.927894555
 20
1023023.100344542
1001
DCO15
1071
        3
1071
        3
1000
datoslink
1004
00000000001C9040
  0
LWPOLYLINE
  5
2CA
330
1874
100
AcDbEntity
  8
lotes chiriquí
100
AcDbPolyline
 90
        4
 70
     1
 43
0.0
 38
0.24
 10
540480.2408013642
 20
1023073.389536331
 10
540455.096205472
 20
1023112.429829955
 10
540498.768398338
 20
1023137.574425845
 10
540525.2363940133
 20
1023095.887332656
1001
DCO15
1071
        3
1071
        3
1000
datoslink
1004
0000000000109040
  0
LWPOLYLINE
  5
2CB
330
1874
100
AcDbEntity
  8
lotes chiriquí
100
AcDbPolyline
 90
        4
 70
     1
 43
0.0
 38
0.02
 10
540394.8815153075
 20
1022995.970648978
 10
540423.9963105526
 20
1023036.996042278
 10
540472.9621025529
 20
1023004.572747573
 10
540441.2005077425
 20
1022965.532453948
1001
DCO15
1071
        3
1071
        3
1000
datoslink
1004
00000000000C9040
  0
LWPOLYLINE
  5
2CC
330
1874
100
AcDbEntity
  8
lotes chiriquí
100
AcDbPolyline
 90
        5
 70
     1
 43
0.0
 38
1.203999999999999
 10
540541.7788913119
 20
1023231.535810495
 10
540554.3511892585
 20
1023211.02311385
 10
540554.3511892585
 20
1023179.923218928
 10
540504.0619974723
 20
1023179.923218928
 10
540486.8578002826
 20
1023231.535810495
1001
DCO15
1071
        3
1071
        3
1000
datoslink
1004
0000000000089040
  0
LWPOLYLINE
  5
2CD
330
1874
100
AcDbEntity
  8
lotes chiriquí
100
AcDbPolyline
 90
        4
 70
     1
 43
0.0
 38
1.26
 10
540486.1961003915
 20
1023298.367499579
 10
540508.6938967165
 20
1023298.367499579
 10
540541.1171914201
 20
1023232.859210282
 10
540485.5344005003
 20
1023232.859210282
1001
DCO15
1071
        3
1071
        3
1000
datoslink
1004
0000000000049040
  0
LWPOLYLINE
  5
2CE
330
1874
100
AcDbEntity
  8
lotes chiriquí
100
AcDbPolyline
 90
        4
 70
     1
 43
0.0
 38
1.147999999999999
 10
540484.2110007154
 20
1023298.367499579
 10
540484.2110007154
 20
1023228.227311037
 10
540443.8473073096
 20
1023228.227311037
 10
540444.5090072006
 20
1023298.367499579
1001
DCO15
1071
        3
1071
        3
1000
datoslink
1004
0000000000009040
  0
LWPOLYLINE
  5
2CF
330
1874
100
AcDbEntity
  8
lotes chiriquí
100
AcDbPolyline
 90
        4
 70
     1
 43
0.0
 38
0.01
 10
537548.9949857229
 20
1029292.284722099
 10
537498.7057939386
 20
1029292.284722099
 10
537498.7057939386
 20
1029339.927114313
 10
537548.9949857229
 20
1029339.927114313
1001
DCO15
1071
        3
1071
        3
1000
datoslink
1004
0000000000F08F40
  0
LWPOLYLINE
  5
2D0
330
1874
100
AcDbEntity
  8
lotes chiriquí
100
AcDbPolyline
 90
        4
 70
     1
 43
0.0
 38
1.26
 10
538085.4691152256
 20
1029027.740261439
 10
538085.4691152256
 20
1029078.029453223
 10
538135.7583070109
 20
1029078.029453223
 10
538135.7583070109
 20
1029027.740261439
1001
DCO15
1071
        3
1071
        3
1000
datoslink
1004
0000000000D08F40
  0
LWPOLYLINE
  5
2D1
330
1874
100
AcDbEntity
  8
lotes chiriquí
100
AcDbPolyline
 90
        4
 70
     1
 43
0.0
 38
1.203999999999999
 10
538120.5392094962
 20
1029026.416861657
 10
538120.5392094962
 20
1028976.78936976
 10
538070.2500177119
 20
1028976.127669867
 10
538070.2500177119
 20
1029026.416861657
1001
DCO15
1071
        3
1071
        3
1000
datoslink
1004
0000000000C88F40
  0
LWPOLYLINE
  5
2D2
330
1874
100
AcDbEntity
  8
lotes chiriquí
100
AcDbPolyline
 90
        4
 70
     1
 43
0.0
 38
0.2777777777777778
 10
538168.1816017144
 20
1028725.343410834
 10
538218.4707934985
 20
1028725.343410834
 10
538218.4707934985
 20
1028675.054219048
 10
538168.1816017144
 20
1028675.054219048
1001
DCO15
1071
        3
1071
        3
1000
datoslink
1004
0000000000B88F40
  0
LWPOLYLINE
  5
2D3
330
1874
100
AcDbEntity
  8
lotes chiriquí
100
AcDbPolyline
 90
        4
 70
     1
 43
0.0
 38
0.5
 10
537817.5374786279
 20
1028478.306195939
 10
537867.827494831
 20
1028478.306195939
 10
537867.827494831
 20
1028428.016179737
 10
537817.5374786279
 20
1028428.016179737
1001
DCO15
1071
        3
1071
        3
1000
datoslink
1004
0000000000B08F40
  0
LWPOLYLINE
  5
2D4
330
1874
100
AcDbEntity
  8
lotes chiriquí
100
AcDbPolyline
 90
        4
 70
     1
 43
0.0
 38
0.0925925925925926
 10
537512.488827711
 20
1028629.176244551
 10
537441.6857785824
 20
1028629.176244551
 10
537441.6857785824
 20
1028679.466260755
 10
537512.488827711
 20
1028679.466260755
1001
DCO15
1071
        3
1071
        3
1000
datoslink
1004
0000000000A88F40
  0
LWPOLYLINE
  5
2D5
330
1874
100
AcDbEntity
  8
lotes chiriquí
100
AcDbPolyline
 90
        4
 70
     1
 43
0.0
 38
0.0083333333333333
 10
537584.6152983186
 20
1028629.176244551
 10
537513.8122491903
 20
1028629.176244551
 10
537513.8122491903
 20
1028679.466260755
 10
537584.6152983186
 20
1028679.466260755
1001
DCO15
1071
        3
1071
        3
1000
datoslink
1004
0000000000908F40
  0
LWPOLYLINE
  5
2D6
330
1874
100
AcDbEntity
  8
lotes chiriquí
100
AcDbPolyline
 90
        4
 70
     1
 43
0.0
 38
0.0666666666666667
 10
537662.0354548414
 20
1028611.971765324
 10
537729.5299502714
 20
1028611.971765324
 10
537729.5299502714
 20
1028575.577674651
 10
537662.0354548414
 20
1028575.577674651
1001
DCO15
1071
        3
1071
        3
1000
datoslink
1004
0000000000388F40
  0
LWPOLYLINE
  5
2D7
330
1874
100
AcDbEntity
  8
lotes chiriquí
100
AcDbPolyline
 90
        4
 70
     1
 43
0.0
 38
0.06
 10
538345.5269843474
 20
1028516.763349016
 10
538345.5269843474
 20
1028588.228108878
 10
538416.3300334768
 20
1028588.228108878
 10
538416.3300334768
 20
1028517.42505975
1001
DCO15
1071
        3
1071
        3
1000
datoslink
1004
0000000000308F40
  0
LWPOLYLINE
  5
2D8
330
1874
100
AcDbEntity
  8
lotes chiriquí
100
AcDbPolyline
 90
        4
 70
     1
 43
0.0
 38
1.0
 10
538464.6349174604
 20
1028465.81162207
 10
538414.3449012572
 20
1028465.81162207
 10
538414.3449012572
 20
1028516.101638276
 10
538464.6349174604
 20
1028516.101638276
1001
DCO15
1071
        3
1071
        3
1000
datoslink
1004
0000000000288F40
  0
LWPOLYLINE
  5
2D9
330
1874
100
AcDbEntity
  8
lotes chiriquí
100
AcDbPolyline
 90
        4
 70
     1
 43
0.0
 38
0.4
 10
538525.5123054953
 20
1028419.491870304
 10
538525.5123054953
 20
1028469.781886508
 10
538575.8023217004
 20
1028469.781886508
 10
538575.8023217004
 20
1028419.491870304
1001
DCO15
1071
        3
1071
        3
1000
datoslink
1004
0000000000208F40
  0
LWPOLYLINE
  5
2DA
330
1874
100
AcDbEntity
  8
lotes chiriquí
100
AcDbPolyline
 90
        4
 70
     1
 43
0.0
 38
0.04
 10
538829.2375349356
 20
1028579.625869268
 10
538829.2375349356
 20
1028619.99022438
 10
538869.601890048
 20
1028619.99022438
 10
538869.601890048
 20
1028579.625869268
1001
DCO15
1071
        3
1071
        3
1000
datoslink
1004
0000000000188F40
  0
LWPOLYLINE
  5
2DB
330
1874
100
AcDbEntity
  8
lotes chiriquí
100
AcDbPolyline
 90
        4
 70
     1
 43
0.0
 38
1.5
 10
538612.196412372
 20
1028385.082911851
 10
538612.196412372
 20
1028436.034638792
 10
538662.486428577
 20
1028436.034638792
 10
538662.486428577
 20
1028385.082911851
1001
DCO15
1071
        3
1071
        3
1000
datoslink
1004
0000000000108F40
  0
LWPOLYLINE
  5
2DC
330
1874
100
AcDbEntity
  8
lotes chiriquí
100
AcDbPolyline
 90
        4
 70
     1
 43
0.0
 38
0.037037037037037
 10
538560.582974692
 20
1028365.893300404
 10
538611.5347016343
 20
1028365.893300404
 10
538611.5347016343
 20
1028324.867234558
 10
538560.582974692
 20
1028324.867234558
1001
DCO15
1071
        3
1071
        3
1000
datoslink
1004
0000000000088F40
  0
LWPOLYLINE
  5
2DD
330
1874
100
AcDbEntity
  8
lotes chiriquí
100
AcDbPolyline
 90
        4
 70
     1
 43
0.0
 38
0.4
 10
538727.3340810481
 20
1028256.711028388
 10
538727.3340810481
 20
1028195.171929609
 10
538678.367486325
 20
1028207.74443366
 10
538678.367486325
 20
1028256.711028388
1001
DCO15
1071
        3
1071
        3
1000
datoslink
1004
0000000000008F40
  0
LWPOLYLINE
  5
2DE
330
1874
100
AcDbEntity
  8
lotes chiriquí
100
AcDbPolyline
 90
        4
 70
     1
 43
0.0
 38
0.1666666666666666
 10
538727.9957917903
 20
1028258.034449863
 10
538677.7057755853
 20
1028258.034449863
 10
538677.7057755853
 20
1028307.662755327
 10
538727.9957917903
 20
1028308.324466066
1001
DCO15
1071
        3
1071
        3
1000
datoslink
1004
0000000000F88E40
  0
LWPOLYLINE
  5
2DF
330
1874
100
AcDbEntity
  8
lotes chiriquí
100
AcDbPolyline
 90
        4
 70
     1
 43
0.0
 38
0.5
 10
538610.8729908951
 20
1028417.506738085
 10
538610.8729908951
 20
1028367.216721883
 10
538550.6573135974
 20
1028367.216721883
 10
538550.6573135974
 20
1028417.506738085
1001
DCO15
1071
        3
1071
        3
1000
datoslink
1004
0000000000F08E40
  0
LWPOLYLINE
  5
2E0
330
1874
100
AcDbEntity
  8
lotes chiriquí
100
AcDbPolyline
 90
        4
 70
     1
 43
0.0
 38
0.125
 10
538531.4677021533
 20
1028277.224061308
 10
538531.4677021533
 20
1028226.934045106
 10
538460.6646530246
 20
1028226.934045106
 10
538460.0029422846
 20
1028277.224061308
1001
DCO15
1071
        3
1071
        3
1000
datoslink
1004
0000000000E88E40
  0
LWPOLYLINE
  5
2E1
330
1874
100
AcDbEntity
  8
lotes chiriquí
100
AcDbPolyline
 90
        4
 70
     1
 43
0.0
 38
0.375
 10
538531.4677021528
 20
1028279.209193528
 10
538461.3263637616
 20
1028279.209193528
 10
538461.3263637616
 20
1028330.16092047
 10
538531.4677021528
 20
1028330.16092047
1001
DCO15
1071
        3
1071
        3
1000
datoslink
1004
0000000000E08E40
  0
LWPOLYLINE
  5
2E2
330
1874
100
AcDbEntity
  8
lotes chiriquí
100
AcDbPolyline
 90
        4
 70
     1
 43
0.0
 38
2.375
 10
538533.4528343724
 20
1028298.398804974
 10
538582.4194290954
 20
1028293.105119057
 10
538583.7428505747
 20
1028226.934045106
 10
538533.4528343724
 20
1028226.934045106
1001
DCO15
1071
        3
1071
        3
1000
datoslink
1004
0000000000D88E40
  0
LWPOLYLINE
  5
2E3
330
1874
100
AcDbEntity
  8
lotes chiriquí
100
AcDbPolyline
 90
        4
 70
     1
 43
0.0
 38
0.0428571428571429
 10
538458.6795208054
 20
1028226.272334365
 10
538391.1850253753
 20
1028226.272334365
 10
538391.1850253753
 20
1028276.562350573
 10
538458.6795208054
 20
1028276.562350568
1001
DCO15
1071
        3
1071
        3
1000
datoslink
1004
0000000000D08E40
  0
LWPOLYLINE
  5
2E4
330
1874
100
AcDbEntity
  8
lotes chiriquí
100
AcDbPolyline
 90
        4
 70
     1
 43
0.0
 38
0.7000000000000001
 10
538971.1168943662
 20
1026983.118597675
 10
538971.1168943662
 20
1027033.408613883
 10
539021.4069105714
 20
1027033.408613883
 10
539021.4069105714
 20
1026983.118597675
1001
DCO15
1071
        3
1071
        3
1000
datoslink
1004
0000000000C88E40
  0
LWPOLYLINE
  5
2E5
330
1874
100
AcDbEntity
  8
lotes chiriquí
100
AcDbPolyline
 90
        4
 70
     1
 43
0.0
 38
1.147999999999999
 10
540528.5448934733
 20
1023261.312305635
 10
540557.6345634358
 20
1023261.591227554
 10
540562.9532878529
 20
1023232.859210282
 10
540553.6894893657
 20
1023215.65501309
1001
DCO15
1071
        3
1071
        3
1000
datoslink
1004
0000000000688E40
  0
LWPOLYLINE
  5
2E6
330
1874
100
AcDbEntity
  8
lotes chiriquí
100
AcDbPolyline
 90
        4
 70
     1
 43
0.0
 38
1.147999999999999
 10
540510.0172965014
 20
1023298.367499579
 10
540539.1066627316
 20
1023298.647028968
 10
540556.3111419585
 20
1023262.914649034
 10
540528.519290899
 20
1023262.914649034
1001
DCO15
1071
        3
1071
        3
1000
datoslink
1004
0000000000608E40
  0
LWPOLYLINE
  5
2E7
330
1874
100
AcDbEntity
  8
lotes chiriquí
100
AcDbPolyline
 90
        4
 70
     1
 43
0.0
 38
1.288
 10
540533.2836082224
 20
1023299.970450446
 10
540458.3779525077
 20
1023299.970450446
 10
540482.8612498689
 20
1023345.62849147
 10
540519.9170512827
 20
1023345.62849147
1001
DCO15
1071
        3
1071
        3
1000
datoslink
1004
0000000000588E40
  0
LWPOLYLINE
  5
2E8
330
1874
100
AcDbEntity
  8
lotes chiriquí
100
AcDbPolyline
 90
        4
 70
     1
 43
0.0
 38
0.4166666666666667
 10
538872.6543363258
 20
1028080.433517018
 10
538922.944352531
 20
1028080.433517018
 10
538922.944352531
 20
1028030.143500816
 10
538872.6543363258
 20
1028030.143500816
1001
DCO15
1071
        3
1071
        3
1000
datoslink
1004
0000000000408E40
  0
LWPOLYLINE
  5
2E9
330
1874
100
AcDbEntity
  8
lotes chiriquí
100
AcDbPolyline
 90
        4
 70
     1
 43
0.0
 38
1.433333333333332
 10
538584.8101646359
 20
1028287.548978489
 10
538635.7618915783
 20
1028287.548978489
 10
538636.0179989962
 20
1028236.197995459
 10
538585.0662720539
 20
1028236.197995459
1001
DCO15
1071
        3
1071
        3
1000
datoslink
1004
0000000000388E40
  0
LWPOLYLINE
  5
2EA
330
1874
100
AcDbEntity
  8
lotes chiriquí
100
AcDbPolyline
 90
        4
 70
     1
 43
0.0
 38
4.333333333333333
 10
538687.3753292626
 20
1028063.229037791
 10
538737.6653454658
 20
1028063.229037791
 10
538737.6653454658
 20
1028022.864682684
 10
538687.3753292626
 20
1028022.864682684
1001
DCO15
1071
        3
1071
        3
1000
datoslink
1004
0000000000308E40
  0
LWPOLYLINE
  5
2EB
330
1874
100
AcDbEntity
  8
lotes chiriquí
100
AcDbPolyline
 90
        4
 70
     1
 43
0.0
 38
0.12
 10
537821.063629083
 20
1028025.511525638
 10
537848.1937694034
 20
1028037.422318952
 10
537862.0896949347
 20
1028006.321914192
 10
537837.6063975726
 20
1027988.455724224
1001
DCO15
1071
        3
1071
        3
1000
datoslink
1004
0000000000288E40
  0
LWPOLYLINE
  5
2EC
330
1874
100
AcDbEntity
  8
lotes chiriquí
100
AcDbPolyline
 90
        4
 70
     1
 43
0.0
 38
0.6571428571428573
 10
538678.11137891
 20
1028064.552459271
 10
538678.11137891
 20
1028104.916814383
 10
538728.4013951122
 20
1028104.916814383
 10
538728.4013951122
 20
1028064.552459271
1001
DCO15
1071
        3
1071
        3
1000
datoslink
1004
0000000000208E40
  0
LWPOLYLINE
  5
2ED
330
1874
100
AcDbEntity
  8
lotes chiriquí
100
AcDbPolyline
 90
        4
 70
     1
 43
0.0
 38
1.147999999999999
 10
538080.5865811241
 20
1027965.295848344
 10
538080.5865811241
 20
1028015.585864546
 10
538130.8765973282
 20
1028015.585864546
 10
538130.8765973282
 20
1027965.295848344
1001
DCO15
1071
        3
1071
        3
1000
datoslink
1004
0000000000108E40
  0
LWPOLYLINE
  5
2EE
330
1874
100
AcDbEntity
  8
lotes chiriquí
100
AcDbPolyline
 90
        4
 70
     1
 43
0.0
 38
1.147999999999999
 10
537617.3890634607
 20
1027996.396253101
 10
537667.6790796641
 20
1027996.396253101
 10
537667.6790796641
 20
1027945.444526158
 10
537617.3890634607
 20
1027945.444526158
1001
DCO15
1071
        3
1071
        3
1000
datoslink
1004
0000000000008E40
  0
LWPOLYLINE
  5
2EF
330
1874
100
AcDbEntity
  8
lotes chiriquí
100
AcDbPolyline
 90
        4
 70
     1
 43
0.0
 38
0.75
 10
537798.036095351
 20
1028039.407451168
 10
537760.3185831969
 20
1028024.849814899
 10
537731.8650213975
 20
1028088.374045895
 10
537767.5974013321
 20
1028102.931682164
1001
DCO15
1071
        3
1071
        3
1000
datoslink
1004
0000000000E08D40
  0
LWPOLYLINE
  5
2F0
330
1874
100
AcDbEntity
  8
lotes chiriquí
100
AcDbPolyline
 90
        4
 70
     1
 43
0.0
 38
0.1666666666666666
 10
538259.248480795
 20
1027058.752135204
 10
538259.248480795
 20
1027109.042151406
 10
538309.538496998
 20
1027109.042151406
 10
538309.538496998
 20
1027058.752135204
1001
DCO15
1071
        3
1071
        3
1000
datoslink
1004
0000000000788D40
1001
ADE_ENTITY_LOCK
1071
1342624882
1071
1342625087
  0
LWPOLYLINE
  5
2F1
330
1874
100
AcDbEntity
  8
lotes chiriquí
100
AcDbPolyline
 90
        4
 70
     1
 43
0.0
 38
0.1666666666666666
 10
538504.7431651567
 20
1027146.759663559
 10
538504.7431651567
 20
1027096.469647355
 10
538454.4531489518
 20
1027096.469647355
 10
538454.4531489518
 20
1027146.759663559
1001
DCO15
1071
        3
1071
        3
1000
datoslink
1004
0000000000688D40
  0
LWPOLYLINE
  5
2F2
330
1874
100
AcDbEntity
  8
lotes chiriquí
100
AcDbPolyline
 90
        4
 70
     1
 43
0.0
 38
0.2142857142857143
 10
538506.7282973732
 20
1027146.759663559
 10
538545.7692310056
 20
1027146.759663559
 10
538545.7692310056
 20
1027096.469647355
 10
538506.7282973732
 20
1027096.469647355
1001
DCO15
1071
        3
1071
        3
1000
datoslink
1004
0000000000608D40
  0
LWPOLYLINE
  5
2F3
330
1874
100
AcDbEntity
  8
lotes chiriquí
100
AcDbPolyline
 90
        4
 70
     1
 43
0.0
 38
0.0777777777777778
 10
538766.8358532349
 20
1026685.864518007
 10
538830.3600842292
 20
1026721.596897941
 10
538859.4753567688
 20
1026684.541096527
 10
538795.2894150346
 20
1026644.176741416
1001
DCO15
1071
        3
1071
        3
1000
datoslink
1004
0000000000588D40
  0
LWPOLYLINE
  5
2F4
330
1874
100
AcDbEntity
  8
lotes chiriquí
100
AcDbPolyline
 90
        4
 70
     1
 43
0.0
 38
0.25
 10
538797.2745472539
 20
1026642.853319941
 10
538860.1370675079
 20
1026682.555964308
 10
538868.0775963822
 20
1026632.927658845
 10
538827.7132412699
 20
1026603.150675569
1001
DCO15
1071
        3
1071
        3
1000
datoslink
1004
0000000000508D40
  0
LWPOLYLINE
  5
2F5
330
1874
100
AcDbEntity
  8
lotes chiriquí
100
AcDbPolyline
 90
        4
 70
     1
 43
0.0
 38
0.3035714285714286
 10
538793.9659935553
 20
1026642.191609202
 10
538742.3525558729
 20
1026611.09120444
 10
538713.8989940734
 20
1026652.778981032
 10
538764.8507210184
 20
1026684.541096527
1001
DCO15
1071
        3
1071
        3
1000
datoslink
1004
0000000000488D40
  0
LWPOLYLINE
  5
2F6
330
1874
100
AcDbEntity
  8
lotes chiriquí
100
AcDbPolyline
 90
        4
 70
     1
 43
0.0
 38
0.3
 10
538795.2894150346
 20
1026641.529898461
 10
538825.7281090513
 20
1026602.488964829
 10
538772.7912498918
 20
1026568.080006374
 10
538744.3376880922
 20
1026609.76778296
1001
DCO15
1071
        3
1071
        3
1000
datoslink
1004
0000000000408D40
  0
LWPOLYLINE
  5
2F7
330
1874
100
AcDbEntity
  8
lotes chiriquí
100
AcDbPolyline
 90
        4
 70
     1
 43
0.0
 38
0.0833333333333333
 10
538844.9177204991
 20
1026504.55577538
 10
538844.9177204991
 20
1026554.845791584
 10
538895.2077367023
 20
1026554.845791584
 10
538895.2077367023
 20
1026504.55577538
1001
DCO15
1071
        3
1071
        3
1000
datoslink
1004
0000000000288D40
  0
LWPOLYLINE
  5
2F8
330
1874
100
AcDbEntity
  8
lotes chiriquí
100
AcDbPolyline
 90
        4
 70
     1
 43
0.0
 38
0.1666666666666666
 10
538882.6352326507
 20
1026360.302834162
 10
538932.2635381157
 20
1026409.931139629
 10
538967.9959180504
 20
1026374.198759695
 10
538918.3676125846
 20
1026324.570454226
1001
DCO15
1071
        3
1071
        3
1000
datoslink
1004
0000000000208D40
  0
LWPOLYLINE
  5
2F9
330
1874
100
AcDbEntity
  8
lotes chiriquí
100
AcDbPolyline
 90
        4
 70
     1
 43
0.0
 38
0.0666666666666667
 10
538353.9283517756
 20
1025815.0531848
 10
538312.2405751868
 20
1025815.0531848
 10
538312.2405751868
 20
1025855.417539911
 10
538353.9283517756
 20
1025855.417539911
1001
DCO15
1071
        3
1071
        3
1000
datoslink
1004
0000000000008D40
  0
LWPOLYLINE
  5
2FA
330
1874
100
AcDbEntity
  8
lotes chiriquí
100
AcDbPolyline
 90
        4
 70
     1
 43
0.0
 38
0.0285714285714286
 10
539457.661865293
 20
1024326.336363032
 10
539457.661865293
 20
1024366.700718146
 10
539497.3645096654
 20
1024366.700718146
 10
539498.0262204025
 20
1024326.336363032
1001
DCO15
1071
        3
1071
        3
1000
datoslink
1004
0000000000F88C40
  0
LWPOLYLINE
  5
2FB
330
1874
100
AcDbEntity
  8
lotes chiriquí
100
AcDbPolyline
 90
        4
 70
     1
 43
0.0
 38
0.4285714285714287
 10
539067.6495554205
 20
1024408.785521176
 10
539067.6495554205
 20
1024367.097744584
 10
539027.2852003111
 20
1024367.097744584
 10
539027.2852003111
 20
1024408.785521176
1001
DCO15
1071
        3
1071
        3
1000
datoslink
1004
0000000000F08C40
  0
LWPOLYLINE
  5
2FC
330
1874
100
AcDbEntity
  8
lotes chiriquí
100
AcDbPolyline
 90
        4
 70
     1
 43
0.0
 38
0.23
 10
538873.1065980019
 20
1024508.703842841
 10
538912.8092423733
 20
1024508.703842841
 10
538912.8092423733
 20
1024468.339487733
 10
538872.4448872618
 20
1024468.339487733
1001
DCO15
1071
        3
1071
        3
1000
datoslink
1004
0000000000E88C40
  0
LWPOLYLINE
  5
2FD
330
1874
100
AcDbEntity
  8
lotes chiriquí
100
AcDbPolyline
 90
        4
 70
     1
 43
0.0
 38
1.236666666666665
 10
537406.6232570821
 20
1042555.80552602
 10
537411.9169429978
 20
1042611.389228141
 10
537456.9132732851
 20
1042611.389228141
 10
537456.9132732851
 20
1042555.80552602
1001
DCO15
1071
        3
1071
        3
1000
datoslink
1004
0000000000B08C40
  0
LWPOLYLINE
  5
2FE
330
1874
100
AcDbEntity
  8
lotes chiriquí
100
AcDbPolyline
 90
        4
 70
     1
 43
0.0
 38
1.203999999999999
 10
537365.5971912332
 20
1042479.708790974
 10
537331.1882327787
 20
1042510.147484995
 10
537357.6566623572
 20
1042553.158683061
 10
537394.7124637701
 20
1042526.028542742
1001
DCO15
1071
        3
1071
        3
1000
datoslink
1004
0000000000A88C40
  0
LWPOLYLINE
  5
2FF
330
1874
100
AcDbEntity
  8
lotes chiriquí
100
AcDbPolyline
 90
        4
 70
     1
 43
0.0
 38
0.3333333333333333
 10
536429.0118105179
 20
1041749.841845287
 10
536429.0118105179
 20
1041790.2062004
 10
536469.3761656303
 20
1041790.2062004
 10
536469.3761656303
 20
1041749.841845287
1001
DCO15
1071
        3
1071
        3
1000
datoslink
1004
0000000000908C40
  0
LWPOLYLINE
  5
300
330
1874
100
AcDbEntity
  8
lotes chiriquí
100
AcDbPolyline
 90
        4
 70
     1
 43
0.0
 38
0.2291666666666666
 10
536448.201421965
 20
1041536.770987162
 10
536424.379835343
 20
1041503.023739448
 10
536386.6623231889
 20
1041536.109276423
 10
536418.424438685
 20
1041562.577706005
1001
DCO15
1071
        3
1071
        3
1000
datoslink
1004
0000000000888C40
  0
LWPOLYLINE
  5
301
330
1874
100
AcDbEntity
  8
lotes chiriquí
100
AcDbPolyline
 90
        4
 70
     1
 43
0.0
 38
1.215454545454544
 10
536796.2612709507
 20
1036263.201077496
 10
536845.8895764129
 20
1036263.201077496
 10
536845.8895764129
 20
1036212.911061294
 10
536796.2612709507
 20
1036212.911061294
1001
DCO15
1071
        3
1071
        3
1000
datoslink
1004
0000000000788C40
  0
LWPOLYLINE
  5
302
330
1874
100
AcDbEntity
  8
lotes chiriquí
100
AcDbPolyline
 90
        4
 70
     1
 43
0.0
 38
1.2075
 10
537062.2689882368
 20
1035850.293576039
 10
537062.2689882368
 20
1035800.665270576
 10
537011.9789720345
 20
1035800.665270576
 10
537011.9789720345
 20
1035850.293576039
1001
DCO15
1071
        3
1071
        3
1000
datoslink
1004
0000000000708C40
  0
LWPOLYLINE
  5
303
330
1874
100
AcDbEntity
  8
lotes chiriquí
100
AcDbPolyline
 90
        4
 70
     1
 43
0.0
 38
1.147999999999999
 10
537066.9009634126
 20
1036316.799647398
 10
537066.9009634126
 20
1036266.509631194
 10
537016.6109472094
 20
1036266.509631194
 10
537016.6109472094
 20
1036316.799647398
1001
DCO15
1071
        3
1071
        3
1000
datoslink
1004
0000000000688C40
  0
LWPOLYLINE
  5
304
330
1874
100
AcDbEntity
  8
lotes chiriquí
100
AcDbPolyline
 90
        4
 70
     1
 43
0.0
 38
1.225
 10
537021.2429223871
 20
1035985.282566899
 10
536967.6443524864
 20
1035985.282566899
 10
536967.6443524864
 20
1036025.646922011
 10
537021.2429223871
 20
1036025.646922011
1001
DCO15
1071
        3
1071
        3
1000
datoslink
1004
0000000000608C40
  0
LWPOLYLINE
  5
305
330
1874
100
AcDbEntity
  8
lotes chiriquí
100
AcDbPolyline
 90
        4
 70
     1
 43
0.0
 38
1.139444444444444
 10
537021.2429223871
 20
1035983.29743468
 10
537021.2429223871
 20
1035933.007418478
 10
536965.6592202671
 20
1035933.007418478
 10
536965.6592202671
 20
1035983.29743468
1001
DCO15
1071
        3
1071
        3
1000
datoslink
1004
0000000000588C40
  0
LWPOLYLINE
  5
306
330
1874
100
AcDbEntity
  8
lotes chiriquí
100
AcDbPolyline
 90
        4
 70
     1
 43
0.0
 38
0.03125
 10
537022.5663438672
 20
1035983.29743468
 10
537078.1500459846
 20
1035983.29743468
 10
537078.1500459846
 20
1035913.156096293
 10
537022.5663438672
 20
1035913.156096293
1001
DCO15
1071
        3
1071
        3
1000
datoslink
1004
0000000000508C40
  0
LWPOLYLINE
  5
307
330
1874
100
AcDbEntity
  8
lotes chiriquí
100
AcDbPolyline
 90
        4
 70
     1
 43
0.0
 38
1.203999999999999
 10
537123.8080870116
 20
1036286.36095338
 10
537068.2243848916
 20
1036286.36095338
 10
537068.2243848916
 20
1036336.650969584
 10
537123.8080870116
 20
1036336.650969584
1001
DCO15
1071
        3
1071
        3
1000
datoslink
1004
0000000000488C40
  0
LWPOLYLINE
  5
308
330
1874
100
AcDbEntity
  8
lotes chiriquí
100
AcDbPolyline
 90
        5
 70
     1
 43
0.0
 38
1.987999999999999
 10
537626.0465383064
 20
1040621.228007965
 10
537630.6785134822
 20
1040668.871181208
 10
537647.2212819699
 20
1040699.97158597
 10
537684.9387941232
 20
1040678.135131564
 10
537684.9387941232
 20
1040621.228007965
1001
DCO15
1071
        3
1071
        3
1000
datoslink
1004
0000000000408C40
  0
LWPOLYLINE
  5
309
330
1874
100
AcDbEntity
  8
lotes chiriquí
100
AcDbPolyline
 90
        4
 70
     1
 43
0.0
 38
2.426666666666665
 10
537641.265885315
 20
1040497.488099676
 10
537611.4889020353
 20
1040526.603372212
 10
537663.7640504579
 20
1040565.644305845
 10
537691.5559015199
 20
1040524.618239999
1001
DCO15
1071
        3
1071
        3
1000
datoslink
1004
0000000000388C40
  0
LWPOLYLINE
  5
30A
330
1874
100
AcDbEntity
  8
lotes chiriquí
100
AcDbPolyline
 90
        5
 70
     1
 43
0.0
 38
1.596
 10
537650.5298356684
 20
1040557.042066233
 10
537613.4740342546
 20
1040609.317214655
 10
537626.7082490464
 20
1040619.904586486
 10
537684.9387941232
 20
1040619.904586486
 10
537684.9387941232
 20
1040587.48076025
1001
DCO15
1071
        3
1071
        3
1000
datoslink
1004
0000000000308C40
  0
LWPOLYLINE
  5
30B
330
1874
100
AcDbEntity
  8
lotes chiriquí
100
AcDbPolyline
 90
        4
 70
     1
 43
0.0
 38
1.324545454545454
 10
537610.8271912979
 20
1040528.588504432
 10
537569.8011254463
 20
1040572.261413243
 10
537612.1506127752
 20
1040608.655503916
 10
537648.544703449
 20
1040556.380355494
1001
DCO15
1071
        3
1071
        3
1000
datoslink
1004
0000000000288C40
  0
LWPOLYLINE
  5
30C
330
1874
100
AcDbEntity
  8
lotes chiriquí
100
AcDbPolyline
 90
        5
 70
     1
 43
0.0
 38
2.156
 10
537726.6265707137
 20
1040596.082999861
 10
537726.6265707137
 20
1040533.220479609
 10
537693.5410337364
 20
1040525.941661473
 10
537665.0874719368
 20
1040567.629438065
 10
537685.6005048622
 20
1040586.15733877
1001
DCO15
1071
        3
1071
        3
1000
datoslink
1004
0000000000208C40
  0
LWPOLYLINE
  5
30D
330
1874
100
AcDbEntity
  8
lotes chiriquí
100
AcDbPolyline
 90
        4
 70
     1
 43
0.0
 38
0.3333333333333333
 10
537424.8864734937
 20
1040641.079330152
 10
537469.2210930409
 20
1040617.919454267
 10
537432.8270023671
 20
1040592.774446167
 10
537409.0054157433
 20
1040602.700107258
1001
DCO15
1071
        3
1071
        3
1000
datoslink
1004
0000000000188C40
  0
LWPOLYLINE
  5
30E
330
1874
100
AcDbEntity
  8
lotes chiriquí
100
AcDbPolyline
 90
        5
 70
     1
 43
0.0
 38
0.2285714285714286
 10
537500.321497797
 20
1040731.733701466
 10
537521.4962414624
 20
1040780.700296189
 10
537550.6115140002
 20
1040807.168725768
 10
537577.0799435835
 20
1040785.993982106
 10
537548.6263817828
 20
1040715.852643719
1001
DCO15
1071
        3
1071
        3
1000
datoslink
1004
0000000000108C40
  0
LWPOLYLINE
  5
30F
330
1874
100
AcDbEntity
  8
lotes chiriquí
100
AcDbPolyline
 90
        4
 70
     1
 43
0.0
 38
1.231999999999999
 10
537547.9646710437
 20
1040523.956529254
 10
537584.3587617175
 20
1040550.424958836
 10
537609.5037698186
 20
1040527.265082951
 10
537575.094811364
 20
1040496.164678195
1001
DCO15
1071
        3
1071
        3
1000
datoslink
1004
0000000000088C40
  0
LWPOLYLINE
  5
310
330
1874
100
AcDbEntity
  8
lotes chiriquí
100
AcDbPolyline
 90
        5
 70
     1
 43
0.0
 38
2.072
 10
537496.3512333613
 20
1040588.80418173
 10
537473.8530682167
 20
1040617.257743526
 10
537522.1579522025
 20
1040650.343280501
 10
537553.2583569587
 20
1040620.566297226
 10
537534.7304562517
 20
1040603.361817999
1001
DCO15
1071
        3
1071
        3
1000
datoslink
1004
0000000000008C40
  0
LWPOLYLINE
  5
311
330
1874
100
AcDbEntity
  8
lotes chiriquí
100
AcDbPolyline
 90
        4
 70
     1
 43
0.0
 38
1.344
 10
537463.9274071231
 20
1040467.711116398
 10
537516.2025555456
 20
1040495.502967456
 10
537546.6412495645
 20
1040455.138612345
 10
537500.9832085371
 20
1040420.729653889
1001
DCO15
1071
        3
1071
        3
1000
datoslink
1004
0000000000F88B40
  0
LWPOLYLINE
  5
312
330
1874
100
AcDbEntity
  8
lotes chiriquí
100
AcDbPolyline
 90
        4
 70
     1
 43
0.0
 38
1.916666666666666
 10
537477.1616219153
 20
1040679.458553044
 10
537498.9980763178
 20
1040730.410279987
 10
537548.6263817828
 20
1040713.867511499
 10
537520.8345307233
 20
1040654.975255681
1001
DCO15
1071
        3
1071
        3
1000
datoslink
1004
0000000000F08B40
  0
LWPOLYLINE
  5
313
330
1874
100
AcDbEntity
  8
lotes chiriquí
100
AcDbPolyline
 90
        4
 70
     1
 43
0.0
 38
1.231999999999999
 10
537424.2247627535
 20
1040158.692201041
 10
537471.2062252584
 20
1040197.733134674
 10
537500.321497797
 20
1040173.249837314
 10
537467.8976715618
 20
1040145.457986252
1001
DCO15
1071
        3
1071
        3
1000
datoslink
1004
0000000000E88B40
  0
LWPOLYLINE
  5
314
330
1874
100
AcDbEntity
  8
lotes chiriquí
100
AcDbPolyline
 90
        4
 70
     1
 43
0.0
 38
1.54
 10
537450.6931923339
 20
1040379.041877303
 10
537416.9459446166
 20
1040424.038207589
 10
537461.942274905
 20
1040466.387694919
 10
537499.659787058
 20
1040419.406232411
1001
DCO15
1071
        3
1071
        3
1000
datoslink
1004
0000000000E08B40
  0
LWPOLYLINE
  5
315
330
1874
100
AcDbEntity
  8
lotes chiriquí
100
AcDbPolyline
 90
        4
 70
     1
 43
0.0
 38
1.26
 10
537600.9015302049
 20
1040468.372827139
 10
537547.9646710433
 20
1040455.800323084
 10
537518.1876877644
 20
1040496.164678195
 10
537546.641249564
 20
1040522.633107779
1001
DCO15
1071
        3
1071
        3
1000
datoslink
1004
0000000000D88B40
  0
LWPOLYLINE
  5
316
330
1874
100
AcDbEntity
  8
lotes chiriquí
100
AcDbPolyline
 90
        4
 70
     1
 43
0.0
 38
1.933333333333332
 10
537442.0909527206
 20
1040697.986453747
 10
537455.3251675098
 20
1040738.350808859
 10
537497.6746548386
 20
1040731.733701466
 10
537475.1764896959
 20
1040680.120263783
1001
DCO15
1071
        3
1071
        3
1000
datoslink
1004
0000000000D08B40
  0
LWPOLYLINE
  5
317
330
1874
100
AcDbEntity
  8
lotes chiriquí
100
AcDbPolyline
 90
        4
 70
     1
 43
0.0
 38
0.4400000000000002
 10
537340.8492095731
 20
1040851.503345318
 10
537325.6298625646
 20
1040787.317403581
 10
537302.46998668
 20
1040791.287668019
 10
537303.7934081601
 20
1040852.165056057
1001
DCO15
1071
        3
1071
        3
1000
datoslink
1004
0000000000C88B40
  0
LWPOLYLINE
  5
318
330
1874
100
AcDbEntity
  8
lotes chiriquí
100
AcDbPolyline
 90
        4
 70
     1
 43
0.0
 38
1.515151515151514
 10
537441.4292419814
 20
1040696.663032271
 10
537519.5111092441
 20
1040653.651834201
 10
537469.2210930409
 20
1040619.242875745
 10
537424.2247627535
 20
1040643.064462371
1001
DCO15
1071
        3
1071
        3
1000
datoslink
1004
0000000000C08B40
  0
LWPOLYLINE
  5
319
330
1874
100
AcDbEntity
  8
lotes chiriquí
100
AcDbPolyline
 90
        4
 70
     1
 43
0.0
 38
0.0416666666666667
 10
537436.7972668029
 20
1040228.83353943
 10
537469.882803781
 20
1040198.394845413
 10
537422.2396305343
 20
1040158.692201041
 10
537394.4477794748
 20
1040197.733134674
1001
DCO15
1071
        3
1071
        3
1000
datoslink
1004
0000000000B88B40
  0
LWPOLYLINE
  5
31A
330
1874
100
AcDbEntity
  8
lotes chiriquí
100
AcDbPolyline
 90
        4
 70
     1
 43
0.0
 38
0.27
 10
537342.1726310525
 20
1040850.841634579
 10
537369.9644821128
 20
1040842.901105702
 10
537352.760002885
 20
1040779.376874709
 10
537326.9532840438
 20
1040787.317403581
1001
DCO15
1071
        3
1071
        3
1000
datoslink
1004
0000000000B08B40
  0
LWPOLYLINE
  5
31B
330
1874
100
AcDbEntity
  8
lotes chiriquí
100
AcDbPolyline
 90
        5
 70
     1
 43
0.0
 38
1.372
 10
537381.8752754228
 20
1040359.190555116
 10
537387.1689613396
 20
1040383.01214174
 10
537415.6225231403
 20
1040422.053075369
 10
537449.3697708548
 20
1040377.056745084
 10
537428.1950271893
 20
1040363.822530294
1001
DCO15
1071
        3
1071
        3
1000
datoslink
1004
0000000000A88B40
  0
LWPOLYLINE
  5
31C
330
1874
100
AcDbEntity
  8
lotes chiriquí
100
AcDbPolyline
 90
        5
 70
     1
 43
0.0
 38
1.147999999999999
 10
537282.6186644966
 20
1039990.617673205
 10
537269.3844497047
 20
1040000.543334296
 10
537310.4105155571
 20
1040043.554532366
 10
537354.7451351026
 20
1040019.071235003
 10
537317.6893336914
 20
1039985.323987288
1001
DCO15
1071
        3
1071
        3
1000
datoslink
1004
0000000000A08B40
  0
LWPOLYLINE
  5
31D
330
1874
100
AcDbEntity
  8
lotes chiriquí
100
AcDbPolyline
 90
        4
 70
     1
 43
0.0
 38
0.28125
 10
537369.3027713727
 20
1040680.781974524
 10
537321.659598127
 20
1040686.075660437
 10
537355.4068458443
 20
1040775.406610271
 10
537403.0500190882
 20
1040746.953048475
1001
DCO15
1071
        3
1071
        3
1000
datoslink
1004
0000000000988B40
  0
LWPOLYLINE
  5
31E
330
1874
100
AcDbEntity
  8
lotes chiriquí
100
AcDbPolyline
 90
        4
 70
     1
 43
0.0
 38
0.14
 10
537314.3807799928
 20
1040615.272611309
 10
537321.659598127
 20
1040684.752238961
 10
537369.3027713727
 20
1040678.796842305
 10
537365.3325069351
 20
1040609.317214655
1001
DCO15
1071
        3
1071
        3
1000
datoslink
1004
0000000000908B40
  0
LWPOLYLINE
  5
31F
330
1874
100
AcDbEntity
  8
lotes chiriquí
100
AcDbPolyline
 90
        4
 70
     1
 43
0.0
 38
1.203999999999999
 10
537185.3471857868
 20
1039989.294251725
 10
537231.0052268142
 20
1039968.7812188
 10
537205.198507973
 20
1039926.43173147
 10
537161.525599163
 20
1039949.591607354
1001
DCO15
1071
        3
1071
        3
1000
datoslink
1004
0000000000888B40
  0
LWPOLYLINE
  5
320
330
1874
100
AcDbEntity
  8
lotes chiriquí
100
AcDbPolyline
 90
        4
 70
     1
 43
0.0
 38
1.203999999999999
 10
537285.2655074541
 20
1040586.81904951
 10
537256.8119456546
 20
1040557.703776971
 10
537227.6966731176
 20
1040584.17220655
 10
537252.8416812187
 20
1040614.610900572
1001
DCO15
1071
        3
1071
        3
1000
datoslink
1004
0000000000808B40
  0
LWPOLYLINE
  5
321
330
1874
100
AcDbEntity
  8
lotes chiriquí
100
AcDbPolyline
 90
        4
 70
     1
 43
0.0
 38
1.189999999999999
 10
537365.9942176749
 20
1040246.038018656
 10
537391.1392257761
 20
1040203.688531331
 10
537346.8046062289
 20
1040179.205233966
 10
537320.9978873878
 20
1040222.216432037
1001
DCO15
1071
        3
1071
        3
1000
datoslink
1004
0000000000708B40
  0
LWPOLYLINE
  5
322
330
1874
100
AcDbEntity
  8
lotes chiriquí
100
AcDbPolyline
 90
        4
 70
     1
 43
0.0
 38
2.883999999999999
 10
537360.0388210192
 20
1040244.714597177
 10
537325.6298625646
 20
1040226.186696471
 10
537302.46998668
 20
1040259.27223345
 10
537338.2023666147
 20
1040279.785266377
1001
DCO15
1071
        3
1071
        3
1000
datoslink
1004
0000000000688B40
  0
LWPOLYLINE
  5
323
330
1874
100
AcDbEntity
  8
lotes chiriquí
100
AcDbPolyline
 90
        4
 70
     1
 43
0.0
 38
1.987999999999999
 10
537381.2135646857
 20
1040357.867133638
 10
537428.1950271893
 20
1040362.499108815
 10
537423.5630520137
 20
1040334.707257753
 10
537371.9496143321
 20
1040318.826200004
1001
DCO15
1071
        3
1071
        3
1000
datoslink
1004
0000000000608B40
  0
LWPOLYLINE
  5
324
330
1874
100
AcDbEntity
  8
lotes chiriquí
100
AcDbPolyline
 90
        4
 70
     1
 43
0.0
 38
1.203999999999999
 10
536911.3989396264
 20
1039858.2755253
 10
536939.1907906868
 20
1039837.100781634
 10
536919.3394685005
 20
1039807.985509096
 10
536889.5624852207
 20
1039832.46880646
1001
DCO15
1071
        3
1071
        3
1000
datoslink
1004
0000000000488B40
  0
LWPOLYLINE
  5
325
330
1874
100
AcDbEntity
  8
lotes chiriquí
100
AcDbPolyline
 90
        4
 70
     1
 43
0.0
 38
0.125
 10
536882.9453778268
 20
1039647.189799392
 10
536906.7669644486
 20
1039678.95191489
 10
536940.5142121641
 20
1039657.777171228
 10
536916.0309148021
 20
1039625.353344991
1001
DCO15
1071
        3
1071
        3
1000
datoslink
1004
0000000000408B40
  0
LWPOLYLINE
  5
326
330
1874
100
AcDbEntity
  8
lotes chiriquí
100
AcDbPolyline
 90
        4
 70
     1
 43
0.0
 38
1.1
 10
536852.5066838085
 20
1039788.79589765
 10
536878.9751133888
 20
1039800.044980224
 10
536903.4584107527
 20
1039779.531947298
 10
536874.3431382132
 20
1039737.844170707
1001
DCO15
1071
        3
1071
        3
1000
datoslink
1004
0000000000388B40
  0
LWPOLYLINE
  5
327
330
1874
100
AcDbEntity
  8
lotes chiriquí
100
AcDbPolyline
 90
        4
 70
     1
 43
0.0
 38
0.2666666666666666
 10
536850.5215515915
 20
1039788.795897649
 10
536873.6814274733
 20
1039735.859038489
 10
536861.108923424
 20
1039721.963112959
 10
536814.1274609175
 20
1039758.357203634
1001
DCO15
1071
        3
1071
        3
1000
datoslink
1004
0000000000308B40
1001
ADE_ENTITY_LOCK
1071
1342624882
1071
1342625087
  0
LWPOLYLINE
  5
328
330
1874
100
AcDbEntity
  8
lotes chiriquí
100
AcDbPolyline
 90
        4
 70
     1
 43
0.0
 38
0.25
 10
536800.2315353863
 20
1039766.959443249
 10
536860.447212684
 20
1039719.97798074
 10
536814.7891716566
 20
1039694.832972642
 10
536765.8225769317
 20
1039729.241931095
1001
DCO15
1071
        3
1071
        3
1000
datoslink
1004
0000000000288B40
  0
LWPOLYLINE
  5
329
330
1874
100
AcDbEntity
  8
lotes chiriquí
100
AcDbPolyline
 90
        4
 70
     1
 43
0.0
 38
1.203999999999999
 10
536763.8374447142
 20
1039796.736426527
 10
536814.1274609175
 20
1039817.911170186
 10
536849.1981301112
 20
1039790.11931913
 10
536812.1423286982
 20
1039759.680625113
1001
DCO15
1071
        3
1071
        3
1000
datoslink
1004
0000000000208B40
  0
LWPOLYLINE
  5
32A
330
1874
100
AcDbEntity
  8
lotes chiriquí
100
AcDbPolyline
 90
        4
 70
     1
 43
0.0
 38
0.0833333333333333
 10
536756.5586265782
 20
1039800.706690965
 10
536798.9081139062
 20
1039767.62115399
 10
536765.1608661916
 20
1039729.903641837
 10
536722.1496681236
 20
1039763.650889551
1001
DCO15
1071
        3
1071
        3
1000
datoslink
1004
0000000000188B40
  0
LWPOLYLINE
  5
32B
330
1874
100
AcDbEntity
  8
lotes chiriquí
100
AcDbPolyline
 90
        4
 70
     1
 43
0.0
 38
0.15
 10
536648.0380652977
 20
1039837.762492374
 10
536656.6403049112
 20
1039883.420533404
 10
536695.0195278046
 20
1039874.156583048
 10
536686.4172881911
 20
1039825.851699064
1001
DCO15
1071
        3
1071
        3
1000
datoslink
1004
0000000000108B40
  0
LWPOLYLINE
  5
32C
330
1874
100
AcDbEntity
  8
lotes chiriquí
100
AcDbPolyline
 90
        5
 70
     1
 43
0.0
 38
0.02
 10
538865.5630955714
 20
1025011.736347025
 10
538907.2508721604
 20
1024941.595008636
 10
538917.1765332538
 20
1024907.186050182
 10
538869.533360009
 20
1024895.936967607
 10
538819.9050545441
 20
1024995.855289278
1001
DCO15
1071
        3
1071
        3
1000
datoslink
1004
0000000000F88A40
  0
LWPOLYLINE
  5
32D
330
1874
100
AcDbEntity
  8
lotes chiriquí
100
AcDbPolyline
 90
        4
 70
     1
 43
0.0
 38
0.0083333333333333
 10
539830.3373537883
 20
1025326.048948295
 10
539830.3373537883
 20
1025376.338964499
 10
539880.6273699926
 20
1025376.338964499
 10
539880.6273699926
 20
1025326.048948295
1001
DCO15
1071
        3
1071
        3
1000
datoslink
1004
0000000000E88A40
  0
LWPOLYLINE
  5
32E
330
1874
100
AcDbEntity
  8
lotes chiriquí
100
AcDbPolyline
 90
        4
 70
     1
 43
0.0
 38
0.0416666666666667
 10
536360.0615514609
 20
1039940.989367742
 10
536305.8012708202
 20
1039956.20871475
 10
536332.4020425482
 20
1039987.309119507
 10
536379.2511629053
 20
1039964.810954362
1001
DCO15
1071
        3
1071
        3
1000
datoslink
1004
0000000000B08A40
  0
LWPOLYLINE
  5
32F
330
1874
100
AcDbEntity
  8
lotes chiriquí
100
AcDbPolyline
 90
        4
 70
     1
 43
0.0
 38
1.217222222222221
 10
536895.38553973
 20
1036635.744223846
 10
536960.2331922017
 20
1036635.744223846
 10
536960.2331922017
 20
1036564.941174717
 10
536895.38553973
 20
1036564.941174717
1001
DCO15
1071
        3
1071
        3
1000
datoslink
1004
0000000000988A40
  0
LWPOLYLINE
  5
330
330
1874
100
AcDbEntity
  8
lotes chiriquí
100
AcDbPolyline
 90
        4
 70
     1
 43
0.0
 38
1.203999999999999
 10
536899.3558041668
 20
1036709.194115933
 10
536899.3558041668
 20
1036638.391066804
 10
536843.7721020486
 20
1036638.391066804
 10
536843.7721020486
 20
1036709.194115933
1001
DCO15
1071
        3
1071
        3
1000
datoslink
1004
0000000000908A40
  0
LWPOLYLINE
  5
331
330
1874
100
AcDbEntity
  8
lotes chiriquí
100
AcDbPolyline
 90
        4
 70
     1
 43
0.0
 38
1.3825
 10
536958.2480599852
 20
1036756.175578438
 10
537008.5380761874
 20
1036756.175578438
 10
537008.5380761874
 20
1036691.327925965
 10
536958.2480599852
 20
1036691.327925965
1001
DCO15
1071
        3
1071
        3
1000
datoslink
1004
0000000000888A40
  0
LWPOLYLINE
  5
332
330
1874
100
AcDbEntity
  8
lotes chiriquí
100
AcDbPolyline
 90
        4
 70
     1
 43
0.0
 38
0.0466666666666667
 10
536956.2629277659
 20
1036762.130975095
 10
536956.2629277659
 20
1036691.327925965
 10
536900.679225646
 20
1036691.327925965
 10
536900.679225646
 20
1036762.130975095
1001
DCO15
1071
        3
1071
        3
1000
datoslink
1004
0000000000808A40
  0
LWPOLYLINE
  5
333
330
1874
100
AcDbEntity
  8
lotes chiriquí
100
AcDbPolyline
 90
        4
 70
     1
 43
0.0
 38
1.147999999999999
 10
536857.6113194536
 20
1037078.15977988
 10
536857.6113194536
 20
1037134.375621017
 10
536908.5362578974
 20
1037134.375621017
 10
536908.5362578974
 20
1037078.15977988
1001
DCO15
1071
        3
1071
        3
1000
datoslink
1004
0000000000608A40
  0
LWPOLYLINE
  5
334
330
1874
100
AcDbEntity
  8
lotes chiriquí
100
AcDbPolyline
 90
        4
 70
     1
 43
0.0
 38
1.483999999999999
 10
536866.8703991716
 20
1037978.274600928
 10
536866.8703991716
 20
1038031.183627881
 10
536911.843072081
 20
1038031.183627881
 10
536911.843072081
 20
1037978.274600928
1001
DCO15
1071
        3
1071
        3
1000
datoslink
1004
0000000000588A40
1001
ADE_ENTITY_LOCK
1071
1342624882
1071
1342625087
  0
LWPOLYLINE
  5
335
330
1874
100
AcDbEntity
  8
lotes chiriquí
100
AcDbPolyline
 90
        4
 70
     1
 43
0.0
 38
1.239999999999999
 10
537019.2483967982
 20
1037978.274600928
 10
536961.0484671481
 20
1037978.274600928
 10
536961.0484671481
 20
1038017.295008305
 10
537019.2483967982
 20
1038017.295008305
1001
DCO15
1071
        3
1071
        3
1000
datoslink
1004
0000000000288A40
1001
ADE_ENTITY_LOCK
1071
1342624882
1071
1342625087
  0
LWPOLYLINE
  5
336
330
1874
100
AcDbEntity
  8
lotes chiriquí
100
AcDbPolyline
 90
        4
 70
     1
 43
0.0
 38
1.654545454545454
 10
537013.9574941015
 20
1038060.944955542
 10
537084.0619548168
 20
1038060.944955542
 10
537083.4005919778
 20
1038017.956371142
 10
537013.9574941015
 20
1038018.617733978
1001
DCO15
1071
        3
1071
        3
1000
datoslink
1004
0000000000008A40
1001
ADE_ENTITY_LOCK
1071
1342624882
1071
1342625087
  0
LWPOLYLINE
  5
337
330
1874
100
AcDbEntity
  8
lotes chiriquí
100
AcDbPolyline
 90
        4
 70
     1
 43
0.0
 38
0.05
 10
537222.9481505696
 20
1038419.403613152
 10
537222.9481505696
 20
1038470.328551598
 10
537262.6299207853
 20
1038470.328551598
 10
537244.1117613502
 20
1038419.403613152
1001
DCO15
1071
        3
1071
        3
1000
datoslink
1004
0000000000E08940
  0
LWPOLYLINE
  5
338
330
1874
100
AcDbEntity
  8
lotes chiriquí
100
AcDbPolyline
 90
        4
 70
     1
 43
0.0
 38
0.08
 10
537185.2504688641
 20
1038080.785840651
 10
537185.2504688641
 20
1038030.522265047
 10
537134.9868932582
 20
1038030.522265047
 10
537134.9868932582
 20
1038080.785840651
1001
DCO15
1071
        3
1071
        3
1000
datoslink
1004
0000000000D88940
  0
LWPOLYLINE
  5
339
330
1874
100
AcDbEntity
  8
lotes chiriquí
100
AcDbPolyline
 90
        4
 70
     1
 43
0.0
 38
0.1875
 10
537150.8596013449
 20
1038082.108566322
 10
537150.8596013449
 20
1038131.710779093
 10
537201.1231769509
 20
1038131.710779093
 10
537201.1231769509
 20
1038082.108566322
1001
DCO15
1071
        3
1071
        3
1000
datoslink
1004
0000000000D08940
  0
LWPOLYLINE
  5
33A
330
1874
100
AcDbEntity
  8
lotes chiriquí
100
AcDbPolyline
 90
        4
 70
     1
 43
0.0
 38
1.203999999999999
 10
537179.6950210352
 20
1036748.536541953
 10
537229.2972338023
 20
1036748.536541953
 10
537229.2972338023
 20
1036698.272966353
 10
537179.6950210352
 20
1036698.272966353
1001
DCO15
1071
        3
1071
        3
1000
datoslink
1004
0000000000808940
  0
LWPOLYLINE
  5
33B
330
1874
100
AcDbEntity
  8
lotes chiriquí
100
AcDbPolyline
 90
        5
 70
     1
 43
0.0
 38
1.175999999999999
 10
537186.970012241
 20
1036304.762078382
 10
537186.970012241
 20
1036353.041565476
 10
537204.8268088382
 20
1036382.802893137
 10
537269.640366856
 20
1036382.802893137
 10
537257.7358357916
 20
1036304.762078382
1001
DCO15
1071
        3
1071
        3
1000
datoslink
1004
0000000000708940
1001
ADE_ENTITY_LOCK
1071
1342624882
1071
1342625087
  0
LWPOLYLINE
  5
33C
330
1874
100
AcDbEntity
  8
lotes chiriquí
100
AcDbPolyline
 90
        4
 70
     1
 43
0.0
 38
0.16
 10
537373.8711499553
 20
1035558.480253203
 10
537373.8711499553
 20
1035608.743828809
 10
537424.1347255614
 20
1035608.743828809
 10
537424.1347255614
 20
1035558.480253203
1001
DCO15
1071
        3
1071
        3
1000
datoslink
1004
0000000000488940
  0
LWPOLYLINE
  5
33D
330
1874
100
AcDbEntity
  8
lotes chiriquí
100
AcDbPolyline
 90
        4
 70
     1
 43
0.0
 38
0.75
 10
537358.6598047065
 20
1035505.571226245
 10
537358.6598047065
 20
1035555.834801849
 10
537408.9233803125
 20
1035555.834801849
 10
537408.9233803125
 20
1035505.571226245
1001
DCO15
1071
        3
1071
        3
1000
datoslink
1004
0000000000408940
  0
LWPOLYLINE
  5
33E
330
1874
100
AcDbEntity
  8
lotes chiriquí
100
AcDbPolyline
 90
        4
 70
     1
 43
0.0
 38
0.0333333333333333
 10
537367.9188844236
 20
1036062.438734932
 10
537367.9188844236
 20
1036113.363673374
 10
537418.1824600287
 20
1036112.702310538
 10
537418.1824600287
 20
1036062.438734932
1001
DCO15
1071
        3
1071
        3
1000
datoslink
1004
0000000000388940
  0
LWPOLYLINE
  5
33F
330
1874
100
AcDbEntity
  8
lotes chiriquí
100
AcDbPolyline
 90
        4
 70
     1
 43
0.0
 38
0.2
 10
537350.7234506625
 20
1036059.793283583
 10
537400.9870262686
 20
1036059.793283583
 10
537400.9870262686
 20
1036009.529707977
 10
537350.7234506625
 20
1036009.529707977
1001
DCO15
1071
        3
1071
        3
1000
datoslink
1004
0000000000308940
  0
LWPOLYLINE
  5
340
330
1874
100
AcDbEntity
  8
lotes chiriquí
100
AcDbPolyline
 90
        4
 70
     1
 43
0.0
 38
0.163265306122449
 10
537337.496193924
 20
1035463.244004683
 10
537337.496193924
 20
1035504.248500572
 10
537387.7597695303
 20
1035504.248500572
 10
537387.7597695303
 20
1035463.244004683
1001
DCO15
1071
        3
1071
        3
1000
datoslink
1004
0000000000288940
  0
LWPOLYLINE
  5
341
330
1874
100
AcDbEntity
  8
lotes chiriquí
100
AcDbPolyline
 90
        4
 70
     1
 43
0.0
 38
1.190850202429149
 10
537311.7030432847
 20
1035417.609968938
 10
537361.966618891
 20
1035417.609968938
 10
537361.966618891
 20
1035367.346393332
 10
537311.7030432847
 20
1035367.346393332
1001
DCO15
1071
        3
1071
        3
1000
datoslink
1004
0000000000208940
  0
LWPOLYLINE
  5
342
330
1874
100
AcDbEntity
  8
lotes chiriquí
100
AcDbPolyline
 90
        4
 70
     1
 43
0.0
 38
0.275
 10
537286.9081643571
 20
1035712.628031336
 10
537206.841164875
 20
1035712.628031336
 10
537207.502875615
 20
1035781.445948245
 10
537286.9081643571
 20
1035781.445948245
1001
DCO15
1071
        3
1071
        3
1000
datoslink
1004
0000000000108940
  0
LWPOLYLINE
  5
343
330
1874
100
AcDbEntity
  8
lotes chiriquí
100
AcDbPolyline
 90
        4
 70
     1
 43
0.0
 38
1.596
 10
537337.208965541
 20
1035461.840008961
 10
537387.4989817431
 20
1035461.840008961
 10
537387.4989817431
 20
1035419.490521634
 10
537337.208965541
 20
1035419.490521634
1001
DCO15
1071
        3
1071
        3
1000
datoslink
1004
0000000000088940
  0
LWPOLYLINE
  5
344
330
1874
100
AcDbEntity
  8
lotes chiriquí
100
AcDbPolyline
 90
        4
 70
     1
 43
0.0
 38
0.475
 10
539862.694173988
 20
1027914.23497187
 10
539912.9841901904
 20
1027914.23497187
 10
539912.9841901904
 20
1027864.606666403
 10
539862.694173988
 20
1027864.606666403
1001
DCO15
1071
        3
1071
        3
1000
datoslink
1004
0000000000008940
  0
LWPOLYLINE
  5
345
330
1874
100
AcDbEntity
  8
lotes chiriquí
100
AcDbPolyline
 90
        4
 70
     1
 43
0.0
 38
0.1666666666666666
 10
540515.6703317427
 20
1028205.520039404
 10
540485.2316377256
 20
1028205.520039404
 10
540485.2316377256
 20
1028245.884394515
 10
540515.6703317427
 20
1028245.884394515
1001
DCO15
1071
        3
1071
        3
1000
datoslink
1004
0000000000908840
  0
LWPOLYLINE
  5
346
330
1874
100
AcDbEntity
  8
lotes chiriquí
100
AcDbPolyline
 90
        4
 70
     1
 43
0.0
 38
0.0190476190476191
 10
540776.7813895578
 20
1028845.923693111
 10
540784.721918432
 20
1028902.83081671
 10
540838.3204883328
 20
1028902.83081671
 10
540827.7331165001
 20
1028845.261982372
1001
DCO15
1071
        3
1071
        3
1000
datoslink
1004
0000000000888840
  0
LWPOLYLINE
  5
347
330
1874
100
AcDbEntity
  8
lotes chiriquí
100
AcDbPolyline
 90
        4
 70
     1
 43
0.0
 38
0.010989010989011
 10
540817.1457446674
 20
1028792.98683395
 10
540766.8557284642
 20
1028792.98683395
 10
540775.4579680786
 20
1028844.600271633
 10
540825.0862735417
 20
1028843.938560892
1001
DCO15
1071
        3
1071
        3
1000
datoslink
1004
0000000000808840
  0
LWPOLYLINE
  5
348
330
1874
100
AcDbEntity
  8
lotes chiriquí
100
AcDbPolyline
 90
        4
 70
     1
 43
0.0
 38
0.09375
 10
540619.2942335522
 20
1028769.165247326
 10
540619.2942335522
 20
1028820.778685007
 10
540670.2459604957
 20
1028837.983164236
 10
540670.2459604957
 20
1028787.693148032
1001
DCO15
1071
        3
1071
        3
1000
datoslink
1004
0000000000788840
  0
LWPOLYLINE
  5
349
330
1874
100
AcDbEntity
  8
lotes chiriquí
100
AcDbPolyline
 90
        4
 70
     1
 43
0.0
 38
0.0555555555555556
 10
540463.7922097668
 20
1028534.257934796
 10
540463.7922097668
 20
1028483.306207858
 10
540413.5021935617
 20
1028483.306207858
 10
540413.5021935617
 20
1028534.257934796
1001
DCO15
1071
        3
1071
        3
1000
datoslink
1004
0000000000508840
  0
LWPOLYLINE
  5
34A
330
1874
100
AcDbEntity
  8
lotes chiriquí
100
AcDbPolyline
 90
        4
 70
     1
 43
0.0
 38
0.0833333333333333
 10
537916.627423767
 20
1035926.053617172
 10
537914.6433352567
 20
1035976.317192778
 10
537966.890999375
 20
1035976.317192778
 10
537966.890999375
 20
1035926.053617172
1001
DCO15
1071
        3
1071
        3
1000
datoslink
1004
0000000000A08040
  0
LWPOLYLINE
  5
34B
330
1874
100
AcDbEntity
  8
lotes chiriquí
100
AcDbPolyline
 90
        4
 70
     1
 43
0.0
 38
0.1714285714285714
 10
538369.6609670593
 20
1035857.271882128
 10
538318.7360286154
 20
1035857.271882128
 10
538318.7360286154
 20
1035917.455900291
 10
538369.6609670593
 20
1035917.455900291
1001
DCO15
1071
        3
1071
        3
1000
datoslink
1004
0000000000988040
  0
LWPOLYLINE
  5
34C
330
1874
100
AcDbEntity
  8
lotes chiriquí
100
AcDbPolyline
 90
        4
 70
     1
 43
0.0
 38
0.1666666666666666
 10
538398.7609318841
 20
1035374.477011179
 10
538449.02450749
 20
1035374.477011179
 10
538449.02450749
 20
1035324.213435573
 10
538398.7609318841
 20
1035324.213435573
1001
DCO15
1071
        3
1071
        3
1000
datoslink
1004
0000000000908040
  0
LWPOLYLINE
  5
34D
330
1874
100
AcDbEntity
  8
lotes chiriquí
100
AcDbPolyline
 90
        4
 70
     1
 43
0.0
 38
1.231999999999999
 10
537950.3569284501
 20
1035637.699420273
 10
537950.3569284501
 20
1035687.962995879
 10
538009.8795837742
 20
1035687.962995879
 10
538009.8795837742
 20
1035637.699420273
1001
DCO15
1071
        3
1071
        3
1000
datoslink
1004
0000000000888040
  0
LWPOLYLINE
  5
34E
330
1874
100
AcDbEntity
  8
lotes chiriquí
100
AcDbPolyline
 90
        5
 70
     1
 43
0.0
 38
0.125
 10
538454.3154101847
 20
1035777.908341702
 10
538397.4382062107
 20
1035777.908341702
 10
538378.9200467756
 20
1035832.140094328
 10
538378.9200467756
 20
1035882.403669935
 10
538441.0881534461
 20
1035862.56278483
1001
DCO15
1071
        3
1071
        3
1000
datoslink
1004
0000000000808040
  0
LWPOLYLINE
  5
34F
330
1874
100
AcDbEntity
  8
lotes chiriquí
100
AcDbPolyline
 90
        4
 70
     1
 43
0.0
 38
3.35
 10
537354.4690123861
 20
1035713.75614652
 10
537289.21670683
 20
1035713.900519876
 10
537289.21670683
 20
1035772.100449527
 10
537354.4690123861
 20
1035764.019722126
1001
DCO15
1071
        3
1071
        3
1000
datoslink
1004
0000000000788040
  0
LWPOLYLINE
  5
350
330
1874
100
AcDbEntity
  8
lotes chiriquí
100
AcDbPolyline
 90
        5
 70
     1
 43
0.0
 38
1.54
 10
537948.1947850874
 20
1035637.799872834
 10
537906.7188343192
 20
1035637.799872834
 10
537886.4220924536
 20
1035681.040757682
 10
537886.4220924536
 20
1035725.164109565
 10
537948.1947850874
 20
1035688.10049398
1001
DCO15
1071
        3
1071
        3
1000
datoslink
1004
0000000000708040
  0
LWPOLYLINE
  5
351
330
1874
100
AcDbEntity
  8
lotes chiriquí
100
AcDbPolyline
 90
        4
 70
     1
 43
0.0
 38
0.0833333333333333
 10
537566.9690248184
 20
1035839.884824458
 10
537558.1443544422
 20
1035890.185445605
 10
537624.3293822668
 20
1035890.185445605
 10
537624.3293822668
 20
1035824.882884818
1001
DCO15
1071
        3
1071
        3
1000
datoslink
1004
0000000000608040
  0
LWPOLYLINE
  5
352
330
1874
100
AcDbEntity
  8
lotes chiriquí
100
AcDbPolyline
 90
        5
 70
     1
 43
0.0
 38
1.143333333333333
 10
537922.6032409967
 20
1035816.940681478
 10
537916.4259717325
 20
1035782.524467012
 10
537897.011696905
 20
1035781.641999975
 10
537886.4220924536
 20
1035793.996538499
 10
537874.300202205
 20
1035816.928749079
1001
DCO15
1071
        3
1071
        3
1000
datoslink
1004
0000000000588040
  0
LWPOLYLINE
  5
353
330
1874
100
AcDbEntity
  8
lotes chiriquí
100
AcDbPolyline
 90
        4
 70
     1
 43
0.0
 38
0.3333333333333333
 10
538197.0504897088
 20
1035818.705615554
 10
538247.3511108551
 20
1035818.705615554
 10
538247.3511108551
 20
1035759.580324031
 10
538197.0504897088
 20
1035759.580324031
1001
DCO15
1071
        3
1071
        3
1000
datoslink
1004
0000000000508040
  0
LWPOLYLINE
  5
354
330
1874
100
AcDbEntity
  8
lotes chiriquí
100
AcDbPolyline
 90
        4
 70
     1
 43
0.0
 38
0.0277777777777778
 10
538421.1971172756
 20
1035724.281642524
 10
538405.3127105982
 20
1035773.699796636
 10
538456.4957987835
 20
1035773.699796636
 10
538470.615271385
 20
1035724.281642524
1001
DCO15
1071
        3
1071
        3
1000
datoslink
1004
0000000000408040
  0
LWPOLYLINE
  5
355
330
1874
100
AcDbEntity
  8
lotes chiriquí
100
AcDbPolyline
 90
        4
 70
     1
 43
0.0
 38
0.0833333333333333
 10
537627.859250417
 20
1035787.81926924
 10
537627.859250417
 20
1035838.119890382
 10
537678.1598715633
 20
1035838.119890382
 10
537678.1598715633
 20
1035787.81926924
1001
DCO15
1071
        3
1071
        3
1000
datoslink
1004
0000000000E07F40
  0
LWPOLYLINE
  5
356
330
1874
100
AcDbEntity
  8
lotes chiriquí
100
AcDbPolyline
 90
        4
 70
     1
 43
0.0
 38
0.1
 10
539207.2459530115
 20
1036403.562322149
 10
539207.2459530115
 20
1036463.546911122
 10
539278.6981839929
 20
1036463.546911122
 10
539278.6981839929
 20
1036402.68019584
1001
DCO15
1071
        3
1071
        3
1000
datoslink
1004
0000000000D07E40
  0
LWPOLYLINE
  5
357
330
1874
100
AcDbEntity
  8
lotes chiriquí
100
AcDbPolyline
 90
        4
 70
     1
 43
0.0
 38
0.06
 10
536805.2520693588
 20
1035614.93947952
 10
536805.2520693588
 20
1035666.102805409
 10
536855.5332689397
 20
1035666.102805409
 10
536855.5332689397
 20
1035614.93947952
1001
DCO15
1071
        3
1071
        3
1000
datoslink
1004
0000000000907E40
  0
LWPOLYLINE
  5
358
330
1874
100
AcDbEntity
  8
lotes chiriquí
100
AcDbPolyline
 90
        4
 70
     1
 43
0.0
 38
0.4642857142857145
 10
537069.0078355791
 20
1035255.91407199
 10
537069.0078355791
 20
1035336.187566055
 10
537152.8098348807
 20
1035336.187566055
 10
537152.8098348807
 20
1035255.91407199
1001
DCO15
1071
        3
1071
        3
1000
datoslink
1004
0000000000807E40
  0
LWPOLYLINE
  5
359
330
1874
100
AcDbEntity
  8
lotes chiriquí
100
AcDbPolyline
 90
        4
 70
     1
 43
0.0
 38
0.1666666666666666
 10
536956.9777944097
 20
1035303.548892643
 10
536956.9777944097
 20
1035348.537334375
 10
537010.7874992229
 20
1035348.537334375
 10
537010.7874992229
 20
1035303.548892643
1001
DCO15
1071
        3
1071
        3
1000
datoslink
1004
0000000000707E40
  0
LWPOLYLINE
  5
35A
330
1874
100
AcDbEntity
  8
lotes chiriquí
100
AcDbPolyline
 90
        5
 70
     1
 43
0.0
 38
0.7466666666666667
 10
537091.0609932906
 20
1035178.286956846
 10
537069.88996189
 20
1035236.507293204
 10
537069.88996189
 20
1035253.267693065
 10
537153.6919611888
 20
1035253.267693065
 10
537154.5740874968
 20
1035178.286956846
1001
DCO15
1071
        3
1071
        3
1000
datoslink
1004
0000000000607E40
  0
LWPOLYLINE
  5
35B
330
1874
100
AcDbEntity
  8
lotes chiriquí
100
AcDbPolyline
 90
        4
 70
     1
 43
0.0
 38
0.1666666666666666
 10
536981.6773310443
 20
1035300.902513718
 10
537067.2435829611
 20
1035300.902513718
 10
537067.2435829611
 20
1035237.389419513
 10
537009.0232466068
 20
1035237.389419513
1001
DCO15
1071
        3
1071
        3
1000
datoslink
1004
0000000000507E40
  0
LWPOLYLINE
  5
35C
330
1874
100
AcDbEntity
  8
lotes chiriquí
100
AcDbPolyline
 90
        4
 70
     1
 43
0.0
 38
0.16
 10
537068.1257092719
 20
1035233.860914277
 10
537089.2967406744
 20
1035178.286956846
 10
537038.1334147854
 20
1035178.286956846
 10
537009.905372915
 20
1035233.860914277
1001
DCO15
1071
        3
1071
        3
1000
datoslink
1004
0000000000307E40
  0
LWPOLYLINE
  5
35D
330
1874
100
AcDbEntity
  8
lotes chiriquí
100
AcDbPolyline
 90
        4
 70
     1
 43
0.0
 38
0.2133333333333333
 10
537727.7797627169
 20
1032943.155316541
 10
537727.7797627169
 20
1033023.428810606
 10
537793.0571095411
 20
1033023.428810606
 10
537793.0571095411
 20
1032943.155316541
1001
DCO15
1071
        3
1071
        3
1000
datoslink
1004
0000000000207E40
1001
ADE_ENTITY_LOCK
1071
1342624882
1071
1342625087
  0
LWPOLYLINE
  5
35E
330
1874
100
AcDbEntity
  8
lotes chiriquí
100
AcDbPolyline
 90
        4
 70
     1
 43
0.0
 38
0.05
 10
538048.5208884635
 20
1032689.80864076
 10
538048.5208884635
 20
1032617.474283469
 10
537997.3575625744
 20
1032617.474283469
 10
537997.3575625744
 20
1032689.80864076
1001
DCO15
1071
        3
1071
        3
1000
datoslink
1004
0000000000107E40
  0
LWPOLYLINE
  5
35F
330
1874
100
AcDbEntity
  8
lotes chiriquí
100
AcDbPolyline
 90
        4
 70
     1
 43
0.0
 38
0.2
 10
537968.2473943976
 20
1032748.028977117
 10
537968.2473943976
 20
1032695.101398612
 10
537917.9661948156
 20
1032695.101398612
 10
537917.9661948156
 20
1032748.028977117
1001
DCO15
1071
        3
1071
        3
1000
datoslink
1004
0000000000007E40
  0
LWPOLYLINE
  5
360
330
1874
100
AcDbEntity
  8
lotes chiriquí
100
AcDbPolyline
 90
        4
 70
     1
 43
0.0
 38
1.175999999999999
 10
537336.0139012719
 20
1035420.331099942
 10
537288.528747825
 20
1035420.331099942
 10
537303.3192054553
 20
1035457.696466586
 10
537336.0139012719
 20
1035470.930033942
1001
DCO15
1071
        3
1071
        3
1000
datoslink
1004
0000000000007D40
1001
ADE_ENTITY_LOCK
1071
1342624882
1071
1342625087
  0
LWPOLYLINE
  5
361
330
1874
100
AcDbEntity
  8
lotes chiriquí
100
AcDbPolyline
 90
        6
 70
     1
 43
0.0
 38
0.2045454545454545
 10
537537.6311921468
 20
1035457.696466586
 10
537561.7629914405
 20
1035463.145582556
 10
537588.2301261491
 20
1035457.696466586
 10
537587.4516810104
 20
1035415.660429109
 10
537558.6492108851
 20
1035393.863965228
 10
537506.4933866076
 20
1035393.863965228
1001
DCO15
1071
        3
1071
        3
1000
datoslink
1004
0000000000D07C40
  0
LWPOLYLINE
  5
362
330
1874
100
AcDbEntity
  8
lotes chiriquí
100
AcDbPolyline
 90
        5
 70
     1
 43
0.0
 38
0.3333333333333333
 10
537476.9124713419
 20
1035333.145244425
 10
537487.8107032813
 20
1035368.175275659
 10
537504.1580511909
 20
1035391.528629815
 10
537553.9785400536
 20
1035391.528629815
 10
537553.9785400536
 20
1035332.366799287
1001
DCO15
1071
        3
1071
        3
1000
datoslink
1004
0000000000F07C40
  0
LWPOLYLINE
  5
363
330
1874
100
AcDbEntity
  8
lotes chiriquí
100
AcDbPolyline
 90
        5
 70
     1
 43
0.0
 38
0.35
 10
537527.511405346
 20
1035331.58835415
 10
537527.511405346
 20
1035256.857620854
 10
537501.0442706356
 20
1035274.761859037
 10
537480.8046970349
 20
1035292.666097225
 10
537476.1340262033
 20
1035331.58835415
1001
DCO15
1071
        3
1071
        3
1000
datoslink
1004
0000000000B07C40
  0
LWPOLYLINE
  5
364
330
1874
100
AcDbEntity
  8
lotes chiriquí
100
AcDbPolyline
 90
        5
 70
     1
 43
0.0
 38
0.125
 10
537530.6251858985
 20
1035279.432529872
 10
537579.6672296265
 20
1035279.432529872
 10
537579.6672296265
 20
1035228.055150726
 10
537551.6432046389
 20
1035228.055150726
 10
537530.6251858985
 20
1035249.851614605
1001
DCO15
1071
        3
1071
        3
1000
datoslink
1004
0000000000C07C40
1001
ADE_ENTITY_LOCK
1071
1342624882
1071
1342625087
  0
LWPOLYLINE
  5
365
330
1874
100
AcDbEntity
  8
lotes chiriquí
100
AcDbPolyline
 90
        5
 70
     1
 43
0.0
 38
2.444444444444444
 10
537529.8467407611
 20
1035330.809909012
 10
537560.2061011623
 20
1035330.809909012
 10
537580.4456747649
 20
1035312.127225686
 10
537580.4456747649
 20
1035280.989420147
 10
537529.8467407611
 20
1035280.989420147
1001
DCO15
1071
        3
1071
        3
1000
datoslink
1004
0000000000A07C40
  0
LWPOLYLINE
  5
366
330
1874
100
AcDbEntity
  8
lotes chiriquí
100
AcDbPolyline
 90
        5
 70
     1
 43
0.0
 38
1.633333333333333
 10
537391.8222316951
 20
1035111.482344786
 10
537442.1337075196
 20
1035111.482344786
 10
537442.1337075196
 20
1035061.170868965
 10
537423.9782019258
 20
1035049.01276887
 10
537375.7146033356
 20
1035080.150574412
1001
DCO15
1071
        3
1071
        3
1000
datoslink
1004
0000000000907C40
  0
LWPOLYLINE
  5
367
330
1874
100
AcDbEntity
  8
lotes chiriquí
100
AcDbPolyline
 90
        4
 70
     1
 43
0.0
 38
0.1538461538461539
 10
537832.2683095309
 20
1035015.272680491
 10
537832.2683095309
 20
1034959.665259842
 10
537759.8903969405
 20
1034959.665259842
 10
537759.8903969405
 20
1035015.272680491
1001
DCO15
1071
        3
1071
        3
1000
datoslink
1004
0000000000807C40
  0
LWPOLYLINE
  5
368
330
1874
100
AcDbEntity
  8
lotes chiriquí
100
AcDbPolyline
 90
        4
 70
     1
 43
0.0
 38
0.4333333333333334
 10
537505.6850454043
 20
1035052.344294255
 10
537555.9965212289
 20
1035052.344294255
 10
537555.9965212289
 20
1035002.032818429
 10
537505.6850454043
 20
1035002.032818429
1001
DCO15
1071
        3
1071
        3
1000
datoslink
1004
0000000000707C40
1001
ADE_ENTITY_LOCK
1071
1342624882
1071
1342625087
  0
LWPOLYLINE
  5
369
330
1874
100
AcDbEntity
  8
lotes chiriquí
100
AcDbPolyline
 90
        4
 70
     1
 43
0.0
 38
0.1166666666666667
 10
537708.6962636441
 20
1034874.047485189
 10
537739.589275117
 20
1034874.047485189
 10
537728.9973854683
 20
1034814.026777187
 10
537708.6962636441
 20
1034814.026777187
1001
DCO15
1071
        3
1071
        3
1000
datoslink
1004
0000000000607C40
  0
LWPOLYLINE
  5
36A
330
1874
100
AcDbEntity
  8
lotes chiriquí
100
AcDbPolyline
 90
        5
 70
     1
 43
0.0
 38
0.14
 10
537330.918866221
 20
1035060.288211493
 10
537372.6008227831
 20
1035078.593684137
 10
537417.7506408153
 20
1035049.791214009
 10
537383.4990547226
 20
1035005.419841118
 10
537330.918866221
 20
1035008.211420726
1001
DCO15
1071
        3
1071
        3
1000
datoslink
1004
0000000000507C40
  0
LWPOLYLINE
  5
36B
330
1874
100
AcDbEntity
  8
lotes chiriquí
100
AcDbPolyline
 90
        5
 70
     1
 43
0.0
 38
0.4200000000000001
 10
537682.2165395282
 20
1034875.812800132
 10
537682.2165395282
 20
1034989.675613843
 10
537758.1250820004
 20
1034989.675613843
 10
537758.1250820004
 20
1034940.246795488
 10
537740.4719325863
 20
1034876.695457604
1001
DCO15
1071
        3
1071
        3
1000
datoslink
1004
0000000000407C40
  0
LWPOLYLINE
  5
36C
330
1874
100
AcDbEntity
  8
lotes chiriquí
100
AcDbPolyline
 90
        4
 70
     1
 43
0.0
 38
0.012
 10
537503.037072991
 20
1034918.180358723
 10
537514.51162011
 20
1034918.180358723
 10
537515.3942775792
 20
1034902.292524252
 10
537502.1544155199
 20
1034902.292524252
1001
DCO15
1071
        3
1071
        3
1000
datoslink
1004
0000000000307C40
  0
LWPOLYLINE
  5
36D
330
1874
100
AcDbEntity
  8
lotes chiriquí
100
AcDbPolyline
 90
        4
 70
     1
 43
0.0
 38
0.2619047619047619
 10
537611.6039418774
 20
1034929.654905842
 10
537679.5685671149
 20
1034949.073370192
 10
537679.5685671149
 20
1034876.695457604
 10
537611.6039418774
 20
1034876.695457604
1001
DCO15
1071
        3
1071
        3
1000
datoslink
1004
0000000000207C40
  0
LWPOLYLINE
  5
36E
330
1874
100
AcDbEntity
  8
lotes chiriquí
100
AcDbPolyline
 90
        4
 70
     1
 43
0.0
 38
0.28
 10
537714.8748659389
 20
1034770.77656113
 10
537638.9663234672
 20
1034770.77656113
 10
537638.9663234672
 20
1034812.261462249
 10
537725.4667555858
 20
1034812.261462249
1001
DCO15
1071
        3
1071
        3
1000
datoslink
1004
0000000000107C40
  0
LWPOLYLINE
  5
36F
330
1874
100
AcDbEntity
  8
lotes chiriquí
100
AcDbPolyline
 90
        4
 70
     1
 43
0.0
 38
3.1
 10
537706.9309487036
 20
1034874.047485189
 10
537706.9309487036
 20
1034814.026777187
 10
537639.8489809371
 20
1034814.026777187
 10
537639.8489809371
 20
1034874.047485189
1001
DCO15
1071
        3
1071
        3
1000
datoslink
1004
0000000000007C40
  0
LWPOLYLINE
  5
370
330
1874
100
AcDbEntity
  8
lotes chiriquí
100
AcDbPolyline
 90
        4
 70
     1
 43
0.0
 38
0.3375
 10
537578.0629579939
 20
1034761.94998642
 10
537578.9456154658
 20
1034874.047485189
 10
537637.2010085266
 20
1034874.047485189
 10
537637.2010085266
 20
1034761.94998642
1001
DCO15
1071
        3
1071
        3
1000
datoslink
1004
0000000000F07B40
  0
LWPOLYLINE
  5
371
330
1874
100
AcDbEntity
  8
lotes chiriquí
100
AcDbPolyline
 90
        4
 70
     1
 43
0.0
 38
0.2307692307692308
 10
537638.9663234672
 20
1034716.934455424
 10
537638.9663234672
 20
1034769.011246186
 10
537716.6401808803
 20
1034769.011246186
 10
537683.9818544667
 20
1034716.934455424
1001
DCO15
1071
        3
1071
        3
1000
datoslink
1004
0000000000E07B40
  0
LWPOLYLINE
  5
372
330
1874
100
AcDbEntity
  8
lotes chiriquí
100
AcDbPolyline
 90
        4
 70
     1
 43
0.0
 38
0.3125
 10
537746.6505348813
 20
1034699.281306008
 10
537796.9620107058
 20
1034699.281306008
 10
537796.9620107058
 20
1034648.969830185
 10
537746.6505348813
 20
1034648.969830185
1001
DCO15
1071
        3
1071
        3
1000
datoslink
1004
0000000000D07B40
  0
LWPOLYLINE
  5
373
330
1874
100
AcDbEntity
  8
lotes chiriquí
100
AcDbPolyline
 90
        4
 70
     1
 43
0.0
 38
0.8666666666666667
 10
537509.215675286
 20
1034816.674749601
 10
537576.2976430524
 20
1034816.674749601
 10
537576.2976430524
 20
1034762.832643892
 10
537516.2769350502
 20
1034762.832643892
1001
DCO15
1071
        3
1071
        3
1000
datoslink
1004
0000000000C07B40
  0
LWPOLYLINE
  5
374
330
1874
100
AcDbEntity
  8
lotes chiriquí
100
AcDbPolyline
 90
        4
 70
     1
 43
0.0
 38
0.75
 10
537609.8386269362
 20
1034715.16914048
 10
537669.8593349384
 20
1034715.16914048
 10
537669.8593349384
 20
1034656.03108995
 10
537609.8386269362
 20
1034656.03108995
1001
DCO15
1071
        3
1071
        3
1000
datoslink
1004
0000000000B07B40
  0
LWPOLYLINE
  5
375
330
1874
100
AcDbEntity
  8
lotes chiriquí
100
AcDbPolyline
 90
        4
 70
     1
 43
0.0
 38
1.199999999999999
 10
537502.1544155212
 20
1034874.930142661
 10
537576.2976430518
 20
1034874.930142661
 10
537576.2976430518
 20
1034818.44006454
 10
537510.9809902268
 20
1034818.44006454
1001
DCO15
1071
        3
1071
        3
1000
datoslink
1004
0000000000A07B40
  0
LWPOLYLINE
  5
376
330
1874
100
AcDbEntity
  8
lotes chiriquí
100
AcDbPolyline
 90
        4
 70
     1
 43
0.0
 38
1.759999999999998
 10
537548.0526039926
 20
1034715.16914048
 10
537608.0733119948
 20
1034715.16914048
 10
537608.0733119948
 20
1034655.148432478
 10
537548.0526039926
 20
1034655.148432478
1001
DCO15
1071
        3
1071
        3
1000
datoslink
1004
0000000000907B40
  0
LWPOLYLINE
  5
377
330
1874
100
AcDbEntity
  8
lotes chiriquí
100
AcDbPolyline
 90
        4
 70
     1
 43
0.0
 38
0.4880952380952381
 10
537577.1803005229
 20
1034760.184671478
 10
537637.201008525
 20
1034760.184671478
 10
537637.201008525
 20
1034716.93445542
 10
537577.1803005229
 20
1034716.93445542
1001
DCO15
1071
        3
1071
        3
1000
datoslink
1004
0000000000807B40
  0
LWPOLYLINE
  5
378
330
1874
100
AcDbEntity
  8
lotes chiriquí
100
AcDbPolyline
 90
        4
 70
     1
 43
0.0
 38
0.0222222222222222
 10
537584.2415602887
 20
1034497.152745238
 10
537634.5530361133
 20
1034497.152745238
 10
537634.5530361133
 20
1034446.841269411
 10
537584.2415602887
 20
1034446.841269411
1001
DCO15
1071
        3
1071
        3
1000
datoslink
1004
0000000000707B40
  0
LWPOLYLINE
  5
379
330
1874
100
AcDbEntity
  8
lotes chiriquí
100
AcDbPolyline
 90
        4
 70
     1
 43
0.0
 38
0.6805555555555556
 10
537543.6393166389
 20
1034652.500460068
 10
537593.9507924663
 20
1034652.500460068
 10
537593.9507924663
 20
1034596.010381948
 10
537543.6393166389
 20
1034596.010381948
1001
DCO15
1071
        3
1071
        3
1000
datoslink
1004
0000000000607B40
  0
LWPOLYLINE
  5
37A
330
1874
100
AcDbEntity
  8
lotes chiriquí
100
AcDbPolyline
 90
        4
 70
     1
 43
0.0
 38
0.16
 10
537515.3942775792
 20
1034760.184671478
 10
537574.5323281112
 20
1034760.184671478
 10
537574.5323281112
 20
1034716.93445542
 10
537515.3942775792
 20
1034716.93445542
1001
DCO15
1071
        3
1071
        3
1000
datoslink
1004
0000000000507B40
  0
LWPOLYLINE
  5
37B
330
1874
100
AcDbEntity
  8
lotes chiriquí
100
AcDbPolyline
 90
        4
 70
     1
 43
0.0
 38
0.2
 10
537495.9758132268
 20
1034652.500460068
 10
537541.8740016979
 20
1034652.500460068
 10
537541.8740016979
 20
1034596.010381948
 10
537498.6237856373
 20
1034596.010381948
1001
DCO15
1071
        3
1071
        3
1000
datoslink
1004
0000000000307B40
  0
LWPOLYLINE
  5
37C
330
1874
100
AcDbEntity
  8
lotes chiriquí
100
AcDbPolyline
 90
        4
 70
     1
 43
0.0
 38
0.3125
 10
537495.9758132268
 20
1034715.16914048
 10
537545.4046315802
 20
1034715.16914048
 10
537545.4046315802
 20
1034656.03108995
 10
537495.9758132268
 20
1034656.03108995
1001
DCO15
1071
        3
1071
        3
1000
datoslink
1004
0000000000407B40
  0
LWPOLYLINE
  5
37D
330
1874
100
AcDbEntity
  8
lotes chiriquí
100
AcDbPolyline
 90
        4
 70
     1
 43
0.0
 38
1.203999999999999
 10
537481.8532936954
 20
1034474.203651001
 10
537481.8532936954
 20
1034524.515126828
 10
537532.1647695209
 20
1034524.515126828
 10
537532.1647695209
 20
1034474.203651001
1001
DCO15
1071
        3
1071
        3
1000
datoslink
1004
0000000000007B40
  0
LWPOLYLINE
  5
37E
330
1874
100
AcDbEntity
  8
lotes chiriquí
100
AcDbPolyline
 90
        4
 70
     1
 43
0.0
 38
0.0125
 10
537313.2657168079
 20
1034746.944809425
 10
537363.5771926353
 20
1034746.944809425
 10
537363.5771926353
 20
1034696.633333597
 10
537313.2657168079
 20
1034696.633333597
1001
DCO15
1071
        3
1071
        3
1000
datoslink
1004
0000000000F07A40
  0
LWPOLYLINE
  5
37F
330
1874
100
AcDbEntity
  8
lotes chiriquí
100
AcDbPolyline
 90
        4
 70
     1
 43
0.0
 38
1.147999999999999
 10
537474.7920339314
 20
1034472.438336061
 10
537525.1035097559
 20
1034472.438336061
 10
537525.1035097559
 20
1034422.126860235
 10
537474.7920339314
 20
1034422.126860235
1001
DCO15
1071
        3
1071
        3
1000
datoslink
1004
0000000000E07A40
  0
LWPOLYLINE
  5
380
330
1874
100
AcDbEntity
  8
lotes chiriquí
100
AcDbPolyline
 90
        4
 70
     1
 43
0.0
 38
0.1142857142857143
 10
537888.7583876504
 20
1034218.232984526
 10
537939.0698634749
 20
1034218.232984526
 10
537939.0698634749
 20
1034167.921508698
 10
537888.7583876504
 20
1034167.921508698
1001
DCO15
1071
        3
1071
        3
1000
datoslink
1004
0000000000D07A40
  0
LWPOLYLINE
  5
381
330
1874
100
AcDbEntity
  8
lotes chiriquí
100
AcDbPolyline
 90
        4
 70
     1
 43
0.0
 38
0.08125
 10
537618.6652016416
 20
1034174.982768463
 10
537668.9766774662
 20
1034174.982768463
 10
537668.9766774662
 20
1034124.671292635
 10
537618.6652016416
 20
1034124.671292635
1001
DCO15
1071
        3
1071
        3
1000
datoslink
1004
0000000000C07A40
  0
LWPOLYLINE
  5
382
330
1874
100
AcDbEntity
  8
lotes chiriquí
100
AcDbPolyline
 90
        4
 70
     1
 43
0.0
 38
0.55
 10
537535.6071336586
 20
1034055.382681193
 10
537535.6071336586
 20
1034105.694157019
 10
537585.9186094813
 20
1034105.694157019
 10
537585.9186094813
 20
1034055.382681193
1001
DCO15
1071
        3
1071
        3
1000
datoslink
1004
0000000000B07A40
  0
LWPOLYLINE
  5
383
330
1874
100
AcDbEntity
  8
lotes chiriquí
100
AcDbPolyline
 90
        4
 70
     1
 43
0.0
 38
0.4333333333333334
 10
537513.5406968912
 20
1034227.500887966
 10
537563.8521727156
 20
1034227.500887966
 10
537563.8521727156
 20
1034177.189412139
 10
537513.5406968912
 20
1034177.189412139
1001
DCO15
1071
        3
1071
        3
1000
datoslink
1004
0000000000A07A40
  0
LWPOLYLINE
  5
384
330
1874
100
AcDbEntity
  8
lotes chiriquí
100
AcDbPolyline
 90
        4
 70
     1
 43
0.0
 38
0.1444444444444444
 10
537801.2870323137
 20
1033938.871895071
 10
537851.5985081382
 20
1033938.871895071
 10
537851.5985081382
 20
1033888.560419248
 10
537801.2870323137
 20
1033888.560419248
1001
DCO15
1071
        3
1071
        3
1000
datoslink
1004
0000000000907A40
  0
LWPOLYLINE
  5
385
330
1874
100
AcDbEntity
  8
lotes chiriquí
100
AcDbPolyline
 90
        4
 70
     1
 43
0.0
 38
0.1587301587301587
 10
537958.1352648409
 20
1034025.813655929
 10
537958.1352648409
 20
1033975.502180101
 10
537905.175816603
 20
1033975.502180101
 10
537905.175816603
 20
1034025.813655929
1001
DCO15
1071
        3
1071
        3
1000
datoslink
1004
0000000000507A40
1001
ADE_ENTITY_LOCK
1071
1342624882
1071
1342625087
  0
LWPOLYLINE
  5
386
330
1874
100
AcDbEntity
  8
lotes chiriquí
100
AcDbPolyline
 90
        4
 70
     1
 43
0.0
 38
0.2555555555555555
 10
537959.9005797813
 20
1034024.930998457
 10
538010.2120556068
 20
1034024.930998457
 10
538010.2120556068
 20
1033972.854207691
 10
537959.9005797813
 20
1033972.854207691
1001
DCO15
1071
        3
1071
        3
1000
datoslink
1004
0000000000207A40
1001
ADE_ENTITY_LOCK
1071
1342624882
1071
1342625087
  0
LWPOLYLINE
  5
387
330
1874
100
AcDbEntity
  8
lotes chiriquí
100
AcDbPolyline
 90
        4
 70
     1
 43
0.0
 38
0.0888888888888889
 10
537966.0791820757
 20
1033971.088892753
 10
538016.3906579003
 20
1033971.088892753
 10
538016.3906579003
 20
1033920.777416924
 10
537966.0791820757
 20
1033920.777416924
1001
DCO15
1071
        3
1071
        3
1000
datoslink
1004
0000000000107A40
  0
LWPOLYLINE
  5
388
330
1874
100
AcDbEntity
  8
lotes chiriquí
100
AcDbPolyline
 90
        4
 70
     1
 43
0.0
 38
0.25
 10
537922.8289660175
 20
1034129.084579991
 10
537972.2577843701
 20
1034129.084579991
 10
537972.2577843701
 20
1034078.773104165
 10
537922.8289660175
 20
1034078.773104165
1001
DCO15
1071
        3
1071
        3
1000
datoslink
1004
0000000000007A40
  0
LWPOLYLINE
  5
389
330
1874
100
AcDbEntity
  8
lotes chiriquí
100
AcDbPolyline
 90
        4
 70
     1
 43
0.0
 38
1.316
 10
538119.7498477098
 20
1033822.184577456
 10
538170.5909180173
 20
1033822.184577456
 10
538170.5909180173
 20
1033771.343507148
 10
538119.7498477098
 20
1033771.343507148
1001
DCO15
1071
        3
1071
        3
1000
datoslink
1004
0000000000E07940
  0
LWPOLYLINE
  5
38A
330
1874
100
AcDbEntity
  8
lotes chiriquí
100
AcDbPolyline
 90
        4
 70
     1
 43
0.0
 38
1.166666666666666
 10
538008.1819434249
 20
1033782.641522772
 10
538059.0230137324
 20
1033782.641522772
 10
538059.0230137324
 20
1033723.326940749
 10
538008.1819434249
 20
1033723.326940749
1001
DCO15
1071
        3
1071
        3
1000
datoslink
1004
0000000000D07940
  0
LWPOLYLINE
  5
38B
330
1874
100
AcDbEntity
  8
lotes chiriquí
100
AcDbPolyline
 90
        4
 70
     1
 43
0.0
 38
0.3968253968253968
 10
537953.1041172576
 20
1033782.641522772
 10
538005.3574395189
 20
1033782.641522772
 10
538005.3574395189
 20
1033724.7391927
 10
537953.1041172576
 20
1033724.7391927
1001
DCO15
1071
        3
1071
        3
1000
datoslink
1004
0000000000B07940
  0
LWPOLYLINE
  5
38C
330
1874
100
AcDbEntity
  8
lotes chiriquí
100
AcDbPolyline
 90
        4
 70
     1
 43
0.0
 38
1.433333333333332
 10
537951.6918653054
 20
1033720.502436841
 10
538015.2432031892
 20
1033720.502436841
 10
538015.2432031892
 20
1033669.661366533
 10
537951.6918653054
 20
1033669.661366533
1001
DCO15
1071
        3
1071
        3
1000
datoslink
1004
0000000000A07940
1001
ADE_ENTITY_LOCK
1071
1342624882
1071
1342625087
  0
LWPOLYLINE
  5
38D
330
1874
100
AcDbEntity
  8
lotes chiriquí
100
AcDbPolyline
 90
        4
 70
     1
 43
0.0
 38
0.5666666666666666
 10
537858.4832364088
 20
1033836.307096988
 10
537950.2796133515
 20
1033836.307096988
 10
537950.2796133515
 20
1033784.053774724
 10
537858.4832364088
 20
1033784.053774724
1001
DCO15
1071
        3
1071
        3
1000
datoslink
1004
0000000000907940
1001
ADE_ENTITY_LOCK
1071
1342624882
1071
1342625087
  0
LWPOLYLINE
  5
38E
330
1874
100
AcDbEntity
  8
lotes chiriquí
100
AcDbPolyline
 90
        4
 70
     1
 43
0.0
 38
0.1333333333333333
 10
537796.3441504771
 20
1033836.307096988
 10
537855.6587325029
 20
1033836.307096988
 10
537855.6587325029
 20
1033784.053774724
 10
537804.8176621953
 20
1033784.053774724
1001
DCO15
1071
        3
1071
        3
1000
datoslink
1004
0000000000707940
1001
ADE_ENTITY_LOCK
1071
1342624882
1071
1342625087
  0
LWPOLYLINE
  5
38F
330
1874
100
AcDbEntity
  8
lotes chiriquí
100
AcDbPolyline
 90
        4
 70
     1
 43
0.0
 38
0.4375
 10
537899.438543044
 20
1033745.922971999
 10
537948.8673613994
 20
1033745.922971999
 10
537948.8673613994
 20
1033695.081901692
 10
537899.438543044
 20
1033695.081901692
1001
DCO15
1071
        3
1071
        3
1000
datoslink
1004
0000000000607940
  0
LWPOLYLINE
  5
390
330
1874
100
AcDbEntity
  8
lotes chiriquí
100
AcDbPolyline
 90
        4
 70
     1
 43
0.0
 38
1.203999999999999
 10
538014.5370772139
 20
1033314.833063347
 10
538064.8485530382
 20
1033314.833063347
 10
538064.8485530382
 20
1033264.521587524
 10
538014.5370772139
 20
1033264.521587524
1001
DCO15
1071
        3
1071
        3
1000
datoslink
1004
0000000000F07840
  0
LWPOLYLINE
  5
391
330
1874
100
AcDbEntity
  8
lotes chiriquí
100
AcDbPolyline
 90
        4
 70
     1
 43
0.0
 38
0.0520833333333334
 10
537821.2350911479
 20
1033187.730387578
 10
537849.4801302077
 20
1033187.730387578
 10
537849.4801302077
 20
1033137.418911755
 10
537821.2350911479
 20
1033137.418911755
1001
DCO15
1071
        3
1071
        3
1000
datoslink
1004
0000000000E07840
1001
ADE_ENTITY_LOCK
1071
1342624882
1071
1342625087
  0
LWPOLYLINE
  5
392
330
1874
100
AcDbEntity
  8
lotes chiriquí
100
AcDbPolyline
 90
        4
 70
     1
 43
0.0
 38
0.2166666666666667
 10
537853.0107600898
 20
1033188.613045051
 10
537886.5517439752
 20
1033188.613045051
 10
537886.5517439752
 20
1033138.301569223
 10
537853.0107600898
 20
1033138.301569223
1001
DCO15
1071
        3
1071
        3
1000
datoslink
1004
0000000000D07840
  0
LWPOLYLINE
  5
393
330
1874
100
AcDbEntity
  8
lotes chiriquí
100
AcDbPolyline
 90
        4
 70
     1
 43
0.0
 38
1.199999999999999
 10
537731.2040291447
 20
1033338.664815055
 10
537792.9900520882
 20
1033370.440483994
 10
537792.9900520882
 20
1033283.057394406
 10
537731.2040291447
 20
1033283.057394406
1001
DCO15
1071
        3
1071
        3
1000
datoslink
1004
0000000000C07840
  0
LWPOLYLINE
  5
394
330
1874
100
AcDbEntity
  8
lotes chiriquí
100
AcDbPolyline
 90
        4
 70
     1
 43
0.0
 38
1.344
 10
537699.4283602034
 20
1033187.730387578
 10
537771.8062727954
 20
1033187.730387578
 10
537771.8860781379
 20
1033096.645294208
 10
537699.5517208465
 20
1033096.645294208
1001
DCO15
1071
        3
1071
        3
1000
datoslink
1004
0000000000B07840
  0
LWPOLYLINE
  5
395
330
1874
100
AcDbEntity
  8
lotes chiriquí
100
AcDbPolyline
 90
        4
 70
     1
 43
0.0
 38
0.1
 10
537849.4801302077
 20
1033031.058686541
 10
537905.0875508561
 20
1033031.058686541
 10
537905.0875508561
 20
1032980.74721072
 10
537849.4801302077
 20
1032980.74721072
1001
DCO15
1071
        3
1071
        3
1000
datoslink
1004
0000000000A07840
  0
LWPOLYLINE
  5
396
330
1874
100
AcDbEntity
  8
lotes chiriquí
100
AcDbPolyline
 90
        4
 70
     1
 43
0.0
 38
1.433333333333332
 10
537773.571587734
 20
1033187.730387578
 10
537819.4697762065
 20
1033187.730387578
 10
537819.4697762065
 20
1033095.492681898
 10
537773.571587734
 20
1033095.492681898
1001
DCO15
1071
        3
1071
        3
1000
datoslink
1004
0000000000907840
  0
LWPOLYLINE
  5
397
330
1874
100
AcDbEntity
  8
lotes chiriquí
100
AcDbPolyline
 90
        4
 70
     1
 43
0.0
 38
0.0375
 10
537927.1539876238
 20
1032891.598806187
 10
537977.4654634457
 20
1032891.598806187
 10
537977.4654634457
 20
1032841.287330361
 10
537927.1539876238
 20
1032841.287330361
1001
DCO15
1071
        3
1071
        3
1000
datoslink
1004
0000000000507840
  0
LWPOLYLINE
  5
398
330
1874
100
AcDbEntity
  8
lotes chiriquí
100
AcDbPolyline
 90
        4
 70
     1
 43
0.0
 38
1.175999999999999
 10
537969.521546212
 20
1032616.209675353
 10
538019.8330220366
 20
1032616.209675353
 10
538019.8330220366
 20
1032565.89819953
 10
537969.521546212
 20
1032565.89819953
1001
DCO15
1071
        3
1071
        3
1000
datoslink
1004
0000000000407840
  0
LWPOLYLINE
  5
399
330
1874
100
AcDbEntity
  8
lotes chiriquí
100
AcDbPolyline
 90
        4
 70
     1
 43
0.0
 38
0.0272727272727273
 10
537970.4042036813
 20
1032741.547036184
 10
538020.7156795068
 20
1032741.547036184
 10
538020.7156795068
 20
1032691.235560356
 10
537970.4042036813
 20
1032691.235560356
1001
DCO15
1071
        3
1071
        3
1000
datoslink
1004
0000000000307840
  0
LWPOLYLINE
  5
39A
330
1874
100
AcDbEntity
  8
lotes chiriquí
100
AcDbPolyline
 90
        4
 70
     1
 43
0.0
 38
0.1666666666666666
 10
537830.9443233248
 20
1032493.520286938
 10
537881.2557991493
 20
1032493.520286938
 10
537881.2557991493
 20
1032443.208811115
 10
537830.9443233248
 20
1032443.208811115
1001
DCO15
1071
        3
1071
        3
1000
datoslink
1004
0000000000207840
  0
LWPOLYLINE
  5
39B
330
1874
100
AcDbEntity
  8
lotes chiriquí
100
AcDbPolyline
 90
        4
 70
     1
 43
0.0
 38
1.203999999999999
 10
538032.8989612022
 20
1032084.705355705
 10
537983.4701428488
 20
1032084.705355705
 10
537983.4701428488
 20
1032135.01683153
 10
538032.8989612022
 20
1032135.01683153
1001
DCO15
1071
        3
1071
        3
1000
datoslink
1004
0000000000107840
  0
LWPOLYLINE
  5
39C
330
1874
100
AcDbEntity
  8
lotes chiriquí
100
AcDbPolyline
 90
        5
 70
     1
 43
0.0
 38
1.175999999999999
 10
538280.9257104462
 20
1031796.076362818
 10
538321.5279540941
 20
1031817.26014211
 10
538340.0637609764
 20
1031768.713981228
 10
538311.8187219174
 20
1031747.53020193
 10
538281.8083679145
 20
1031743.99957205
1001
DCO15
1071
        3
1071
        3
1000
datoslink
1004
0000000000007840
  0
LWPOLYLINE
  5
39D
330
1874
100
AcDbEntity
  8
lotes chiriquí
100
AcDbPolyline
 90
        4
 70
     1
 43
0.0
 38
1.203999999999999
 10
538377.1353747415
 20
1031848.153153581
 10
538434.5081103314
 20
1031875.515535172
 10
538456.574547098
 20
1031828.734689228
 10
538406.2630712725
 20
1031806.66825246
1001
DCO15
1071
        3
1071
        3
1000
datoslink
1004
0000000000F07740
  0
LWPOLYLINE
  5
39E
330
1874
100
AcDbEntity
  8
lotes chiriquí
100
AcDbPolyline
 90
        4
 70
     1
 43
0.0
 38
1.175999999999999
 10
538324.1759265065
 20
1031819.908114522
 10
538366.5434850957
 20
1031846.387838639
 10
538397.436496567
 20
1031803.13762258
 10
538341.8290759176
 20
1031774.009926051
1001
DCO15
1071
        3
1071
        3
1000
datoslink
1004
0000000000E07740
  0
LWPOLYLINE
  5
39F
330
1874
100
AcDbEntity
  8
lotes chiriquí
100
AcDbPolyline
 90
        4
 70
     1
 43
0.0
 38
1.175999999999999
 10
538227.9662622083
 20
1031743.99957205
 10
538227.9662622083
 20
1031794.311047874
 10
538279.160395503
 20
1031794.311047874
 10
538279.160395503
 20
1031743.99957205
1001
DCO15
1071
        3
1071
        3
1000
datoslink
1004
0000000000D07740
  0
LWPOLYLINE
  5
3A0
330
1874
100
AcDbEntity
  8
lotes chiriquí
100
AcDbPolyline
 90
        4
 70
     1
 43
0.0
 38
1.147999999999999
 10
537997.5926623782
 20
1032082.940040767
 10
538047.904138201
 20
1032082.940040767
 10
538047.904138201
 20
1032032.628564941
 10
537997.5926623782
 20
1032032.628564941
1001
DCO15
1071
        3
1071
        3
1000
datoslink
1004
0000000000C07740
  0
LWPOLYLINE
  5
3A1
330
1874
100
AcDbEntity
  8
lotes chiriquí
100
AcDbPolyline
 90
        4
 70
     1
 43
0.0
 38
0.0625
 10
540541.2166484076
 20
1029089.977722336
 10
540541.2166484076
 20
1029147.638491693
 10
540591.6698215952
 20
1029147.638491693
 10
540591.6698215952
 20
1029089.977722336
1001
DCO15
1071
        3
1071
        3
1000
datoslink
1004
0000000000B07740
  0
LWPOLYLINE
  5
3A2
330
1874
100
AcDbEntity
  8
lotes chiriquí
100
AcDbPolyline
 90
        4
 70
     1
 43
0.0
 38
0.12
 10
540666.6288217596
 20
1029027.992395277
 10
540655.0966678882
 20
1029087.094683868
 10
540724.2895911171
 20
1029087.094683868
 10
540724.2895911171
 20
1029027.992395277
1001
DCO15
1071
        3
1071
        3
1000
datoslink
1004
0000000000A07740
  0
LWPOLYLINE
  5
3A3
330
1874
100
AcDbEntity
  8
lotes chiriquí
100
AcDbPolyline
 90
        4
 70
     1
 43
0.0
 38
1.203999999999999
 10
540812.2222643868
 20
1029147.638491693
 10
540927.5438031014
 20
1029147.638491693
 10
540944.8420339086
 20
1029095.743799272
 10
540832.4035336619
 20
1029092.860760804
1001
DCO15
1071
        3
1071
        3
1000
datoslink
1004
0000000000807740
  0
LWPOLYLINE
  5
3A4
330
1874
100
AcDbEntity
  8
lotes chiriquí
100
AcDbPolyline
 90
        4
 70
     1
 43
0.0
 38
0.2125
 10
540855.4678414049
 20
1029243.49952075
 10
540920.3362069319
 20
1029243.49952075
 10
540921.7777261657
 20
1029150.521530161
 10
540855.4678414049
 20
1029150.521530161
1001
DCO15
1071
        3
1071
        3
1000
datoslink
1004
0000000000707740
  0
LWPOLYLINE
  5
3A5
330
1874
100
AcDbEntity
  8
lotes chiriquí
100
AcDbPolyline
 90
        5
 70
     1
 43
0.0
 38
0.6
 10
540795.3631425154
 20
1029309.878894131
 10
540878.8855061702
 20
1029322.839260905
 10
540917.7666064922
 20
1029322.839260905
 10
540917.7666064922
 20
1029247.957141766
 10
540792.4830610103
 20
1029247.957141766
1001
DCO15
1071
        3
1071
        3
1000
datoslink
1004
0000000000607740
  0
LWPOLYLINE
  5
3A6
330
1874
100
AcDbEntity
  8
lotes chiriquí
100
AcDbPolyline
 90
        4
 70
     1
 43
0.0
 38
0.0972222222222222
 10
540740.6415939142
 20
1029243.637019508
 10
540852.9647726222
 20
1029243.637019508
 10
540852.9647726222
 20
1029150.034370585
 10
540737.761512409
 20
1029151.474411337
1001
DCO15
1071
        3
1071
        3
1000
datoslink
1004
0000000000507740
  0
LWPOLYLINE
  5
3A7
330
1874
100
AcDbEntity
  8
lotes chiriquí
100
AcDbPolyline
 90
        5
 70
     1
 43
0.0
 38
0.1222222222222222
 10
540696.0003305814
 20
1029245.077060261
 10
540732.0013493982
 20
1029245.077060261
 10
540732.0013493982
 20
1029152.91445209
 10
540651.3590672489
 20
1029152.91445209
 10
540651.3590672489
 20
1029219.156326713
1001
DCO15
1071
        3
1071
        3
1000
datoslink
1004
0000000000407740
  0
LWPOLYLINE
  5
3A8
330
1874
100
AcDbEntity
  8
lotes chiriquí
100
AcDbPolyline
 90
        4
 70
     1
 43
0.0
 38
0.3
 10
540720.4810233769
 20
1029309.878894131
 10
540788.1629387522
 20
1029309.878894131
 10
540788.1629387522
 20
1029247.957141766
 10
540700.3204528397
 20
1029249.397182518
1001
DCO15
1071
        3
1071
        3
1000
datoslink
1004
0000000000307740
  0
LWPOLYLINE
  5
3A9
330
1874
100
AcDbEntity
  8
lotes chiriquí
100
AcDbPolyline
 90
        4
 70
     1
 43
0.0
 38
0.5
 10
539015.4109279836
 20
1030377.22540748
 10
539107.9976016234
 20
1030377.22540748
 10
539113.8761205847
 20
1030327.257996309
 10
539035.9857443479
 20
1030327.257996309
1001
DCO15
1071
        3
1071
        3
1000
datoslink
1004
0000000000F07640
1001
ADE_ENTITY_LOCK
1071
1342624882
1071
1342625087
  0
LWPOLYLINE
  5
3AA
330
1874
100
AcDbEntity
  8
lotes chiriquí
100
AcDbPolyline
 90
        4
 70
     1
 43
0.0
 38
0.16
 10
538931.6420327857
 20
1030421.314299689
 10
538987.4879629178
 20
1030421.314299689
 10
539016.8805577239
 20
1030369.877258778
 10
538955.1561086307
 20
1030347.832812673
1001
DCO15
1071
        3
1071
        3
1000
datoslink
1004
0000000000D07640
1001
ADE_ENTITY_LOCK
1071
1342624882
1071
1342625087
  0
LWPOLYLINE
  5
3AB
330
1874
100
AcDbEntity
  8
lotes chiriquí
100
AcDbPolyline
 90
        4
 70
     1
 43
0.0
 38
0.1866666666666667
 10
539091.83167448
 20
1029673.272761869
 10
539041.8642633093
 20
1029673.272761869
 10
539041.8642633093
 20
1029723.24017304
 10
539091.83167448
 20
1029723.24017304
1001
DCO15
1071
        3
1071
        3
1000
datoslink
1004
0000000000207640
  0
LWPOLYLINE
  5
3AC
330
1874
100
AcDbEntity
  8
lotes chiriquí
100
AcDbPolyline
 90
        4
 70
     1
 43
0.0
 38
0.1041666666666667
 10
538902.2494379794
 20
1029901.065371618
 10
538902.2494379794
 20
1029951.032782788
 10
538952.2168491503
 20
1029951.032782788
 10
538952.2168491503
 20
1029901.065371618
1001
DCO15
1071
        3
1071
        3
1000
datoslink
1004
0000000000107640
  0
LWPOLYLINE
  5
3AD
330
1874
100
AcDbEntity
  8
lotes chiriquí
100
AcDbPolyline
 90
        4
 70
     1
 43
0.0
 38
0.2166666666666667
 10
538724.4242394014
 20
1030187.643170979
 10
538786.1486884946
 20
1030187.643170979
 10
538787.6183182349
 20
1030125.918721886
 10
538728.8331286224
 20
1030125.918721886
1001
DCO15
1071
        3
1071
        3
1000
datoslink
1004
0000000000007640
  0
LWPOLYLINE
  5
3AE
330
1874
100
AcDbEntity
  8
lotes chiriquí
100
AcDbPolyline
 90
        5
 70
     1
 43
0.0
 38
0.40625
 10
538856.6909160296
 20
1030224.383914487
 10
538896.3709190182
 20
1030217.035765786
 10
538915.4761056423
 20
1030162.659465394
 10
538902.2494379794
 20
1030133.266870588
 10
538856.6909160296
 20
1030167.068354615
1001
DCO15
1071
        3
1071
        3
1000
datoslink
1004
0000000000F07540
  0
LWPOLYLINE
  5
3AF
330
1874
100
AcDbEntity
  8
lotes chiriquí
100
AcDbPolyline
 90
        4
 70
     1
 43
0.0
 38
0.55
 10
538734.7116475839
 20
1030252.306879553
 10
538787.618318235
 20
1030252.306879553
 10
538787.618318235
 20
1030190.58243046
 10
538727.3634988822
 20
1030190.58243046
1001
DCO15
1071
        3
1071
        3
1000
datoslink
1004
0000000000E07540
  0
LWPOLYLINE
  5
3B0
330
1874
100
AcDbEntity
  8
lotes chiriquí
100
AcDbPolyline
 90
        4
 70
     1
 43
0.0
 38
0.5
 10
538737.6509070642
 20
1030255.246139034
 10
538743.5294260255
 20
1030306.683179945
 10
538787.6183182349
 20
1030321.379477348
 10
538787.6183182349
 20
1030255.246139034
1001
DCO15
1071
        3
1071
        3
1000
datoslink
1004
0000000000A07540
  0
LWPOLYLINE
  5
3B1
330
1874
100
AcDbEntity
  8
lotes chiriquí
100
AcDbPolyline
 90
        4
 70
     1
 43
0.0
 38
0.1018518518518518
 10
538602.4449709554
 20
1030600.609128007
 10
538602.4449709554
 20
1030650.576539178
 10
538652.412382126
 20
1030650.576539178
 10
538652.412382126
 20
1030600.609128007
1001
DCO15
1071
        3
1071
        3
1000
datoslink
1004
0000000000907540
  0
LWPOLYLINE
  5
3B2
330
1874
100
AcDbEntity
  8
lotes chiriquí
100
AcDbPolyline
 90
        4
 70
     1
 43
0.0
 38
0.0625
 10
538808.1931345993
 20
1030434.540967352
 10
538758.2257234287
 20
1030434.540967352
 10
538758.2257234287
 20
1030484.508378523
 10
538808.1931345993
 20
1030484.508378523
1001
DCO15
1071
        3
1071
        3
1000
datoslink
1004
0000000000807540
  0
LWPOLYLINE
  5
3B3
330
1874
100
AcDbEntity
  8
lotes chiriquí
100
AcDbPolyline
 90
        4
 70
     1
 43
0.0
 38
0.11
 10
538812.6020238203
 20
1030430.132078131
 10
538812.6020238203
 20
1030480.099489302
 10
538862.569434991
 20
1030480.099489302
 10
538862.569434991
 20
1030430.132078131
1001
DCO15
1071
        3
1071
        3
1000
datoslink
1004
0000000000707540
  0
LWPOLYLINE
  5
3B4
330
1874
100
AcDbEntity
  8
lotes chiriquí
100
AcDbPolyline
 90
        4
 70
     1
 43
0.0
 38
0.02
 10
538132.7888188589
 20
1031515.754746726
 10
538172.4837909042
 20
1031515.754746726
 10
538172.4837909042
 20
1031474.736608946
 10
538132.7888188589
 20
1031474.736608946
1001
DCO15
1071
        3
1071
        3
1000
datoslink
1004
0000000000507540
  0
LWPOLYLINE
  5
3B5
330
1874
100
AcDbEntity
  8
lotes chiriquí
100
AcDbPolyline
 90
        4
 70
     1
 43
0.0
 38
1.149166666666666
 10
537936.9602901014
 20
1031780.387893695
 10
537905.2043124652
 20
1031780.387893695
 10
537903.8811467303
 20
1031818.759700006
 10
537936.9602901014
 20
1031818.759700006
1001
DCO15
1071
        3
1071
        3
1000
datoslink
1004
0000000000007540
  0
LWPOLYLINE
  5
3B6
330
1874
100
AcDbEntity
  8
lotes chiriquí
100
AcDbPolyline
 90
        4
 70
     1
 43
0.0
 38
0.2
 10
538229.3799175029
 20
1031481.35243762
 10
538229.3799175029
 20
1031511.785249522
 10
538300.8308671843
 20
1031511.785249522
 10
538300.8308671843
 20
1031481.35243762
1001
DCO15
1071
        3
1071
        3
1000
datoslink
1004
0000000000D07440
1001
ADE_ENTITY_LOCK
1071
1342624882
1071
1342625087
  0
LWPOLYLINE
  5
3B7
330
1874
100
AcDbEntity
  8
lotes chiriquí
100
AcDbPolyline
 90
        5
 70
     1
 43
0.0
 38
0.0378787878787879
 10
538245.2579063207
 20
1031394.02349912
 10
538296.8613699797
 20
1031394.02349912
 10
538292.8918727753
 20
1031362.267521484
 10
538274.3675524873
 20
1031360.944355748
 10
538258.4895636692
 20
1031360.944355748
1001
DCO15
1071
        3
1071
        3
1000
datoslink
1004
0000000000B07440
1001
ADE_ENTITY_LOCK
1071
1342624882
1071
1342625087
  0
LWPOLYLINE
  5
3B8
330
1874
100
AcDbEntity
  8
lotes chiriquí
100
AcDbPolyline
 90
        6
 70
     1
 43
0.0
 38
0.0333333333333333
 10
538245.2579063207
 20
1031139.97567803
 10
538238.6420776465
 20
1031177.024318605
 10
538241.2884091163
 20
1031207.457130507
 10
538314.0625245328
 20
1031211.426627711
 10
538325.9710161464
 20
1031174.377987136
 10
538325.9710161464
 20
1031138.652512295
1001
DCO15
1071
        3
1071
        3
1000
datoslink
1004
0000000000C07440
1001
ADE_ENTITY_LOCK
1071
1342624882
1071
1342625087
  0
LWPOLYLINE
  5
3B9
330
1874
100
AcDbEntity
  8
lotes chiriquí
100
AcDbPolyline
 90
        4
 70
     1
 43
0.0
 38
0.375
 10
538298.1845357146
 20
1031617.638508309
 10
538348.4648336389
 20
1031617.638508309
 10
538348.4648336389
 20
1031567.358210385
 10
538298.1845357146
 20
1031567.358210385
1001
DCO15
1071
        3
1071
        3
1000
datoslink
1004
0000000000907440
  0
LWPOLYLINE
  5
3BA
330
1874
100
AcDbEntity
  8
lotes chiriquí
100
AcDbPolyline
 90
        5
 70
     1
 43
0.0
 38
0.0648148148148148
 10
538386.8366399493
 20
1031256.414262696
 10
538364.3428224569
 20
1031304.048229151
 10
538409.3304574418
 20
1031306.69456062
 10
538431.8242749341
 20
1031284.200743128
 10
538434.4706064039
 20
1031256.414262696
1001
DCO15
1071
        3
1071
        3
1000
datoslink
1004
0000000000707440
1001
ADE_ENTITY_LOCK
1071
1342624882
1071
1342625087
  0
LWPOLYLINE
  5
3BB
330
1874
100
AcDbEntity
  8
lotes chiriquí
100
AcDbPolyline
 90
        5
 70
     1
 43
0.0
 38
1.75
 10
538388.1598056842
 20
1031183.64014728
 10
538386.8366399493
 20
1031252.444765492
 10
538437.1169378735
 20
1031252.444765492
 10
538429.1779434644
 20
1031222.01195359
 10
538413.2999546462
 20
1031204.810799037
1001
DCO15
1071
        3
1071
        3
1000
datoslink
1004
0000000000507440
1001
ADE_ENTITY_LOCK
1071
1342624882
1071
1342625087
  0
LWPOLYLINE
  5
3BC
330
1874
100
AcDbEntity
  8
lotes chiriquí
100
AcDbPolyline
 90
        4
 70
     1
 43
0.0
 38
0.0069444444444444
 10
538331.2636790858
 20
1031055.293070999
 10
538331.2636790858
 20
1031178.34748434
 10
538388.1598056842
 20
1031178.34748434
 10
538398.7451315629
 20
1031063.232065408
1001
DCO15
1071
        3
1071
        3
1000
datoslink
1004
0000000000407440
1001
ADE_ENTITY_LOCK
1071
1342624882
1071
1342625087
  0
LWPOLYLINE
  5
3BD
330
1874
100
AcDbEntity
  8
lotes chiriquí
100
AcDbPolyline
 90
        4
 70
     1
 43
0.0
 38
0.0333333333333333
 10
538488.7204015326
 20
1031417.840482347
 10
538488.7204015326
 20
1031468.120780272
 10
538539.0006994568
 20
1031468.120780272
 10
538539.0006994568
 20
1031417.840482347
1001
DCO15
1071
        3
1071
        3
1000
datoslink
1004
0000000000207440
  0
LWPOLYLINE
  5
3BE
330
1874
100
AcDbEntity
  8
lotes chiriquí
100
AcDbPolyline
 90
        4
 70
     1
 43
0.0
 38
0.2291666666666666
 10
538329.9405133509
 20
1030950.762977947
 10
538329.9405133509
 20
1031051.323573795
 10
538400.0682972978
 20
1031059.262568204
 10
538413.2999546462
 20
1030950.762977947
1001
DCO15
1071
        3
1071
        3
1000
datoslink
1004
0000000000107440
  0
LWPOLYLINE
  5
3BF
330
1874
100
AcDbEntity
  8
lotes chiriquí
100
AcDbPolyline
 90
        4
 70
     1
 43
0.0
 38
1.2775
 10
538479.4582413887
 20
1031154.530501113
 10
538529.7385393129
 20
1031154.530501113
 10
538529.7385393129
 20
1031104.250203189
 10
538479.4582413887
 20
1031104.250203189
1001
DCO15
1071
        3
1071
        3
1000
datoslink
1004
0000000000007440
  0
LWPOLYLINE
  5
3C0
330
1874
100
AcDbEntity
  8
lotes chiriquí
100
AcDbPolyline
 90
        4
 70
     1
 43
0.0
 38
0.6400000000000002
 10
538259.8127294041
 20
1031006.33593881
 10
538327.2941818813
 20
1031006.33593881
 10
538327.2941818813
 20
1030952.086143681
 10
538254.5200664647
 20
1030960.02513809
1001
DCO15
1071
        3
1071
        3
1000
datoslink
1004
0000000000F07340
  0
LWPOLYLINE
  5
3C1
330
1874
100
AcDbEntity
  8
lotes chiriquí
100
AcDbPolyline
 90
        4
 70
     1
 43
0.0
 38
0.0166666666666667
 10
538611.7748148735
 20
1030897.836348553
 10
538611.7748148735
 20
1030938.854486333
 10
538654.1161183885
 20
1030938.854486333
 10
538656.7624498582
 20
1030897.836348553
1001
DCO15
1071
        3
1071
        3
1000
datoslink
1004
0000000000E07340
  0
LWPOLYLINE
  5
3C2
330
1874
100
AcDbEntity
  8
lotes chiriquí
100
AcDbPolyline
 90
        4
 70
     1
 43
0.0
 38
0.4444444444444445
 10
540634.9189140818
 20
1029370.475865788
 10
540709.3445631858
 20
1029370.475865788
 10
540709.3445631858
 20
1029310.935346504
 10
540634.9189140818
 20
1029310.935346504
1001
DCO15
1071
        3
1071
        3
1000
datoslink
1004
0000000000607240
  0
LWPOLYLINE
  5
3C3
330
1874
100
AcDbEntity
  8
lotes chiriquí
100
AcDbPolyline
 90
        4
 70
     1
 43
0.0
 38
1.399999999999999
 10
540960.5311289126
 20
1029379.779071926
 10
541010.7684420577
 20
1029379.779071926
 10
541010.7684420577
 20
1029329.54175878
 10
540960.5311289126
 20
1029329.54175878
1001
DCO15
1071
        3
1071
        3
1000
datoslink
1004
0000000000307240
  0
LWPOLYLINE
  5
3C4
330
1874
100
AcDbEntity
  8
lotes chiriquí
100
AcDbPolyline
 90
        4
 70
     1
 43
0.0
 38
0.03125
 10
540067.4274767954
 20
1028883.641205264
 10
540084.6319560204
 20
1028841.291717933
 10
540050.2229975657
 20
1028826.072370926
 10
540033.018518338
 20
1028868.421858251
1001
DCO15
1071
        3
1071
        3
1000
datoslink
1004
0000000000188840
  0
LWPOLYLINE
  5
3C5
330
1874
100
AcDbEntity
  8
lotes chiriquí
100
AcDbPolyline
 90
        4
 70
     1
 43
0.0
 38
0.1481481481481481
 10
540097.8661708114
 20
1028949.150568476
 10
540148.1561870147
 20
1028968.340179922
 10
540169.33093068
 20
1028905.47765967
 10
540121.0260466942
 20
1028886.949758963
1001
DCO15
1071
        3
1071
        3
1000
datoslink
1004
0000000000008840
  0
LWPOLYLINE
  5
3C6
330
1874
100
AcDbEntity
  8
lotes chiriquí
100
AcDbPolyline
 90
        5
 70
     1
 43
0.0
 38
0.1111111111111111
 10
540121.0260466942
 20
1029066.273369368
 10
540121.0260466942
 20
1029013.998220946
 10
540076.0297164071
 20
1029000.764006158
 10
540070.736030491
 20
1029015.983353166
 10
540070.736030491
 20
1029066.273369368
1001
DCO15
1071
        3
1071
        3
1000
datoslink
1004
0000000000D08740
  0
LWPOLYLINE
  5
3C7
330
1874
100
AcDbEntity
  8
lotes chiriquí
100
AcDbPolyline
 90
        4
 70
     1
 43
0.0
 38
0.6
 10
536886.2392024528
 20
1037427.537301598
 10
536886.2392024528
 20
1037346.945206579
 10
536805.6471074392
 20
1037346.945206579
 10
536805.6471074392
 20
1037427.537301598
1001
DCO15
1071
        3
1071
        3
1000
datoslink
1004
0000000000588740
1001
ADE_ENTITY_LOCK
1071
1342624882
1071
1342625087
  0
LWPOLYLINE
  5
3C8
330
1874
100
AcDbEntity
  8
lotes chiriquí
100
AcDbPolyline
 90
        4
 70
     1
 43
0.0
 38
1.189999999999999
 10
536660.4610497076
 20
1037992.884833779
 10
536660.4610497076
 20
1038042.803818006
 10
536710.3800339307
 20
1038042.803818006
 10
536710.3800339307
 20
1037992.884833779
1001
DCO15
1071
        3
1071
        3
1000
datoslink
1004
0000000000508740
  0
LWPOLYLINE
  5
3C9
330
1874
100
AcDbEntity
  8
lotes chiriquí
100
AcDbPolyline
 90
        4
 70
     1
 43
0.0
 38
1.0
 10
536825.8552745469
 20
1038427.721286725
 10
536925.693242996
 20
1038427.721286725
 10
536925.693242996
 20
1038323.673283459
 10
536825.8552745469
 20
1038323.673283459
1001
DCO15
1071
        3
1071
        3
1000
datoslink
1004
0000000000408740
1001
ADE_ENTITY_LOCK
1071
1342624882
1071
1342625087
  0
LWPOLYLINE
  5
3CA
330
1874
100
AcDbEntity
  8
lotes chiriquí
100
AcDbPolyline
 90
        4
 70
     1
 43
0.0
 38
1.155
 10
536675.4968883292
 20
1038354.94782779
 10
536776.5377238672
 20
1038354.94782779
 10
536777.1391574135
 20
1038255.109859343
 10
536675.4968883292
 20
1038255.109859343
1001
DCO15
1071
        3
1071
        3
1000
datoslink
1004
0000000000488740
1001
ADE_ENTITY_LOCK
1071
1342624882
1071
1342625087
  0
LWPOLYLINE
  5
3CB
330
1874
100
AcDbEntity
  8
lotes chiriquí
100
AcDbPolyline
 90
        4
 70
     1
 43
0.0
 38
1.157333333333333
 10
537161.4551925881
 20
1039243.265173573
 10
537211.3741768114
 20
1039243.265173573
 10
537211.3741768114
 20
1039192.744755804
 10
537161.4551925881
 20
1039192.744755804
1001
DCO15
1071
        3
1071
        3
1000
datoslink
1004
0000000000388740
  0
LWPOLYLINE
  5
3CC
330
1874
100
AcDbEntity
  8
lotes chiriquí
100
AcDbPolyline
 90
        4
 70
     1
 43
0.0
 38
1.135384615384614
 10
537258.2859933125
 20
1044579.905303955
 10
537307.0021104468
 20
1044579.905303955
 10
537308.2049775384
 20
1044529.98631973
 10
537258.2859933125
 20
1044529.98631973
1001
DCO15
1071
        3
1071
        3
1000
datoslink
1004
0000000000188740
  0
LWPOLYLINE
  5
3CD
330
1874
100
AcDbEntity
  8
lotes chiriquí
100
AcDbPolyline
 90
        5
 70
     1
 43
0.0
 38
0.2
 10
536449.3578754562
 20
1041536.050133345
 10
536477.9784052419
 20
1041507.655714625
 10
536469.2051824369
 20
1041474.703911764
 10
536450.1865541832
 20
1041475.231888389
 10
536427.1048342958
 20
1041503.572721923
1001
DCO15
1071
        3
1071
        3
1000
datoslink
1004
0000000000108740
  0
LWPOLYLINE
  5
3CE
330
1874
100
AcDbEntity
  8
lotes chiriquí
100
AcDbPolyline
 90
        4
 70
     1
 43
0.0
 38
1.2075
 10
536621.969302836
 20
1042139.28797885
 10
536671.888287061
 20
1042139.28797885
 10
536671.888287061
 20
1042089.368994631
 10
536621.969302836
 20
1042089.368994631
1001
DCO15
1071
        3
1071
        3
1000
datoslink
1004
0000000000088740
  0
LWPOLYLINE
  5
3CF
330
1874
100
AcDbEntity
  8
lotes chiriquí
100
AcDbPolyline
 90
        4
 70
     1
 43
0.0
 38
0.215
 10
537456.1576295775
 20
1042554.277124815
 10
537428.4916865118
 20
1042435.19328293
 10
537389.3985060975
 20
1042452.634855732
 10
537405.637211808
 20
1042554.277124815
1001
DCO15
1071
        3
1071
        3
1000
datoslink
1004
0000000000F88640
  0
LWPOLYLINE
  5
3D0
330
1874
100
AcDbEntity
  8
lotes chiriquí
100
AcDbPolyline
 90
        4
 70
     1
 43
0.0
 38
1.213333333333332
 10
537664.6742706075
 20
1042989.370140208
 10
537664.6742706075
 20
1043039.659331998
 10
537714.9634623918
 20
1043039.659331998
 10
537714.9634623918
 20
1042989.370140208
1001
DCO15
1071
        3
1071
        3
1000
datoslink
1004
0000000000E88640
  0
LWPOLYLINE
  5
3D1
330
1874
100
AcDbEntity
  8
lotes chiriquí
100
AcDbPolyline
 90
        4
 70
     1
 43
0.0
 38
1.239999999999999
 10
537221.1749144391
 20
1041613.827884638
 10
537271.4649306422
 20
1041613.827884638
 10
537271.4649306422
 20
1041563.537868436
 10
537221.1749144391
 20
1041563.537868436
1001
DCO15
1071
        3
1071
        3
1000
datoslink
1004
0000000000D88640
  0
LWPOLYLINE
  5
3D2
330
1874
100
AcDbEntity
  8
lotes chiriquí
100
AcDbPolyline
 90
        4
 70
     1
 43
0.0
 38
0.01
 10
537258.8924265923
 20
1042006.222353171
 10
537258.8924265923
 20
1042056.512369375
 10
537309.1824427945
 20
1042056.512369375
 10
537309.1824427945
 20
1042006.222353171
1001
DCO15
1071
        3
1071
        3
1000
datoslink
1004
0000000000D08640
1001
ADE_ENTITY_LOCK
1071
1342624882
1071
1342625087
  0
LWPOLYLINE
  5
3D3
330
1874
100
AcDbEntity
  8
lotes chiriquí
100
AcDbPolyline
 90
        4
 70
     1
 43
0.0
 38
0.1766666666666667
 10
537366.2219085423
 20
1044378.852380791
 10
537416.5119247447
 20
1044378.852380791
 10
537416.5119247447
 20
1044328.562364584
 10
537366.2219085423
 20
1044328.562364584
1001
DCO15
1071
        3
1071
        3
1000
datoslink
1004
0000000000C88640
  0
LWPOLYLINE
  5
3D4
330
1874
100
AcDbEntity
  8
lotes chiriquí
100
AcDbPolyline
 90
        4
 70
     1
 43
0.0
 38
0.1111111111111111
 10
537483.3447094374
 20
1044173.060340799
 10
537483.3447094374
 20
1044213.424695911
 10
537525.6941967662
 20
1044213.424695911
 10
537525.6941967662
 20
1044173.060340799
1001
DCO15
1071
        3
1071
        3
1000
datoslink
1004
0000000000C08640
  0
LWPOLYLINE
  5
3D5
330
1874
100
AcDbEntity
  8
lotes chiriquí
100
AcDbPolyline
 90
        4
 70
     1
 43
0.0
 38
5.0625
 10
537515.1068249336
 20
1044373.558694875
 10
537515.1068249336
 20
1044423.848711077
 10
537565.3968411358
 20
1044424.510421816
 10
537565.3968411358
 20
1044373.558694875
1001
DCO15
1071
        3
1071
        3
1000
datoslink
1004
0000000000B88640
  0
LWPOLYLINE
  5
3D6
330
1874
100
AcDbEntity
  8
lotes chiriquí
100
AcDbPolyline
 90
        4
 70
     1
 43
0.0
 38
0.2666666666666666
 10
537603.7760640282
 20
1043561.639617484
 10
537603.7760640282
 20
1043521.275262373
 10
537562.7499981794
 20
1043521.275262373
 10
537563.4117089185
 20
1043561.639617484
1001
DCO15
1071
        3
1071
        3
1000
datoslink
1004
0000000000B08640
  0
LWPOLYLINE
  5
3D7
330
1874
100
AcDbEntity
  8
lotes chiriquí
100
AcDbPolyline
 90
        4
 70
     1
 43
0.0
 38
1.283333333333333
 10
537626.9359399118
 20
1044331.870918283
 10
537626.9359399118
 20
1044281.580902081
 10
537576.6459237086
 20
1044281.580902081
 10
537576.6459237086
 20
1044331.870918283
1001
DCO15
1071
        3
1071
        3
1000
datoslink
1004
0000000000908640
  0
LWPOLYLINE
  5
3D8
330
1874
100
AcDbEntity
  8
lotes chiriquí
100
AcDbPolyline
 90
        4
 70
     1
 43
0.0
 38
1.236666666666665
 10
537077.4513418172
 20
1039459.297716768
 10
537077.4513418172
 20
1039509.58773297
 10
537127.7413580195
 20
1039509.58773297
 10
537127.7413580195
 20
1039459.297716768
1001
DCO15
1071
        3
1071
        3
1000
datoslink
1004
0000000000888640
  0
LWPOLYLINE
  5
3D9
330
1874
100
AcDbEntity
  8
lotes chiriquí
100
AcDbPolyline
 90
        4
 70
     1
 43
0.0
 38
1.26
 10
537243.5407374354
 20
1039620.093426471
 10
537293.8307536384
 20
1039620.093426471
 10
537293.8307536384
 20
1039569.803410265
 10
537243.5407374354
 20
1039569.803410265
1001
DCO15
1071
        3
1071
        3
1000
datoslink
1004
0000000000808640
  0
LWPOLYLINE
  5
3DA
330
1874
100
AcDbEntity
  8
lotes chiriquí
100
AcDbPolyline
 90
        4
 70
     1
 43
0.0
 38
1.555555555555554
 10
540220.0479859366
 20
1042638.28845156
 10
540269.6762914015
 20
1042649.537534134
 10
540269.6762914015
 20
1042598.585807191
 10
540220.0479859366
 20
1042587.998435357
1001
DCO15
1071
        3
1071
        3
1000
datoslink
1004
0000000000708640
  0
LWPOLYLINE
  5
3DB
330
1874
100
AcDbEntity
  8
lotes chiriquí
100
AcDbPolyline
 90
        4
 70
     1
 43
0.0
 38
1.147999999999999
 10
540291.5127458043
 20
1042459.626551892
 10
540331.8771009147
 20
1042460.288262633
 10
540331.8771009147
 20
1042419.262196781
 10
540291.5127458043
 20
1042419.262196781
1001
DCO15
1071
        3
1071
        3
1000
datoslink
1004
0000000000688640
  0
LWPOLYLINE
  5
3DC
330
1874
100
AcDbEntity
  8
lotes chiriquí
100
AcDbPolyline
 90
        4
 70
     1
 43
0.0
 38
0.02
 10
540695.8180076498
 20
1041578.227846849
 10
540726.9184124088
 20
1041588.815218685
 10
540741.4760486773
 20
1041534.554938044
 10
540716.9927513153
 20
1041525.290987693
1001
DCO15
1071
        3
1071
        3
1000
datoslink
1004
0000000000608640
  0
LWPOLYLINE
  5
3DD
330
1874
100
AcDbEntity
  8
lotes chiriquí
100
AcDbPolyline
 90
        4
 70
     1
 43
0.0
 38
0.2
 10
540044.5749614704
 20
1042408.5478405
 10
540076.4567554621
 20
1042418.600486042
 10
540087.0441272929
 20
1042388.161792025
 10
540057.267144016
 20
1042379.559552409
1001
DCO15
1071
        3
1071
        3
1000
datoslink
1004
0000000000508640
  0
LWPOLYLINE
  5
3DE
330
1874
100
AcDbEntity
  8
lotes chiriquí
100
AcDbPolyline
 90
        4
 70
     1
 43
0.0
 38
1.196363636363636
 10
537854.1412455858
 20
1043664.475867814
 10
537904.4048211947
 20
1043664.475867814
 10
537904.4048211947
 20
1043614.212292208
 10
537854.1412455858
 20
1043614.212292208
1001
DCO15
1071
        3
1071
        3
1000
datoslink
1004
0000000000388640
  0
LWPOLYLINE
  5
3DF
330
1874
100
AcDbEntity
  8
lotes chiriquí
100
AcDbPolyline
 90
        4
 70
     1
 43
0.0
 38
1.229375
 10
538937.4535724642
 20
1043494.505618723
 10
538967.8762629639
 20
1043526.251034897
 10
538998.2989534606
 20
1043498.473795749
 10
538969.1989886378
 20
1043469.373830923
1001
DCO15
1071
        3
1071
        3
1000
datoslink
1004
0000000000308640
  0
LWPOLYLINE
  5
3E0
330
1874
100
AcDbEntity
  8
lotes chiriquí
100
AcDbPolyline
 90
        5
 70
     1
 43
0.0
 38
0.5
 10
539626.1968308362
 20
1042267.413011102
 10
539682.4126719739
 20
1042304.449329968
 10
539702.2535570815
 20
1042283.947082022
 10
539697.6240172228
 20
1042264.767559754
 10
539626.1968308362
 20
1042216.488072656
1001
DCO15
1071
        3
1071
        3
1000
datoslink
1004
0000000000808540
  0
LWPOLYLINE
  5
3E1
330
1874
100
AcDbEntity
  8
lotes chiriquí
100
AcDbPolyline
 90
        6
 70
     1
 43
0.0
 38
0.4285714285714287
 10
539555.4310072856
 20
1042178.129028115
 10
539617.5991139561
 20
1042178.129028115
 10
539607.0173085658
 20
1042149.69042613
 10
539576.5946180662
 20
1042108.024567401
 10
539523.0242282767
 20
1042083.554142436
 10
539522.3628654385
 20
1042152.997240314
1001
DCO15
1071
        3
1071
        3
1000
datoslink
1004
0000000000788540
  0
LWPOLYLINE
  5
3E2
330
1874
100
AcDbEntity
  8
lotes chiriquí
100
AcDbPolyline
 90
        4
 70
     1
 43
0.0
 38
0.5
 10
539439.6925108237
 20
1042154.319965986
 10
539521.0401397647
 20
1042154.319965986
 10
539521.0401397647
 20
1042082.231416764
 10
539455.5652189096
 20
1042059.745080307
1001
DCO15
1071
        3
1071
        3
1000
datoslink
1004
0000000000688540
  0
LWPOLYLINE
  5
3E3
330
1874
100
AcDbEntity
  8
lotes chiriquí
100
AcDbPolyline
 90
        4
 70
     1
 43
0.0
 38
1.145454545454545
 10
538809.413727236
 20
1041810.808108489
 10
538809.413727236
 20
1041861.071684095
 10
538859.6773028448
 20
1041861.071684095
 10
538859.6773028448
 20
1041810.808108489
1001
DCO15
1071
        3
1071
        3
1000
datoslink
1004
0000000000108540
  0
LWPOLYLINE
  5
3E4
330
1874
100
AcDbEntity
  8
lotes chiriquí
100
AcDbPolyline
 90
        4
 70
     1
 43
0.0
 38
1.147999999999999
 10
538039.5873850631
 20
1041058.177200073
 10
538039.5873850631
 20
1041108.440775679
 10
538089.8509606682
 20
1041108.440775679
 10
538089.8509606682
 20
1041058.177200073
1001
DCO15
1071
        3
1071
        3
1000
datoslink
1004
0000000000F08440
  0
LWPOLYLINE
  5
3E5
330
1874
100
AcDbEntity
  8
lotes chiriquí
100
AcDbPolyline
 90
        4
 70
     1
 43
0.0
 38
0.75
 10
538010.5901753129
 20
1040974.616100587
 10
538036.9419337148
 20
1040938.470526589
 10
538007.9433323572
 20
1040908.445026636
 10
537968.240687985
 20
1040933.590034734
1001
DCO15
1071
        3
1071
        3
1000
datoslink
1004
0000000000E88440
  0
LWPOLYLINE
  5
3E6
330
1874
100
AcDbEntity
  8
lotes chiriquí
100
AcDbPolyline
 90
        5
 70
     1
 43
0.0
 38
1.333888888888888
 10
537881.521667037
 20
1040892.836490843
 10
537901.3625521455
 20
1040937.809163753
 10
537929.1397912968
 20
1040964.26367723
 10
537966.1761101643
 20
1040933.840986732
 10
537927.1557027847
 20
1040892.836490843
1001
DCO15
1071
        3
1071
        3
1000
datoslink
1004
0000000000E08440
  0
LWPOLYLINE
  5
3E7
330
1874
100
AcDbEntity
  8
lotes chiriquí
100
AcDbPolyline
 90
        4
 70
     1
 43
0.0
 38
1.26
 10
537829.2740029211
 20
1040746.675303882
 10
537858.3739677463
 20
1040776.436631543
 10
537888.7966582432
 20
1040746.013941046
 10
537859.6966934204
 20
1040716.252613384
1001
DCO15
1071
        3
1071
        3
1000
datoslink
1004
0000000000D88440
  0
LWPOLYLINE
  5
3E8
330
1874
100
AcDbEntity
  8
lotes chiriquí
100
AcDbPolyline
 90
        4
 70
     1
 43
0.0
 38
1.462222222222222
 10
537842.501607561
 20
1040695.749669633
 10
537890.7810946567
 20
1040744.02915673
 10
537907.9765284178
 20
1040705.00874935
 10
537873.5856608957
 20
1040654.745173744
1001
DCO15
1071
        3
1071
        3
1000
datoslink
1004
0000000000D08440
  0
LWPOLYLINE
  5
3E9
330
1874
100
AcDbEntity
  8
lotes chiriquí
100
AcDbPolyline
 90
        4
 70
     1
 43
0.0
 38
2.52
 10
537763.1377192289
 20
1040695.75036544
 10
537805.4649407901
 20
1040715.59125055
 10
537816.7081090184
 20
1040686.09446802
 10
537763.1377192289
 20
1040660.036772247
1001
DCO15
1071
        3
1071
        3
1000
datoslink
1004
0000000000C08440
  0
LWPOLYLINE
  5
3EA
330
1874
100
AcDbEntity
  8
lotes chiriquí
100
AcDbPolyline
 90
        4
 70
     1
 43
0.0
 38
1.161055718475072
 10
538064.7191728653
 20
1041323.383697676
 10
538114.9827484712
 20
1041323.383697676
 10
538114.9827484712
 20
1041273.781484907
 10
538064.7191728653
 20
1041273.781484907
1001
DCO15
1071
        3
1071
        3
1000
datoslink
1004
0000000000B88440
  0
LWPOLYLINE
  5
3EB
330
1874
100
AcDbEntity
  8
lotes chiriquí
100
AcDbPolyline
 90
        5
 70
     1
 43
0.0
 38
0.65
 10
537841.1785339853
 20
1040881.593322616
 10
537869.6171359727
 20
1040890.852402331
 10
537925.1716142744
 20
1040890.852402331
 10
537910.6216318617
 20
1040849.847906442
 10
537841.8398968214
 20
1040830.007021332
1001
DCO15
1071
        3
1071
        3
1000
datoslink
1004
0000000000B08440
  0
LWPOLYLINE
  5
3EC
330
1874
100
AcDbEntity
  8
lotes chiriquí
100
AcDbPolyline
 90
        5
 70
     1
 43
0.0
 38
2.267999999999999
 10
537827.2963004699
 20
1040656.333234878
 10
537859.0584159653
 20
1040670.890871147
 10
537871.601224485
 20
1040652.497235905
 10
537837.871719801
 20
1040607.524562992
 10
537825.3058258984
 20
1040625.381359588
1001
DCO15
1071
        3
1071
        3
1000
datoslink
1004
0000000000A08440
  0
LWPOLYLINE
  5
3ED
330
1874
100
AcDbEntity
  8
lotes chiriquí
100
AcDbPolyline
 90
        4
 70
     1
 43
0.0
 38
1.95
 10
537798.1899495861
 20
1040674.322209522
 10
537839.194445475
 20
1040696.808545978
 10
537857.7126049084
 20
1040671.676758174
 10
537804.8035779539
 20
1040647.867696045
1001
DCO15
1071
        3
1071
        3
1000
datoslink
1004
0000000000988440
  0
LWPOLYLINE
  5
3EE
330
1874
100
AcDbEntity
  8
lotes chiriquí
100
AcDbPolyline
 90
        4
 70
     1
 43
0.0
 38
1.516666666666665
 10
537751.8945510026
 20
1040723.924422292
 10
537794.2217725636
 20
1040739.797130376
 10
537802.1581266085
 20
1040715.326705413
 10
537763.7990820669
 20
1040698.792634487
1001
DCO15
1071
        3
1071
        3
1000
datoslink
1004
0000000000908440
  0
LWPOLYLINE
  5
3EF
330
1874
100
AcDbEntity
  8
lotes chiriquí
100
AcDbPolyline
 90
        4
 70
     1
 43
0.0
 38
1.139999999999999
 10
537780.3331529889
 20
1040848.260635633
 10
537839.194445475
 20
1040879.344688965
 10
537839.194445475
 20
1040828.419750525
 10
537784.9626928475
 20
1040805.933414072
1001
DCO15
1071
        3
1071
        3
1000
datoslink
1004
0000000000808440
  0
LWPOLYLINE
  5
3F0
330
1874
100
AcDbEntity
  8
lotes chiriquí
100
AcDbPolyline
 90
        4
 70
     1
 43
0.0
 38
1.26
 10
537810.7558434857
 20
1040618.767731221
 10
537777.6877016406
 20
1040600.249571787
 10
537763.7990820669
 20
1040657.788138598
 10
537796.867223912
 20
1040672.999483851
1001
DCO15
1071
        3
1071
        3
1000
datoslink
1004
0000000000788440
  0
LWPOLYLINE
  5
3F1
330
1874
100
AcDbEntity
  8
lotes chiriquí
100
AcDbPolyline
 90
        4
 70
     1
 43
0.0
 38
0.5
 10
537731.392303057
 20
1041015.585433375
 10
537768.4286219245
 20
1041076.430814374
 10
537808.7717549764
 20
1041061.219469121
 10
537761.8149935547
 20
1041000.374088127
1001
DCO15
1071
        3
1071
        3
1000
datoslink
1004
0000000000708440
  0
LWPOLYLINE
  5
3F2
330
1874
100
AcDbEntity
  8
lotes chiriquí
100
AcDbPolyline
 90
        4
 70
     1
 43
0.0
 38
4.0
 10
537728.0854888709
 20
1040567.181429943
 10
537728.0854888709
 20
1040657.788138598
 10
537761.8149935547
 20
1040657.788138598
 10
537776.3649759665
 20
1040600.910934623
1001
DCO15
1071
        3
1071
        3
1000
datoslink
1004
0000000000588440
  0
LWPOLYLINE
  5
3F3
330
1874
100
AcDbEntity
  8
lotes chiriquí
100
AcDbPolyline
 90
        4
 70
     1
 43
0.0
 38
4.0
 10
537686.2622156022
 20
1040677.473420825
 10
537726.1014003615
 20
1040677.629023706
 10
537725.9648599718
 20
1040597.406421341
 10
537686.2622156022
 20
1040588.142470989
1001
DCO15
1071
        3
1071
        3
1000
datoslink
1004
0000000000508440
  0
LWPOLYLINE
  5
3F4
330
1874
100
AcDbEntity
  8
lotes chiriquí
100
AcDbPolyline
 90
        4
 70
     1
 43
0.0
 38
3.704615384615383
 10
537796.867223912
 20
1040576.440509658
 10
537775.0422502933
 20
1040597.60412044
 10
537823.321737389
 20
1040623.397271082
 10
537836.5489941267
 20
1040606.20183732
1001
DCO15
1071
        3
1071
        3
1000
datoslink
1004
0000000000488440
  0
LWPOLYLINE
  5
3F5
330
1874
100
AcDbEntity
  8
lotes chiriquí
100
AcDbPolyline
 90
        5
 70
     1
 43
0.0
 38
1.176451612903225
 10
537623.5901606399
 20
1040746.410758748
 10
537654.0128511368
 20
1040746.410758748
 10
537654.0128511368
 20
1040717.310793925
 10
537631.526514682
 20
1040672.999483851
 10
537582.5856647482
 20
1040672.999483851
1001
DCO15
1071
        3
1071
        3
1000
datoslink
1004
0000000000408440
  0
LWPOLYLINE
  5
3F6
330
1874
100
AcDbEntity
  8
lotes chiriquí
100
AcDbPolyline
 90
        4
 70
     1
 43
0.0
 38
1.6
 10
537795.5444982378
 20
1040574.456421146
 10
537727.9499921911
 20
1040533.882190348
 10
537727.9499921911
 20
1040564.982595105
 10
537773.7195246192
 20
1040596.942757604
1001
DCO15
1071
        3
1071
        3
1000
datoslink
1004
0000000000308440
  0
LWPOLYLINE
  5
3F7
330
1874
100
AcDbEntity
  8
lotes chiriquí
100
AcDbPolyline
 90
        4
 70
     1
 43
0.0
 38
0.6458333333333334
 10
537570.6811336858
 20
1040634.640439308
 10
537583.9083904214
 20
1040671.676758174
 10
537628.2197004975
 20
1040671.676758174
 10
537624.0614060872
 20
1040620.566297226
1001
DCO15
1071
        3
1071
        3
1000
datoslink
1004
0000000000288440
  0
LWPOLYLINE
  5
3F8
330
1874
100
AcDbEntity
  8
lotes chiriquí
100
AcDbPolyline
 90
        4
 70
     1
 43
0.0
 38
1.316
 10
537575.9720363794
 20
1040495.754243552
 10
537610.3629039014
 20
1040526.176934054
 10
537640.124231562
 20
1040496.415606392
 10
537602.4265498566
 20
1040469.299730075
1001
DCO15
1071
        3
1071
        3
1000
datoslink
1004
0000000000208440
  0
LWPOLYLINE
  5
3F9
330
1874
100
AcDbEntity
  8
lotes chiriquí
100
AcDbPolyline
 90
        4
 70
     1
 43
0.0
 38
0.4722222222222224
 10
537540.2584431861
 20
1040604.217748807
 10
537570.4628361864
 20
1040633.138801275
 10
537622.737984608
 20
1040619.242875745
 10
537568.4777039673
 20
1040574.24654546
1001
DCO15
1071
        3
1071
        3
1000
datoslink
1004
0000000000188440
  0
LWPOLYLINE
  5
3FA
330
1874
100
AcDbEntity
  8
lotes chiriquí
100
AcDbPolyline
 90
        4
 70
     1
 43
0.0
 38
0.375
 10
537521.7402837519
 20
1040549.324633347
 10
537562.0834168056
 20
1040578.424598172
 10
537583.2470275862
 20
1040550.647359017
 10
537544.8879830447
 20
1040524.192845542
1001
DCO15
1071
        3
1071
        3
1000
datoslink
1004
0000000000108440
  0
LWPOLYLINE
  5
3FB
330
1874
100
AcDbEntity
  8
lotes chiriquí
100
AcDbPolyline
 90
        4
 70
     1
 43
0.0
 38
5.0
 10
537538.2743546769
 20
1040602.895023135
 10
537560.7606911313
 20
1040580.408686679
 10
537519.0948324054
 20
1040551.308721859
 10
537497.2698587868
 20
1040574.456421146
1001
DCO15
1071
        3
1071
        3
1000
datoslink
1004
0000000000088440
  0
LWPOLYLINE
  5
3FC
330
1874
100
AcDbEntity
  8
lotes chiriquí
100
AcDbPolyline
 90
        5
 70
     1
 43
0.0
 38
0.375
 10
538837.3232389558
 20
1041287.537831915
 10
538839.3073274661
 20
1041306.717354187
 10
538867.7459294554
 20
1041349.705938585
 10
538907.4276996685
 20
1041324.574150784
 10
538865.7618409433
 20
1041280.924203547
1001
DCO15
1071
        3
1071
        3
1000
datoslink
1004
0000000000888340
  0
LWPOLYLINE
  5
3FD
330
1874
100
AcDbEntity
  8
lotes chiriquí
100
AcDbPolyline
 90
        5
 70
     1
 43
0.0
 38
1.288
 10
538696.4529546909
 20
1041194.947034748
 10
538654.1257331297
 20
1041229.999265104
 10
538695.1302290167
 20
1041282.246929222
 10
538741.4256276023
 20
1041249.840150215
 10
538741.4256276023
 20
1041194.947034748
1001
DCO15
1071
        3
1071
        3
1000
datoslink
1004
0000000000788340
  0
LWPOLYLINE
  5
3FE
330
1874
100
AcDbEntity
  8
lotes chiriquí
100
AcDbPolyline
 90
        5
 70
     1
 43
0.0
 38
1.505714285714284
 10
538699.7597688743
 20
1041192.3015834
 10
538740.1029019281
 20
1041192.3015834
 10
538740.1029019281
 20
1041097.726697721
 10
538698.4370432003
 20
1041097.065334884
 10
538683.2256979523
 20
1041132.778928078
1001
DCO15
1071
        3
1071
        3
1000
datoslink
1004
0000000000708340
  0
LWPOLYLINE
  5
3FF
330
1874
100
AcDbEntity
  8
lotes chiriquí
100
AcDbPolyline
 90
        4
 70
     1
 43
0.0
 38
1.348846153846153
 10
538773.8324066122
 20
1041093.7585207
 10
538773.8324066122
 20
1041043.494945094
 10
538720.9233796578
 20
1041043.494945094
 10
538720.9233796578
 20
1041093.7585207
1001
DCO15
1071
        3
1071
        3
1000
datoslink
1004
0000000000688340
  0
LWPOLYLINE
  5
400
330
1874
100
AcDbEntity
  8
lotes chiriquí
100
AcDbPolyline
 90
        4
 70
     1
 43
0.0
 38
1.391428571428571
 10
538572.7781041889
 20
1041125.50393687
 10
538612.4598744018
 20
1041099.710786232
 10
538584.6826352533
 20
1041057.383564668
 10
538543.0167765254
 20
1041085.160803821
1001
DCO15
1071
        3
1071
        3
1000
datoslink
1004
0000000000608340
  0
LWPOLYLINE
  5
401
330
1874
100
AcDbEntity
  8
lotes chiriquí
100
AcDbPolyline
 90
        4
 70
     1
 43
0.0
 38
1.159999999999999
 10
538502.0665534427
 20
1040270.805364541
 10
538502.0665534427
 20
1040321.757091487
 10
538552.356569645
 20
1040321.757091487
 10
538552.356569645
 20
1040271.467075281
1001
DCO15
1071
        3
1071
        3
1000
datoslink
1004
0000000000288340
  0
LWPOLYLINE
  5
402
330
1874
100
AcDbEntity
  8
lotes chiriquí
100
AcDbPolyline
 90
        4
 70
     1
 43
0.0
 38
0.1142857142857143
 10
539976.2257389397
 20
1040114.376945719
 10
540026.5157551449
 20
1040113.71523498
 10
540026.5157551449
 20
1040064.086929517
 10
539976.8874496816
 20
1040064.086929517
1001
DCO15
1071
        3
1071
        3
1000
datoslink
1004
0000000000208340
  0
LWPOLYLINE
  5
403
330
1874
100
AcDbEntity
  8
lotes chiriquí
100
AcDbPolyline
 90
        4
 70
     1
 43
0.0
 38
0.07
 10
537744.9371252861
 20
1039363.666111737
 10
537745.2679806529
 20
1039394.435661124
 10
537784.9706250252
 20
1039394.435661124
 10
537784.9706250252
 20
1039363.335256368
1001
DCO15
1071
        3
1071
        3
1000
datoslink
1004
0000000000F88240
  0
LWPOLYLINE
  5
404
330
1874
100
AcDbEntity
  8
lotes chiriquí
100
AcDbPolyline
 90
        5
 70
     1
 43
0.0
 38
0.0333333333333333
 10
538933.2867836096
 20
1038487.556545093
 10
538933.2867836096
 20
1038541.366249909
 10
538998.5641304338
 20
1038541.366249909
 10
538998.2120472689
 20
1038527.57824444
 10
538956.2220676282
 20
1038487.556545093
1001
DCO15
1071
        3
1071
        3
1000
datoslink
1004
0000000000D88240
  0
LWPOLYLINE
  5
405
330
1874
100
AcDbEntity
  8
lotes chiriquí
100
AcDbPolyline
 90
        4
 70
     1
 43
0.0
 38
0.625
 10
538931.5225309916
 20
1038487.556545093
 10
538881.2413314124
 20
1038487.556545093
 10
538881.2413314124
 20
1038537.837744673
 10
538931.5225309916
 20
1038537.837744673
1001
DCO15
1071
        3
1071
        3
1000
datoslink
1004
0000000000D08240
  0
LWPOLYLINE
  5
406
330
1874
100
AcDbEntity
  8
lotes chiriquí
100
AcDbPolyline
 90
        4
 70
     1
 43
0.0
 38
0.25
 10
539576.3568624554
 20
1038430.218335044
 10
539626.6380620367
 20
1038430.218335044
 10
539626.6380620367
 20
1038379.937135463
 10
539576.3568624554
 20
1038379.937135463
1001
DCO15
1071
        3
1071
        3
1000
datoslink
1004
0000000000B88240
  0
LWPOLYLINE
  5
407
330
1874
100
AcDbEntity
  8
lotes chiriquí
100
AcDbPolyline
 90
        4
 70
     1
 43
0.0
 38
0.275
 10
539640.7520829721
 20
1038379.937135466
 10
539640.7520829721
 20
1038430.218335046
 10
539691.033282553
 20
1038430.218335046
 10
539691.033282553
 20
1038379.937135466
1001
DCO15
1071
        3
1071
        3
1000
datoslink
1004
0000000000A88240
  0
LWPOLYLINE
  5
408
330
1874
100
AcDbEntity
  8
lotes chiriquí
100
AcDbPolyline
 90
        4
 70
     1
 43
0.0
 38
1.147999999999999
 10
540147.0925840121
 20
1037952.105875874
 10
540147.0925840121
 20
1038002.387075457
 10
540197.373783593
 20
1038002.387075457
 10
540197.373783593
 20
1037952.105875874
1001
DCO15
1071
        3
1071
        3
1000
datoslink
1004
0000000000808240
1001
ADE_ENTITY_LOCK
1071
1342624882
1071
1342625087
  0
LWPOLYLINE
  5
409
330
1874
100
AcDbEntity
  8
lotes chiriquí
100
AcDbPolyline
 90
        4
 70
     1
 43
0.0
 38
0.35
 10
539852.4623969951
 20
1037952.105875874
 10
539852.4623969951
 20
1038003.269201763
 10
539893.0402071829
 20
1038003.269201763
 10
539893.0402071829
 20
1037952.988002183
1001
DCO15
1071
        3
1071
        3
1000
datoslink
1004
0000000000788240
1001
ADE_ENTITY_LOCK
1071
1342624882
1071
1342625087
  0
LWPOLYLINE
  5
40A
330
1874
100
AcDbEntity
  8
lotes chiriquí
100
AcDbPolyline
 90
        4
 70
     1
 43
0.0
 38
0.2
 10
538766.5649113143
 20
1038024.440233165
 10
538807.1427215021
 20
1038024.440233165
 10
538807.1427215021
 20
1037983.86242298
 10
538766.5649113143
 20
1037983.86242298
1001
DCO15
1071
        3
1071
        3
1000
datoslink
1004
0000000000488240
  0
LWPOLYLINE
  5
40B
330
1874
100
AcDbEntity
  8
lotes chiriquí
100
AcDbPolyline
 90
        4
 70
     1
 43
0.0
 38
0.2
 10
538564.5579866842
 20
1037584.259205261
 10
538564.5579866842
 20
1037623.954889141
 10
538604.2536705639
 20
1037623.954889141
 10
538604.2536705639
 20
1037584.259205261
1001
DCO15
1071
        3
1071
        3
1000
datoslink
1004
0000000000388240
  0
LWPOLYLINE
  5
40C
330
1874
100
AcDbEntity
  8
lotes chiriquí
100
AcDbPolyline
 90
        4
 70
     1
 43
0.0
 38
0.3733333333333333
 10
539629.2844409607
 20
1037500.457205958
 10
539629.2844409607
 20
1037525.156742593
 10
539654.8661039054
 20
1037525.156742593
 10
539654.8661039054
 20
1037500.457205958
1001
DCO15
1071
        3
1071
        3
1000
datoslink
1004
0000000000308240
  0
LWPOLYLINE
  5
40D
330
1874
100
AcDbEntity
  8
lotes chiriquí
100
AcDbPolyline
 90
        4
 70
     1
 43
0.0
 38
0.4
 10
539663.6873669904
 20
1037448.411753761
 10
539663.6873669904
 20
1037490.753816565
 10
539704.2651771783
 20
1037490.753816565
 10
539704.2651771783
 20
1037448.411753761
1001
DCO15
1071
        3
1071
        3
1000
datoslink
1004
0000000000288240
1001
ADE_ENTITY_LOCK
1071
1342624882
1071
1342625087
  0
LWPOLYLINE
  5
40E
330
1874
100
AcDbEntity
  8
lotes chiriquí
100
AcDbPolyline
 90
        4
 70
     1
 43
0.0
 38
1.8
 10
538621.6659331093
 20
1037504.191404156
 10
538672.5613151682
 20
1037504.191404156
 10
538672.5613151682
 20
1037453.2960221
 10
538621.6659331093
 20
1037453.2960221
1001
DCO15
1071
        3
1071
        3
1000
datoslink
1004
0000000000208240
  0
LWPOLYLINE
  5
40F
330
1874
100
AcDbEntity
  8
lotes chiriquí
100
AcDbPolyline
 90
        4
 70
     1
 43
0.0
 38
0.0416666666666667
 10
538269.4665242885
 20
1037266.59241205
 10
538219.1659031394
 20
1037266.59241205
 10
538219.1659031394
 20
1037316.893033198
 10
538269.4665242885
 20
1037316.893033198
1001
DCO15
1071
        3
1071
        3
1000
datoslink
1004
0000000000088240
  0
LWPOLYLINE
  5
410
330
1874
100
AcDbEntity
  8
lotes chiriquí
100
AcDbPolyline
 90
        4
 70
     1
 43
0.0
 38
0.0133333333333333
 10
538059.4393693227
 20
1036719.462848702
 10
538059.4393693227
 20
1036769.763469849
 10
538109.739990469
 20
1036769.763469849
 10
538109.739990469
 20
1036719.462848702
1001
DCO15
1071
        3
1071
        3
1000
datoslink
1004
0000000000F88140
1001
ADE_ENTITY_LOCK
1071
1342624882
1071
1342625087
  0
LWPOLYLINE
  5
411
330
1874
100
AcDbEntity
  8
lotes chiriquí
100
AcDbPolyline
 90
        4
 70
     1
 43
0.0
 38
0.1
 10
537570.3241155195
 20
1036541.376867162
 10
537570.3241155195
 20
1036612.804053548
 10
537621.9104167986
 20
1036612.804053548
 10
537630.5081336798
 20
1036541.376867162
1001
DCO15
1071
        3
1071
        3
1000
datoslink
1004
0000000000D08140
  0
LWPOLYLINE
  5
412
330
1874
100
AcDbEntity
  8
lotes chiriquí
100
AcDbPolyline
 90
        4
 70
     1
 43
0.0
 38
0.3833333333333333
 10
537742.9398159552
 20
1036180.272758204
 10
537786.5897631934
 20
1036180.272758204
 10
537786.5897631934
 20
1036138.606899476
 10
537742.9398159552
 20
1036138.606899476
1001
DCO15
1071
        3
1071
        3
1000
datoslink
1004
0000000000688140
1001
ADE_ENTITY_LOCK
1071
1342624882
1071
1342625087
  0
LWPOLYLINE
  5
413
330
1874
100
AcDbEntity
  8
lotes chiriquí
100
AcDbPolyline
 90
        4
 70
     1
 43
0.0
 38
0.5166666666666667
 10
537612.4005187835
 20
1035973.010378594
 10
537612.4005187835
 20
1035930.021794192
 10
537555.5233148094
 20
1035930.021794192
 10
537550.8937749518
 20
1035973.010378594
1001
DCO15
1071
        3
1071
        3
1000
datoslink
1004
0000000000188140
  0
LWPOLYLINE
  5
414
330
1874
100
AcDbEntity
  8
lotes chiriquí
100
AcDbPolyline
 90
        4
 70
     1
 43
0.0
 38
5.833333333333332
 10
537894.1410873141
 20
1035935.974059723
 10
537833.9570691539
 20
1035935.974059723
 10
537833.9570691539
 20
1035986.898998169
 10
537894.1410873141
 20
1035986.898998169
1001
DCO15
1071
        3
1071
        3
1000
datoslink
1004
0000000000C88040
1001
ADE_ENTITY_LOCK
1071
1342624882
1071
1342625087
  0
LWPOLYLINE
  5
415
330
1874
100
AcDbEntity
  8
lotes chiriquí
100
AcDbPolyline
 90
        4
 70
     1
 43
0.0
 38
0.05
 10
537550.2324121138
 20
1036025.258042706
 10
537613.0618816214
 20
1036025.258042706
 10
537613.0618816214
 20
1035974.333104266
 10
537550.2324121138
 20
1035974.333104266
1001
DCO15
1071
        3
1071
        3
1000
datoslink
1004
0000000000C08040
1001
ADE_ENTITY_LOCK
1071
1342624882
1071
1342625087
  0
LWPOLYLINE
  5
416
330
1874
100
AcDbEntity
  8
lotes chiriquí
100
AcDbPolyline
 90
        4
 70
     1
 43
0.0
 38
1.175999999999999
 10
537978.7955304394
 20
1035882.403669935
 10
537928.5319548315
 20
1035882.403669935
 10
537915.966060931
 20
1035923.408165823
 10
537966.890999375
 20
1035923.408165823
1001
DCO15
1071
        3
1071
        3
1000
datoslink
1004
0000000000A88040
  0
ENDSEC
  0
SECTION
  2
OBJECTS
  0
DICTIONARY
  5
1815
330
0
100
AcDbDictionary
281
     1
  3
ACAD_CIP_PREVIOUS_PRODUCT_INFO
350
1889
  3
ACAD_COLOR
350
186B
  3
ACAD_GROUP
350
1816
  3
ACAD_LAYOUT
350
186A
  3
ACAD_MATERIAL
350
1819
  3
ACAD_MLEADERSTYLE
350
186E
  3
ACAD_MLINESTYLE
350
1867
  3
ACAD_PLOTSETTINGS
350
1869
  3
ACAD_PLOTSTYLENAME
350
1817
  3
ACAD_SCALELIST
350
184B
  3
ACAD_TABLESTYLE
350
186C
  3
ACAD_VISUALSTYLE
350
1832
  3
ACDB_RECOMPOSE_DATA
350
18B2
  3
AcDbVariableDictionary
350
18A4
  3
ADE_QUERY_LIBRARY
350
1899
  3
ASE_INDEX_DICTIONARY
350
18A1
  3
Autodesk_MAP
350
1883
1001
ADE
1000
ADE02C004
1000
[Query]
1000
CaseSensitiveMatch=0
1000
SaveCurrQueryInSession=1
1000
MkSelSetWithQryObj=0
1000
ShowBlockAsInsPt=0
1000
CreateAssociativeHatchObjects=0
1000
ReferenceBoundaryForAreaLocation=1
1000
ShowImageAsBoundary=1
1000
DefaultJoinOperator=2
1000
ColorForAdd=red
1000
ColorForRemove=red
1000
BlockLocnForQuery=1
1000
TextLocnForQuery=1
1000
IncludeAllObjectsInGroups=0
1000
AlwaysUseLibraryDefinitions=0
1000
PreviewDefinitionsFrom=2
1000
[Save Back]
1000
RedefineBlockDefinitions=1
1000
RedefineLayerDefinitions=1
1000
RedefineTextStyleDefinitions=1
1000
RemoveUnusedGroups=1
1000
EraseSavedBackObjects=1
1000
RemoveLockAfterSave=1
1000
CreateHistoryFileOfChanges=0
1000
CreateBackupFileOfSourceDwg=1
1000
DontAddObjectsToSaveSet=0
1000
MarkObjectsForEditingWithoutPrompting=0
1000
FdoDontAddObjsToSvSet=0
1000
FdoEditWithoutPrompt=1
1000
FdoRemUnusedGrps=1
1000
FdoEraseSvdBkObjs=1
1000
FdoRemoveLockOnSave=1
1000
FdoTesselationMaxPointsDistance=0
1000
FdoTesselationMaxCurvesDistance=0
1000
[Coordinate Transformation]
1000
RestoreLastActiveDwgsOnStartup=1
1000
ActivateDwgsOnAttach=1
1000
AdjustSizesAndScalesForChangesInUnits=1
1000
AdjustRotationsForMapDistortions=1
1000
AdjustSizesAndScalesForMapDistortions=1
1000
AdjustElevations=1
1000
AdjustZeroRotationObjects=1
1000
ReconnectDbOnWSOpen=1
1000
NoOfSQLConditionsInHistory=10
  0
DICTIONARY
  5
189C
330
185D
100
AcDbDictionary
280
     1
281
     1
  3
ADSK_XREC_LAYER_RECONCILED
360
189D
  0
DICTIONARY
  5
189E
330
1879
100
AcDbDictionary
280
     1
281
     1
  3
ADSK_XREC_LAYER_RECONCILED
360
189F
  0
DICTIONARY
  5
1895
330
1874
100
AcDbDictionary
280
     1
281
     1
  3
ACAD_SORTENTS
360
1896
  0
XRECORD
  5
1889
102
{ACAD_REACTORS
330
1815
102
}
330
1815
100
AcDbXrecord
280
     1
300
MAP
300
2012
300
MAP_F_S
  0
DICTIONARY
  5
186B
102
{ACAD_REACTORS
330
1815
102
}
330
1815
100
AcDbDictionary
281
     1
  0
DICTIONARY
  5
1816
102
{ACAD_REACTORS
330
1815
102
}
330
1815
100
AcDbDictionary
281
     1
  0
DICTIONARY
  5
186A
102
{ACAD_REACTORS
330
1815
102
}
330
1815
100
AcDbDictionary
281
     1
  3
Layout1
350
1873
  3
Model
350
1877
  0
DICTIONARY
  5
1819
102
{ACAD_REACTORS
330
1815
102
}
330
1815
100
AcDbDictionary
281
     1
  3
ByBlock
350
1822
  3
ByLayer
350
181A
  3
Global
350
182A
  0
DICTIONARY
  5
186E
102
{ACAD_REACTORS
330
1815
102
}
330
1815
100
AcDbDictionary
281
     1
  3
Standard
350
186F
  0
DICTIONARY
  5
1867
102
{ACAD_REACTORS
330
1815
102
}
330
1815
100
AcDbDictionary
281
     1
  3
Standard
350
1868
  0
DICTIONARY
  5
1869
102
{ACAD_REACTORS
330
1815
102
}
330
1815
100
AcDbDictionary
281
     1
  0
ACDBDICTIONARYWDFLT
  5
1817
102
{ACAD_REACTORS
330
1815
102
}
330
1815
100
AcDbDictionary
281
     1
  3
Normal
350
1818
100
AcDbDictionaryWithDefault
340
1818
  0
DICTIONARY
  5
184B
102
{ACAD_REACTORS
330
1815
102
}
330
1815
100
AcDbDictionary
281
     1
  3
A0
350
184C
  3
A1
350
184D
  3
A2
350
184E
  3
A3
350
184F
  3
A4
350
1850
  3
A5
350
1851
  3
A6
350
1852
  3
A7
350
1853
  3
A8
350
1854
  3
A9
350
1855
  3
B0
350
1856
  3
B1
350
1857
  3
B2
350
1858
  3
B3
350
1859
  3
B4
350
185A
  3
B5
350
185B
  3
B6
350
185C
  0
DICTIONARY
  5
186C
102
{ACAD_REACTORS
330
1815
102
}
330
1815
100
AcDbDictionary
281
     1
  3
Legend
350
188E
  3
Standard
350
186D
  0
DICTIONARY
  5
1832
102
{ACAD_REACTORS
330
1815
102
}
330
1815
100
AcDbDictionary
281
     1
  3
2dWireframe
350
1838
  3
Basic
350
1837
  3
Brighten
350
183E
  3
ColorChange
350
1842
  3
Conceptual
350
183B
  3
Dim
350
183D
  3
EdgeColorOff
350
184A
  3
Facepattern
350
1841
  3
Flat
350
1833
  3
FlatWithEdges
350
1834
  3
Gouraud
350
1835
  3
GouraudWithEdges
350
1836
  3
Hidden
350
183A
  3
JitterOff
350
1848
  3
Linepattern
350
1840
  3
OverhangOff
350
1849
  3
Realistic
350
183C
  3
Shaded
350
1847
  3
Shaded with edges
350
1846
  3
Shades of Gray
350
1843
  3
Sketchy
350
1844
  3
Thicken
350
183F
  3
Wireframe
350
1839
  3
X-Ray
350
1845
  0
XRECORD
  5
18B2
102
{ACAD_REACTORS
330
1815
102
}
330
1815
100
AcDbXrecord
280
     1
 90
        1
330
186D
330
188E
  0
DICTIONARY
  5
18A4
102
{ACAD_REACTORS
330
1815
102
}
330
1815
100
AcDbDictionary
281
     1
  3
CANNOSCALE
350
18A8
  3
CMLEADERSTYLE
350
18A6
  3
CTABLESTYLE
350
18A5
  3
LAYEREVAL
350
18AA
  3
LAYERNOTIFY
350
18AB
  3
LIGHTINGUNITS
350
18A9
  3
MSLTSCALE
350
18A7
  3
XCLIPFRAME
350
18AC
  0
DICTIONARY
  5
1899
102
{ACAD_REACTORS
330
1815
102
}
330
1815
100
AcDbDictionary
281
     1
  3
_CurrQry
350
189A
  0
DICTIONARY
  5
18A1
102
{ACAD_REACTORS
330
1815
102
}
330
1815
100
AcDbDictionary
281
     1
  3
ASEBlockHierarchyIndexRecord
350
18A2
1001
DCO15
1040
1762237797.749
  0
DICTIONARY
  5
1883
102
{ACAD_REACTORS
330
1815
102
}
330
1815
100
AcDbDictionary
281
     1
  3
AcMapDMStylizedEntities
350
1897
  3
FSD_Dictionary
350
188A
  3
MAP_DISPLAY_CUSTOMOBJ_REG_TABLE
350
1887
  3
MAP_DISPLAY_MANAGEMENT_DICTIONARY
350
1884
  3
MAP_DISPLAY_STYLELIBRARY_DICTIONARY
350
1885
  3
MAP_RESOURCE_VERSION_MANAGEMENT_DICTIONARY
350
1898
1001
MapGWS
1000
C:\ProgramData\Autodesk\AutoCAD Map 3D 2012\R18.2\MapCache\xm2supSiChiGWS.xml
  0
XRECORD
  5
189D
102
{ACAD_REACTORS
330
189C
102
}
330
189C
100
AcDbXrecord
280
     1
290
     1
  0
XRECORD
  5
189F
102
{ACAD_REACTORS
330
189E
102
}
330
189E
100
AcDbXrecord
280
     1
290
     1
  0
SORTENTSTABLE
  5
1896
102
{ACAD_REACTORS
330
1895
102
}
330
1895
100
AcDbSortentsTable
330
1874
  0
LAYOUT
  5
1873
102
{ACAD_REACTORS
330
186A
102
}
330
186A
100
AcDbPlotSettings
  1

  2
Lexmark Pro700 Series (de red)
  4

  6

 40
0.0
 41
0.0
 42
0.0
 43
0.0
 44
0.0
 45
0.0
 46
0.0
 47
0.0
 48
0.0
 49
0.0
140
0.0
141
0.0
142
1.0
143
1.0
 70
   688
 72
     0
 73
     0
 74
     5
  7

 75
    16
147
1.0
 76
     0
 77
     2
 78
   300
148
0.0
149
0.0
100
AcDbLayout
  1
Layout1
 70
     1
 71
     1
 10
0.0
 20
0.0
 11
420.0
 21
297.0
 12
0.0
 22
0.0
 32
0.0
 14
1.000000000000000E+20
 24
1.000000000000000E+20
 34
1.000000000000000E+20
 15
-1.000000000000000E+20
 25
-1.000000000000000E+20
 35
-1.000000000000000E+20
146
0.0
 13
0.0
 23
0.0
 33
0.0
 16
1.0
 26
0.0
 36
0.0
 17
0.0
 27
1.0
 37
0.0
 76
     0
330
1870
  0
LAYOUT
  5
1877
102
{ACAD_REACTORS
330
186A
102
}
330
186A
100
AcDbPlotSettings
  1

  2
Lexmark Pro700 Series (de red)
  4

  6

 40
0.0
 41
0.0
 42
0.0
 43
0.0
 44
0.0
 45
0.0
 46
0.0
 47
0.0
 48
0.0
 49
0.0
140
0.0
141
0.0
142
1.0
143
1.0
 70
  1712
 72
     0
 73
     0
 74
     0
  7

 75
     0
147
1.0
 76
     0
 77
     2
 78
   300
148
0.0
149
0.0
100
AcDbLayout
  1
Model
 70
     1
 71
     0
 10
0.0
 20
0.0
 11
12.0
 21
9.0
 12
0.0
 22
0.0
 32
0.0
 14
0.0
 24
0.0
 34
0.0
 15
0.0
 25
0.0
 35
0.0
146
0.0
 13
0.0
 23
0.0
 33
0.0
 16
1.0
 26
0.0
 36
0.0
 17
0.0
 27
1.0
 37
0.0
 76
     0
330
1874
331
1878
  0
MATERIAL
  5
1822
102
{ACAD_XDICTIONARY
360
1823
102
}
102
{ACAD_REACTORS
330
1819
102
}
330
1819
100
AcDbMaterial
  1
ByBlock
 72
     0
 43
0.0208333333333333
 43
0.0
 43
0.0
 43
0.0
 43
0.0
 43
0.0208333333333333
 43
0.0
 43
0.0
 43
0.0
 43
0.0
 43
1.0
 43
0.0
 43
0.0
 43
0.0
 43
0.0
 43
1.0
 77
     0
 47
0.0208333333333333
 47
0.0
 47
0.0
 47
0.0
 47
0.0
 47
0.0208333333333333
 47
0.0
 47
0.0
 47
0.0
 47
0.0
 47
1.0
 47
0.0
 47
0.0
 47
0.0
 47
0.0
 47
1.0
171
     0
 49
0.0208333333333333
 49
0.0
 49
0.0
 49
0.0
 49
0.0
 49
0.0208333333333333
 49
0.0
 49
0.0
 49
0.0
 49
0.0
 49
1.0
 49
0.0
 49
0.0
 49
0.0
 49
0.0
 49
1.0
175
     0
142
0.0208333333333333
142
0.0
142
0.0
142
0.0
142
0.0
142
0.0208333333333333
142
0.0
142
0.0
142
0.0
142
0.0
142
1.0
142
0.0
142
0.0
142
0.0
142
0.0
142
1.0
179
     0
144
0.0208333333333333
144
0.0
144
0.0
144
0.0
144
0.0
144
0.0208333333333333
144
0.0
144
0.0
144
0.0
144
0.0
144
1.0
144
0.0
144
0.0
144
0.0
144
0.0
144
1.0
147
0.0208333333333333
147
0.0
147
0.0
147
0.0
147
0.0
147
0.0208333333333333
147
0.0
147
0.0
147
0.0
147
0.0
147
1.0
147
0.0
147
0.0
147
0.0
147
0.0
147
1.0
  0
MATERIAL
  5
181A
102
{ACAD_XDICTIONARY
360
181B
102
}
102
{ACAD_REACTORS
330
1819
102
}
330
1819
100
AcDbMaterial
  1
ByLayer
 72
     0
 43
0.0208333333333333
 43
0.0
 43
0.0
 43
0.0
 43
0.0
 43
0.0208333333333333
 43
0.0
 43
0.0
 43
0.0
 43
0.0
 43
1.0
 43
0.0
 43
0.0
 43
0.0
 43
0.0
 43
1.0
 77
     0
 47
0.0208333333333333
 47
0.0
 47
0.0
 47
0.0
 47
0.0
 47
0.0208333333333333
 47
0.0
 47
0.0
 47
0.0
 47
0.0
 47
1.0
 47
0.0
 47
0.0
 47
0.0
 47
0.0
 47
1.0
171
     0
 49
0.0208333333333333
 49
0.0
 49
0.0
 49
0.0
 49
0.0
 49
0.0208333333333333
 49
0.0
 49
0.0
 49
0.0
 49
0.0
 49
1.0
 49
0.0
 49
0.0
 49
0.0
 49
0.0
 49
1.0
175
     0
142
0.0208333333333333
142
0.0
142
0.0
142
0.0
142
0.0
142
0.0208333333333333
142
0.0
142
0.0
142
0.0
142
0.0
142
1.0
142
0.0
142
0.0
142
0.0
142
0.0
142
1.0
179
     0
144
0.0208333333333333
144
0.0
144
0.0
144
0.0
144
0.0
144
0.0208333333333333
144
0.0
144
0.0
144
0.0
144
0.0
144
1.0
144
0.0
144
0.0
144
0.0
144
0.0
144
1.0
147
0.0208333333333333
147
0.0
147
0.0
147
0.0
147
0.0
147
0.0208333333333333
147
0.0
147
0.0
147
0.0
147
0.0
147
1.0
147
0.0
147
0.0
147
0.0
147
0.0
147
1.0
  0
MATERIAL
  5
182A
102
{ACAD_XDICTIONARY
360
182B
102
}
102
{ACAD_REACTORS
330
1819
102
}
330
1819
100
AcDbMaterial
  1
Global
 72
     0
 43
0.0208333333333333
 43
0.0
 43
0.0
 43
0.0
 43
0.0
 43
0.0208333333333333
 43
0.0
 43
0.0
 43
0.0
 43
0.0
 43
1.0
 43
0.0
 43
0.0
 43
0.0
 43
0.0
 43
1.0
 77
     0
 47
0.0208333333333333
 47
0.0
 47
0.0
 47
0.0
 47
0.0
 47
0.0208333333333333
 47
0.0
 47
0.0
 47
0.0
 47
0.0
 47
1.0
 47
0.0
 47
0.0
 47
0.0
 47
0.0
 47
1.0
171
     0
 49
0.0208333333333333
 49
0.0
 49
0.0
 49
0.0
 49
0.0
 49
0.0208333333333333
 49
0.0
 49
0.0
 49
0.0
 49
0.0
 49
1.0
 49
0.0
 49
0.0
 49
0.0
 49
0.0
 49
1.0
175
     0
142
0.0208333333333333
142
0.0
142
0.0
142
0.0
142
0.0
142
0.0208333333333333
142
0.0
142
0.0
142
0.0
142
0.0
142
1.0
142
0.0
142
0.0
142
0.0
142
0.0
142
1.0
179
     0
144
0.0208333333333333
144
0.0
144
0.0
144
0.0
144
0.0
144
0.0208333333333333
144
0.0
144
0.0
144
0.0
144
0.0
144
1.0
144
0.0
144
0.0
144
0.0
144
0.0
144
1.0
147
0.0208333333333333
147
0.0
147
0.0
147
0.0
147
0.0
147
0.0208333333333333
147
0.0
147
0.0
147
0.0
147
0.0
147
1.0
147
0.0
147
0.0
147
0.0
147
0.0
147
1.0
  0
MLEADERSTYLE
  5
186F
102
{ACAD_REACTORS
330
186E
102
}
330
186E
100
AcDbMLeaderStyle
170
     2
171
     1
172
     0
 90
        2
 40
0.0
 41
0.0
173
     1
 91
-1056964608
340
1863
 92
       -2
290
     1
 42
0.09
291
     1
 43
0.36
  3
Standard
 44
0.18
300

342
185E
174
     1
178
     6
175
     1
176
     0
 93
-1056964608
 45
0.18
292
     0
297
     0
 46
0.18
 94
-1056964608
 47
1.0
 49
1.0
140
1.0
293
     1
141
0.0
294
     1
177
     0
142
1.0
295
     0
296
     0
143
0.125
1001
ACAD_MLEADERVER
1070
     2
  0
MLINESTYLE
  5
1868
102
{ACAD_REACTORS
330
1867
102
}
330
1867
100
AcDbMlineStyle
  2
STANDARD
 70
     0
  3

 62
   256
 51
90.0
 52
90.0
 71
     2
 49
0.5
 62
   256
  6
BYLAYER
 49
-0.5
 62
   256
  6
BYLAYER
  0
ACDBPLACEHOLDER
  5
1818
102
{ACAD_REACTORS
330
1817
102
}
330
1817
  0
SCALE
  5
184C
102
{ACAD_REACTORS
330
184B
102
}
330
184B
100
AcDbScale
 70
     0
300
1:1
140
1.0
141
1.0
290
     1
  0
SCALE
  5
184D
102
{ACAD_REACTORS
330
184B
102
}
330
184B
100
AcDbScale
 70
     0
300
1/128" = 1'-0"
140
0.0078125
141
12.0
290
     0
  0
SCALE
  5
184E
102
{ACAD_REACTORS
330
184B
102
}
330
184B
100
AcDbScale
 70
     0
300
1/64" = 1'-0"
140
0.015625
141
12.0
290
     0
  0
SCALE
  5
184F
102
{ACAD_REACTORS
330
184B
102
}
330
184B
100
AcDbScale
 70
     0
300
1/32" = 1'-0"
140
0.03125
141
12.0
290
     0
  0
SCALE
  5
1850
102
{ACAD_REACTORS
330
184B
102
}
330
184B
100
AcDbScale
 70
     0
300
1/16" = 1'-0"
140
0.0625
141
12.0
290
     0
  0
SCALE
  5
1851
102
{ACAD_REACTORS
330
184B
102
}
330
184B
100
AcDbScale
 70
     0
300
3/32" = 1'-0"
140
0.09375
141
12.0
290
     0
  0
SCALE
  5
1852
102
{ACAD_REACTORS
330
184B
102
}
330
184B
100
AcDbScale
 70
     0
300
1/8" = 1'-0"
140
0.125
141
12.0
290
     0
  0
SCALE
  5
1853
102
{ACAD_REACTORS
330
184B
102
}
330
184B
100
AcDbScale
 70
     0
300
3/16" = 1'-0"
140
0.1875
141
12.0
290
     0
  0
SCALE
  5
1854
102
{ACAD_REACTORS
330
184B
102
}
330
184B
100
AcDbScale
 70
     0
300
1/4" = 1'-0"
140
0.25
141
12.0
290
     0
  0
SCALE
  5
1855
102
{ACAD_REACTORS
330
184B
102
}
330
184B
100
AcDbScale
 70
     0
300
3/8" = 1'-0"
140
0.375
141
12.0
290
     0
  0
SCALE
  5
1856
102
{ACAD_REACTORS
330
184B
102
}
330
184B
100
AcDbScale
 70
     0
300
1/2" = 1'-0"
140
0.5
141
12.0
290
     0
  0
SCALE
  5
1857
102
{ACAD_REACTORS
330
184B
102
}
330
184B
100
AcDbScale
 70
     0
300
3/4" = 1'-0"
140
0.75
141
12.0
290
     0
  0
SCALE
  5
1858
102
{ACAD_REACTORS
330
184B
102
}
330
184B
100
AcDbScale
 70
     0
300
1" = 1'-0"
140
1.0
141
12.0
290
     0
  0
SCALE
  5
1859
102
{ACAD_REACTORS
330
184B
102
}
330
184B
100
AcDbScale
 70
     0
300
1-1/2" = 1'-0"
140
1.5
141
12.0
290
     0
  0
SCALE
  5
185A
102
{ACAD_REACTORS
330
184B
102
}
330
184B
100
AcDbScale
 70
     0
300
3" = 1'-0"
140
3.0
141
12.0
290
     0
  0
SCALE
  5
185B
102
{ACAD_REACTORS
330
184B
102
}
330
184B
100
AcDbScale
 70
     0
300
6" = 1'-0"
140
6.0
141
12.0
290
     0
  0
SCALE
  5
185C
102
{ACAD_REACTORS
330
184B
102
}
330
184B
100
AcDbScale
 70
     0
300
1'-0" = 1'-0"
140
12.0
141
12.0
290
     0
  0
TABLESTYLE
  5
188E
102
{ACAD_XDICTIONARY
360
18B0
102
}
102
{ACAD_REACTORS
330
186C
102
}
330
186C
100
AcDbTableStyle
  3

 70
     0
 71
     3
 40
0.06
 41
0.06
280
     0
281
     0
  7
Legend
140
0.4
170
     4
 62
     0
 63
     7
283
     0
 90
      512
 91
        0
  1

274
    -2
284
     0
 64
     0
275
    -2
285
     0
 65
     0
276
    -2
286
     0
 66
     0
277
    -2
287
     0
 67
     0
278
    -2
288
     0
 68
     0
279
    -2
289
     0
 69
     0
  7
Legend
140
0.5
170
     5
 62
     0
 63
     7
283
     0
 90
      512
 91
        0
  1

274
    -2
284
     0
 64
     0
275
    -2
285
     0
 65
     0
276
    -2
286
     0
 66
     0
277
    -2
287
     0
 67
     0
278
    -2
288
     0
 68
     0
279
    -2
289
     0
 69
     0
  7
Legend
140
0.4
170
     4
 62
     0
 63
     7
283
     0
 90
      512
 91
        0
  1

274
    -2
284
     0
 64
     0
275
    -2
285
     0
 65
     0
276
    -2
286
     0
 66
     0
277
    -2
287
     0
 67
     0
278
    -2
288
     0
 68
     0
279
    -2
289
     0
 69
     0
  0
TABLESTYLE
  5
186D
102
{ACAD_XDICTIONARY
360
18AE
102
}
102
{ACAD_REACTORS
330
186C
102
}
330
186C
100
AcDbTableStyle
  3
Standard
 70
     0
 71
     0
 40
0.06
 41
0.06
280
     0
281
     0
  7
STANDARD
140
0.18
170
     2
 62
     0
 63
     7
283
     0
 90
      512
 91
        0
  1

274
    -2
284
     1
 64
     0
275
    -2
285
     1
 65
     0
276
    -2
286
     1
 66
     0
277
    -2
287
     1
 67
     0
278
    -2
288
     1
 68
     0
279
    -2
289
     1
 69
     0
  7
STANDARD
140
0.25
170
     5
 62
     0
 63
     7
283
     0
 90
      512
 91
        0
  1

274
    -2
284
     1
 64
     0
275
    -2
285
     1
 65
     0
276
    -2
286
     1
 66
     0
277
    -2
287
     1
 67
     0
278
    -2
288
     1
 68
     0
279
    -2
289
     1
 69
     0
  7
STANDARD
140
0.18
170
     5
 62
     0
 63
     7
283
     0
 90
      512
 91
        0
  1

274
    -2
284
     1
 64
     0
275
    -2
285
     1
 65
     0
276
    -2
286
     1
 66
     0
277
    -2
287
     1
 67
     0
278
    -2
288
     1
 68
     0
279
    -2
289
     1
 69
     0
  0
VISUALSTYLE
  5
1838
102
{ACAD_XDICTIONARY
360
18BD
102
}
102
{ACAD_REACTORS
330
1832
102
}
330
1832
100
AcDbVisualStyle
  2
2dWireframe
 70
     4
 71
     0
 72
     2
 73
     0
 90
        0
 40
-0.6
 41
-30.0
 62
     5
 63
     7
421
 16777215
 74
     1
 91
        4
 64
     7
 65
   257
 75
     1
175
     1
 42
1.0
 92
        0
 66
   257
 43
1.0
 76
     1
 77
     6
 78
     2
 67
     7
 79
     5
170
     0
171
     0
290
     0
174
     0
 93
        1
 44
0.0
173
     0
291
     0
 45
0.0
1001
ACAD
1000
AcDbSavedByObjectVersion
1070
     0
  0
VISUALSTYLE
  5
1837
102
{ACAD_XDICTIONARY
360
18BB
102
}
102
{ACAD_REACTORS
330
1832
102
}
330
1832
100
AcDbVisualStyle
  2
Basic
 70
     7
 71
     1
 72
     0
 73
     1
 90
        0
 40
-0.6
 41
-30.0
 62
     5
 63
     7
421
 16777215
 74
     0
 91
        4
 64
     7
 65
   257
 75
     1
175
     1
 42
1.0
 92
        8
 66
     7
 43
1.0
 76
     1
 77
     6
 78
     2
 67
     7
 79
     5
170
     0
171
     0
290
     0
174
     0
 93
        1
 44
0.0
173
     0
291
     1
 45
0.0
1001
ACAD
1000
AcDbSavedByObjectVersion
1070
     0
  0
VISUALSTYLE
  5
183E
102
{ACAD_XDICTIONARY
360
18C9
102
}
102
{ACAD_REACTORS
330
1832
102
}
330
1832
100
AcDbVisualStyle
  2
Brighten
 70
    12
 71
     2
 72
     2
 73
     0
 90
        0
 40
-0.6
 41
-30.0
 62
     5
 63
     7
421
 16777215
 74
     1
 91
        4
 64
     7
 65
   257
 75
     1
175
     1
 42
1.0
 92
        8
 66
     7
 43
1.0
 76
     1
 77
     6
 78
     2
 67
     7
 79
     5
170
     0
171
     0
290
     0
174
     0
 93
        1
 44
50.0
173
     0
291
     1
 45
0.0
1001
ACAD
1000
AcDbSavedByObjectVersion
1070
     0
  0
VISUALSTYLE
  5
1842
102
{ACAD_XDICTIONARY
360
18D1
102
}
102
{ACAD_REACTORS
330
1832
102
}
330
1832
100
AcDbVisualStyle
  2
ColorChange
 70
    16
 71
     2
 72
     2
 73
     3
 90
        0
 40
-0.6
 41
-30.0
 62
     5
 63
     8
421
  8421504
 74
     1
 91
        4
 64
     7
 65
   257
 75
     1
175
     1
 42
1.0
 92
        8
 66
     8
424
  8421504
 43
1.0
 76
     1
 77
     6
 78
     2
 67
     7
 79
     5
170
     0
171
     0
290
     0
174
     0
 93
        1
 44
0.0
173
     0
291
     1
 45
0.0
1001
ACAD
1000
AcDbSavedByObjectVersion
1070
     0
  0
VISUALSTYLE
  5
183B
102
{ACAD_XDICTIONARY
360
18C3
102
}
102
{ACAD_REACTORS
330
1832
102
}
330
1832
100
AcDbVisualStyle
  2
Conceptual
 70
     9
 71
     3
 72
     2
 73
     0
 90
        0
 40
-0.6
 41
-30.0
 62
     5
 63
     7
421
 16777215
 74
     2
 91
        2
 64
     7
 65
   257
 75
     1
175
     1
 42
179.0
 92
        8
 66
     7
 43
1.0
 76
     1
 77
     6
 78
     2
 67
     7
 79
     3
170
     0
171
     0
290
     0
174
     0
 93
        1
 44
0.0
173
     0
291
     0
 45
0.0
1001
ACAD
1000
AcDbSavedByObjectVersion
1070
     0
  0
VISUALSTYLE
  5
183D
102
{ACAD_XDICTIONARY
360
18C7
102
}
102
{ACAD_REACTORS
330
1832
102
}
330
1832
100
AcDbVisualStyle
  2
Dim
 70
    11
 71
     2
 72
     2
 73
     0
 90
        0
 40
-0.6
 41
-30.0
 62
     5
 63
     7
421
 16777215
 74
     1
 91
        4
 64
     7
 65
   257
 75
     1
175
     1
 42
1.0
 92
        8
 66
     7
 43
1.0
 76
     1
 77
     6
 78
     2
 67
     7
 79
     5
170
     0
171
     0
290
     0
174
     0
 93
        1
 44
-50.0
173
     0
291
     1
 45
0.0
1001
ACAD
1000
AcDbSavedByObjectVersion
1070
     0
  0
VISUALSTYLE
  5
184A
102
{ACAD_XDICTIONARY
360
18E1
102
}
102
{ACAD_REACTORS
330
1832
102
}
330
1832
100
AcDbVisualStyle
  2
EdgeColorOff
 70
    22
 71
     2
 72
     2
 73
     0
 90
        0
 40
-0.6
 41
-30.0
 62
     5
 63
     7
421
 16777215
 74
     1
 91
        4
 64
     7
 65
   257
 75
     1
175
     1
 42
1.0
 92
        8
 66
     7
 43
1.0
 76
     1
 77
     6
 78
     2
 67
     7
 79
     5
170
     0
171
     0
290
     0
174
     0
 93
        1
 44
0.0
173
     0
291
     1
 45
0.0
1001
ACAD
1000
AcDbSavedByObjectVersion
1070
     0
  0
VISUALSTYLE
  5
1841
102
{ACAD_XDICTIONARY
360
18CF
102
}
102
{ACAD_REACTORS
330
1832
102
}
330
1832
100
AcDbVisualStyle
  2
Facepattern
 70
    15
 71
     2
 72
     2
 73
     0
 90
        0
 40
-0.6
 41
-30.0
 62
     5
 63
     7
421
 16777215
 74
     1
 91
        4
 64
     7
 65
   257
 75
     1
175
     1
 42
1.0
 92
        8
 66
     7
 43
1.0
 76
     1
 77
     6
 78
     2
 67
     7
 79
     5
170
     0
171
     0
290
     0
174
     0
 93
        1
 44
0.0
173
     0
291
     1
 45
0.0
1001
ACAD
1000
AcDbSavedByObjectVersion
1070
     0
  0
VISUALSTYLE
  5
1833
102
{ACAD_XDICTIONARY
360
18B3
102
}
102
{ACAD_REACTORS
330
1832
102
}
330
1832
100
AcDbVisualStyle
  2
Flat
 70
     0
 71
     2
 72
     1
 73
     1
 90
        2
 40
-0.6
 41
30.0
 62
     5
 63
     7
421
 16777215
 74
     0
 91
        0
 64
     7
 65
   257
 75
     1
175
     1
 42
1.0
 92
        8
 66
     7
 43
1.0
 76
     1
 77
     6
 78
     2
 67
     7
 79
     5
170
     0
171
     0
290
     0
174
     0
 93
       13
 44
0.0
173
     0
291
     1
 45
0.0
1001
ACAD
1000
AcDbSavedByObjectVersion
1070
     0
  0
VISUALSTYLE
  5
1834
102
{ACAD_XDICTIONARY
360
18B5
102
}
102
{ACAD_REACTORS
330
1832
102
}
330
1832
100
AcDbVisualStyle
  2
FlatWithEdges
 70
     1
 71
     2
 72
     1
 73
     1
 90
        2
 40
-0.6
 41
30.0
 62
     5
 63
     7
421
 16777215
 74
     1
 91
        0
 64
     7
 65
   257
 75
     1
175
     1
 42
1.0
 92
        0
 66
   257
 43
1.0
 76
     1
 77
     6
 78
     2
 67
     7
 79
     5
170
     0
171
     0
290
     0
174
     0
 93
       13
 44
0.0
173
     0
291
     1
 45
0.0
1001
ACAD
1000
AcDbSavedByObjectVersion
1070
     0
  0
VISUALSTYLE
  5
1835
102
{ACAD_XDICTIONARY
360
18B7
102
}
102
{ACAD_REACTORS
330
1832
102
}
330
1832
100
AcDbVisualStyle
  2
Gouraud
 70
     2
 71
     2
 72
     2
 73
     1
 90
        2
 40
-0.6
 41
30.0
 62
     5
 63
     7
421
 16777215
 74
     0
 91
        0
 64
     7
 65
   257
 75
     1
175
     1
 42
1.0
 92
        0
 66
     7
 43
1.0
 76
     1
 77
     6
 78
     2
 67
     7
 79
     5
170
     0
171
     0
290
     0
174
     0
 93
       13
 44
0.0
173
     0
291
     1
 45
0.0
1001
ACAD
1000
AcDbSavedByObjectVersion
1070
     0
  0
VISUALSTYLE
  5
1836
102
{ACAD_XDICTIONARY
360
18B9
102
}
102
{ACAD_REACTORS
330
1832
102
}
330
1832
100
AcDbVisualStyle
  2
GouraudWithEdges
 70
     3
 71
     2
 72
     2
 73
     1
 90
        2
 40
-0.6
 41
30.0
 62
     5
 63
     7
421
 16777215
 74
     1
 91
        0
 64
     7
 65
   257
 75
     1
175
     1
 42
1.0
 92
        0
 66
   257
 43
1.0
 76
     1
 77
     6
 78
     2
 67
     7
 79
     5
170
     0
171
     0
290
     0
174
     0
 93
       13
 44
0.0
173
     0
291
     1
 45
0.0
1001
ACAD
1000
AcDbSavedByObjectVersion
1070
     0
  0
VISUALSTYLE
  5
183A
102
{ACAD_XDICTIONARY
360
18C1
102
}
102
{ACAD_REACTORS
330
1832
102
}
330
1832
100
AcDbVisualStyle
  2
Hidden
 70
     6
 71
     1
 72
     2
 73
     2
 90
        0
 40
-0.6
 41
-30.0
 62
     5
 63
     7
421
 16777215
 74
     2
 91
        2
 64
     7
 65
   257
 75
     2
175
     1
 42
40.0
 92
        0
 66
   257
 43
1.0
 76
     1
 77
     6
 78
     2
 67
     7
 79
     3
170
     0
171
     0
290
     0
174
     0
 93
        1
 44
0.0
173
     0
291
     0
 45
0.0
1001
ACAD
1000
AcDbSavedByObjectVersion
1070
     0
  0
VISUALSTYLE
  5
1848
102
{ACAD_XDICTIONARY
360
18DD
102
}
102
{ACAD_REACTORS
330
1832
102
}
330
1832
100
AcDbVisualStyle
  2
JitterOff
 70
    20
 71
     2
 72
     2
 73
     0
 90
        0
 40
-0.6
 41
-30.0
 62
     5
 63
     7
421
 16777215
 74
     1
 91
        4
 64
     7
 65
   257
 75
     1
175
     1
 42
1.0
 92
       10
 66
     7
 43
1.0
 76
     1
 77
     6
 78
     2
 67
     7
 79
     5
170
     0
171
     0
290
     0
174
     0
 93
        1
 44
0.0
173
     0
291
     1
 45
0.0
1001
ACAD
1000
AcDbSavedByObjectVersion
1070
     0
  0
VISUALSTYLE
  5
1840
102
{ACAD_XDICTIONARY
360
18CD
102
}
102
{ACAD_REACTORS
330
1832
102
}
330
1832
100
AcDbVisualStyle
  2
Linepattern
 70
    14
 71
     2
 72
     2
 73
     0
 90
        0
 40
-0.6
 41
-30.0
 62
     5
 63
     7
421
 16777215
 74
     1
 91
        4
 64
     7
 65
   257
 75
     7
175
     7
 42
1.0
 92
        8
 66
     7
 43
1.0
 76
     1
 77
     6
 78
     2
 67
     7
 79
     5
170
     0
171
     0
290
     0
174
     0
 93
        1
 44
0.0
173
     0
291
     1
 45
0.0
1001
ACAD
1000
AcDbSavedByObjectVersion
1070
     0
  0
VISUALSTYLE
  5
1849
102
{ACAD_XDICTIONARY
360
18DF
102
}
102
{ACAD_REACTORS
330
1832
102
}
330
1832
100
AcDbVisualStyle
  2
OverhangOff
 70
    21
 71
     2
 72
     2
 73
     0
 90
        0
 40
-0.6
 41
-30.0
 62
     5
 63
     7
421
 16777215
 74
     1
 91
        4
 64
     7
 65
   257
 75
     1
175
     1
 42
1.0
 92
        9
 66
     7
 43
1.0
 76
     1
 77
     6
 78
     2
 67
     7
 79
     5
170
     0
171
     0
290
     0
174
     0
 93
        1
 44
0.0
173
     0
291
     1
 45
0.0
1001
ACAD
1000
AcDbSavedByObjectVersion
1070
     0
  0
VISUALSTYLE
  5
183C
102
{ACAD_XDICTIONARY
360
18C5
102
}
102
{ACAD_REACTORS
330
1832
102
}
330
1832
100
AcDbVisualStyle
  2
Realistic
 70
     8
 71
     2
 72
     3
 73
     0
 90
        2
 40
-0.6
 41
30.0
 62
     5
 63
     7
421
 16777215
 74
     0
 91
        0
 64
     7
 65
   257
 75
     1
175
     1
 42
1.0
 92
        8
 66
   257
 43
1.0
 76
     1
 77
     6
 78
     2
 67
     7
 79
     3
170
     0
171
     0
290
     0
174
     0
 93
       13
 44
0.0
173
     0
291
     0
 45
0.0
1001
ACAD
1000
AcDbSavedByObjectVersion
1070
     0
  0
VISUALSTYLE
  5
1847
102
{ACAD_XDICTIONARY
360
18DB
102
}
102
{ACAD_REACTORS
330
1832
102
}
330
1832
100
AcDbVisualStyle
  2
Shaded
 70
    27
 71
     2
 72
     2
 73
     1
 90
        2
 40
-0.6
 41
30.0
 62
     5
 63
     7
421
 16777215
 74
     0
 91
        4
 64
     7
 65
   257
 75
     1
175
     1
 42
1.0
 92
        8
 66
   257
 43
1.0
 76
     1
 77
     6
 78
     2
 67
     8
425
  7895160
 79
     3
170
     0
171
     0
290
     0
174
     0
 93
        5
 44
0.0
173
     0
291
     0
 45
0.0
1001
ACAD
1000
AcDbSavedByObjectVersion
1070
     0
  0
VISUALSTYLE
  5
1846
102
{ACAD_XDICTIONARY
360
18D9
102
}
102
{ACAD_REACTORS
330
1832
102
}
330
1832
100
AcDbVisualStyle
  2
Shaded with edges
 70
    26
 71
     2
 72
     2
 73
     1
 90
        2
 40
-0.6
 41
30.0
 62
     5
 63
     7
421
 16777215
 74
     1
 91
       10
 64
     7
 65
   257
 75
     2
175
     1
 42
1.0
 92
        8
 66
   257
 43
1.0
 76
     1
 77
     6
 78
     2
 67
     7
 79
     3
170
     0
171
     0
290
     0
174
     0
 93
        5
 44
0.0
173
     0
291
     0
 45
0.0
1001
ACAD
1000
AcDbSavedByObjectVersion
1070
     0
  0
VISUALSTYLE
  5
1843
102
{ACAD_XDICTIONARY
360
18D3
102
}
102
{ACAD_REACTORS
330
1832
102
}
330
1832
100
AcDbVisualStyle
  2
Shades of Gray
 70
    23
 71
     2
 72
     2
 73
     3
 90
        0
 40
-0.6
 41
-30.0
 62
     5
 63
     7
421
 16777215
 74
     2
 91
        2
 64
     7
 65
     7
 75
     1
175
     1
 42
40.0
 92
        8
 66
     7
 43
1.0
 76
     1
 77
     6
 78
     2
 67
     7
 79
     3
170
     0
171
     0
290
     0
174
     0
 93
        1
 44
0.0
173
     0
291
     0
 45
0.0
1001
ACAD
1000
AcDbSavedByObjectVersion
1070
     0
  0
VISUALSTYLE
  5
1844
102
{ACAD_XDICTIONARY
360
18D5
102
}
102
{ACAD_REACTORS
330
1832
102
}
330
1832
100
AcDbVisualStyle
  2
Sketchy
 70
    24
 71
     1
 72
     2
 73
     2
 90
        0
 40
-0.6
 41
-30.0
 62
     5
 63
     7
421
 16777215
 74
     2
 91
        2
 64
     7
 65
     7
 75
     1
175
     1
 42
40.0
 92
       11
 66
     7
 43
1.0
 76
     1
 77
     6
 78
     2
 67
     7
 79
     6
170
     0
171
     0
290
     0
174
     0
 93
        1
 44
0.0
173
     0
291
     0
 45
0.0
1001
ACAD
1000
AcDbSavedByObjectVersion
1070
     0
  0
VISUALSTYLE
  5
183F
102
{ACAD_XDICTIONARY
360
18CB
102
}
102
{ACAD_REACTORS
330
1832
102
}
330
1832
100
AcDbVisualStyle
  2
Thicken
 70
    13
 71
     2
 72
     2
 73
     0
 90
        0
 40
-0.6
 41
-30.0
 62
     5
 63
     7
421
 16777215
 74
     1
 91
        4
 64
     7
 65
   257
 75
     1
175
     1
 42
1.0
 92
       12
 66
     7
 43
1.0
 76
     1
 77
     6
 78
     2
 67
     7
 79
     5
170
     0
171
     0
290
     0
174
     0
 93
        1
 44
0.0
173
     0
291
     1
 45
0.0
1001
ACAD
1000
AcDbSavedByObjectVersion
1070
     0
  0
VISUALSTYLE
  5
1839
102
{ACAD_XDICTIONARY
360
18BF
102
}
102
{ACAD_REACTORS
330
1832
102
}
330
1832
100
AcDbVisualStyle
  2
Wireframe
 70
     5
 71
     0
 72
     2
 73
     0
 90
        0
 40
-0.6
 41
-30.0
 62
     5
 63
     7
421
 16777215
 74
     1
 91
        4
 64
     7
 65
   257
 75
     1
175
     1
 42
1.0
 92
        0
 66
   257
 43
1.0
 76
     1
 77
     6
 78
     2
 67
     7
 79
     3
170
     0
171
     0
290
     0
174
     0
 93
        1
 44
0.0
173
     0
291
     0
 45
0.0
1001
ACAD
1000
AcDbSavedByObjectVersion
1070
     0
  0
VISUALSTYLE
  5
1845
102
{ACAD_XDICTIONARY
360
18D7
102
}
102
{ACAD_REACTORS
330
1832
102
}
330
1832
100
AcDbVisualStyle
  2
X-Ray
 70
    25
 71
     2
 72
     2
 73
     1
 90
        1
 40
0.5
 41
-30.0
 62
     5
 63
     7
421
 16777215
 74
     1
 91
        0
 64
     7
 65
   257
 75
     1
175
     1
 42
1.0
 92
        8
 66
     7
 43
1.0
 76
     1
 77
     6
 78
     2
 67
     7
 79
     3
170
     0
171
     0
290
     0
174
     0
 93
       13
 44
0.0
173
     0
291
     0
 45
0.0
1001
ACAD
1000
AcDbSavedByObjectVersion
1070
     0
  0
DICTIONARYVAR
  5
18A8
102
{ACAD_REACTORS
330
18A4
102
}
330
18A4
100
DictionaryVariables
280
     0
  1
1:1
  0
DICTIONARYVAR
  5
18A6
102
{ACAD_REACTORS
330
18A4
102
}
330
18A4
100
DictionaryVariables
280
     0
  1
STANDARD
  0
DICTIONARYVAR
  5
18A5
102
{ACAD_REACTORS
330
18A4
102
}
330
18A4
100
DictionaryVariables
280
     0
  1
STANDARD
  0
DICTIONARYVAR
  5
18AA
102
{ACAD_REACTORS
330
18A4
102
}
330
18A4
100
DictionaryVariables
280
     0
  1
1
  0
DICTIONARYVAR
  5
18AB
102
{ACAD_REACTORS
330
18A4
102
}
330
18A4
100
DictionaryVariables
280
     0
  1
15
  0
DICTIONARYVAR
  5
18A9
102
{ACAD_REACTORS
330
18A4
102
}
330
18A4
100
DictionaryVariables
280
     0
  1
0
  0
DICTIONARYVAR
  5
18A7
102
{ACAD_REACTORS
330
18A4
102
}
330
18A4
100
DictionaryVariables
280
     0
  1
0
  0
DICTIONARYVAR
  5
18AC
102
{ACAD_REACTORS
330
18A4
102
}
330
18A4
100
DictionaryVariables
280
     0
  1
2
  0
XRECORD
  5
189A
102
{ACAD_REACTORS
330
1899
102
}
330
1899
100
AcDbXrecord
280
     1
1000
ADE02C001
1070
     1
1070
     0
1002
{
1002
}
1002
{
1002
}
1002
{
1002
}
1000

  0
XRECORD
  5
18A2
102
{ACAD_REACTORS
330
18A1
102
}
330
18A1
100
AcDbXrecord
280
     1
  0
DMSTYLIZEDENTITIESTABLE
  5
1897
102
{ACAD_REACTORS
330
1883
102
}
330
1883
100
AcMapDMStylizedEntitiesTable
 70
     1
  0
DICTIONARY
  5
188A
102
{ACAD_REACTORS
330
1883
102
}
330
1883
100
AcDbDictionary
280
     1
281
     1
  0
DATATABLE
  5
1887
102
{ACAD_REACTORS
330
1883
102
}
330
1883
100
AcDbDataTable
 70
     2
 90
        4
 91
       15
  1

 92
        3
  2
OriginalClassName
  3
AcMapDMDefaultStyle
  3
AcMapDMEntityStyle
  3
AcMapDMRasterStyle
  3
AcMapDMSEAnnotationStyle
  3
AcMapDMSEHatchStyle
  3
AcMapDMSETextStyle
  3
AcMapDMThematicStyle
  3
AcMapDMBaseElement
  3
AcMapDMAttachedDwgsQueryElement
  3
AcMapDMFeatureElement
  3
AcMapDMLayerElement
  3
AcMapDMCurrentDwgQueryElement
  3
AcMapDMRasterElement
  3
AcMapDMTopoElement
  3
AcMapDMTopoQueryElement
 92
        3
  2
ProxyDisplayName
  3
Default
  3
Entity
  3
Raster
  3
Annotation
  3
Hatch
  3
Text
  3
Thematic
  3
Map Base
  3
Ade Query
  3
Feature Class
  3
Layer
  3
Ade Project Query
  3
Raster
  3
Topology
  3
Topology Query
 92
        1
  2
CustomObjectType
 93
        2
 93
        2
 93
        2
 93
        2
 93
        2
 93
        2
 93
        2
 93
        1
 93
        1
 93
        1
 93
        1
 93
        1
 93
        1
 93
        1
 93
        1
 92
        1
  2
StyleCoExistanceType
 93
        1
 93
        1
 93
        1
 93
        1
 93
        1
 93
        1
 93
        2
 93
        0
 93
        0
 93
        0
 93
        0
 93
        0
 93
        0
 93
        0
 93
        0
  0
DMMAPMANAGER
  5
1884
102
{ACAD_REACTORS
330
1883
102
}
330
1883
100
AcDbDictionary
281
     1
  3
DisplayMap1
350
188C
100
AcDbDictionaryWithDefault
340
188C
100
AcMapDMMapManager
 70
     1
340
188C
  0
DMSTYLELIBRARY
  5
1885
102
{ACAD_REACTORS
330
1883
102
}
330
1883
100
AcMapDMStyleLibrary
 70
     1
 70
     1
360
1886
  0
DICTIONARY
  5
1898
102
{ACAD_REACTORS
330
1883
102
}
330
1883
100
AcDbDictionary
281
     1
  0
DICTIONARY
  5
1823
330
1822
100
AcDbDictionary
280
     1
281
     1
  3
BUMPTILE
360
1825
  3
DIFFUSETILE
360
1824
  3
OPACITYTILE
360
1828
  3
REFLECTIONTILE
360
1827
  3
REFRACTIONTILE
360
1829
  3
SPECULARTILE
360
1826
  0
DICTIONARY
  5
181B
330
181A
100
AcDbDictionary
280
     1
281
     1
  3
BUMPTILE
360
181D
  3
DIFFUSETILE
360
181C
  3
OPACITYTILE
360
1820
  3
REFLECTIONTILE
360
181F
  3
REFRACTIONTILE
360
1821
  3
SPECULARTILE
360
181E
  0
DICTIONARY
  5
182B
330
182A
100
AcDbDictionary
280
     1
281
     1
  3
BUMPTILE
360
182D
  3
DIFFUSETILE
360
182C
  3
OPACITYTILE
360
1830
  3
REFLECTIONTILE
360
182F
  3
REFRACTIONTILE
360
1831
  3
SPECULARTILE
360
182E
  0
DICTIONARY
  5
18B0
330
188E
100
AcDbDictionary
280
     1
281
     1
  3
ACAD_ROUNDTRIP_2008_TABLESTYLE_CELLSTYLEMAP
360
18B1
  0
DICTIONARY
  5
18AE
330
186D
100
AcDbDictionary
280
     1
281
     1
  3
ACAD_ROUNDTRIP_2008_TABLESTYLE_CELLSTYLEMAP
360
18AF
  0
DICTIONARY
  5
18BD
330
1838
100
AcDbDictionary
280
     1
281
     1
  3
ACAD_XREC_ROUNDTRIP
360
18BE
  0
DICTIONARY
  5
18BB
330
1837
100
AcDbDictionary
280
     1
281
     1
  3
ACAD_XREC_ROUNDTRIP
360
18BC
  0
DICTIONARY
  5
18C9
330
183E
100
AcDbDictionary
280
     1
281
     1
  3
ACAD_XREC_ROUNDTRIP
360
18CA
  0
DICTIONARY
  5
18D1
330
1842
100
AcDbDictionary
280
     1
281
     1
  3
ACAD_XREC_ROUNDTRIP
360
18D2
  0
DICTIONARY
  5
18C3
330
183B
100
AcDbDictionary
280
     1
281
     1
  3
ACAD_XREC_ROUNDTRIP
360
18C4
  0
DICTIONARY
  5
18C7
330
183D
100
AcDbDictionary
280
     1
281
     1
  3
ACAD_XREC_ROUNDTRIP
360
18C8
  0
DICTIONARY
  5
18E1
330
184A
100
AcDbDictionary
280
     1
281
     1
  3
ACAD_XREC_ROUNDTRIP
360
18E2
  0
DICTIONARY
  5
18CF
330
1841
100
AcDbDictionary
280
     1
281
     1
  3
ACAD_XREC_ROUNDTRIP
360
18D0
  0
DICTIONARY
  5
18B3
330
1833
100
AcDbDictionary
280
     1
281
     1
  3
ACAD_XREC_ROUNDTRIP
360
18B4
  0
DICTIONARY
  5
18B5
330
1834
100
AcDbDictionary
280
     1
281
     1
  3
ACAD_XREC_ROUNDTRIP
360
18B6
  0
DICTIONARY
  5
18B7
330
1835
100
AcDbDictionary
280
     1
281
     1
  3
ACAD_XREC_ROUNDTRIP
360
18B8
  0
DICTIONARY
  5
18B9
330
1836
100
AcDbDictionary
280
     1
281
     1
  3
ACAD_XREC_ROUNDTRIP
360
18BA
  0
DICTIONARY
  5
18C1
330
183A
100
AcDbDictionary
280
     1
281
     1
  3
ACAD_XREC_ROUNDTRIP
360
18C2
  0
DICTIONARY
  5
18DD
330
1848
100
AcDbDictionary
280
     1
281
     1
  3
ACAD_XREC_ROUNDTRIP
360
18DE
  0
DICTIONARY
  5
18CD
330
1840
100
AcDbDictionary
280
     1
281
     1
  3
ACAD_XREC_ROUNDTRIP
360
18CE
  0
DICTIONARY
  5
18DF
330
1849
100
AcDbDictionary
280
     1
281
     1
  3
ACAD_XREC_ROUNDTRIP
360
18E0
  0
DICTIONARY
  5
18C5
330
183C
100
AcDbDictionary
280
     1
281
     1
  3
ACAD_XREC_ROUNDTRIP
360
18C6
  0
DICTIONARY
  5
18DB
330
1847
100
AcDbDictionary
280
     1
281
     1
  3
ACAD_XREC_ROUNDTRIP
360
18DC
  0
DICTIONARY
  5
18D9
330
1846
100
AcDbDictionary
280
     1
281
     1
  3
ACAD_XREC_ROUNDTRIP
360
18DA
  0
DICTIONARY
  5
18D3
330
1843
100
AcDbDictionary
280
     1
281
     1
  3
ACAD_XREC_ROUNDTRIP
360
18D4
  0
DICTIONARY
  5
18D5
330
1844
100
AcDbDictionary
280
     1
281
     1
  3
ACAD_XREC_ROUNDTRIP
360
18D6
  0
DICTIONARY
  5
18CB
330
183F
100
AcDbDictionary
280
     1
281
     1
  3
ACAD_XREC_ROUNDTRIP
360
18CC
  0
DICTIONARY
  5
18BF
330
1839
100
AcDbDictionary
280
     1
281
     1
  3
ACAD_XREC_ROUNDTRIP
360
18C0
  0
DICTIONARY
  5
18D7
330
1845
100
AcDbDictionary
280
     1
281
     1
  3
ACAD_XREC_ROUNDTRIP
360
18D8
  0
DMMAP
  5
188C
102
{ACAD_REACTORS
330
1884
330
188F
102
}
330
1884
100
AcMapDMMap
 70
     1
  1
Default
 70
     1
330
0
100
AcMapDMMap
 70
     1
 90
        1
360
188F
 90
        1
 40
1.797693134862314E+99
 70
     1
100
AcMapDMMap
 70
     5
 70
     0
 40
1.797693134862314E+99
290
     1
290
     1
 40
1.0
 40
3.0
  1
Legend
 90
        1
 40
1.797693134862314E+99
  1

 70
     0
 40
1.0
 70
     1
 90
        0
 90
        1
360
1890
 40
89565.96101135197
290
     0
290
     1
 40
1.0
 90
    40
290
     0
290
     1
 40
45.0
 40
45.0
  0
DMSTYLECATEGORY
  5
1886
102
{ACAD_REACTORS
330
1885
102
}
330
1885
100
AcMapDMStyleCategory
 70
     1
  1
Display Styles
 70
     0
  0
XRECORD
  5
1825
102
{ACAD_REACTORS
330
1823
102
}
330
1823
100
AcDbXrecord
280
     1
270
     1
271
     1
  0
XRECORD
  5
1824
102
{ACAD_REACTORS
330
1823
102
}
330
1823
100
AcDbXrecord
280
     1
270
     1
271
     1
  0
XRECORD
  5
1828
102
{ACAD_REACTORS
330
1823
102
}
330
1823
100
AcDbXrecord
280
     1
270
     1
271
     1
  0
XRECORD
  5
1827
102
{ACAD_REACTORS
330
1823
102
}
330
1823
100
AcDbXrecord
280
     1
270
     1
271
     1
  0
XRECORD
  5
1829
102
{ACAD_REACTORS
330
1823
102
}
330
1823
100
AcDbXrecord
280
     1
270
     1
271
     1
  0
XRECORD
  5
1826
102
{ACAD_REACTORS
330
1823
102
}
330
1823
100
AcDbXrecord
280
     1
270
     1
271
     1
  0
XRECORD
  5
181D
102
{ACAD_REACTORS
330
181B
102
}
330
181B
100
AcDbXrecord
280
     1
270
     1
271
     1
  0
XRECORD
  5
181C
102
{ACAD_REACTORS
330
181B
102
}
330
181B
100
AcDbXrecord
280
     1
270
     1
271
     1
  0
XRECORD
  5
1820
102
{ACAD_REACTORS
330
181B
102
}
330
181B
100
AcDbXrecord
280
     1
270
     1
271
     1
  0
XRECORD
  5
181F
102
{ACAD_REACTORS
330
181B
102
}
330
181B
100
AcDbXrecord
280
     1
270
     1
271
     1
  0
XRECORD
  5
1821
102
{ACAD_REACTORS
330
181B
102
}
330
181B
100
AcDbXrecord
280
     1
270
     1
271
     1
  0
XRECORD
  5
181E
102
{ACAD_REACTORS
330
181B
102
}
330
181B
100
AcDbXrecord
280
     1
270
     1
271
     1
  0
XRECORD
  5
182D
102
{ACAD_REACTORS
330
182B
102
}
330
182B
100
AcDbXrecord
280
     1
270
     1
271
     1
  0
XRECORD
  5
182C
102
{ACAD_REACTORS
330
182B
102
}
330
182B
100
AcDbXrecord
280
     1
270
     1
271
     1
  0
XRECORD
  5
1830
102
{ACAD_REACTORS
330
182B
102
}
330
182B
100
AcDbXrecord
280
     1
270
     1
271
     1
  0
XRECORD
  5
182F
102
{ACAD_REACTORS
330
182B
102
}
330
182B
100
AcDbXrecord
280
     1
270
     1
271
     1
  0
XRECORD
  5
1831
102
{ACAD_REACTORS
330
182B
102
}
330
182B
100
AcDbXrecord
280
     1
270
     1
271
     1
  0
XRECORD
  5
182E
102
{ACAD_REACTORS
330
182B
102
}
330
182B
100
AcDbXrecord
280
     1
270
     1
271
     1
  0
CELLSTYLEMAP
  5
18B1
102
{ACAD_REACTORS
330
18B0
102
}
330
18B0
100
AcDbCellStyleMap
 90
        3
300
CELLSTYLE
  1
TABLEFORMAT_BEGIN
 90
        5
170
     1
 91
        0
 92
    32768
 62
   257
 93
        1
300
CONTENTFORMAT
  1
CONTENTFORMAT_BEGIN
 90
        0
 91
        0
 92
      512
 93
        0
300

 40
0.0
140
1.0
 94
        5
 62
     0
340
188D
144
0.5
309
CONTENTFORMAT_END
171
     0
 94
        6
 95
        1
302
GRIDFORMAT
  1
GRIDFORMAT_BEGIN
 90
        0
 91
        1
 62
     0
 92
       -2
340
0
 93
        1
 40
0.045
309
GRIDFORMAT_END
 95
        2
302
GRIDFORMAT
  1
GRIDFORMAT_BEGIN
 90
        0
 91
        1
 62
     0
 92
       -2
340
0
 93
        1
 40
0.045
309
GRIDFORMAT_END
 95
        4
302
GRIDFORMAT
  1
GRIDFORMAT_BEGIN
 90
        0
 91
        1
 62
     0
 92
       -2
340
0
 93
        1
 40
0.045
309
GRIDFORMAT_END
 95
        8
302
GRIDFORMAT
  1
GRIDFORMAT_BEGIN
 90
        0
 91
        1
 62
     0
 92
       -2
340
0
 93
        1
 40
0.045
309
GRIDFORMAT_END
 95
       16
302
GRIDFORMAT
  1
GRIDFORMAT_BEGIN
 90
        0
 91
        1
 62
     0
 92
       -2
340
0
 93
        1
 40
0.045
309
GRIDFORMAT_END
 95
       32
302
GRIDFORMAT
  1
GRIDFORMAT_BEGIN
 90
        0
 91
        1
 62
     0
 92
       -2
340
0
 93
        1
 40
0.045
309
GRIDFORMAT_END
309
TABLEFORMAT_END
  1
CELLSTYLE_BEGIN
 90
        1
 91
        1
300
_TITLE
309
CELLSTYLE_END
300
CELLSTYLE
  1
TABLEFORMAT_BEGIN
 90
        5
170
     1
 91
        0
 92
        0
 62
   257
 93
        1
300
CONTENTFORMAT
  1
CONTENTFORMAT_BEGIN
 90
        0
 91
        0
 92
      512
 93
        0
300

 40
0.0
140
1.0
 94
        4
 62
     0
340
188D
144
0.4
309
CONTENTFORMAT_END
171
     0
 94
        6
 95
        1
302
GRIDFORMAT
  1
GRIDFORMAT_BEGIN
 90
        0
 91
        1
 62
     0
 92
       -2
340
0
 93
        1
 40
0.045
309
GRIDFORMAT_END
 95
        2
302
GRIDFORMAT
  1
GRIDFORMAT_BEGIN
 90
        0
 91
        1
 62
     0
 92
       -2
340
0
 93
        1
 40
0.045
309
GRIDFORMAT_END
 95
        4
302
GRIDFORMAT
  1
GRIDFORMAT_BEGIN
 90
        0
 91
        1
 62
     0
 92
       -2
340
0
 93
        1
 40
0.045
309
GRIDFORMAT_END
 95
        8
302
GRIDFORMAT
  1
GRIDFORMAT_BEGIN
 90
        0
 91
        1
 62
     0
 92
       -2
340
0
 93
        1
 40
0.045
309
GRIDFORMAT_END
 95
       16
302
GRIDFORMAT
  1
GRIDFORMAT_BEGIN
 90
        0
 91
        1
 62
     0
 92
       -2
340
0
 93
        1
 40
0.045
309
GRIDFORMAT_END
 95
       32
302
GRIDFORMAT
  1
GRIDFORMAT_BEGIN
 90
        0
 91
        1
 62
     0
 92
       -2
340
0
 93
        1
 40
0.045
309
GRIDFORMAT_END
309
TABLEFORMAT_END
  1
CELLSTYLE_BEGIN
 90
        2
 91
        1
300
_HEADER
309
CELLSTYLE_END
300
CELLSTYLE
  1
TABLEFORMAT_BEGIN
 90
        5
170
     1
 91
        0
 92
        0
 62
   257
 93
        1
300
CONTENTFORMAT
  1
CONTENTFORMAT_BEGIN
 90
        0
 91
        0
 92
      512
 93
        0
300

 40
0.0
140
1.0
 94
        4
 62
     0
340
188D
144
0.4
309
CONTENTFORMAT_END
171
     0
 94
        6
 95
        1
302
GRIDFORMAT
  1
GRIDFORMAT_BEGIN
 90
        0
 91
        1
 62
     0
 92
       -2
340
0
 93
        1
 40
0.045
309
GRIDFORMAT_END
 95
        2
302
GRIDFORMAT
  1
GRIDFORMAT_BEGIN
 90
        0
 91
        1
 62
     0
 92
       -2
340
0
 93
        1
 40
0.045
309
GRIDFORMAT_END
 95
        4
302
GRIDFORMAT
  1
GRIDFORMAT_BEGIN
 90
        0
 91
        1
 62
     0
 92
       -2
340
0
 93
        1
 40
0.045
309
GRIDFORMAT_END
 95
        8
302
GRIDFORMAT
  1
GRIDFORMAT_BEGIN
 90
        0
 91
        1
 62
     0
 92
       -2
340
0
 93
        1
 40
0.045
309
GRIDFORMAT_END
 95
       16
302
GRIDFORMAT
  1
GRIDFORMAT_BEGIN
 90
        0
 91
        1
 62
     0
 92
       -2
340
0
 93
        1
 40
0.045
309
GRIDFORMAT_END
 95
       32
302
GRIDFORMAT
  1
GRIDFORMAT_BEGIN
 90
        0
 91
        1
 62
     0
 92
       -2
340
0
 93
        1
 40
0.045
309
GRIDFORMAT_END
309
TABLEFORMAT_END
  1
CELLSTYLE_BEGIN
 90
        3
 91
        2
300
_DATA
309
CELLSTYLE_END
  0
CELLSTYLEMAP
  5
18AF
102
{ACAD_REACTORS
330
18AE
102
}
330
18AE
100
AcDbCellStyleMap
 90
        3
300
CELLSTYLE
  1
TABLEFORMAT_BEGIN
 90
        5
170
     1
 91
        0
 92
    32768
 62
   257
 93
        1
300
CONTENTFORMAT
  1
CONTENTFORMAT_BEGIN
 90
        0
 91
        0
 92
      512
 93
        0
300

 40
0.0
140
1.0
 94
        5
 62
     0
340
185E
144
0.25
309
CONTENTFORMAT_END
171
     0
 94
        0
309
TABLEFORMAT_END
  1
CELLSTYLE_BEGIN
 90
        1
 91
        1
300
_TITLE
309
CELLSTYLE_END
300
CELLSTYLE
  1
TABLEFORMAT_BEGIN
 90
        5
170
     1
 91
        0
 92
        0
 62
   257
 93
        1
300
CONTENTFORMAT
  1
CONTENTFORMAT_BEGIN
 90
        0
 91
        0
 92
      512
 93
        0
300

 40
0.0
140
1.0
 94
        5
 62
     0
340
185E
144
0.18
309
CONTENTFORMAT_END
171
     0
 94
        0
309
TABLEFORMAT_END
  1
CELLSTYLE_BEGIN
 90
        2
 91
        1
300
_HEADER
309
CELLSTYLE_END
300
CELLSTYLE
  1
TABLEFORMAT_BEGIN
 90
        5
170
     1
 91
        0
 92
        0
 62
   257
 93
        1
300
CONTENTFORMAT
  1
CONTENTFORMAT_BEGIN
 90
        0
 91
        0
 92
      512
 93
        0
300

 40
0.0
140
1.0
 94
        2
 62
     0
340
185E
144
0.18
309
CONTENTFORMAT_END
171
     0
 94
        0
309
TABLEFORMAT_END
  1
CELLSTYLE_BEGIN
 90
        3
 91
        2
300
_DATA
309
CELLSTYLE_END
  0
XRECORD
  5
18BE
102
{ACAD_REACTORS
330
18BD
102
}
330
18BD
100
AcDbXrecord
280
     1
102
RTVSPropertyOp0
 70
     1
102
RTVSPropertyOp1
 70
     1
102
RTVSPropertyOp2
 70
     1
102
RTVSPropertyOp3
 70
     1
102
RTVSPropertyOp4
 70
     1
102
RTVSPropertyOp5
 70
     1
102
RTVSPropertyOp6
 70
     1
102
RTVSPropertyOp7
 70
     1
102
RTVSPropertyOp8
 70
     1
102
RTVSPropertyOp9
 70
     1
102
RTVSPropertyOp10
 70
     1
102
RTVSPropertyOp11
 70
     1
102
RTVSPropertyOp12
 70
     1
102
RTVSPropertyOp13
 70
     1
102
RTVSPropertyOp14
 70
     1
102
RTVSPropertyOp15
 70
     1
102
RTVSPropertyOp16
 70
     1
102
RTVSPropertyOp17
 70
     1
102
RTVSPropertyOp18
 70
     1
102
RTVSPropertyOp19
 70
     1
102
RTVSPropertyOp20
 70
     1
102
RTVSPropertyOp21
 70
     1
102
RTVSPropertyOp22
 70
     1
102
RTVSPropertyOp23
 70
     1
102
RTVSPropertyOp24
 70
     1
102
RTVSPropertyOp25
 70
     1
102
RTVSPropertyOp26
 70
     1
102
RTVSPropertyOp27
 70
     1
102
RTVSPropertyOp28
 70
     1
102
RTVSPropertyOp29
 70
     1
102
RTVSPropertyOp30
 70
     1
102
RTVSPropertyOp31
 70
     1
102
RTVSPropertyOp32
 70
     1
  0
XRECORD
  5
18BC
102
{ACAD_REACTORS
330
18BB
102
}
330
18BB
100
AcDbXrecord
280
     1
102
RTVSPropertyOp0
 70
     1
102
RTVSPropertyOp1
 70
     1
102
RTVSPropertyOp2
 70
     1
102
RTVSPropertyOp3
 70
     1
102
RTVSPropertyOp4
 70
     1
102
RTVSPropertyOp5
 70
     1
102
RTVSPropertyOp6
 70
     1
102
RTVSPropertyOp7
 70
     1
102
RTVSPropertyOp8
 70
     1
102
RTVSPropertyOp9
 70
     1
102
RTVSPropertyOp10
 70
     1
102
RTVSPropertyOp11
 70
     1
102
RTVSPropertyOp12
 70
     1
102
RTVSPropertyOp13
 70
     1
102
RTVSPropertyOp14
 70
     1
102
RTVSPropertyOp15
 70
     1
102
RTVSPropertyOp16
 70
     1
102
RTVSPropertyOp17
 70
     1
102
RTVSPropertyOp18
 70
     1
102
RTVSPropertyOp19
 70
     1
102
RTVSPropertyOp20
 70
     1
102
RTVSPropertyOp21
 70
     1
102
RTVSPropertyOp22
 70
     1
102
RTVSPropertyOp23
 70
     1
102
RTVSPropertyOp24
 70
     1
102
RTVSPropertyOp25
 70
     1
102
RTVSPropertyOp26
 70
     1
102
RTVSPropertyOp27
 70
     1
102
RTVSPropertyOp28
 70
     1
102
RTVSPropertyOp29
 70
     1
102
RTVSPropertyOp30
 70
     1
102
RTVSPropertyOp31
 70
     1
102
RTVSPropertyOp32
 70
     1
  0
XRECORD
  5
18CA
102
{ACAD_REACTORS
330
18C9
102
}
330
18C9
100
AcDbXrecord
280
     1
102
RTVSPropertyOp0
 70
     1
102
RTVSPropertyOp1
 70
     1
102
RTVSPropertyOp2
 70
     1
102
RTVSPropertyOp3
 70
     1
102
RTVSPropertyOp4
 70
     1
102
RTVSPropertyOp5
 70
     1
102
RTVSPropertyOp6
 70
     1
102
RTVSPropertyOp7
 70
     1
102
RTVSPropertyOp8
 70
     1
102
RTVSPropertyOp9
 70
     1
102
RTVSPropertyOp10
 70
     1
102
RTVSPropertyOp11
 70
     1
102
RTVSPropertyOp12
 70
     1
102
RTVSPropertyOp13
 70
     1
102
RTVSPropertyOp14
 70
     1
102
RTVSPropertyOp15
 70
     1
102
RTVSPropertyOp16
 70
     1
102
RTVSPropertyOp17
 70
     1
102
RTVSPropertyOp18
 70
     1
102
RTVSPropertyOp19
 70
     1
102
RTVSPropertyOp20
 70
     1
102
RTVSPropertyOp21
 70
     1
102
RTVSPropertyOp22
 70
     1
102
RTVSPropertyOp23
 70
     1
102
RTVSPropertyOp24
 70
     1
102
RTVSPropertyOp25
 70
     1
102
RTVSPropertyOp26
 70
     1
102
RTVSPropertyOp27
 70
     1
102
RTVSPropertyOp28
 70
     1
102
RTVSPropertyOp29
 70
     1
102
RTVSPropertyOp30
 70
     1
102
RTVSPropertyOp31
 70
     1
102
RTVSPropertyOp32
 70
     1
  0
XRECORD
  5
18D2
102
{ACAD_REACTORS
330
18D1
102
}
330
18D1
100
AcDbXrecord
280
     1
102
RTVSPropertyOp0
 70
     1
102
RTVSPropertyOp1
 70
     1
102
RTVSPropertyOp2
 70
     1
102
RTVSPropertyOp3
 70
     1
102
RTVSPropertyOp4
 70
     1
102
RTVSPropertyOp5
 70
     1
102
RTVSPropertyOp6
 70
     1
102
RTVSPropertyOp7
 70
     1
102
RTVSPropertyOp8
 70
     1
102
RTVSPropertyOp9
 70
     1
102
RTVSPropertyOp10
 70
     1
102
RTVSPropertyOp11
 70
     1
102
RTVSPropertyOp12
 70
     1
102
RTVSPropertyOp13
 70
     1
102
RTVSPropertyOp14
 70
     1
102
RTVSPropertyOp15
 70
     1
102
RTVSPropertyOp16
 70
     1
102
RTVSPropertyOp17
 70
     1
102
RTVSPropertyOp18
 70
     1
102
RTVSPropertyOp19
 70
     1
102
RTVSPropertyOp20
 70
     1
102
RTVSPropertyOp21
 70
     1
102
RTVSPropertyOp22
 70
     1
102
RTVSPropertyOp23
 70
     1
102
RTVSPropertyOp24
 70
     1
102
RTVSPropertyOp25
 70
     1
102
RTVSPropertyOp26
 70
     1
102
RTVSPropertyOp27
 70
     1
102
RTVSPropertyOp28
 70
     1
102
RTVSPropertyOp29
 70
     1
102
RTVSPropertyOp30
 70
     1
102
RTVSPropertyOp31
 70
     1
102
RTVSPropertyOp32
 70
     1
  0
XRECORD
  5
18C4
102
{ACAD_REACTORS
330
18C3
102
}
330
18C3
100
AcDbXrecord
280
     1
102
RTVSPropertyOp0
 70
     1
102
RTVSPropertyOp1
 70
     1
102
RTVSPropertyOp2
 70
     1
102
RTVSPropertyOp3
 70
     1
102
RTVSPropertyOp4
 70
     1
102
RTVSPropertyOp5
 70
     1
102
RTVSPropertyOp6
 70
     1
102
RTVSPropertyOp7
 70
     1
102
RTVSPropertyOp8
 70
     1
102
RTVSPropertyOp9
 70
     1
102
RTVSPropertyOp10
 70
     1
102
RTVSPropertyOp11
 70
     1
102
RTVSPropertyOp12
 70
     1
102
RTVSPropertyOp13
 70
     1
102
RTVSPropertyOp14
 70
     1
102
RTVSPropertyOp15
 70
     1
102
RTVSPropertyOp16
 70
     1
102
RTVSPropertyOp17
 70
     1
102
RTVSPropertyOp18
 70
     1
102
RTVSPropertyOp19
 70
     1
102
RTVSPropertyOp20
 70
     1
102
RTVSPropertyOp21
 70
     1
102
RTVSPropertyOp22
 70
     1
102
RTVSPropertyOp23
 70
     1
102
RTVSPropertyOp24
 70
     1
102
RTVSPropertyOp25
 70
     1
102
RTVSPropertyOp26
 70
     1
102
RTVSPropertyOp27
 70
     1
102
RTVSPropertyOp28
 70
     1
102
RTVSPropertyOp29
 70
     1
102
RTVSPropertyOp30
 70
     1
102
RTVSPropertyOp31
 70
     1
102
RTVSPropertyOp32
 70
     1
  0
XRECORD
  5
18C8
102
{ACAD_REACTORS
330
18C7
102
}
330
18C7
100
AcDbXrecord
280
     1
102
RTVSPropertyOp0
 70
     1
102
RTVSPropertyOp1
 70
     1
102
RTVSPropertyOp2
 70
     1
102
RTVSPropertyOp3
 70
     1
102
RTVSPropertyOp4
 70
     1
102
RTVSPropertyOp5
 70
     1
102
RTVSPropertyOp6
 70
     1
102
RTVSPropertyOp7
 70
     1
102
RTVSPropertyOp8
 70
     1
102
RTVSPropertyOp9
 70
     1
102
RTVSPropertyOp10
 70
     1
102
RTVSPropertyOp11
 70
     1
102
RTVSPropertyOp12
 70
     1
102
RTVSPropertyOp13
 70
     1
102
RTVSPropertyOp14
 70
     1
102
RTVSPropertyOp15
 70
     1
102
RTVSPropertyOp16
 70
     1
102
RTVSPropertyOp17
 70
     1
102
RTVSPropertyOp18
 70
     1
102
RTVSPropertyOp19
 70
     1
102
RTVSPropertyOp20
 70
     1
102
RTVSPropertyOp21
 70
     1
102
RTVSPropertyOp22
 70
     1
102
RTVSPropertyOp23
 70
     1
102
RTVSPropertyOp24
 70
     1
102
RTVSPropertyOp25
 70
     1
102
RTVSPropertyOp26
 70
     1
102
RTVSPropertyOp27
 70
     1
102
RTVSPropertyOp28
 70
     1
102
RTVSPropertyOp29
 70
     1
102
RTVSPropertyOp30
 70
     1
102
RTVSPropertyOp31
 70
     1
102
RTVSPropertyOp32
 70
     1
  0
XRECORD
  5
18E2
102
{ACAD_REACTORS
330
18E1
102
}
330
18E1
100
AcDbXrecord
280
     1
102
RTVSPropertyOp0
 70
     0
102
RTVSPropertyOp1
 70
     0
102
RTVSPropertyOp2
 70
     0
102
RTVSPropertyOp3
 70
     0
102
RTVSPropertyOp4
 70
     0
102
RTVSPropertyOp5
 70
     0
102
RTVSPropertyOp6
 70
     0
102
RTVSPropertyOp7
 70
     0
102
RTVSPropertyOp8
 70
     0
102
RTVSPropertyOp9
 70
     0
102
RTVSPropertyOp10
 70
     0
102
RTVSPropertyOp11
 70
     0
102
RTVSPropertyOp12
 70
     0
102
RTVSPropertyOp13
 70
     0
102
RTVSPropertyOp14
 70
     2
102
RTVSPropertyOp15
 70
     0
102
RTVSPropertyOp16
 70
     0
102
RTVSPropertyOp17
 70
     0
102
RTVSPropertyOp18
 70
     0
102
RTVSPropertyOp19
 70
     0
102
RTVSPropertyOp20
 70
     0
102
RTVSPropertyOp21
 70
     0
102
RTVSPropertyOp22
 70
     0
102
RTVSPropertyOp23
 70
     0
102
RTVSPropertyOp24
 70
     0
102
RTVSPropertyOp25
 70
     0
102
RTVSPropertyOp26
 70
     0
102
RTVSPropertyOp27
 70
     0
102
RTVSPropertyOp28
 70
     0
102
RTVSPropertyOp29
 70
     0
102
RTVSPropertyOp30
 70
     0
102
RTVSPropertyOp31
 70
     0
102
RTVSPropertyOp32
 70
     0
  0
XRECORD
  5
18D0
102
{ACAD_REACTORS
330
18CF
102
}
330
18CF
100
AcDbXrecord
280
     1
102
RTVSPropertyOp0
 70
     1
102
RTVSPropertyOp1
 70
     1
102
RTVSPropertyOp2
 70
     1
102
RTVSPropertyOp3
 70
     1
102
RTVSPropertyOp4
 70
     1
102
RTVSPropertyOp5
 70
     1
102
RTVSPropertyOp6
 70
     1
102
RTVSPropertyOp7
 70
     1
102
RTVSPropertyOp8
 70
     1
102
RTVSPropertyOp9
 70
     1
102
RTVSPropertyOp10
 70
     1
102
RTVSPropertyOp11
 70
     1
102
RTVSPropertyOp12
 70
     1
102
RTVSPropertyOp13
 70
     1
102
RTVSPropertyOp14
 70
     1
102
RTVSPropertyOp15
 70
     1
102
RTVSPropertyOp16
 70
     1
102
RTVSPropertyOp17
 70
     1
102
RTVSPropertyOp18
 70
     1
102
RTVSPropertyOp19
 70
     1
102
RTVSPropertyOp20
 70
     1
102
RTVSPropertyOp21
 70
     1
102
RTVSPropertyOp22
 70
     1
102
RTVSPropertyOp23
 70
     1
102
RTVSPropertyOp24
 70
     1
102
RTVSPropertyOp25
 70
     1
102
RTVSPropertyOp26
 70
     1
102
RTVSPropertyOp27
 70
     1
102
RTVSPropertyOp28
 70
     1
102
RTVSPropertyOp29
 70
     1
102
RTVSPropertyOp30
 70
     1
102
RTVSPropertyOp31
 70
     1
102
RTVSPropertyOp32
 70
     1
  0
XRECORD
  5
18B4
102
{ACAD_REACTORS
330
18B3
102
}
330
18B3
100
AcDbXrecord
280
     1
102
RTVSPropertyOp0
 70
     1
102
RTVSPropertyOp1
 70
     1
102
RTVSPropertyOp2
 70
     1
102
RTVSPropertyOp3
 70
     1
102
RTVSPropertyOp4
 70
     1
102
RTVSPropertyOp5
 70
     1
102
RTVSPropertyOp6
 70
     1
102
RTVSPropertyOp7
 70
     1
102
RTVSPropertyOp8
 70
     1
102
RTVSPropertyOp9
 70
     1
102
RTVSPropertyOp10
 70
     1
102
RTVSPropertyOp11
 70
     1
102
RTVSPropertyOp12
 70
     1
102
RTVSPropertyOp13
 70
     1
102
RTVSPropertyOp14
 70
     1
102
RTVSPropertyOp15
 70
     1
102
RTVSPropertyOp16
 70
     1
102
RTVSPropertyOp17
 70
     1
102
RTVSPropertyOp18
 70
     1
102
RTVSPropertyOp19
 70
     1
102
RTVSPropertyOp20
 70
     1
102
RTVSPropertyOp21
 70
     1
102
RTVSPropertyOp22
 70
     1
102
RTVSPropertyOp23
 70
     1
102
RTVSPropertyOp24
 70
     1
102
RTVSPropertyOp25
 70
     1
102
RTVSPropertyOp26
 70
     1
102
RTVSPropertyOp27
 70
     1
102
RTVSPropertyOp28
 70
     1
102
RTVSPropertyOp29
 70
     1
102
RTVSPropertyOp30
 70
     1
102
RTVSPropertyOp31
 70
     1
102
RTVSPropertyOp32
 70
     1
  0
XRECORD
  5
18B6
102
{ACAD_REACTORS
330
18B5
102
}
330
18B5
100
AcDbXrecord
280
     1
102
RTVSPropertyOp0
 70
     1
102
RTVSPropertyOp1
 70
     1
102
RTVSPropertyOp2
 70
     1
102
RTVSPropertyOp3
 70
     1
102
RTVSPropertyOp4
 70
     1
102
RTVSPropertyOp5
 70
     1
102
RTVSPropertyOp6
 70
     1
102
RTVSPropertyOp7
 70
     1
102
RTVSPropertyOp8
 70
     1
102
RTVSPropertyOp9
 70
     1
102
RTVSPropertyOp10
 70
     1
102
RTVSPropertyOp11
 70
     1
102
RTVSPropertyOp12
 70
     1
102
RTVSPropertyOp13
 70
     1
102
RTVSPropertyOp14
 70
     1
102
RTVSPropertyOp15
 70
     1
102
RTVSPropertyOp16
 70
     1
102
RTVSPropertyOp17
 70
     1
102
RTVSPropertyOp18
 70
     1
102
RTVSPropertyOp19
 70
     1
102
RTVSPropertyOp20
 70
     1
102
RTVSPropertyOp21
 70
     1
102
RTVSPropertyOp22
 70
     1
102
RTVSPropertyOp23
 70
     1
102
RTVSPropertyOp24
 70
     1
102
RTVSPropertyOp25
 70
     1
102
RTVSPropertyOp26
 70
     1
102
RTVSPropertyOp27
 70
     1
102
RTVSPropertyOp28
 70
     1
102
RTVSPropertyOp29
 70
     1
102
RTVSPropertyOp30
 70
     1
102
RTVSPropertyOp31
 70
     1
102
RTVSPropertyOp32
 70
     1
  0
XRECORD
  5
18B8
102
{ACAD_REACTORS
330
18B7
102
}
330
18B7
100
AcDbXrecord
280
     1
102
RTVSPropertyOp0
 70
     1
102
RTVSPropertyOp1
 70
     1
102
RTVSPropertyOp2
 70
     1
102
RTVSPropertyOp3
 70
     1
102
RTVSPropertyOp4
 70
     1
102
RTVSPropertyOp5
 70
     1
102
RTVSPropertyOp6
 70
     1
102
RTVSPropertyOp7
 70
     1
102
RTVSPropertyOp8
 70
     1
102
RTVSPropertyOp9
 70
     1
102
RTVSPropertyOp10
 70
     1
102
RTVSPropertyOp11
 70
     1
102
RTVSPropertyOp12
 70
     1
102
RTVSPropertyOp13
 70
     1
102
RTVSPropertyOp14
 70
     1
102
RTVSPropertyOp15
 70
     1
102
RTVSPropertyOp16
 70
     1
102
RTVSPropertyOp17
 70
     1
102
RTVSPropertyOp18
 70
     1
102
RTVSPropertyOp19
 70
     1
102
RTVSPropertyOp20
 70
     1
102
RTVSPropertyOp21
 70
     1
102
RTVSPropertyOp22
 70
     1
102
RTVSPropertyOp23
 70
     1
102
RTVSPropertyOp24
 70
     1
102
RTVSPropertyOp25
 70
     1
102
RTVSPropertyOp26
 70
     1
102
RTVSPropertyOp27
 70
     1
102
RTVSPropertyOp28
 70
     1
102
RTVSPropertyOp29
 70
     1
102
RTVSPropertyOp30
 70
     1
102
RTVSPropertyOp31
 70
     1
102
RTVSPropertyOp32
 70
     1
  0
XRECORD
  5
18BA
102
{ACAD_REACTORS
330
18B9
102
}
330
18B9
100
AcDbXrecord
280
     1
102
RTVSPropertyOp0
 70
     1
102
RTVSPropertyOp1
 70
     1
102
RTVSPropertyOp2
 70
     1
102
RTVSPropertyOp3
 70
     1
102
RTVSPropertyOp4
 70
     1
102
RTVSPropertyOp5
 70
     1
102
RTVSPropertyOp6
 70
     1
102
RTVSPropertyOp7
 70
     1
102
RTVSPropertyOp8
 70
     1
102
RTVSPropertyOp9
 70
     1
102
RTVSPropertyOp10
 70
     1
102
RTVSPropertyOp11
 70
     1
102
RTVSPropertyOp12
 70
     1
102
RTVSPropertyOp13
 70
     1
102
RTVSPropertyOp14
 70
     1
102
RTVSPropertyOp15
 70
     1
102
RTVSPropertyOp16
 70
     1
102
RTVSPropertyOp17
 70
     1
102
RTVSPropertyOp18
 70
     1
102
RTVSPropertyOp19
 70
     1
102
RTVSPropertyOp20
 70
     1
102
RTVSPropertyOp21
 70
     1
102
RTVSPropertyOp22
 70
     1
102
RTVSPropertyOp23
 70
     1
102
RTVSPropertyOp24
 70
     1
102
RTVSPropertyOp25
 70
     1
102
RTVSPropertyOp26
 70
     1
102
RTVSPropertyOp27
 70
     1
102
RTVSPropertyOp28
 70
     1
102
RTVSPropertyOp29
 70
     1
102
RTVSPropertyOp30
 70
     1
102
RTVSPropertyOp31
 70
     1
102
RTVSPropertyOp32
 70
     1
  0
XRECORD
  5
18C2
102
{ACAD_REACTORS
330
18C1
102
}
330
18C1
100
AcDbXrecord
280
     1
102
RTVSPropertyOp0
 70
     1
102
RTVSPropertyOp1
 70
     1
102
RTVSPropertyOp2
 70
     1
102
RTVSPropertyOp3
 70
     1
102
RTVSPropertyOp4
 70
     1
102
RTVSPropertyOp5
 70
     1
102
RTVSPropertyOp6
 70
     1
102
RTVSPropertyOp7
 70
     1
102
RTVSPropertyOp8
 70
     1
102
RTVSPropertyOp9
 70
     1
102
RTVSPropertyOp10
 70
     1
102
RTVSPropertyOp11
 70
     1
102
RTVSPropertyOp12
 70
     1
102
RTVSPropertyOp13
 70
     1
102
RTVSPropertyOp14
 70
     1
102
RTVSPropertyOp15
 70
     1
102
RTVSPropertyOp16
 70
     1
102
RTVSPropertyOp17
 70
     1
102
RTVSPropertyOp18
 70
     1
102
RTVSPropertyOp19
 70
     1
102
RTVSPropertyOp20
 70
     1
102
RTVSPropertyOp21
 70
     1
102
RTVSPropertyOp22
 70
     1
102
RTVSPropertyOp23
 70
     1
102
RTVSPropertyOp24
 70
     1
102
RTVSPropertyOp25
 70
     1
102
RTVSPropertyOp26
 70
     1
102
RTVSPropertyOp27
 70
     1
102
RTVSPropertyOp28
 70
     1
102
RTVSPropertyOp29
 70
     1
102
RTVSPropertyOp30
 70
     1
102
RTVSPropertyOp31
 70
     1
102
RTVSPropertyOp32
 70
     1
  0
XRECORD
  5
18DE
102
{ACAD_REACTORS
330
18DD
102
}
330
18DD
100
AcDbXrecord
280
     1
102
RTVSPropertyOp0
 70
     0
102
RTVSPropertyOp1
 70
     0
102
RTVSPropertyOp2
 70
     0
102
RTVSPropertyOp3
 70
     0
102
RTVSPropertyOp4
 70
     0
102
RTVSPropertyOp5
 70
     0
102
RTVSPropertyOp6
 70
     0
102
RTVSPropertyOp7
 70
     0
102
RTVSPropertyOp8
 70
     0
102
RTVSPropertyOp9
 70
     0
102
RTVSPropertyOp10
 70
     0
102
RTVSPropertyOp11
 70
     0
102
RTVSPropertyOp12
 70
     0
102
RTVSPropertyOp13
 70
     0
102
RTVSPropertyOp14
 70
     2
102
RTVSPropertyOp15
 70
     0
102
RTVSPropertyOp16
 70
     0
102
RTVSPropertyOp17
 70
     0
102
RTVSPropertyOp18
 70
     0
102
RTVSPropertyOp19
 70
     0
102
RTVSPropertyOp20
 70
     0
102
RTVSPropertyOp21
 70
     0
102
RTVSPropertyOp22
 70
     0
102
RTVSPropertyOp23
 70
     0
102
RTVSPropertyOp24
 70
     0
102
RTVSPropertyOp25
 70
     0
102
RTVSPropertyOp26
 70
     0
102
RTVSPropertyOp27
 70
     0
102
RTVSPropertyOp28
 70
     0
102
RTVSPropertyOp29
 70
     0
102
RTVSPropertyOp30
 70
     0
102
RTVSPropertyOp31
 70
     0
102
RTVSPropertyOp32
 70
     0
  0
XRECORD
  5
18CE
102
{ACAD_REACTORS
330
18CD
102
}
330
18CD
100
AcDbXrecord
280
     1
102
RTVSPropertyOp0
 70
     1
102
RTVSPropertyOp1
 70
     1
102
RTVSPropertyOp2
 70
     1
102
RTVSPropertyOp3
 70
     1
102
RTVSPropertyOp4
 70
     1
102
RTVSPropertyOp5
 70
     1
102
RTVSPropertyOp6
 70
     1
102
RTVSPropertyOp7
 70
     1
102
RTVSPropertyOp8
 70
     1
102
RTVSPropertyOp9
 70
     1
102
RTVSPropertyOp10
 70
     1
102
RTVSPropertyOp11
 70
     1
102
RTVSPropertyOp12
 70
     1
102
RTVSPropertyOp13
 70
     1
102
RTVSPropertyOp14
 70
     1
102
RTVSPropertyOp15
 70
     1
102
RTVSPropertyOp16
 70
     1
102
RTVSPropertyOp17
 70
     1
102
RTVSPropertyOp18
 70
     1
102
RTVSPropertyOp19
 70
     1
102
RTVSPropertyOp20
 70
     1
102
RTVSPropertyOp21
 70
     1
102
RTVSPropertyOp22
 70
     1
102
RTVSPropertyOp23
 70
     1
102
RTVSPropertyOp24
 70
     1
102
RTVSPropertyOp25
 70
     1
102
RTVSPropertyOp26
 70
     1
102
RTVSPropertyOp27
 70
     1
102
RTVSPropertyOp28
 70
     1
102
RTVSPropertyOp29
 70
     1
102
RTVSPropertyOp30
 70
     1
102
RTVSPropertyOp31
 70
     1
102
RTVSPropertyOp32
 70
     1
  0
XRECORD
  5
18E0
102
{ACAD_REACTORS
330
18DF
102
}
330
18DF
100
AcDbXrecord
280
     1
102
RTVSPropertyOp0
 70
     0
102
RTVSPropertyOp1
 70
     0
102
RTVSPropertyOp2
 70
     0
102
RTVSPropertyOp3
 70
     0
102
RTVSPropertyOp4
 70
     0
102
RTVSPropertyOp5
 70
     0
102
RTVSPropertyOp6
 70
     0
102
RTVSPropertyOp7
 70
     0
102
RTVSPropertyOp8
 70
     0
102
RTVSPropertyOp9
 70
     0
102
RTVSPropertyOp10
 70
     0
102
RTVSPropertyOp11
 70
     0
102
RTVSPropertyOp12
 70
     0
102
RTVSPropertyOp13
 70
     0
102
RTVSPropertyOp14
 70
     2
102
RTVSPropertyOp15
 70
     0
102
RTVSPropertyOp16
 70
     0
102
RTVSPropertyOp17
 70
     0
102
RTVSPropertyOp18
 70
     0
102
RTVSPropertyOp19
 70
     0
102
RTVSPropertyOp20
 70
     0
102
RTVSPropertyOp21
 70
     0
102
RTVSPropertyOp22
 70
     0
102
RTVSPropertyOp23
 70
     0
102
RTVSPropertyOp24
 70
     0
102
RTVSPropertyOp25
 70
     0
102
RTVSPropertyOp26
 70
     0
102
RTVSPropertyOp27
 70
     0
102
RTVSPropertyOp28
 70
     0
102
RTVSPropertyOp29
 70
     0
102
RTVSPropertyOp30
 70
     0
102
RTVSPropertyOp31
 70
     0
102
RTVSPropertyOp32
 70
     0
  0
XRECORD
  5
18C6
102
{ACAD_REACTORS
330
18C5
102
}
330
18C5
100
AcDbXrecord
280
     1
102
RTVSPropertyOp0
 70
     1
102
RTVSPropertyOp1
 70
     1
102
RTVSPropertyOp2
 70
     1
102
RTVSPropertyOp3
 70
     1
102
RTVSPropertyOp4
 70
     1
102
RTVSPropertyOp5
 70
     1
102
RTVSPropertyOp6
 70
     1
102
RTVSPropertyOp7
 70
     1
102
RTVSPropertyOp8
 70
     1
102
RTVSPropertyOp9
 70
     1
102
RTVSPropertyOp10
 70
     1
102
RTVSPropertyOp11
 70
     1
102
RTVSPropertyOp12
 70
     1
102
RTVSPropertyOp13
 70
     1
102
RTVSPropertyOp14
 70
     1
102
RTVSPropertyOp15
 70
     1
102
RTVSPropertyOp16
 70
     1
102
RTVSPropertyOp17
 70
     1
102
RTVSPropertyOp18
 70
     1
102
RTVSPropertyOp19
 70
     1
102
RTVSPropertyOp20
 70
     1
102
RTVSPropertyOp21
 70
     1
102
RTVSPropertyOp22
 70
     1
102
RTVSPropertyOp23
 70
     1
102
RTVSPropertyOp24
 70
     1
102
RTVSPropertyOp25
 70
     1
102
RTVSPropertyOp26
 70
     1
102
RTVSPropertyOp27
 70
     1
102
RTVSPropertyOp28
 70
     1
102
RTVSPropertyOp29
 70
     1
102
RTVSPropertyOp30
 70
     1
102
RTVSPropertyOp31
 70
     1
102
RTVSPropertyOp32
 70
     1
  0
XRECORD
  5
18DC
102
{ACAD_REACTORS
330
18DB
102
}
330
18DB
100
AcDbXrecord
280
     1
102
RTVSPropertyOp0
 70
     1
102
RTVSPropertyOp1
 70
     1
102
RTVSPropertyOp2
 70
     1
102
RTVSPropertyOp3
 70
     1
102
RTVSPropertyOp4
 70
     1
102
RTVSPropertyOp5
 70
     1
102
RTVSPropertyOp6
 70
     1
102
RTVSPropertyOp7
 70
     1
102
RTVSPropertyOp8
 70
     1
102
RTVSPropertyOp9
 70
     1
102
RTVSPropertyOp10
 70
     1
102
RTVSPropertyOp11
 70
     1
102
RTVSPropertyOp12
 70
     1
102
RTVSPropertyOp13
 70
     1
102
RTVSPropertyOp14
 70
     1
102
RTVSPropertyOp15
 70
     1
102
RTVSPropertyOp16
 70
     1
102
RTVSPropertyOp17
 70
     1
102
RTVSPropertyOp18
 70
     1
102
RTVSPropertyOp19
 70
     1
102
RTVSPropertyOp20
 70
     1
102
RTVSPropertyOp21
 70
     1
102
RTVSPropertyOp22
 70
     1
102
RTVSPropertyOp23
 70
     1
102
RTVSPropertyOp24
 70
     1
102
RTVSPropertyOp25
 70
     1
102
RTVSPropertyOp26
 70
     1
102
RTVSPropertyOp27
 70
     1
102
RTVSPropertyOp28
 70
     1
102
RTVSPropertyOp29
 70
     1
102
RTVSPropertyOp30
 70
     1
102
RTVSPropertyOp31
 70
     1
102
RTVSPropertyOp32
 70
     1
  0
XRECORD
  5
18DA
102
{ACAD_REACTORS
330
18D9
102
}
330
18D9
100
AcDbXrecord
280
     1
102
RTVSPropertyOp0
 70
     1
102
RTVSPropertyOp1
 70
     1
102
RTVSPropertyOp2
 70
     1
102
RTVSPropertyOp3
 70
     1
102
RTVSPropertyOp4
 70
     1
102
RTVSPropertyOp5
 70
     1
102
RTVSPropertyOp6
 70
     1
102
RTVSPropertyOp7
 70
     1
102
RTVSPropertyOp8
 70
     1
102
RTVSPropertyOp9
 70
     1
102
RTVSPropertyOp10
 70
     1
102
RTVSPropertyOp11
 70
     1
102
RTVSPropertyOp12
 70
     1
102
RTVSPropertyOp13
 70
     1
102
RTVSPropertyOp14
 70
     1
102
RTVSPropertyOp15
 70
     1
102
RTVSPropertyOp16
 70
     1
102
RTVSPropertyOp17
 70
     1
102
RTVSPropertyOp18
 70
     1
102
RTVSPropertyOp19
 70
     1
102
RTVSPropertyOp20
 70
     1
102
RTVSPropertyOp21
 70
     1
102
RTVSPropertyOp22
 70
     1
102
RTVSPropertyOp23
 70
     1
102
RTVSPropertyOp24
 70
     1
102
RTVSPropertyOp25
 70
     1
102
RTVSPropertyOp26
 70
     1
102
RTVSPropertyOp27
 70
     1
102
RTVSPropertyOp28
 70
     1
102
RTVSPropertyOp29
 70
     1
102
RTVSPropertyOp30
 70
     1
102
RTVSPropertyOp31
 70
     1
102
RTVSPropertyOp32
 70
     1
  0
XRECORD
  5
18D4
102
{ACAD_REACTORS
330
18D3
102
}
330
18D3
100
AcDbXrecord
280
     1
102
RTVSPropertyOp0
 70
     1
102
RTVSPropertyOp1
 70
     1
102
RTVSPropertyOp2
 70
     1
102
RTVSPropertyOp3
 70
     1
102
RTVSPropertyOp4
 70
     1
102
RTVSPropertyOp5
 70
     1
102
RTVSPropertyOp6
 70
     1
102
RTVSPropertyOp7
 70
     1
102
RTVSPropertyOp8
 70
     1
102
RTVSPropertyOp9
 70
     1
102
RTVSPropertyOp10
 70
     1
102
RTVSPropertyOp11
 70
     1
102
RTVSPropertyOp12
 70
     1
102
RTVSPropertyOp13
 70
     1
102
RTVSPropertyOp14
 70
     1
102
RTVSPropertyOp15
 70
     1
102
RTVSPropertyOp16
 70
     1
102
RTVSPropertyOp17
 70
     1
102
RTVSPropertyOp18
 70
     1
102
RTVSPropertyOp19
 70
     1
102
RTVSPropertyOp20
 70
     1
102
RTVSPropertyOp21
 70
     1
102
RTVSPropertyOp22
 70
     1
102
RTVSPropertyOp23
 70
     1
102
RTVSPropertyOp24
 70
     1
102
RTVSPropertyOp25
 70
     1
102
RTVSPropertyOp26
 70
     1
102
RTVSPropertyOp27
 70
     1
102
RTVSPropertyOp28
 70
     1
102
RTVSPropertyOp29
 70
     1
102
RTVSPropertyOp30
 70
     1
102
RTVSPropertyOp31
 70
     1
102
RTVSPropertyOp32
 70
     1
  0
XRECORD
  5
18D6
102
{ACAD_REACTORS
330
18D5
102
}
330
18D5
100
AcDbXrecord
280
     1
102
RTVSPropertyOp0
 70
     1
102
RTVSPropertyOp1
 70
     1
102
RTVSPropertyOp2
 70
     1
102
RTVSPropertyOp3
 70
     1
102
RTVSPropertyOp4
 70
     1
102
RTVSPropertyOp5
 70
     1
102
RTVSPropertyOp6
 70
     1
102
RTVSPropertyOp7
 70
     1
102
RTVSPropertyOp8
 70
     1
102
RTVSPropertyOp9
 70
     1
102
RTVSPropertyOp10
 70
     1
102
RTVSPropertyOp11
 70
     1
102
RTVSPropertyOp12
 70
     1
102
RTVSPropertyOp13
 70
     1
102
RTVSPropertyOp14
 70
     1
102
RTVSPropertyOp15
 70
     1
102
RTVSPropertyOp16
 70
     1
102
RTVSPropertyOp17
 70
     1
102
RTVSPropertyOp18
 70
     1
102
RTVSPropertyOp19
 70
     1
102
RTVSPropertyOp20
 70
     1
102
RTVSPropertyOp21
 70
     1
102
RTVSPropertyOp22
 70
     1
102
RTVSPropertyOp23
 70
     1
102
RTVSPropertyOp24
 70
     1
102
RTVSPropertyOp25
 70
     1
102
RTVSPropertyOp26
 70
     1
102
RTVSPropertyOp27
 70
     1
102
RTVSPropertyOp28
 70
     1
102
RTVSPropertyOp29
 70
     1
102
RTVSPropertyOp30
 70
     1
102
RTVSPropertyOp31
 70
     1
102
RTVSPropertyOp32
 70
     1
  0
XRECORD
  5
18CC
102
{ACAD_REACTORS
330
18CB
102
}
330
18CB
100
AcDbXrecord
280
     1
102
RTVSPropertyOp0
 70
     1
102
RTVSPropertyOp1
 70
     1
102
RTVSPropertyOp2
 70
     1
102
RTVSPropertyOp3
 70
     1
102
RTVSPropertyOp4
 70
     1
102
RTVSPropertyOp5
 70
     1
102
RTVSPropertyOp6
 70
     1
102
RTVSPropertyOp7
 70
     1
102
RTVSPropertyOp8
 70
     1
102
RTVSPropertyOp9
 70
     1
102
RTVSPropertyOp10
 70
     1
102
RTVSPropertyOp11
 70
     1
102
RTVSPropertyOp12
 70
     1
102
RTVSPropertyOp13
 70
     1
102
RTVSPropertyOp14
 70
     1
102
RTVSPropertyOp15
 70
     1
102
RTVSPropertyOp16
 70
     1
102
RTVSPropertyOp17
 70
     1
102
RTVSPropertyOp18
 70
     1
102
RTVSPropertyOp19
 70
     1
102
RTVSPropertyOp20
 70
     1
102
RTVSPropertyOp21
 70
     1
102
RTVSPropertyOp22
 70
     1
102
RTVSPropertyOp23
 70
     1
102
RTVSPropertyOp24
 70
     1
102
RTVSPropertyOp25
 70
     1
102
RTVSPropertyOp26
 70
     1
102
RTVSPropertyOp27
 70
     1
102
RTVSPropertyOp28
 70
     1
102
RTVSPropertyOp29
 70
     1
102
RTVSPropertyOp30
 70
     1
102
RTVSPropertyOp31
 70
     1
102
RTVSPropertyOp32
 70
     1
  0
XRECORD
  5
18C0
102
{ACAD_REACTORS
330
18BF
102
}
330
18BF
100
AcDbXrecord
280
     1
102
RTVSPropertyOp0
 70
     1
102
RTVSPropertyOp1
 70
     1
102
RTVSPropertyOp2
 70
     1
102
RTVSPropertyOp3
 70
     1
102
RTVSPropertyOp4
 70
     1
102
RTVSPropertyOp5
 70
     1
102
RTVSPropertyOp6
 70
     1
102
RTVSPropertyOp7
 70
     1
102
RTVSPropertyOp8
 70
     1
102
RTVSPropertyOp9
 70
     1
102
RTVSPropertyOp10
 70
     1
102
RTVSPropertyOp11
 70
     1
102
RTVSPropertyOp12
 70
     1
102
RTVSPropertyOp13
 70
     1
102
RTVSPropertyOp14
 70
     1
102
RTVSPropertyOp15
 70
     1
102
RTVSPropertyOp16
 70
     1
102
RTVSPropertyOp17
 70
     1
102
RTVSPropertyOp18
 70
     1
102
RTVSPropertyOp19
 70
     1
102
RTVSPropertyOp20
 70
     1
102
RTVSPropertyOp21
 70
     1
102
RTVSPropertyOp22
 70
     1
102
RTVSPropertyOp23
 70
     1
102
RTVSPropertyOp24
 70
     1
102
RTVSPropertyOp25
 70
     1
102
RTVSPropertyOp26
 70
     1
102
RTVSPropertyOp27
 70
     1
102
RTVSPropertyOp28
 70
     1
102
RTVSPropertyOp29
 70
     1
102
RTVSPropertyOp30
 70
     1
102
RTVSPropertyOp31
 70
     1
102
RTVSPropertyOp32
 70
     1
  0
XRECORD
  5
18D8
102
{ACAD_REACTORS
330
18D7
102
}
330
18D7
100
AcDbXrecord
280
     1
102
RTVSPropertyOp0
 70
     1
102
RTVSPropertyOp1
 70
     1
102
RTVSPropertyOp2
 70
     1
102
RTVSPropertyOp3
 70
     1
102
RTVSPropertyOp4
 70
     1
102
RTVSPropertyOp5
 70
     1
102
RTVSPropertyOp6
 70
     1
102
RTVSPropertyOp7
 70
     1
102
RTVSPropertyOp8
 70
     1
102
RTVSPropertyOp9
 70
     1
102
RTVSPropertyOp10
 70
     1
102
RTVSPropertyOp11
 70
     1
102
RTVSPropertyOp12
 70
     1
102
RTVSPropertyOp13
 70
     1
102
RTVSPropertyOp14
 70
     1
102
RTVSPropertyOp15
 70
     1
102
RTVSPropertyOp16
 70
     1
102
RTVSPropertyOp17
 70
     1
102
RTVSPropertyOp18
 70
     1
102
RTVSPropertyOp19
 70
     1
102
RTVSPropertyOp20
 70
     1
102
RTVSPropertyOp21
 70
     1
102
RTVSPropertyOp22
 70
     1
102
RTVSPropertyOp23
 70
     1
102
RTVSPropertyOp24
 70
     1
102
RTVSPropertyOp25
 70
     1
102
RTVSPropertyOp26
 70
     1
102
RTVSPropertyOp27
 70
     1
102
RTVSPropertyOp28
 70
     1
102
RTVSPropertyOp29
 70
     1
102
RTVSPropertyOp30
 70
     1
102
RTVSPropertyOp31
 70
     1
102
RTVSPropertyOp32
 70
     1
  0
DMBASEELEMENT
  5
188F
102
{ACAD_XDICTIONARY
360
1893
102
}
102
{ACAD_REACTORS
330
188C
102
}
330
188C
100
AcMapDMBaseElement
 70
     1
  1
Map Base
 70
     1
330
188C
100
AcMapDMBaseElement
 70
     1
  1

 70
     2
  1

 70
     1
 40
1.797693134862314E+99
 70
     1
 70
     1
 70
     1
 70
     1
360
1892
100
AcMapDMBaseElement
 70
     1
  0
DMDEFAULTSTYLE
  5
1890
102
{ACAD_REACTORS
330
188C
102
}
330
188C
100
AcMapDMDefaultStyle
 70
     1
 90
        1
  1
Default
100
AcMapDMDefaultStyle
 70
     1
280
   100
 90
     0
1001
AcMapDMDisplayStyleRegapp
1070
     2
1071
        1
1000
Default
1000

  0
DICTIONARY
  5
1893
330
188F
100
AcDbDictionary
280
     1
281
     1
  3
AcMapDMSurrogateStyleSets
360
1894
  0
DMSTYLEREFERENCE
  5
1892
330
188F
100
AcMapDMStyleReference
 70
     1
 70
     0
340
1890
330
188C
  0
DMSURROGATESTYLESETS
  5
1894
102
{ACAD_REACTORS
330
1893
102
}
330
1893
100
AcMapDMSurrogateStyleSets
 70
     1
  1
Map Base
 70
     1
 40
1.797693134862314E+99
 70
     1
 70
     1
 70
     1
 70
     1
330
1892
 70
     0
  0
ENDSEC
  0
EOF
