  0
SECTION
  2
HEADER
  9
$ACADVER
  1
AC1021
  9
$ACADMAINTVER
 70
    50
  9
$DWGCODEPAGE
  3
ANSI_1252
  9
$LASTSAVEDBY
  1
Ricardo
  9
$INSBASE
 10
0.0
 20
0.0
 30
0.0
  9
$EXTMIN
 10
536641.3456717815
 20
1024736.994047978
 30
0.0083333333333333
  9
$EXTMAX
 10
542633.5911034676
 20
1044720.295122381
 30
13.0
  9
$LIMMIN
 10
0.0
 20
0.0
  9
$LIMMAX
 10
420.0
 20
297.0
  9
$ORTHOMODE
 70
     0
  9
$REGENMODE
 70
     1
  9
$FILLMODE
 70
     1
  9
$QTEXTMODE
 70
     0
  9
$MIRRTEXT
 70
     0
  9
$LTSCALE
 40
1.0
  9
$ATTMODE
 70
     1
  9
$TEXTSIZE
 40
2.5
  9
$TRACEWID
 40
1.0
  9
$TEXTSTYLE
  7
STANDARD
  9
$CLAYER
  8
aguas buenas
  9
$CELTYPE
  6
ByLayer
  9
$CECOLOR
 62
   256
  9
$CELTSCALE
 40
1.0
  9
$DISPSILH
 70
     0
  9
$DIMSCALE
 40
1.0
  9
$DIMASZ
 40
2.5
  9
$DIMEXO
 40
0.625
  9
$DIMDLI
 40
3.75
  9
$DIMRND
 40
0.0
  9
$DIMDLE
 40
0.0
  9
$DIMEXE
 40
1.25
  9
$DIMTP
 40
0.0
  9
$DIMTM
 40
0.0
  9
$DIMTXT
 40
2.5
  9
$DIMCEN
 40
2.5
  9
$DIMTSZ
 40
0.0
  9
$DIMTOL
 70
     0
  9
$DIMLIM
 70
     0
  9
$DIMTIH
 70
     0
  9
$DIMTOH
 70
     0
  9
$DIMSE1
 70
     0
  9
$DIMSE2
 70
     0
  9
$DIMTAD
 70
     1
  9
$DIMZIN
 70
     8
  9
$DIMBLK
  1

  9
$DIMASO
 70
     1
  9
$DIMSHO
 70
     1
  9
$DIMPOST
  1

  9
$DIMAPOST
  1

  9
$DIMALT
 70
     0
  9
$DIMALTD
 70
     3
  9
$DIMALTF
 40
0.03937007874016
  9
$DIMLFAC
 40
1.0
  9
$DIMTOFL
 70
     1
  9
$DIMTVP
 40
0.0
  9
$DIMTIX
 70
     0
  9
$DIMSOXD
 70
     0
  9
$DIMSAH
 70
     0
  9
$DIMBLK1
  1

  9
$DIMBLK2
  1

  9
$DIMSTYLE
  2
ISO-25
  9
$DIMCLRD
 70
     0
  9
$DIMCLRE
 70
     0
  9
$DIMCLRT
 70
     0
  9
$DIMTFAC
 40
1.0
  9
$DIMGAP
 40
0.625
  9
$DIMJUST
 70
     0
  9
$DIMSD1
 70
     0
  9
$DIMSD2
 70
     0
  9
$DIMTOLJ
 70
     1
  9
$DIMTZIN
 70
     0
  9
$DIMALTZ
 70
     0
  9
$DIMALTTZ
 70
     0
  9
$DIMUPT
 70
     0
  9
$DIMDEC
 70
     4
  9
$DIMTDEC
 70
     4
  9
$DIMALTU
 70
     2
  9
$DIMALTTD
 70
     2
  9
$DIMTXSTY
  7
STANDARD
  9
$DIMAUNIT
 70
     0
  9
$DIMADEC
 70
     0
  9
$DIMALTRND
 40
0.0
  9
$DIMAZIN
 70
     0
  9
$DIMDSEP
 70
    46
  9
$DIMATFIT
 70
     3
  9
$DIMFRAC
 70
     0
  9
$DIMLDRBLK
  1

  9
$DIMLUNIT
 70
     2
  9
$DIMLWD
 70
    -2
  9
$DIMLWE
 70
    -2
  9
$DIMTMOVE
 70
     0
  9
$DIMFXL
 40
1.0
  9
$DIMFXLON
 70
     0
  9
$DIMJOGANG
 40
0.7853981633974483
  9
$DIMTFILL
 70
     0
  9
$DIMTFILLCLR
 70
     0
  9
$DIMARCSYM
 70
     0
  9
$DIMLTYPE
  6

  9
$DIMLTEX1
  6

  9
$DIMLTEX2
  6

  9
$LUNITS
 70
     2
  9
$LUPREC
 70
     4
  9
$SKETCHINC
 40
1.0
  9
$FILLETRAD
 40
0.0
  9
$AUNITS
 70
     0
  9
$AUPREC
 70
     0
  9
$MENU
  1
.
  9
$ELEVATION
 40
0.0
  9
$PELEVATION
 40
0.0
  9
$THICKNESS
 40
0.0
  9
$LIMCHECK
 70
     0
  9
$CHAMFERA
 40
0.0
  9
$CHAMFERB
 40
0.0
  9
$CHAMFERC
 40
0.0
  9
$CHAMFERD
 40
0.0
  9
$SKPOLY
 70
     0
  9
$TDCREATE
 40
2456127.945734410
  9
$TDUCREATE
 40
2456128.195734410
  9
$TDUPDATE
 40
2456199.461808623
  9
$TDUUPDATE
 40
2456199.711808623
  9
$TDINDWG
 40
0.0012648032
  9
$TDUSRTIMER
 40
0.0012647454
  9
$USRTIMER
 70
     1
  9
$ANGBASE
 50
0.0
  9
$ANGDIR
 70
     0
  9
$PDMODE
 70
     0
  9
$PDSIZE
 40
0.0
  9
$PLINEWID
 40
0.0
  9
$SPLFRAME
 70
     0
  9
$SPLINETYPE
 70
     6
  9
$SPLINESEGS
 70
     8
  9
$HANDSEED
  5
10CC
  9
$SURFTAB1
 70
     6
  9
$SURFTAB2
 70
     6
  9
$SURFTYPE
 70
     6
  9
$SURFU
 70
     6
  9
$SURFV
 70
     6
  9
$UCSBASE
  2

  9
$UCSNAME
  2

  9
$UCSORG
 10
0.0
 20
0.0
 30
0.0
  9
$UCSXDIR
 10
1.0
 20
0.0
 30
0.0
  9
$UCSYDIR
 10
0.0
 20
1.0
 30
0.0
  9
$UCSORTHOREF
  2

  9
$UCSORTHOVIEW
 70
     0
  9
$UCSORGTOP
 10
0.0
 20
0.0
 30
0.0
  9
$UCSORGBOTTOM
 10
0.0
 20
0.0
 30
0.0
  9
$UCSORGLEFT
 10
0.0
 20
0.0
 30
0.0
  9
$UCSORGRIGHT
 10
0.0
 20
0.0
 30
0.0
  9
$UCSORGFRONT
 10
0.0
 20
0.0
 30
0.0
  9
$UCSORGBACK
 10
0.0
 20
0.0
 30
0.0
  9
$PUCSBASE
  2

  9
$PUCSNAME
  2

  9
$PUCSORG
 10
0.0
 20
0.0
 30
0.0
  9
$PUCSXDIR
 10
1.0
 20
0.0
 30
0.0
  9
$PUCSYDIR
 10
0.0
 20
1.0
 30
0.0
  9
$PUCSORTHOREF
  2

  9
$PUCSORTHOVIEW
 70
     0
  9
$PUCSORGTOP
 10
0.0
 20
0.0
 30
0.0
  9
$PUCSORGBOTTOM
 10
0.0
 20
0.0
 30
0.0
  9
$PUCSORGLEFT
 10
0.0
 20
0.0
 30
0.0
  9
$PUCSORGRIGHT
 10
0.0
 20
0.0
 30
0.0
  9
$PUCSORGFRONT
 10
0.0
 20
0.0
 30
0.0
  9
$PUCSORGBACK
 10
0.0
 20
0.0
 30
0.0
  9
$USERI1
 70
     0
  9
$USERI2
 70
     0
  9
$USERI3
 70
     0
  9
$USERI4
 70
     0
  9
$USERI5
 70
     0
  9
$USERR1
 40
0.0
  9
$USERR2
 40
0.0
  9
$USERR3
 40
0.0
  9
$USERR4
 40
0.0
  9
$USERR5
 40
0.0
  9
$WORLDVIEW
 70
     1
  9
$SHADEDGE
 70
     3
  9
$SHADEDIF
 70
    70
  9
$TILEMODE
 70
     1
  9
$MAXACTVP
 70
    64
  9
$PINSBASE
 10
0.0
 20
0.0
 30
0.0
  9
$PLIMCHECK
 70
     0
  9
$PEXTMIN
 10
1.000000000000000E+20
 20
1.000000000000000E+20
 30
1.000000000000000E+20
  9
$PEXTMAX
 10
-1.000000000000000E+20
 20
-1.000000000000000E+20
 30
-1.000000000000000E+20
  9
$PLIMMIN
 10
0.0
 20
0.0
  9
$PLIMMAX
 10
420.0
 20
297.0
  9
$UNITMODE
 70
     0
  9
$VISRETAIN
 70
     1
  9
$PLINEGEN
 70
     0
  9
$PSLTSCALE
 70
     1
  9
$TREEDEPTH
 70
  3020
  9
$CMLSTYLE
  2
Standard
  9
$CMLJUST
 70
     0
  9
$CMLSCALE
 40
1.0
  9
$PROXYGRAPHICS
 70
     1
  9
$MEASUREMENT
 70
     0
  9
$CELWEIGHT
370
    -1
  9
$ENDCAPS
280
     0
  9
$JOINSTYLE
280
     0
  9
$LWDISPLAY
290
     0
  9
$INSUNITS
 70
     0
  9
$HYPERLINKBASE
  1

  9
$STYLESHEET
  1

  9
$XEDIT
290
     1
  9
$CEPSNTYPE
380
     0
  9
$PSTYLEMODE
290
     1
  9
$FINGERPRINTGUID
  2
{D0D0BA0D-644D-4F4C-985B-9A8C3A388BBB}
  9
$VERSIONGUID
  2
{E677359E-3DA6-451E-8438-7392113DB25A}
  9
$EXTNAMES
290
     1
  9
$PSVPSCALE
 40
0.0
  9
$OLESTARTUP
290
     0
  9
$SORTENTS
280
   127
  9
$INDEXCTL
280
     0
  9
$HIDETEXT
280
     0
  9
$XCLIPFRAME
290
     0
  9
$HALOGAP
280
     0
  9
$OBSCOLOR
 70
   257
  9
$OBSLTYPE
280
     0
  9
$INTERSECTIONDISPLAY
280
     0
  9
$INTERSECTIONCOLOR
 70
   257
  9
$DIMASSOC
280
     1
  9
$PROJECTNAME
  1

  9
$CAMERADISPLAY
290
     0
  9
$LENSLENGTH
 40
50.0
  9
$CAMERAHEIGHT
 40
0.0
  9
$STEPSPERSEC
 40
2.0
  9
$STEPSIZE
 40
6.0
  9
$3DDWFPREC
 40
2.0
  9
$PSOLWIDTH
 40
0.25
  9
$PSOLHEIGHT
 40
4.0
  9
$LOFTANG1
 40
1.570796326794896
  9
$LOFTANG2
 40
1.570796326794896
  9
$LOFTMAG1
 40
0.0
  9
$LOFTMAG2
 40
0.0
  9
$LOFTPARAM
 70
     7
  9
$LOFTNORMALS
280
     1
  9
$LATITUDE
 40
37.795
  9
$LONGITUDE
 40
-122.394
  9
$NORTHDIRECTION
 40
0.0
  9
$TIMEZONE
 70
 -8000
  9
$LIGHTGLYPHDISPLAY
280
     1
  9
$TILEMODELIGHTSYNCH
280
     1
  9
$CMATERIAL
347
1002
  9
$SOLIDHIST
280
     0
  9
$SHOWHIST
280
     1
  9
$DWFFRAME
280
     2
  9
$DGNFRAME
280
     0
  9
$REALWORLDSCALE
290
     1
  9
$INTERFERECOLOR
 62
     1
  9
$INTERFEREOBJVS
345
1024
  9
$INTERFEREVPVS
346
1021
  9
$CSHADOW
280
     0
  9
$SHADOWPLANELOCATION
 40
0.0
  0
ENDSEC
  0
SECTION
  2
CLASSES
  0
CLASS
  1
ACDBDICTIONARYWDFLT
  2
AcDbDictionaryWithDefault
  3
ObjectDBX Classes
 90
        0
 91
        1
280
     0
281
     0
  0
CLASS
  1
MATERIAL
  2
AcDbMaterial
  3
ObjectDBX Classes
 90
     1153
 91
        3
280
     0
281
     0
  0
CLASS
  1
VISUALSTYLE
  2
AcDbVisualStyle
  3
ObjectDBX Classes
 90
     4095
 91
       24
280
     0
281
     0
  0
CLASS
  1
SCALE
  2
AcDbScale
  3
ObjectDBX Classes
 90
     1153
 91
       17
280
     0
281
     0
  0
CLASS
  1
TABLESTYLE
  2
AcDbTableStyle
  3
ObjectDBX Classes
 90
     4095
 91
        2
280
     0
281
     0
  0
CLASS
  1
MLEADERSTYLE
  2
AcDbMLeaderStyle
  3
ACDB_MLEADERSTYLE_CLASS
 90
     4095
 91
        1
280
     0
281
     0
  0
CLASS
  1
DMMAPMANAGER
  2
AcMapDMMapManager
  3
AcMapDisplayManagement
 90
     1024
 91
        1
280
     0
281
     0
  0
CLASS
  1
DMSTYLELIBRARY
  2
AcMapDMStyleLibrary
  3
AcMapDisplayManagement
 90
     1024
 91
        1
280
     0
281
     0
  0
CLASS
  1
DMSTYLECATEGORY
  2
AcMapDMStyleCategory
  3
AcMapDisplayManagement
 90
     1024
 91
        1
280
     0
281
     0
  0
CLASS
  1
DATATABLE
  2
AcDbDataTable
  3
ObjectDBX Classes
 90
        0
 91
        1
280
     0
281
     0
  0
CLASS
  1
MAPGWSUNDOOBJECT
  2
AcMapGWSUndoRecorder
  3
AcMapFeatureSourceManager
 90
     1025
 91
        1
280
     0
281
     0
  0
CLASS
  1
DMMAP
  2
AcMapDMMap
  3
AcMapDisplayManagement
 90
     1024
 91
        1
280
     0
281
     0
  0
CLASS
  1
DMBASEELEMENT
  2
AcMapDMBaseElement
  3
AcMapDisplayManagement
 90
     1024
 91
        1
280
     0
281
     0
  0
CLASS
  1
DMDEFAULTSTYLE
  2
AcMapDMDefaultStyle
  3
AcMapDisplayManagement
 90
     1024
 91
        1
280
     0
281
     0
  0
CLASS
  1
DMSTYLEREFERENCE
  2
AcMapDMStyleReference
  3
AcMapDisplayManagement
 90
     1024
 91
        1
280
     0
281
     0
  0
CLASS
  1
DMSURROGATESTYLESETS
  2
AcMapDMSurrogateStyleSets
  3
AcMapDisplayManagement
 90
     1153
 91
        1
280
     0
281
     0
  0
CLASS
  1
SORTENTSTABLE
  2
AcDbSortentsTable
  3
ObjectDBX Classes
 90
        0
 91
        1
280
     0
281
     0
  0
CLASS
  1
DMSTYLIZEDENTITIESTABLE
  2
AcMapDMStylizedEntitiesTable
  3
AcMapDisplayManagement
 90
     1024
 91
        1
280
     0
281
     0
  0
CLASS
  1
MAPRESOURCEMANAGEROBJECT
  2
AcMapResourceManager
  3
AcMapSharedComponents
 90
     1024
 91
        1
280
     0
281
     0
  0
CLASS
  1
DICTIONARYVAR
  2
AcDbDictionaryVar
  3
ObjectDBX Classes
 90
        0
 91
        8
280
     0
281
     0
  0
CLASS
  1
CELLSTYLEMAP
  2
AcDbCellStyleMap
  3
ObjectDBX Classes
 90
     1152
 91
        2
280
     0
281
     0
  0
ENDSEC
  0
SECTION
  2
TABLES
  0
TABLE
  2
VPORT
  5
FF9
330
0
100
AcDbSymbolTable
 70
     1
  0
VPORT
  5
1060
330
FF9
100
AcDbSymbolTableRecord
100
AcDbViewportTableRecord
  2
*ACTIVE
 70
     0
 10
0.0
 20
0.0
 11
1.0
 21
1.0
 12
555341.9044138063
 22
1027972.731615365
 13
0.0
 23
0.0
 14
10.0
 24
10.0
 15
10.0
 25
10.0
 16
0.0
 26
0.0
 36
1.0
 17
0.0
 27
0.0
 37
0.0
 40
51850.01861569503
 41
3.568627450980392
 42
50.0
 43
0.0
 44
0.0
 50
0.0
 51
0.0
 71
     0
 72
  1000
 73
     1
 74
     3
 75
     0
 76
     0
 77
     0
 78
     0
281
     0
 65
     1
110
0.0
120
0.0
130
0.0
111
1.0
121
0.0
131
0.0
112
0.0
122
1.0
132
0.0
 79
     0
146
0.0
348
1020
 60
     3
 61
     5
292
     1
282
     0
141
0.0
142
0.0
 63
   250
421
  3355443
1001
ACAD_NAV_VCDISPLAY
1070
     3
  0
ENDTAB
  0
TABLE
  2
LTYPE
  5
FF6
330
0
100
AcDbSymbolTable
 70
     1
  0
LTYPE
  5
104B
330
FF6
100
AcDbSymbolTableRecord
100
AcDbLinetypeTableRecord
  2
ByBlock
 70
     0
  3

 72
    65
 73
     0
 40
0.0
  0
LTYPE
  5
104C
330
FF6
100
AcDbSymbolTableRecord
100
AcDbLinetypeTableRecord
  2
ByLayer
 70
     0
  3

 72
    65
 73
     0
 40
0.0
  0
LTYPE
  5
104D
330
FF6
100
AcDbSymbolTableRecord
100
AcDbLinetypeTableRecord
  2
CONTINUOUS
 70
     0
  3
Solid line
 72
    65
 73
     0
 40
0.0
  0
ENDTAB
  0
TABLE
  2
LAYER
  5
FF3
330
0
100
AcDbSymbolTable
 70
     2
  0
LAYER
  5
1045
102
{ACAD_XDICTIONARY
360
1084
102
}
330
FF3
100
AcDbSymbolTableRecord
100
AcDbLayerTableRecord
  2
0
 70
     0
 62
     7
  6
CONTINUOUS
370
    -3
390
1000
347
1012
  0
LAYER
  5
1061
102
{ACAD_XDICTIONARY
360
1086
102
}
330
FF3
100
AcDbSymbolTableRecord
100
AcDbLayerTableRecord
  2
aguas buenas
 70
     0
 62
     1
  6
CONTINUOUS
370
    -3
390
1000
347
1012
  0
ENDTAB
  0
TABLE
  2
STYLE
  5
FF4
330
0
100
AcDbSymbolTable
 70
     3
  0
STYLE
  5
1046
330
FF4
100
AcDbSymbolTableRecord
100
AcDbTextStyleTableRecord
  2
STANDARD
 70
     0
 40
0.0
 41
1.0
 50
0.0
 71
     0
 42
2.5
  3
txt
  4

  0
STYLE
  5
104A
330
FF4
100
AcDbSymbolTableRecord
100
AcDbTextStyleTableRecord
  2
Annotative
 70
     0
 40
0.0
 41
1.0
 50
0.0
 71
     0
 42
0.2
  3
txt
  4

1001
AcadAnnotative
1000
AnnotativeData
1002
{
1070
     1
1070
     1
1002
}
  0
STYLE
  5
1075
330
FF4
100
AcDbSymbolTableRecord
100
AcDbTextStyleTableRecord
  2
Legend
 70
     0
 40
0.0
 41
1.0
 50
0.0
 71
     0
 42
2.5
  3
CALIBRI.TTF
  4

1001
ACAD
1000
Calibri
1071
      256
  0
ENDTAB
  0
TABLE
  2
VIEW
  5
FF7
330
0
100
AcDbSymbolTable
 70
     0
  0
ENDTAB
  0
TABLE
  2
UCS
  5
FF8
330
0
100
AcDbSymbolTable
 70
     0
  0
ENDTAB
  0
TABLE
  2
APPID
  5
FFA
330
0
100
AcDbSymbolTable
 70
     9
  0
APPID
  5
1047
330
FFA
100
AcDbSymbolTableRecord
100
AcDbRegAppTableRecord
  2
ACAD
 70
     0
  0
APPID
  5
104E
330
FFA
100
AcDbSymbolTableRecord
100
AcDbRegAppTableRecord
  2
AcadAnnotative
 70
     0
  0
APPID
  5
1062
330
FFA
100
AcDbSymbolTableRecord
100
AcDbRegAppTableRecord
  2
DCO15
 70
     0
  0
APPID
  5
1063
330
FFA
100
AcDbSymbolTableRecord
100
AcDbRegAppTableRecord
  2
ADE
 70
     0
  0
APPID
  5
1064
330
FFA
100
AcDbSymbolTableRecord
100
AcDbRegAppTableRecord
  2
ADE_ENTITY_LOCK
 70
     0
  0
APPID
  5
1079
330
FFA
100
AcDbSymbolTableRecord
100
AcDbRegAppTableRecord
  2
AcMapDMDisplayStyleRegapp
 70
     0
  0
APPID
  5
108B
330
FFA
100
AcDbSymbolTableRecord
100
AcDbRegAppTableRecord
  2
MapGWS
 70
     0
  0
APPID
  5
1095
330
FFA
100
AcDbSymbolTableRecord
100
AcDbRegAppTableRecord
  2
ACAD_NAV_VCDISPLAY
 70
     0
  0
APPID
  5
10CB
330
FFA
100
AcDbSymbolTableRecord
100
AcDbRegAppTableRecord
  2
ACAD_MLEADERVER
 70
     0
  0
ENDTAB
  0
TABLE
  2
DIMSTYLE
  5
FFB
330
0
100
AcDbSymbolTable
 70
     3
100
AcDbDimStyleTable
 71
     0
  0
DIMSTYLE
105
1048
330
FFB
100
AcDbSymbolTableRecord
100
AcDbDimStyleTableRecord
  2
Standard
 70
     0
340
1046
  0
DIMSTYLE
105
1049
330
FFB
100
AcDbSymbolTableRecord
100
AcDbDimStyleTableRecord
  2
Annotative
 70
     0
340
1046
1001
AcadAnnotative
1000
AnnotativeData
1002
{
1070
     1
1070
     1
1002
}
  0
DIMSTYLE
105
1065
330
FFB
100
AcDbSymbolTableRecord
100
AcDbDimStyleTableRecord
  2
ISO-25
 70
     0
 41
2.5
 42
0.625
 43
3.75
 44
1.25
 73
     0
 74
     0
 77
     1
 78
     8
140
2.5
141
2.5
143
0.03937007874016
147
0.625
171
     3
172
     1
274
     3
279
     2
284
     8
285
     8
286
     8
340
1046
  0
ENDTAB
  0
TABLE
  2
BLOCK_RECORD
  5
FF2
330
0
100
AcDbSymbolTable
 70
     2
  0
BLOCK_RECORD
  5
105C
102
{ACAD_XDICTIONARY
360
107D
102
}
330
FF2
100
AcDbSymbolTableRecord
100
AcDbBlockTableRecord
  2
*Model_Space
340
105F
 70
     0
280
     1
281
     0
  0
BLOCK_RECORD
  5
1058
330
FF2
100
AcDbSymbolTableRecord
100
AcDbBlockTableRecord
  2
*Paper_Space
340
105B
 70
     0
280
     1
281
     0
  0
BLOCK_RECORD
  5
1067
330
FF2
100
AcDbSymbolTableRecord
100
AcDbBlockTableRecord
  2
$MODEL_SPACE
340
0
 70
     0
280
     1
281
     0
  0
BLOCK_RECORD
  5
1069
330
FF2
100
AcDbSymbolTableRecord
100
AcDbBlockTableRecord
  2
$PAPER_SPACE
340
0
 70
     0
280
     1
281
     0
  0
ENDTAB
  0
ENDSEC
  0
SECTION
  2
BLOCKS
  0
BLOCK
  5
105D
330
105C
100
AcDbEntity
  8
0
100
AcDbBlockBegin
  2
*Model_Space
 70
     0
 10
0.0
 20
0.0
 30
0.0
  3
*Model_Space
  1

  0
ENDBLK
  5
105E
330
105C
100
AcDbEntity
  8
0
100
AcDbBlockEnd
  0
BLOCK
  5
1059
330
1058
100
AcDbEntity
 67
     1
  8
0
100
AcDbBlockBegin
  2
*Paper_Space
 70
     0
 10
0.0
 20
0.0
 30
0.0
  3
*Paper_Space
  1

  0
ENDBLK
  5
105A
330
1058
100
AcDbEntity
 67
     1
  8
0
100
AcDbBlockEnd
  0
BLOCK
  5
1068
330
1067
100
AcDbEntity
  8
0
100
AcDbBlockBegin
  2
$MODEL_SPACE
 70
     0
 10
0.0
 20
0.0
 30
0.0
  3
$MODEL_SPACE
  1

  0
ENDBLK
  5
23
330
1067
100
AcDbEntity
  8
0
100
AcDbBlockEnd
  0
BLOCK
  5
106A
330
1069
100
AcDbEntity
  8
0
100
AcDbBlockBegin
  2
$PAPER_SPACE
 70
     0
 10
0.0
 20
0.0
 30
0.0
  3
$PAPER_SPACE
  1

  0
ENDBLK
  5
1F
330
1069
100
AcDbEntity
  8
0
100
AcDbBlockEnd
  0
ENDSEC
  0
SECTION
  2
ENTITIES
  0
LWPOLYLINE
  5
17D
330
105C
100
AcDbEntity
  8
aguas buenas
100
AcDbPolyline
 90
        4
 70
     1
 43
0.0
 38
1.866666666666666
 10
539567.8341286147
 20
1029046.432950111
 10
539530.1172347749
 20
1029023.40579387
 10
539488.4301415857
 20
1029064.695867127
 10
539508.6781582778
 20
1029083.752824012
1001
DCO15
1071
        3
1071
        3
1000
datoslink
1004
0000000000F49340
1001
ADE_ENTITY_LOCK
1071
1342624882
1071
1342625087
  0
LWPOLYLINE
  5
17E
330
105C
100
AcDbEntity
  8
aguas buenas
100
AcDbPolyline
 90
        4
 70
     1
 43
0.0
 38
0.325
 10
539391.1602574764
 20
1029482.757858833
 10
539438.008609823
 20
1029388.664134204
 10
539416.5695333239
 20
1029375.959496278
 10
539358.6046227953
 20
1029467.671101298
1001
DCO15
1071
        3
1071
        3
1000
datoslink
1004
0000000000F09340
1001
ADE_ENTITY_LOCK
1071
1342624882
1071
1342625087
  0
LWPOLYLINE
  5
17F
330
105C
100
AcDbEntity
  8
aguas buenas
100
AcDbPolyline
 90
        4
 70
     1
 43
0.0
 38
0.125
 10
539222.6252950066
 20
1029413.01469023
 10
539259.6804889543
 20
1029370.665897146
 10
539230.3671837412
 20
1029354.917439719
 10
539196.8189992225
 20
1029393.825393362
1001
DCO15
1071
        3
1071
        3
1000
datoslink
1004
0000000000EC9340
1001
ADE_ENTITY_LOCK
1071
1342624882
1071
1342625087
  0
LWPOLYLINE
  5
180
330
105C
100
AcDbEntity
  8
aguas buenas
100
AcDbPolyline
 90
        5
 70
     1
 43
0.0
 38
0.225
 10
539262.3272885224
 20
1029442.129485471
 10
539282.8399851696
 20
1029419.631689146
 10
539305.9994813874
 20
1029389.85519401
 10
539262.3272885224
 20
1029371.327597035
 10
539224.6103946829
 20
1029414.999789903
1001
DCO15
1071
        3
1071
        3
1000
datoslink
1004
0000000000E89340
1001
ADE_ENTITY_LOCK
1071
1342624882
1071
1342625087
  0
LWPOLYLINE
  5
181
330
105C
100
AcDbEntity
  8
aguas buenas
100
AcDbPolyline
 90
        4
 70
     1
 43
0.0
 38
0.3583333333333333
 10
541395.8476708249
 20
1033626.312839131
 10
541345.5584790385
 20
1033626.312839131
 10
541345.5584790385
 20
1033676.60203092
 10
541396.5093707177
 20
1033676.60203092
1001
DCO15
1071
        3
1071
        3
1000
datoslink
1004
0000000000CC9340
1001
ADE_ENTITY_LOCK
1071
1342624882
1071
1342625087
  0
LWPOLYLINE
  5
182
330
105C
100
AcDbEntity
  8
aguas buenas
100
AcDbPolyline
 90
        4
 70
     1
 43
0.0
 38
1.26
 10
541360.1158766606
 20
1033381.48387913
 10
541397.1710706074
 20
1033425.817771887
 10
541433.564564662
 20
1033389.424277829
 10
541402.4646697436
 20
1033343.766985288
1001
DCO15
1071
        3
1071
        3
1000
datoslink
1004
0000000000BC9340
1001
ADE_ENTITY_LOCK
1071
1342624882
1071
1342625087
  0
LWPOLYLINE
  5
183
330
105C
100
AcDbEntity
  8
aguas buenas
100
AcDbPolyline
 90
        4
 70
     1
 43
0.0
 38
1.147999999999999
 10
541395.1859709332
 20
1033427.141171666
 10
541355.4839774184
 20
1033380.160479346
 10
541287.9905884442
 20
1033448.315568209
 10
541342.9116794709
 20
1033486.032462049
1001
DCO15
1071
        3
1071
        3
1000
datoslink
1004
0000000000B89340
1001
ADE_ENTITY_LOCK
1071
1342624882
1071
1342625087
  0
LWPOLYLINE
  5
184
330
105C
100
AcDbEntity
  8
aguas buenas
100
AcDbPolyline
 90
        4
 70
     1
 43
0.0
 38
0.0333333333333333
 10
539781.3004844348
 20
1028191.210320634
 10
539821.6436174856
 20
1028191.210320634
 10
539821.6436174856
 20
1028140.946745027
 10
539781.3004844348
 20
1028140.946745027
1001
DCO15
1071
        3
1071
        3
1000
datoslink
1004
0000000000B49340
1001
ADE_ENTITY_LOCK
1071
1342624882
1071
1342625087
  0
LWPOLYLINE
  5
185
330
105C
100
AcDbEntity
  8
aguas buenas
100
AcDbPolyline
 90
        4
 70
     1
 43
0.0
 38
0.5
 10
539626.541580596
 20
1028537.10308434
 10
539626.541580596
 20
1028486.839508738
 10
539576.278004989
 20
1028486.839508738
 10
539576.278004989
 20
1028537.10308434
1001
DCO15
1071
        3
1071
        3
1000
datoslink
1004
0000000000A89340
1001
ADE_ENTITY_LOCK
1071
1342624882
1071
1342625087
  0
LWPOLYLINE
  5
186
330
105C
100
AcDbEntity
  8
aguas buenas
100
AcDbPolyline
 90
        4
 70
     1
 43
0.0
 38
0.0333333333333333
 10
539679.4506075504
 20
1028559.589420795
 10
539678.7892447142
 20
1028508.664482353
 10
539628.5256691072
 20
1028508.664482353
 10
539628.5256691072
 20
1028559.589420795
1001
DCO15
1071
        3
1071
        3
1000
datoslink
1004
0000000000A49340
1001
ADE_ENTITY_LOCK
1071
1342624882
1071
1342625087
  0
LWPOLYLINE
  5
187
330
105C
100
AcDbEntity
  8
aguas buenas
100
AcDbPolyline
 90
        4
 70
     1
 43
0.0
 38
0.1
 10
541022.734485277
 20
1029841.298944117
 10
541053.5221537258
 20
1029841.298944117
 10
541063.0516701505
 20
1029791.452242819
 10
541022.734485277
 20
1029791.452242819
1001
DCO15
1071
        3
1071
        3
1000
datoslink
1004
0000000000007240
1001
ADE_ENTITY_LOCK
1071
1342624882
1071
1342625087
  0
LWPOLYLINE
  5
188
330
105C
100
AcDbEntity
  8
aguas buenas
100
AcDbPolyline
 90
        4
 70
     1
 43
0.0
 38
1.231999999999999
 10
540963.3582675543
 20
1029841.298944117
 10
541019.8023263771
 20
1029841.298944117
 10
541019.8023263771
 20
1029791.452242819
 10
540969.222585354
 20
1029791.452242819
1001
DCO15
1071
        3
1071
        3
1000
datoslink
1004
0000000000F07140
1001
ADE_ENTITY_LOCK
1071
1342624882
1071
1342625087
  0
LWPOLYLINE
  5
189
330
105C
100
AcDbEntity
  8
aguas buenas
100
AcDbPolyline
 90
        4
 70
     1
 43
0.0
 38
0.2380952380952381
 10
540995.612015453
 20
1029932.928909738
 10
541035.9292003266
 20
1029932.928909738
 10
541044.7256770262
 20
1029887.48044679
 10
540995.612015453
 20
1029887.48044679
1001
DCO15
1071
        3
1071
        3
1000
datoslink
1004
0000000000D07140
1001
ADE_ENTITY_LOCK
1071
1342624882
1071
1342625087
  0
LWPOLYLINE
  5
18A
330
105C
100
AcDbEntity
  8
aguas buenas
100
AcDbPolyline
 90
        4
 70
     1
 43
0.0
 38
0.0380952380952381
 10
540947.2313936049
 20
1029884.54828789
 10
540999.2772140778
 20
1029884.54828789
 10
540999.2772140778
 20
1029842.765023567
 10
540961.8921881046
 20
1029842.765023567
1001
DCO15
1071
        3
1071
        3
1000
datoslink
1004
0000000000B07140
1001
ADE_ENTITY_LOCK
1071
1342624882
1071
1342625087
  0
LWPOLYLINE
  5
18B
330
105C
100
AcDbEntity
  8
aguas buenas
100
AcDbPolyline
 90
        4
 70
     1
 43
0.0
 38
0.27
 10
540761.7385430842
 20
1029843.428878707
 10
540811.8619827224
 20
1029843.428878707
 10
540811.8619827224
 20
1029803.178237785
 10
540761.7385430842
 20
1029803.178237785
1001
DCO15
1071
        3
1071
        3
1000
datoslink
1004
0000000000807140
1001
ADE_ENTITY_LOCK
1071
1342624882
1071
1342625087
  0
LWPOLYLINE
  5
18C
330
105C
100
AcDbEntity
  8
aguas buenas
100
AcDbPolyline
 90
        4
 70
     1
 43
0.0
 38
0.0151515151515152
 10
540890.0849264001
 20
1029960.383571195
 10
540969.0673161328
 20
1029960.383571195
 10
540969.0673161328
 20
1029935.321851376
 10
540893.1227106206
 20
1029935.321851376
1001
DCO15
1071
        3
1071
        3
1000
datoslink
1004
0000000000C07040
1001
ADE_ENTITY_LOCK
1071
1342624882
1071
1342625087
  0
LWPOLYLINE
  5
18D
330
105C
100
AcDbEntity
  8
aguas buenas
100
AcDbPolyline
 90
        4
 70
     1
 43
0.0
 38
0.0422077922077922
 10
540940.8834291983
 20
1030015.612175982
 10
540897.3418553713
 20
1030015.612175982
 10
540901.3922343319
 20
1030067.25450773
 10
540940.8834291983
 20
1030067.25450773
1001
DCO15
1071
        3
1071
        3
1000
datoslink
1004
0000000000707140
1001
ADE_ENTITY_LOCK
1071
1342624882
1071
1342625087
  0
LWPOLYLINE
  5
18E
330
105C
100
AcDbEntity
  8
aguas buenas
100
AcDbPolyline
 90
        4
 70
     1
 43
0.0
 38
0.5555555555555556
 10
540968.2234871829
 20
1030013.586986502
 10
540968.2234871829
 20
1029961.944654753
 10
540891.2662869303
 20
1029961.944654753
 10
540897.3418553713
 20
1030013.586986502
1001
DCO15
1071
        3
1071
        3
1000
datoslink
1004
0000000000607140
1001
ADE_ENTITY_LOCK
1071
1342624882
1071
1342625087
  0
LWPOLYLINE
  5
18F
330
105C
100
AcDbEntity
  8
aguas buenas
100
AcDbPolyline
 90
        4
 70
     1
 43
0.0
 38
0.0617283950617284
 10
540942.9086186786
 20
1030067.25450773
 10
540992.5257609465
 20
1030067.25450773
 10
540998.6013293878
 20
1030015.612175982
 10
540942.9086186786
 20
1030015.612175982
1001
DCO15
1071
        3
1071
        3
1000
datoslink
1004
0000000000307140
1001
ADE_ENTITY_LOCK
1071
1342624882
1071
1342625087
  0
LWPOLYLINE
  5
190
330
105C
100
AcDbEntity
  8
aguas buenas
100
AcDbPolyline
 90
        4
 70
     1
 43
0.0
 38
0.1388888888888889
 10
540671.5332283145
 20
1030214.080745054
 10
540671.5332283145
 20
1030253.57193992
 10
540712.0370179211
 20
1030253.57193992
 10
540712.0370179211
 20
1030214.080745054
1001
DCO15
1071
        3
1071
        3
1000
datoslink
1004
0000000000D07040
1001
ADE_ENTITY_LOCK
1071
1342624882
1071
1342625087
  0
LWPOLYLINE
  5
191
330
105C
100
AcDbEntity
  8
aguas buenas
100
AcDbPolyline
 90
        4
 70
     1
 43
0.0
 38
0.18
 10
538403.134917259
 20
1033156.691979572
 10
538403.134917259
 20
1033181.043071463
 10
538455.0133304176
 20
1033181.043071463
 10
538455.0133304176
 20
1033156.691979572
1001
DCO15
1071
        3
1071
        3
1000
datoslink
1004
0000000000607040
1001
ADE_ENTITY_LOCK
1071
1342624882
1071
1342625087
  0
LWPOLYLINE
  5
192
330
105C
100
AcDbEntity
  8
aguas buenas
100
AcDbPolyline
 90
        4
 70
     1
 43
0.0
 38
0.07
 10
538435.903670544
 20
1031981.911914402
 10
538435.903670544
 20
1032032.731584435
 10
538486.7233405769
 20
1032032.731584435
 10
538486.7233405769
 20
1031981.911914402
1001
DCO15
1071
        3
1071
        3
1000
datoslink
1004
0000000000007040
1001
ADE_ENTITY_LOCK
1071
1342624882
1071
1342625087
  0
LWPOLYLINE
  5
193
330
105C
100
AcDbEntity
  8
aguas buenas
100
AcDbPolyline
 90
        4
 70
     1
 43
0.0
 38
1.26
 10
538600.0088550253
 20
1031646.29034356
 10
538600.0088550253
 20
1031686.522582336
 10
538640.2410938014
 20
1031686.522582336
 10
538640.2410938014
 20
1031646.29034356
1001
DCO15
1071
        3
1071
        3
1000
datoslink
1004
0000000000E06F40
1001
ADE_ENTITY_LOCK
1071
1342624882
1071
1342625087
  0
LWPOLYLINE
  5
194
330
105C
100
AcDbEntity
  8
aguas buenas
100
AcDbPolyline
 90
        4
 70
     1
 43
0.0
 38
0.0462962962962963
 10
538645.5348094297
 20
1031570.060838511
 10
538645.5348094297
 20
1031620.880508544
 10
538696.3544794625
 20
1031620.880508544
 10
538696.3544794625
 20
1031570.060838511
1001
DCO15
1071
        3
1071
        3
1000
datoslink
1004
0000000000C06F40
1001
ADE_ENTITY_LOCK
1071
1342624882
1071
1342625087
  0
LWPOLYLINE
  5
195
330
105C
100
AcDbEntity
  8
aguas buenas
100
AcDbPolyline
 90
        4
 70
     1
 43
0.0
 38
0.0666666666666667
 10
538688.9432775825
 20
1031219.616863908
 10
538738.7042044899
 20
1031234.439267668
 10
538753.5266082495
 20
1031185.737083887
 10
538704.824424468
 20
1031171.973423253
1001
DCO15
1071
        3
1071
        3
1000
datoslink
1004
0000000000A06F40
1001
ADE_ENTITY_LOCK
1071
1342624882
1071
1342625087
  0
LWPOLYLINE
  5
196
330
105C
100
AcDbEntity
  8
aguas buenas
100
AcDbPolyline
 90
        4
 70
     1
 43
0.0
 38
0.2
 10
538759.8790670036
 20
1031089.39145945
 10
538759.8790670036
 20
1031140.211129482
 10
538810.6987370364
 20
1031140.211129482
 10
538810.6987370364
 20
1031089.39145945
1001
DCO15
1071
        3
1071
        3
1000
datoslink
1004
0000000000806F40
1001
ADE_ENTITY_LOCK
1071
1342624882
1071
1342625087
  0
LWPOLYLINE
  5
197
330
105C
100
AcDbEntity
  8
aguas buenas
100
AcDbPolyline
 90
        4
 70
     1
 43
0.0
 38
0.03
 10
539026.6823346761
 20
1030727.301310465
 10
539026.6823346761
 20
1030765.41606299
 10
539063.7383440753
 20
1030765.41606299
 10
539063.7383440753
 20
1030727.301310465
1001
DCO15
1071
        3
1071
        3
1000
datoslink
1004
0000000000406F40
1001
ADE_ENTITY_LOCK
1071
1342624882
1071
1342625087
  0
LWPOLYLINE
  5
198
330
105C
100
AcDbEntity
  8
aguas buenas
100
AcDbPolyline
 90
        4
 70
     1
 43
0.0
 38
0.75
 10
538393.1432328383
 20
1033183.238779719
 10
538393.1432328383
 20
1033203.669511354
 10
538443.1985253456
 20
1033203.669511354
 10
538443.1985253456
 20
1033183.238779719
1001
DCO15
1071
        3
1071
        3
1000
datoslink
1004
0000000000A06D40
1001
ADE_ENTITY_LOCK
1071
1342624882
1071
1342625087
  0
LWPOLYLINE
  5
199
330
105C
100
AcDbEntity
  8
aguas buenas
100
AcDbPolyline
 90
        4
 70
     1
 43
0.0
 38
0.0666666666666667
 10
538605.367457704
 20
1033688.388619411
 10
538605.367457704
 20
1033729.250082682
 10
538646.2289209753
 20
1033729.250082682
 10
538646.2289209753
 20
1033688.388619411
1001
DCO15
1071
        3
1071
        3
1000
datoslink
1004
0000000000006D40
1001
ADE_ENTITY_LOCK
1071
1342624882
1071
1342625087
  0
LWPOLYLINE
  5
19A
330
105C
100
AcDbEntity
  8
aguas buenas
100
AcDbPolyline
 90
        4
 70
     1
 43
0.0
 38
2.2
 10
538154.7240131394
 20
1034407.174982453
 10
538154.7240131394
 20
1034435.628703956
 10
538265.2303268829
 20
1034446.216135213
 10
538283.0966171288
 20
1034410.483554721
1001
DCO15
1071
        3
1071
        3
1000
datoslink
1004
0000000000E06C40
1001
ADE_ENTITY_LOCK
1071
1342624882
1071
1342625087
  0
LWPOLYLINE
  5
19B
330
105C
100
AcDbEntity
  8
aguas buenas
100
AcDbPolyline
 90
        4
 70
     1
 43
0.0
 38
0.9
 10
538154.7240131394
 20
1034369.4572586
 10
538154.7240131394
 20
1034405.189839092
 10
538285.0817604895
 20
1034408.49841136
 10
538306.2566230032
 20
1034369.4572586
1001
DCO15
1071
        3
1071
        3
1000
datoslink
1004
0000000000C06C40
1001
ADE_ENTITY_LOCK
1071
1342624882
1071
1342625087
  0
LWPOLYLINE
  5
19C
330
105C
100
AcDbEntity
  8
aguas buenas
100
AcDbPolyline
 90
        4
 70
     1
 43
0.0
 38
1.395833333333333
 10
538141.4897240683
 20
1034438.27556177
 10
538105.7571435765
 20
1034493.859575869
 10
538212.2931705985
 20
1034493.859575869
 10
538229.497746391
 20
1034444.230991852
1001
DCO15
1071
        3
1071
        3
1000
datoslink
1004
0000000000A06C40
1001
ADE_ENTITY_LOCK
1071
1342624882
1071
1342625087
  0
LWPOLYLINE
  5
19D
330
105C
100
AcDbEntity
  8
aguas buenas
100
AcDbPolyline
 90
        4
 70
     1
 43
0.0
 38
0.4166666666666667
 10
538139.5045807078
 20
1034538.85615871
 10
538139.5045807078
 20
1034578.559025923
 10
538201.0440248882
 20
1034578.559025923
 10
538228.1743174838
 20
1034538.85615871
1001
DCO15
1071
        3
1071
        3
1000
datoslink
1004
0000000000806C40
1001
ADE_ENTITY_LOCK
1071
1342624882
1071
1342625087
  0
LWPOLYLINE
  5
19E
330
105C
100
AcDbEntity
  8
aguas buenas
100
AcDbPolyline
 90
        4
 70
     1
 43
0.0
 38
0.4126984126984127
 10
538056.12855956
 20
1034495.844719229
 10
538050.173129478
 20
1034578.559025923
 10
538138.1811518007
 20
1034578.559025923
 10
538138.1811518007
 20
1034495.844719229
1001
DCO15
1071
        3
1071
        3
1000
datoslink
1004
0000000000606C40
1001
ADE_ENTITY_LOCK
1071
1342624882
1071
1342625087
  0
LWPOLYLINE
  5
19F
330
105C
100
AcDbEntity
  8
aguas buenas
100
AcDbPolyline
 90
        5
 70
     1
 43
0.0
 38
0.5
 10
538090.5377111448
 20
1034385.338405486
 10
538090.5377111448
 20
1034436.290418409
 10
538153.4005842322
 20
1034436.290418409
 10
538153.4005842322
 20
1034369.4572586
 10
538124.285148276
 20
1034370.780687507
1001
DCO15
1071
        3
1071
        3
1000
datoslink
1004
0000000000406C40
1001
ADE_ENTITY_LOCK
1071
1342624882
1071
1342625087
  0
LWPOLYLINE
  5
1A0
330
105C
100
AcDbEntity
  8
aguas buenas
100
AcDbPolyline
 90
        4
 70
     1
 43
0.0
 38
0.0375
 10
538115.0211459262
 20
1034580.544169284
 10
538117.6680037405
 20
1034654.656188082
 10
538162.0028721285
 20
1034654.656188082
 10
538200.3823104346
 20
1034580.544169284
1001
DCO15
1071
        3
1071
        3
1000
datoslink
1004
0000000000206C40
1001
ADE_ENTITY_LOCK
1071
1342624882
1071
1342625087
  0
LWPOLYLINE
  5
1A1
330
105C
100
AcDbEntity
  8
aguas buenas
100
AcDbPolyline
 90
        5
 70
     1
 43
0.0
 38
1.8025
 10
538234.7914620194
 20
1034446.216135213
 10
538217.586886227
 20
1034492.536146961
 10
538199.720595981
 20
1034537.532729803
 10
538230.8211752981
 20
1034537.532729803
 10
538265.2303268828
 20
1034448.201278573
1001
DCO15
1071
        3
1071
        3
1000
datoslink
1004
0000000000006C40
1001
ADE_ENTITY_LOCK
1071
1342624882
1071
1342625087
  0
LWPOLYLINE
  5
1A2
330
105C
100
AcDbEntity
  8
aguas buenas
100
AcDbPolyline
 90
        4
 70
     1
 43
0.0
 38
0.0614035087719298
 10
537991.2805431119
 20
1034496.506433683
 10
537966.1353938767
 20
1034573.927024748
 10
538047.526271664
 20
1034573.927024748
 10
538054.1434161994
 20
1034496.506433683
1001
DCO15
1071
        3
1071
        3
1000
datoslink
1004
0000000000E06B40
1001
ADE_ENTITY_LOCK
1071
1342624882
1071
1342625087
  0
LWPOLYLINE
  5
1A3
330
105C
100
AcDbEntity
  8
aguas buenas
100
AcDbPolyline
 90
        4
 70
     1
 43
0.0
 38
0.8266666666666665
 10
538140.1662951613
 20
1034496.837290909
 10
538140.1662951613
 20
1034537.532729803
 10
538195.7503092597
 20
1034537.532729803
 10
538211.631456145
 20
1034496.506433683
1001
DCO15
1071
        3
1071
        3
1000
datoslink
1004
0000000000C06B40
1001
ADE_ENTITY_LOCK
1071
1342624882
1071
1342625087
  0
LWPOLYLINE
  5
1A4
330
105C
100
AcDbEntity
  8
aguas buenas
100
AcDbPolyline
 90
        4
 70
     1
 43
0.0
 38
0.1666666666666666
 10
538015.7639778933
 20
1034438.606418997
 10
537991.9422575653
 20
1034494.190433095
 10
538103.1102857622
 20
1034494.190433095
 10
538138.8428662543
 20
1034438.606418997
1001
DCO15
1071
        3
1071
        3
1000
datoslink
1004
0000000000A06B40
1001
ADE_ENTITY_LOCK
1071
1342624882
1071
1342625087
  0
LWPOLYLINE
  5
1A5
330
105C
100
AcDbEntity
  8
aguas buenas
100
AcDbPolyline
 90
        4
 70
     1
 43
0.0
 38
0.2352941176470588
 10
538047.526271664
 20
1034396.256693969
 10
538019.7342646146
 20
1034396.256693969
 10
538017.0874068004
 20
1034435.959561182
 10
538047.526271664
 20
1034435.959561182
1001
DCO15
1071
        3
1071
        3
1000
datoslink
1004
0000000000806B40
1001
ADE_ENTITY_LOCK
1071
1342624882
1071
1342625087
  0
LWPOLYLINE
  5
1A6
330
105C
100
AcDbEntity
  8
aguas buenas
100
AcDbPolyline
 90
        4
 70
     1
 43
0.0
 38
1.066666666666665
 10
538048.849700571
 20
1034393.609836155
 10
538048.849700571
 20
1034435.959561182
 10
538088.5525677841
 20
1034435.959561182
 10
538088.5525677841
 20
1034386.99269162
1001
DCO15
1071
        3
1071
        3
1000
datoslink
1004
0000000000606B40
1001
ADE_ENTITY_LOCK
1071
1342624882
1071
1342625087
  0
LWPOLYLINE
  5
1A7
330
105C
100
AcDbEntity
  8
aguas buenas
100
AcDbPolyline
 90
        4
 70
     1
 43
0.0
 38
0.4166666666666667
 10
538124.285148276
 20
1034324.791532986
 10
538124.285148276
 20
1034368.46468692
 10
538189.1331647242
 20
1034368.46468692
 10
538189.1331647242
 20
1034324.791532986
1001
DCO15
1071
        3
1071
        3
1000
datoslink
1004
0000000000406B40
1001
ADE_ENTITY_LOCK
1071
1342624882
1071
1342625087
  0
LWPOLYLINE
  5
1A8
330
105C
100
AcDbEntity
  8
aguas buenas
100
AcDbPolyline
 90
        4
 70
     1
 43
0.0
 38
0.0666666666666667
 10
538062.7457040954
 20
1034248.694370827
 10
538058.7754173741
 20
1034306.92524274
 10
538107.742286937
 20
1034306.92524274
 10
538107.742286937
 20
1034248.694370827
1001
DCO15
1071
        3
1071
        3
1000
datoslink
1004
0000000000206B40
1001
ADE_ENTITY_LOCK
1071
1342624882
1071
1342625087
  0
LWPOLYLINE
  5
1A9
330
105C
100
AcDbEntity
  8
aguas buenas
100
AcDbPolyline
 90
        4
 70
     1
 43
0.0
 38
2.799999999999999
 10
538192.4417369919
 20
1034295.014382576
 10
538191.1183080849
 20
1034367.47211524
 10
538257.2897534403
 20
1034367.47211524
 10
538257.2897534402
 20
1034295.014382576
1001
DCO15
1071
        3
1071
        3
1000
datoslink
1004
0000000000006B40
1001
ADE_ENTITY_LOCK
1071
1342624882
1071
1342625087
  0
LWPOLYLINE
  5
1AA
330
105C
100
AcDbEntity
  8
aguas buenas
100
AcDbPolyline
 90
        4
 70
     1
 43
0.0
 38
0.3055555555555556
 10
538195.0885948062
 20
1034203.697787985
 10
538195.0885948062
 20
1034292.367524761
 10
538270.5240425111
 20
1034292.367524761
 10
538270.5240425111
 20
1034203.697787985
1001
DCO15
1071
        3
1071
        3
1000
datoslink
1004
0000000000A06A40
1001
ADE_ENTITY_LOCK
1071
1342624882
1071
1342625087
  0
LWPOLYLINE
  5
1AB
330
105C
100
AcDbEntity
  8
aguas buenas
100
AcDbPolyline
 90
        6
 70
     1
 43
0.0
 38
0.9
 10
538255.3260351978
 20
1034066.504165323
 10
538253.3194667185
 20
1034198.404072359
 10
538312.87376754
 20
1034198.404072359
 10
538311.5503386315
 20
1034120.321766842
 10
538307.5793574575
 20
1034100.398212194
 10
538287.8078301158
 20
1034077.802180948
1001
DCO15
1071
        3
1071
        3
1000
datoslink
1004
0000000000606A40
1001
ADE_ENTITY_LOCK
1071
1342624882
1071
1342625087
  0
LWPOLYLINE
  5
1AC
330
105C
100
AcDbEntity
  8
aguas buenas
100
AcDbPolyline
 90
        4
 70
     1
 43
0.0
 38
1.26
 10
539521.7063422554
 20
1031817.751793427
 10
539521.7063422554
 20
1031869.49263765
 10
539573.447186478
 20
1031869.49263765
 10
539573.447186478
 20
1031817.751793427
1001
DCO15
1071
        3
1071
        3
1000
datoslink
1004
0000000000006A40
1001
ADE_ENTITY_LOCK
1071
1342624882
1071
1342625087
  0
LWPOLYLINE
  5
1AD
330
105C
100
AcDbEntity
  8
aguas buenas
100
AcDbPolyline
 90
        4
 70
     1
 43
0.0
 38
0.9428571428571428
 10
540478.0588193685
 20
1030630.613856666
 10
540553.9733518732
 20
1030630.413500687
 10
540553.9733518732
 20
1030566.558559507
 10
540478.0588193685
 20
1030566.559707307
1001
DCO15
1071
        3
1071
        3
1000
datoslink
1004
0000000000806640
1001
ADE_ENTITY_LOCK
1071
1342624882
1071
1342625087
  0
LWPOLYLINE
  5
1AE
330
105C
100
AcDbEntity
  8
aguas buenas
100
AcDbPolyline
 90
        4
 70
     1
 43
0.0
 38
0.7777777777777778
 10
540477.3971086293
 20
1030632.452852771
 10
540477.3289746288
 20
1030697.974192155
 10
540530.9275445305
 20
1030697.974192155
 10
540530.9275445305
 20
1030632.464828943
1001
DCO15
1071
        3
1071
        3
1000
datoslink
1004
0000000000A06640
1001
ADE_ENTITY_LOCK
1071
1342624882
1071
1342625087
  0
LWPOLYLINE
  5
1AF
330
105C
100
AcDbEntity
  8
aguas buenas
100
AcDbPolyline
 90
        5
 70
     1
 43
0.0
 38
0.18
 10
540393.9279963298
 20
1030630.613856666
 10
540474.2346910485
 20
1030630.613856666
 10
540474.2346910485
 20
1030505.373654188
 10
540363.3349697704
 20
1030505.373654188
 10
540392.9719642498
 20
1030568.471771467
1001
DCO15
1071
        3
1071
        3
1000
datoslink
1004
0000000000606640
1001
ADE_ENTITY_LOCK
1071
1342624882
1071
1342625087
  0
LWPOLYLINE
  5
1B0
330
105C
100
AcDbEntity
  8
aguas buenas
100
AcDbPolyline
 90
        4
 70
     1
 43
0.0
 38
0.36
 10
540432.1692795292
 20
1030443.231568989
 10
540432.1692795292
 20
1030499.637461708
 10
540501.959621368
 20
1030499.637461708
 10
540501.003589288
 20
1030441.319504829
1001
DCO15
1071
        3
1071
        3
1000
datoslink
1004
0000000000206640
1001
ADE_ENTITY_LOCK
1071
1342624882
1071
1342625087
  0
LWPOLYLINE
  5
1B1
330
105C
100
AcDbEntity
  8
aguas buenas
100
AcDbPolyline
 90
        4
 70
     1
 43
0.0
 38
0.5
 10
540813.9028918962
 20
1030978.016451473
 10
540813.9028918962
 20
1031028.037956517
 10
540863.9243969398
 20
1031028.037956517
 10
540863.9243969398
 20
1030978.016451473
1001
DCO15
1071
        3
1071
        3
1000
datoslink
1004
0000000000806240
1001
ADE_ENTITY_LOCK
1071
1342624882
1071
1342625087
  0
LWPOLYLINE
  5
1B2
330
105C
100
AcDbEntity
  8
aguas buenas
100
AcDbPolyline
 90
        4
 70
     1
 43
0.0
 38
0.2222222222222222
 10
542583.1053748321
 20
1031610.400947168
 10
542583.1053748321
 20
1031660.072389858
 10
542633.5911034676
 20
1031660.072389858
 10
542633.5911034676
 20
1031610.400947168
1001
DCO15
1071
        3
1071
        3
1000
datoslink
1004
0000000000E06140
1001
ADE_ENTITY_LOCK
1071
1342624882
1071
1342625087
  0
LWPOLYLINE
  5
1B3
330
105C
100
AcDbEntity
  8
aguas buenas
100
AcDbPolyline
 90
        4
 70
     1
 43
0.0
 38
0.1333333333333333
 10
541858.5600340909
 20
1031959.870087693
 10
541858.5600340909
 20
1032009.748990268
 10
541909.0784097755
 20
1032009.748990268
 10
541909.0784097755
 20
1031959.870087693
1001
DCO15
1071
        3
1071
        3
1000
datoslink
1004
0000000000A06140
1001
ADE_ENTITY_LOCK
1071
1342624882
1071
1342625087
  0
LWPOLYLINE
  5
1B4
330
105C
100
AcDbEntity
  8
aguas buenas
100
AcDbPolyline
 90
        4
 70
     1
 43
0.0
 38
0.4166666666666667
 10
539953.959650316
 20
1033850.845591496
 10
539986.6588828587
 20
1033888.5754752
 10
540006.7814875003
 20
1033860.906893817
 10
539974.0822549578
 20
1033823.177010114
1001
DCO15
1071
        3
1071
        3
1000
datoslink
1004
0000000000005D40
1001
ADE_ENTITY_LOCK
1071
1342624882
1071
1342625087
  0
LWPOLYLINE
  5
1B5
330
105C
100
AcDbEntity
  8
aguas buenas
100
AcDbPolyline
 90
        4
 70
     1
 43
0.0
 38
0.025
 10
539976.7154864242
 20
1033709.633641345
 10
539976.7154864242
 20
1033781.792043927
 10
540034.0177472985
 20
1033781.792043927
 10
540034.0177472985
 20
1033709.633641345
1001
DCO15
1071
        3
1071
        3
1000
datoslink
1004
0000000000C05B40
1001
ADE_ENTITY_LOCK
1071
1342624882
1071
1342625087
  0
LWPOLYLINE
  5
1B6
330
105C
100
AcDbEntity
  8
aguas buenas
100
AcDbPolyline
 90
        4
 70
     1
 43
0.0
 38
0.3333333333333333
 10
539626.535003304
 20
1033248.032095414
 10
539626.535003304
 20
1033298.967438413
 10
539677.4703463034
 20
1033298.967438413
 10
539677.4703463034
 20
1033248.032095414
1001
DCO15
1071
        3
1071
        3
1000
datoslink
1004
0000000000005B40
1001
ADE_ENTITY_LOCK
1071
1342624882
1071
1342625087
  0
LWPOLYLINE
  5
1B7
330
105C
100
AcDbEntity
  8
aguas buenas
100
AcDbPolyline
 90
        4
 70
     1
 43
0.0
 38
2.0
 10
540814.7743948944
 20
1032563.381785424
 10
540875.641362379
 20
1032569.043828912
 10
540884.3745772628
 20
1032525.757723749
 10
540815.4243182059
 20
1032525.757723749
1001
DCO15
1071
        3
1071
        3
1000
datoslink
1004
0000000000606940
1001
ADE_ENTITY_LOCK
1071
1342624882
1071
1342625087
  0
LWPOLYLINE
  5
1B8
330
105C
100
AcDbEntity
  8
aguas buenas
100
AcDbPolyline
 90
        4
 70
     1
 43
0.0
 38
1.236666666666665
 10
541846.9407903438
 20
1033696.065178332
 10
541897.5228680961
 20
1033696.922501683
 10
541897.5228680961
 20
1033646.340423931
 10
541846.9407903438
 20
1033646.340423931
1001
DCO15
1071
        3
1071
        3
1000
datoslink
1004
0000000000805140
1001
ADE_ENTITY_LOCK
1071
1342624882
1071
1342625087
  0
LWPOLYLINE
  5
1B9
330
105C
100
AcDbEntity
  8
aguas buenas
100
AcDbPolyline
 90
        4
 70
     1
 43
0.0
 38
0.0775
 10
541456.0623609879
 20
1033558.157750265
 10
541507.6749525564
 20
1033614.402241081
 10
541552.0088453162
 20
1033576.685347238
 10
541503.0430533141
 20
1033524.411055781
1001
DCO15
1071
        3
1071
        3
1000
datoslink
1004
0000000000005040
1001
ADE_ENTITY_LOCK
1071
1342624882
1071
1342625087
  0
LWPOLYLINE
  5
1BA
330
105C
100
AcDbEntity
  8
aguas buenas
100
AcDbPolyline
 90
        4
 70
     1
 43
0.0
 38
1.134933333333332
 10
541638.5591911757
 20
1033514.750237355
 10
541607.4592962554
 20
1033483.65034244
 10
541573.0509018768
 20
1033510.118338113
 10
541604.1507967971
 20
1033542.541632818
1001
DCO15
1071
        3
1071
        3
1000
datoslink
1004
0000000000804F40
1001
ADE_ENTITY_LOCK
1071
1342624882
1071
1342625087
  0
LWPOLYLINE
  5
1BB
330
105C
100
AcDbEntity
  8
aguas buenas
100
AcDbPolyline
 90
        4
 70
     1
 43
0.0
 38
1.231999999999999
 10
541234.8367588893
 20
1033300.683728611
 10
541280.4947999165
 20
1033312.594521923
 10
541298.3609898835
 20
1033261.642794979
 10
541256.0115025537
 20
1033247.085158713
1001
DCO15
1071
        3
1071
        3
1000
datoslink
1004
0000000000004F40
1001
ADE_ENTITY_LOCK
1071
1342624882
1071
1342625087
  0
LWPOLYLINE
  5
1BC
330
105C
100
AcDbEntity
  8
aguas buenas
100
AcDbPolyline
 90
        4
 70
     1
 43
0.0
 38
0.1
 10
539589.1745803097
 20
1028840.602490205
 10
539599.8886582693
 20
1028782.27028799
 10
539550.6832632014
 20
1028776.714840157
 10
539545.5246330742
 20
1028826.713870628
1001
DCO15
1071
        3
1071
        3
1000
datoslink
1004
00000000009C9340
1001
ADE_ENTITY_LOCK
1071
1342624882
1071
1342625087
  0
LWPOLYLINE
  5
1BD
330
105C
100
AcDbEntity
  8
aguas buenas
100
AcDbPolyline
 90
        4
 70
     1
 43
0.0
 38
0.15
 10
539722.9021459362
 20
1028859.649739906
 10
539721.3244547285
 20
1028805.282963913
 10
539661.770488172
 20
1028790.725327642
 10
539647.8745626406
 20
1028839.030211629
1001
DCO15
1071
        3
1071
        3
1000
datoslink
1004
0000000000989340
1001
ADE_ENTITY_LOCK
1071
1342624882
1071
1342625087
  0
LWPOLYLINE
  5
1BE
330
105C
100
AcDbEntity
  8
aguas buenas
100
AcDbPolyline
 90
        4
 70
     1
 43
0.0
 38
0.5666666666666666
 10
539622.0678437994
 20
1028927.69945072
 10
539581.0417779498
 20
1028903.877864102
 10
539561.6817404479
 20
1028938.566124907
 10
539610.1181725338
 20
1028963.181360885
1001
DCO15
1071
        3
1071
        3
1000
datoslink
1004
0000000000909340
1001
ADE_ENTITY_LOCK
1071
1342624882
1071
1342625087
  0
LWPOLYLINE
  5
1BF
330
105C
100
AcDbEntity
  8
aguas buenas
100
AcDbPolyline
 90
        4
 70
     1
 43
0.0
 38
0.0333333333333333
 10
539462.5955555756
 20
1029044.822251618
 10
539429.510018601
 20
1029017.030400559
 10
539367.309209086
 20
1029076.584367117
 10
539409.658696414
 20
1029110.99332557
1001
DCO15
1071
        3
1071
        3
1000
datoslink
1004
0000000000849340
1001
ADE_ENTITY_LOCK
1071
1342624882
1071
1342625087
  0
LWPOLYLINE
  5
1C0
330
105C
100
AcDbEntity
  8
aguas buenas
100
AcDbPolyline
 90
        4
 70
     1
 43
0.0
 38
0.1
 10
539487.7405636786
 20
1029064.011863068
 10
539529.4283402686
 20
1029022.985797211
 10
539496.3428032919
 20
1029002.472764287
 10
539446.7144978279
 20
1029029.602904608
1001
DCO15
1071
        3
1071
        3
1000
datoslink
1004
0000000000809340
1001
ADE_ENTITY_LOCK
1071
1342624882
1071
1342625087
  0
LWPOLYLINE
  5
1C1
330
105C
100
AcDbEntity
  8
aguas buenas
100
AcDbPolyline
 90
        5
 70
     1
 43
0.0
 38
0.12
 10
539623.258296906
 20
1028926.904771616
 10
539630.5371150421
 20
1028905.068317206
 10
539646.0517842854
 20
1028839.676582234
 10
539592.8120759148
 20
1028828.433414004
 10
539581.2382262666
 20
1028902.109234035
1001
DCO15
1071
        3
1071
        3
1000
datoslink
1004
00000000007C9340
1001
ADE_ENTITY_LOCK
1071
1342624882
1071
1342625087
  0
LWPOLYLINE
  5
1C2
330
105C
100
AcDbEntity
  8
aguas buenas
100
AcDbPolyline
 90
        4
 70
     1
 43
0.0
 38
0.0666666666666667
 10
539545.9711087551
 20
1029031.588036831
 10
539579.7183564715
 20
1028983.944863586
 10
539537.3688691417
 20
1028965.416962877
 10
539499.6513569895
 20
1029003.13447503
1001
DCO15
1071
        3
1071
        3
1000
datoslink
1004
0000000000789340
1001
ADE_ENTITY_LOCK
1071
1342624882
1071
1342625087
  0
LWPOLYLINE
  5
1C3
330
105C
100
AcDbEntity
  8
aguas buenas
100
AcDbPolyline
 90
        4
 70
     1
 43
0.0
 38
0.8888888888888891
 10
539508.915307343
 20
1029085.186606729
 10
539463.9189770558
 20
1029046.145673098
 10
539411.6438286314
 20
1029112.316747051
 10
539465.2423985361
 20
1029151.357680682
1001
DCO15
1071
        3
1071
        3
1000
datoslink
1004
0000000000749340
1001
ADE_ENTITY_LOCK
1071
1342624882
1071
1342625087
  0
LWPOLYLINE
  5
1C4
330
105C
100
AcDbEntity
  8
aguas buenas
100
AcDbPolyline
 90
        4
 70
     1
 43
0.0
 38
3.649999999999999
 10
539603.1689028433
 20
1029065.092887064
 10
539638.6106122864
 20
1029015.045268342
 10
539581.7034886897
 20
1028983.944863586
 10
539547.1890919879
 20
1029032.537252379
1001
DCO15
1071
        3
1071
        3
1000
datoslink
1004
00000000006C9340
1001
ADE_ENTITY_LOCK
1071
1342624882
1071
1342625087
  0
LWPOLYLINE
  5
1C5
330
105C
100
AcDbEntity
  8
aguas buenas
100
AcDbPolyline
 90
        4
 70
     1
 43
0.0
 38
1.6
 10
539457.9635803998
 20
1029167.900449168
 10
539551.2647946709
 20
1029193.707168007
 10
539574.4246705564
 20
1029124.8892511
 10
539509.5770180812
 20
1029087.171738947
1001
DCO15
1071
        3
1071
        3
1000
datoslink
1004
0000000000689340
1001
ADE_ENTITY_LOCK
1071
1342624882
1071
1342625087
  0
LWPOLYLINE
  5
1C6
330
105C
100
AcDbEntity
  8
aguas buenas
100
AcDbPolyline
 90
        4
 70
     1
 43
0.0
 38
0.1666666666666666
 10
539574.4246705564
 20
1029123.565829623
 10
539603.5399430942
 20
1029067.320416759
 10
539569.4222083567
 20
1029047.226989981
 10
539509.577018083
 20
1029084.524895986
1001
DCO15
1071
        3
1071
        3
1000
datoslink
1004
0000000000649340
1001
ADE_ENTITY_LOCK
1071
1342624882
1071
1342625087
  0
LWPOLYLINE
  5
1C7
330
105C
100
AcDbEntity
  8
aguas buenas
100
AcDbPolyline
 90
        4
 70
     1
 43
0.0
 38
0.075
 10
539357.3835479925
 20
1029318.770497776
 10
539377.8965809178
 20
1029273.112456752
 10
539330.2534076721
 20
1029257.231399001
 10
539301.1381351334
 20
1029293.625489678
1001
DCO15
1071
        3
1071
        3
1000
datoslink
1004
0000000000609340
1001
ADE_ENTITY_LOCK
1071
1342624882
1071
1342625087
  0
LWPOLYLINE
  5
1C8
330
105C
100
AcDbEntity
  8
aguas buenas
100
AcDbPolyline
 90
        4
 70
     1
 43
0.0
 38
0.25
 10
539161.5171690937
 20
1029365.090249546
 10
539195.264416811
 20
1029392.220389867
 10
539228.3499537875
 20
1029353.841166973
 10
539199.2346812487
 20
1029335.974977007
1001
DCO15
1071
        3
1071
        3
1000
datoslink
1004
00000000005C9340
1001
ADE_ENTITY_LOCK
1071
1342624882
1071
1342625087
  0
LWPOLYLINE
  5
1C9
330
105C
100
AcDbEntity
  8
aguas buenas
100
AcDbPolyline
 90
        5
 70
     1
 43
0.0
 38
0.2333333333333333
 10
539202.5432349463
 20
1029400.822629479
 10
539164.8257227922
 20
1029450.450934943
 10
539153.5766402204
 20
1029472.949100086
 10
539228.3499537875
 20
1029476.257653784
 10
539260.7737800236
 20
1029443.172116805
1001
DCO15
1071
        3
1071
        3
1000
datoslink
1004
0000000000589340
1001
ADE_ENTITY_LOCK
1071
1342624882
1071
1342625087
  0
LWPOLYLINE
  5
1CA
330
105C
100
AcDbEntity
  8
aguas buenas
100
AcDbPolyline
 90
        4
 70
     1
 43
0.0
 38
0.1333333333333333
 10
539203.2049456844
 20
1029335.974977007
 10
539254.1883798512
 20
1029366.033997902
 10
539288.5656310824
 20
1029309.506547425
 10
539256.141804845
 20
1029302.22772929
1001
DCO15
1071
        3
1071
        3
1000
datoslink
1004
0000000000549340
1001
ADE_ENTITY_LOCK
1071
1342624882
1071
1342625087
  0
LWPOLYLINE
  5
1CB
330
105C
100
AcDbEntity
  8
aguas buenas
100
AcDbPolyline
 90
        4
 70
     1
 43
0.0
 38
0.05
 10
539125.7847891618
 20
1029423.320794623
 10
539103.2866240172
 20
1029477.581075264
 10
539138.357293211
 20
1029499.417529665
 10
539163.5023013139
 20
1029448.465802725
1001
DCO15
1071
        3
1071
        3
1000
datoslink
1004
0000000000509340
1001
ADE_ENTITY_LOCK
1071
1342624882
1071
1342625087
  0
LWPOLYLINE
  5
1CC
330
105C
100
AcDbEntity
  8
aguas buenas
100
AcDbPolyline
 90
        5
 70
     1
 43
0.0
 38
0.2444444444444444
 10
539356.7218372552
 20
1029320.755629997
 10
539299.1530029159
 20
1029294.948911158
 10
539256.141804845
 20
1029366.413671022
 10
539307.7552425293
 20
1029388.250125427
 10
539330.2534076721
 20
1029361.119985111
1001
DCO15
1071
        3
1071
        3
1000
datoslink
1004
00000000004C9340
1001
ADE_ENTITY_LOCK
1071
1342624882
1071
1342625087
  0
LWPOLYLINE
  5
1CD
330
105C
100
AcDbEntity
  8
aguas buenas
100
AcDbPolyline
 90
        4
 70
     1
 43
0.0
 38
0.425
 10
539125.7847891618
 20
1029421.335662406
 10
539164.8257227941
 20
1029447.804091984
 10
539201.2198134661
 20
1029398.837497258
 10
539161.5171690965
 20
1029367.075381763
1001
DCO15
1071
        3
1071
        3
1000
datoslink
1004
0000000000489340
1001
ADE_ENTITY_LOCK
1071
1342624882
1071
1342625087
  0
LWPOLYLINE
  5
1CE
330
105C
100
AcDbEntity
  8
aguas buenas
100
AcDbPolyline
 90
        4
 70
     1
 43
0.0
 38
0.0666666666666667
 10
539407.6735641966
 20
1029345.900638101
 10
539424.8780434234
 20
1029285.684960801
 10
539379.8817131379
 20
1029273.112456752
 10
539360.030390951
 20
1029320.755629997
1001
DCO15
1071
        3
1071
        3
1000
datoslink
1004
0000000000449340
1001
ADE_ENTITY_LOCK
1071
1342624882
1071
1342625087
  0
LWPOLYLINE
  5
1CF
330
105C
100
AcDbEntity
  8
aguas buenas
100
AcDbPolyline
 90
        4
 70
     1
 43
0.0
 38
0.1166666666666667
 10
539375.2497379594
 20
1029390.896968387
 10
539406.3501427165
 20
1029348.547481056
 10
539358.7069694726
 20
1029322.740762215
 10
539330.9151184121
 20
1029363.766828065
1001
DCO15
1071
        3
1071
        3
1000
datoslink
1004
0000000000409340
1001
ADE_ENTITY_LOCK
1071
1342624882
1071
1342625087
  0
LWPOLYLINE
  5
1D0
330
105C
100
AcDbEntity
  8
aguas buenas
100
AcDbPolyline
 90
        5
 70
     1
 43
0.0
 38
0.0333333333333333
 10
539480.7926009139
 20
1029278.604655891
 10
539431.8260061901
 20
1029269.340705534
 10
539408.3352749365
 20
1029349.209191793
 10
539399.0713245822
 20
1029361.781695848
 10
539437.7814028458
 20
1029387.125217169
1001
DCO15
1071
        3
1071
        3
1000
datoslink
1004
0000000000E49340
1001
ADE_ENTITY_LOCK
1071
1342624882
1071
1342625087
  0
LWPOLYLINE
  5
1D1
330
105C
100
AcDbEntity
  8
aguas buenas
100
AcDbPolyline
 90
        4
 70
     1
 43
0.0
 38
1.0
 10
539523.1420882439
 20
1029284.560052544
 10
539544.9785426464
 20
1029194.567391969
 10
539456.971014291
 20
1029170.745805351
 10
539431.8260061901
 20
1029268.017284056
1001
DCO15
1071
        3
1071
        3
1000
datoslink
1004
00000000003C9340
1001
ADE_ENTITY_LOCK
1071
1342624882
1071
1342625087
  0
LWPOLYLINE
  5
1D2
330
105C
100
AcDbEntity
  8
aguas buenas
100
AcDbPolyline
 90
        4
 70
     1
 43
0.0
 38
0.025
 10
539327.6065647136
 20
1029449.127513464
 10
539373.5954611135
 20
1029393.080613827
 10
539328.5991308253
 20
1029365.950473506
 10
539284.5953666466
 20
1029420.012240926
1001
DCO15
1071
        3
1071
        3
1000
datoslink
1004
0000000000389340
1001
ADE_ENTITY_LOCK
1071
1342624882
1071
1342625087
  0
LWPOLYLINE
  5
1D3
330
105C
100
AcDbEntity
  8
aguas buenas
100
AcDbPolyline
 90
        4
 70
     1
 43
0.0
 38
0.95
 10
539278.970825362
 20
1029492.998935493
 10
539325.9522878675
 20
1029450.649448167
 10
539283.602800538
 20
1029421.534175628
 10
539230.0042306362
 20
1029476.456167007
1001
DCO15
1071
        3
1071
        3
1000
datoslink
1004
0000000000349340
1001
ADE_ENTITY_LOCK
1071
1342624882
1071
1342625087
  0
LWPOLYLINE
  5
1D4
330
105C
100
AcDbEntity
  8
aguas buenas
100
AcDbPolyline
 90
        5
 70
     1
 43
0.0
 38
0.1372549019607843
 10
539486.0862868299
 20
1029406.976539356
 10
539525.7889312013
 20
1029332.203225789
 10
539525.1272204611
 20
1029287.206895504
 10
539482.7777331341
 20
1029279.266366629
 10
539439.7665350633
 20
1029389.110349387
1001
DCO15
1071
        3
1071
        3
1000
datoslink
1004
0000000000309340
1001
ADE_ENTITY_LOCK
1071
1342624882
1071
1342625087
  0
LWPOLYLINE
  5
1D5
330
105C
100
AcDbEntity
  8
aguas buenas
100
AcDbPolyline
 90
        4
 70
     1
 43
0.0
 38
0.3
 10
539428.5174524924
 20
1029502.262885848
 10
539358.7069694726
 20
1029468.978835651
 10
539315.6957714026
 20
1029517.283719634
 10
539377.5657255492
 20
1029552.55290205
1001
DCO15
1071
        3
1071
        3
1000
datoslink
1004
00000000002C9340
1001
ADE_ENTITY_LOCK
1071
1342624882
1071
1342625087
  0
LWPOLYLINE
  5
1D6
330
105C
100
AcDbEntity
  8
aguas buenas
100
AcDbPolyline
 90
        4
 70
     1
 43
0.0
 38
0.0568181818181818
 10
539443.7367995018
 20
1029507.556571763
 10
539485.4245760897
 20
1029408.961671574
 10
539438.4431135841
 20
1029391.095481604
 10
539392.1233618185
 20
1029483.073274404
1001
DCO15
1071
        3
1071
        3
1000
datoslink
1004
0000000000289340
1001
ADE_ENTITY_LOCK
1071
1342624882
1071
1342625087
  0
LWPOLYLINE
  5
1D7
330
105C
100
AcDbEntity
  8
aguas buenas
100
AcDbPolyline
 90
        5
 70
     1
 43
0.0
 38
1.316
 10
541281.7598639392
 20
1033312.765224926
 10
541317.0212327372
 20
1033336.614621769
 10
541358.047298587
 20
1033296.911977395
 10
541348.1216374952
 20
1033285.001184083
 10
541299.4858981408
 20
1033261.841308202
1001
DCO15
1071
        3
1071
        3
1000
datoslink
1004
0000000000189340
1001
ADE_ENTITY_LOCK
1071
1342624882
1071
1342625087
  0
LWPOLYLINE
  5
1D8
330
105C
100
AcDbEntity
  8
aguas buenas
100
AcDbPolyline
 90
        4
 70
     1
 43
0.0
 38
0.2
 10
541220.94083336
 20
1033184.222638458
 10
541240.1304448071
 20
1033194.148299547
 10
541258.6583455121
 20
1033159.739341093
 10
541240.7921555443
 20
1033148.490258522
1001
DCO15
1071
        3
1071
        3
1000
datoslink
1004
0000000000149340
1001
ADE_ENTITY_LOCK
1071
1342624882
1071
1342625087
  0
LWPOLYLINE
  5
1D9
330
105C
100
AcDbEntity
  8
aguas buenas
100
AcDbPolyline
 90
        4
 70
     1
 43
0.0
 38
1.231999999999999
 10
541203.7363541323
 20
1033233.850943915
 10
541185.2084534253
 20
1033287.449513821
 10
541232.8516266709
 20
1033300.683728611
 10
541254.0263703363
 20
1033247.74686945
1001
DCO15
1071
        3
1071
        3
1000
datoslink
1004
0000000000109340
1001
ADE_ENTITY_LOCK
1071
1342624882
1071
1342625087
  0
LWPOLYLINE
  5
1DA
330
105C
100
AcDbEntity
  8
aguas buenas
100
AcDbPolyline
 90
        5
 70
     1
 43
0.0
 38
1.372
 10
541162.7102882825
 20
1033222.601861346
 10
541112.4202720793
 20
1033215.323043214
 10
541107.7882969006
 20
1033225.248704306
 10
541116.3905365151
 20
1033262.304505717
 10
541144.8440983156
 20
1033274.215299029
1001
DCO15
1071
        3
1071
        3
1000
datoslink
1004
00000000000C9340
1001
ADE_ENTITY_LOCK
1071
1342624882
1071
1342625087
  0
LWPOLYLINE
  5
1DB
330
105C
100
AcDbEntity
  8
aguas buenas
100
AcDbPolyline
 90
        4
 70
     1
 43
0.0
 38
1.288
 10
541164.6954205008
 20
1033221.940150609
 10
541146.1675197929
 20
1033274.215299029
 10
541183.2233212078
 20
1033286.126092341
 10
541202.4129326521
 20
1033232.527522441
1001
DCO15
1071
        3
1071
        3
1000
datoslink
1004
0000000000089340
1001
ADE_ENTITY_LOCK
1071
1342624882
1071
1342625087
  0
LWPOLYLINE
  5
1DC
330
105C
100
AcDbEntity
  8
aguas buenas
100
AcDbPolyline
 90
        4
 70
     1
 43
0.0
 38
1.708
 10
541155.0200267035
 20
1033093.683848353
 10
541104.9946947973
 20
1033093.683848353
 10
541104.9946947954
 20
1033138.415494347
 10
541155.0200267035
 20
1033150.061603361
1001
DCO15
1071
        3
1071
        3
1000
datoslink
1004
0000000000049340
1001
ADE_ENTITY_LOCK
1071
1342624882
1071
1342625087
  0
LWPOLYLINE
  5
1DD
330
105C
100
AcDbEntity
  8
aguas buenas
100
AcDbPolyline
 90
        4
 70
     1
 43
0.0
 38
1.455999999999999
 10
541105.4578923128
 20
1033039.853679694
 10
541105.4578923128
 20
1033092.790538855
 10
541172.2906770054
 20
1033092.790538855
 10
541163.688437392
 20
1033039.853679694
1001
DCO15
1071
        3
1071
        3
1000
datoslink
1004
0000000000009340
1001
ADE_ENTITY_LOCK
1071
1342624882
1071
1342625087
  0
LWPOLYLINE
  5
1DE
330
105C
100
AcDbEntity
  8
aguas buenas
100
AcDbPolyline
 90
        4
 70
     1
 43
0.0
 38
1.147999999999999
 10
541103.0757336504
 20
1032996.379284106
 10
541103.0757336504
 20
1032956.147271145
 10
541067.3433537168
 20
1032956.147271145
 10
541067.3433537168
 20
1032996.379284106
1001
DCO15
1071
        3
1071
        3
1000
datoslink
1004
0000000000FC9240
1001
ADE_ENTITY_LOCK
1071
1342624882
1071
1342625087
  0
LWPOLYLINE
  5
1DF
330
105C
100
AcDbEntity
  8
aguas buenas
100
AcDbPolyline
 90
        5
 70
     1
 43
0.0
 38
0.12
 10
541199.023790882
 20
1032953.202658353
 10
541234.7561708167
 20
1032991.581881247
 10
541259.9011789169
 20
1032977.685955718
 10
541218.8751130672
 20
1032933.35133617
 10
541199.023790882
 20
1032932.689625432
1001
DCO15
1071
        3
1071
        3
1000
datoslink
1004
0000000000F89240
1001
ADE_ENTITY_LOCK
1071
1342624882
1071
1342625087
  0
LWPOLYLINE
  5
1E0
330
105C
100
AcDbEntity
  8
aguas buenas
100
AcDbPolyline
 90
        5
 70
     1
 43
0.0
 38
1.26
 10
541148.8722847523
 20
1032954.778108861
 10
541197.1771687353
 20
1032954.778108861
 10
541197.1771687353
 20
1032932.941654457
 10
541179.3109787684
 20
1032904.488092661
 10
541148.8722847523
 20
1032904.488092661
1001
DCO15
1071
        3
1071
        3
1000
datoslink
1004
0000000000F49240
1001
ADE_ENTITY_LOCK
1071
1342624882
1071
1342625087
  0
LWPOLYLINE
  5
1E1
330
105C
100
AcDbEntity
  8
aguas buenas
100
AcDbPolyline
 90
        4
 70
     1
 43
0.0
 38
1.1746875
 10
536709.0051506814
 20
1044196.221007004
 10
536759.2951668864
 20
1044196.221007004
 10
536759.2951668864
 20
1044145.930990802
 10
536709.0051506814
 20
1044145.930990802
1001
DCO15
1071
        3
1071
        3
1000
datoslink
1004
0000000000D49240
1001
ADE_ENTITY_LOCK
1071
1342624882
1071
1342625087
  0
LWPOLYLINE
  5
1E2
330
105C
100
AcDbEntity
  8
aguas buenas
100
AcDbPolyline
 90
        4
 70
     1
 43
0.0
 38
3.0
 10
537259.2838016656
 20
1029654.201111054
 10
537311.558950088
 20
1029668.758747322
 10
537337.3656689292
 20
1029605.896227069
 10
537277.1499916336
 20
1029587.368326362
1001
DCO15
1071
        3
1071
        3
1000
datoslink
1004
0000000000B89240
1001
ADE_ENTITY_LOCK
1071
1342624882
1071
1342625087
  0
LWPOLYLINE
  5
1E3
330
105C
100
AcDbEntity
  8
aguas buenas
100
AcDbPolyline
 90
        5
 70
     1
 43
0.0
 38
2.5
 10
537266.5626198006
 20
1029582.73635119
 10
537298.3247352989
 20
1029592.00030154
 10
537324.7931648773
 20
1029515.241855755
 10
537274.503148674
 20
1029505.977905404
 10
537248.1304027616
 20
1029543.49406508
1001
DCO15
1071
        3
1071
        3
1000
datoslink
1004
0000000000B09240
1001
ADE_ENTITY_LOCK
1071
1342624882
1071
1342625087
  0
LWPOLYLINE
  5
1E4
330
105C
100
AcDbEntity
  8
aguas buenas
100
AcDbPolyline
 90
        4
 70
     1
 43
0.0
 38
0.385
 10
537065.402554987
 20
1029310.111526506
 10
537134.2204718962
 20
1029337.903377564
 10
537157.380347779
 20
1029282.319675443
 10
537087.9007201297
 20
1029256.512956604
1001
DCO15
1071
        1
1071
        1
1000
datoslink
1004
00000000008C9240
1001
ADE_ENTITY_LOCK
1071
1342624882
1071
1342625087
  0
LWPOLYLINE
  5
1E5
330
105C
100
AcDbEntity
  8
aguas buenas
100
AcDbPolyline
 90
        4
 70
     1
 43
0.0
 38
0.72
 10
537306.4210456925
 20
1028623.855008855
 10
537249.5139220935
 20
1028602.68026519
 10
537219.7369388165
 20
1028677.453578757
 10
537270.6886657589
 20
1028697.304900942
1001
DCO15
1071
        3
1071
        3
1000
datoslink
1004
0000000000C09040
1001
ADE_ENTITY_LOCK
1071
1342624882
1071
1342625087
  0
LWPOLYLINE
  5
1E6
330
105C
100
AcDbEntity
  8
aguas buenas
100
AcDbPolyline
 90
        4
 70
     1
 43
0.0
 38
0.1333333333333333
 10
537309.0678886519
 20
1028625.178430335
 10
537273.3355087173
 20
1028697.304900942
 10
537337.5214504488
 20
1028725.75846274
 10
537373.2538303835
 20
1028650.985149178
1001
DCO15
1071
        3
1071
        3
1000
datoslink
1004
0000000000BC9040
1001
ADE_ENTITY_LOCK
1071
1342624882
1071
1342625087
  0
LWPOLYLINE
  5
1E7
330
105C
100
AcDbEntity
  8
aguas buenas
100
AcDbPolyline
 90
        4
 70
     1
 43
0.0
 38
0.6571428571428573
 10
537422.2204251086
 20
1028612.605926285
 10
537445.3803009913
 20
1028566.286174515
 10
537398.3988384845
 20
1028547.75827381
 10
537375.9006733418
 20
1028593.416314838
1001
DCO15
1071
        3
1071
        3
1000
datoslink
1004
0000000000B89040
1001
ADE_ENTITY_LOCK
1071
1342624882
1071
1342625087
  0
LWPOLYLINE
  5
1E8
330
105C
100
AcDbEntity
  8
aguas buenas
100
AcDbPolyline
 90
        5
 70
     1
 43
0.0
 38
0.0520833333333334
 10
537487.7297883203
 20
1028577.53525709
 10
537448.6888546897
 20
1028566.286174515
 10
537423.5438465886
 20
1028613.929347759
 10
537441.4100365554
 20
1028627.825273294
 10
537487.7297883203
 20
1028627.825273294
1001
DCO15
1071
        3
1071
        3
1000
datoslink
1004
0000000000B49040
1001
ADE_ENTITY_LOCK
1071
1342624882
1071
1342625087
  0
LWPOLYLINE
  5
1E9
330
105C
100
AcDbEntity
  8
aguas buenas
100
AcDbPolyline
 90
        4
 70
     1
 43
0.0
 38
0.07
 10
538792.611480197
 20
1029100.560740201
 10
538724.4563913315
 20
1029117.764937391
 10
538716.5159926282
 20
1029156.805231012
 10
538778.0540825761
 20
1029164.745629715
1001
DCO15
1071
        3
1071
        3
1000
datoslink
1004
0000000000A09040
1001
ADE_ENTITY_LOCK
1071
1342624882
1071
1342625087
  0
LWPOLYLINE
  5
1EA
330
105C
100
AcDbEntity
  8
aguas buenas
100
AcDbPolyline
 90
        4
 70
     1
 43
0.0
 38
0.0923076923076923
 10
538399.561744405
 20
1029613.378156429
 10
538373.7554486208
 20
1029705.354441406
 10
538443.8956371622
 20
1029718.588439243
 10
538476.3189318655
 20
1029639.184452217
1001
DCO15
1071
        3
1071
        3
1000
datoslink
1004
0000000000509040
1001
ADE_ENTITY_LOCK
1071
1342624882
1071
1342625087
  0
LWPOLYLINE
  5
1EB
330
105C
100
AcDbEntity
  8
aguas buenas
100
AcDbPolyline
 90
        4
 70
     1
 43
0.0
 38
0.0125
 10
538371.1086490517
 20
1029704.031041624
 10
538393.6064453777
 20
1029626.612154269
 10
538324.1279567275
 20
1029614.039856322
 10
538304.93865986
 20
1029691.458743671
1001
DCO15
1071
        3
1071
        3
1000
datoslink
1004
00000000004C9040
1001
ADE_ENTITY_LOCK
1071
1342624882
1071
1342625087
  0
LWPOLYLINE
  5
1EC
330
105C
100
AcDbEntity
  8
aguas buenas
100
AcDbPolyline
 90
        4
 70
     1
 43
0.0
 38
0.04
 10
538445.8807368381
 20
1029717.265039459
 10
538502.7869275425
 20
1029754.320233403
 10
538543.8123208396
 20
1029659.035448972
 10
538478.3040315416
 20
1029638.522752322
1001
DCO15
1071
        3
1071
        3
1000
datoslink
1004
0000000000489040
1001
ADE_ENTITY_LOCK
1071
1342624882
1071
1342625087
  0
LWPOLYLINE
  5
1ED
330
105C
100
AcDbEntity
  8
aguas buenas
100
AcDbPolyline
 90
        4
 70
     1
 43
0.0
 38
0.125
 10
537798.3478671815
 20
1028525.949369188
 10
537798.3478671815
 20
1028479.629617419
 10
537732.83850397
 20
1028479.629617419
 10
537733.5002147082
 20
1028525.949369188
1001
DCO15
1071
        3
1071
        3
1000
datoslink
1004
0000000000808F40
1001
ADE_ENTITY_LOCK
1071
1342624882
1071
1342625087
  0
LWPOLYLINE
  5
1EE
330
105C
100
AcDbEntity
  8
aguas buenas
100
AcDbPolyline
 90
        4
 70
     1
 43
0.0
 38
0.025
 10
537691.812438121
 20
1028613.295186804
 10
537641.5224219162
 20
1028613.295186804
 10
537641.5224219162
 20
1028663.585203007
 10
537691.812438121
 20
1028663.585203007
1001
DCO15
1071
        3
1071
        3
1000
datoslink
1004
0000000000488F40
1001
ADE_ENTITY_LOCK
1071
1342624882
1071
1342625087
  0
LWPOLYLINE
  5
1EF
330
105C
100
AcDbEntity
  8
aguas buenas
100
AcDbPolyline
 90
        4
 70
     1
 43
0.0
 38
0.21
 10
539099.4887778349
 20
1026923.564631121
 10
539149.7787940372
 20
1026923.564631121
 10
539149.7787940372
 20
1026873.274614919
 10
539099.4887778349
 20
1026873.274614919
1001
DCO15
1071
        3
1071
        3
1000
datoslink
1004
0000000000C08E40
1001
ADE_ENTITY_LOCK
1071
1342624882
1071
1342625087
  0
LWPOLYLINE
  5
1F0
330
105C
100
AcDbEntity
  8
aguas buenas
100
AcDbPolyline
 90
        4
 70
     1
 43
0.0
 38
1.147999999999999
 10
539198.745388763
 20
1027475.762243246
 10
539256.9759338396
 20
1027475.762243246
 10
539266.9015949322
 20
1027425.472227042
 10
539216.6115787281
 20
1027425.472227042
1001
DCO15
1071
        3
1071
        3
1000
datoslink
1004
0000000000B88E40
1001
ADE_ENTITY_LOCK
1071
1342624882
1071
1342625087
  0
LWPOLYLINE
  5
1F1
330
105C
100
AcDbEntity
  8
aguas buenas
100
AcDbPolyline
 90
        4
 70
     1
 43
0.0
 38
0.0952380952380953
 10
539025.377175008
 20
1027529.360813152
 10
539077.6523234296
 20
1027529.360813152
 10
539077.6523234296
 20
1027471.791978812
 10
539025.377175008
 20
1027471.791978812
1001
DCO15
1071
        3
1071
        3
1000
datoslink
1004
0000000000B08E40
1001
ADE_ENTITY_LOCK
1071
1342624882
1071
1342625087
  0
LWPOLYLINE
  5
1F2
330
105C
100
AcDbEntity
  8
aguas buenas
100
AcDbPolyline
 90
        4
 70
     1
 43
0.0
 38
0.125
 10
539043.905075714
 20
1027532.338511476
 10
539043.905075714
 20
1027582.628527678
 10
539103.4590422707
 20
1027582.628527678
 10
539103.4590422707
 20
1027532.338511476
1001
DCO15
1071
        3
1071
        3
1000
datoslink
1004
0000000000A88E40
1001
ADE_ENTITY_LOCK
1071
1342624882
1071
1342625087
  0
LWPOLYLINE
  5
1F3
330
105C
100
AcDbEntity
  8
aguas buenas
100
AcDbPolyline
 90
        4
 70
     1
 43
0.0
 38
0.0225
 10
539239.7714546118
 20
1027130.018381849
 10
539239.7714546118
 20
1027180.308398053
 10
539290.061470815
 20
1027180.308398053
 10
539290.061470815
 20
1027130.018381849
1001
DCO15
1071
        3
1071
        3
1000
datoslink
1004
0000000000A08E40
1001
ADE_ENTITY_LOCK
1071
1342624882
1071
1342625087
  0
LWPOLYLINE
  5
1F4
330
105C
100
AcDbEntity
  8
aguas buenas
100
AcDbPolyline
 90
        4
 70
     1
 43
0.0
 38
0.15
 10
539162.3512980864
 20
1027520.758573536
 10
539137.206289988
 20
1027567.078325299
 10
539193.4517028452
 20
1027567.078325299
 10
539221.9052646449
 20
1027520.758573536
1001
DCO15
1071
        3
1071
        3
1000
datoslink
1004
0000000000988E40
1001
ADE_ENTITY_LOCK
1071
1342624882
1071
1342625087
  0
LWPOLYLINE
  5
1F5
330
105C
100
AcDbEntity
  8
aguas buenas
100
AcDbPolyline
 90
        4
 70
     1
 43
0.0
 38
1.175999999999999
 10
539163.0130088282
 20
1027519.435152056
 10
539223.2286861241
 20
1027519.435152056
 10
539247.7119834861
 20
1027477.08566473
 10
539183.5260417528
 20
1027477.08566473
1001
DCO15
1071
        3
1071
        3
1000
datoslink
1004
0000000000908E40
1001
ADE_ENTITY_LOCK
1071
1342624882
1071
1342625087
  0
LWPOLYLINE
  5
1F6
330
105C
100
AcDbEntity
  8
aguas buenas
100
AcDbPolyline
 90
        4
 70
     1
 43
0.0
 38
1.733333333333332
 10
537766.935690592
 20
1028129.400111748
 10
537743.1141039701
 20
1028173.734731292
 10
537764.2888476339
 20
1028184.983813863
 10
537790.7572772161
 20
1028138.664062097
1001
DCO15
1071
        3
1071
        3
1000
datoslink
1004
0000000000188E40
1001
ADE_ENTITY_LOCK
1071
1342624882
1071
1342625087
  0
LWPOLYLINE
  5
1F7
330
105C
100
AcDbEntity
  8
aguas buenas
100
AcDbPolyline
 90
        4
 70
     1
 43
0.0
 38
0.2
 10
538071.9843415088
 20
1027891.845956258
 10
538052.7947300645
 20
1027938.165708022
 10
538103.0847462678
 20
1027938.165708022
 10
538124.259489933
 20
1027891.845956258
1001
DCO15
1071
        3
1071
        3
1000
datoslink
1004
0000000000088E40
1001
ADE_ENTITY_LOCK
1071
1342624882
1071
1342625087
  0
LWPOLYLINE
  5
1F8
330
105C
100
AcDbEntity
  8
aguas buenas
100
AcDbPolyline
 90
        4
 70
     1
 43
0.0
 38
0.2666666666666666
 10
537819.2108390136
 20
1028090.359178111
 10
537794.0658309126
 20
1028077.78667406
 10
537767.5974013321
 20
1028127.414979528
 10
537792.080698696
 20
1028138.002351358
1001
DCO15
1071
        3
1071
        3
1000
datoslink
1004
0000000000F88D40
1001
ADE_ENTITY_LOCK
1071
1342624882
1071
1342625087
  0
LWPOLYLINE
  5
1F9
330
105C
100
AcDbEntity
  8
aguas buenas
100
AcDbPolyline
 90
        4
 70
     1
 43
0.0
 38
0.35
 10
537820.5342604935
 20
1028026.834947118
 10
537794.7275416524
 20
1028076.463252582
 10
537819.2108390143
 20
1028088.374045895
 10
537847.0026900747
 20
1028038.745740428
1001
DCO15
1071
        3
1071
        3
1000
datoslink
1004
0000000000F08D40
1001
ADE_ENTITY_LOCK
1071
1342624882
1071
1342625087
  0
LWPOLYLINE
  5
1FA
330
105C
100
AcDbEntity
  8
aguas buenas
100
AcDbPolyline
 90
        4
 70
     1
 43
0.0
 38
0.4
 10
537766.935690592
 20
1028105.578525122
 10
537729.8798891781
 20
1028090.359178111
 10
537706.7200132962
 20
1028143.957748016
 10
537740.4672610119
 20
1028159.838805763
1001
DCO15
1071
        3
1071
        3
1000
datoslink
1004
0000000000E88D40
1001
ADE_ENTITY_LOCK
1071
1342624882
1071
1342625087
  0
LWPOLYLINE
  5
1FB
330
105C
100
AcDbEntity
  8
aguas buenas
100
AcDbPolyline
 90
        4
 70
     1
 43
0.0
 38
0.0833333333333333
 10
537809.2851779211
 20
1027868.024369632
 10
537780.8316161232
 20
1027923.608071753
 10
537819.8725497536
 20
1027940.150840241
 10
537850.3112437726
 20
1027884.56713812
1001
DCO15
1071
        3
1071
        3
1000
datoslink
1004
0000000000D88D40
1001
ADE_ENTITY_LOCK
1071
1342624882
1071
1342625087
  0
LWPOLYLINE
  5
1FC
330
105C
100
AcDbEntity
  8
aguas buenas
100
AcDbPolyline
 90
        4
 70
     1
 43
0.0
 38
0.0277777777777778
 10
537870.1625659586
 20
1027834.277121918
 10
537832.4450538056
 20
1027819.71948565
 10
537808.6234671837
 20
1027865.377526674
 10
537847.0026900743
 20
1027881.258584423
1001
DCO15
1071
        3
1071
        3
1000
datoslink
1004
0000000000C88D40
1001
ADE_ENTITY_LOCK
1071
1342624882
1071
1342625087
  0
LWPOLYLINE
  5
1FD
330
105C
100
AcDbEntity
  8
aguas buenas
100
AcDbPolyline
 90
        4
 70
     1
 43
0.0
 38
0.7000000000000001
 10
538310.2002077382
 20
1027498.128066243
 10
538310.2002077382
 20
1027548.418082446
 10
538360.4902239405
 20
1027548.418082446
 10
538360.4902239405
 20
1027498.128066243
1001
DCO15
1071
        3
1071
        3
1000
datoslink
1004
0000000000C08D40
1001
ADE_ENTITY_LOCK
1071
1342624882
1071
1342625087
  0
LWPOLYLINE
  5
1FE
330
105C
100
AcDbEntity
  8
aguas buenas
100
AcDbPolyline
 90
        4
 70
     1
 43
0.0
 38
0.01
 10
537875.4562518736
 20
1027787.957370154
 10
537911.8503425475
 20
1027802.515006423
 10
537928.3931110354
 20
1027766.782626488
 10
537896.6309955391
 20
1027752.886700954
1001
DCO15
1071
        3
1071
        3
1000
datoslink
1004
0000000000B88D40
1001
ADE_ENTITY_LOCK
1071
1342624882
1071
1342625087
  0
LWPOLYLINE
  5
1FF
330
105C
100
AcDbEntity
  8
aguas buenas
100
AcDbPolyline
 90
        4
 70
     1
 43
0.0
 38
0.0476190476190476
 10
537891.9990203613
 20
1027796.559609765
 10
537853.6197974682
 20
1027783.325394977
 10
537835.0918967623
 20
1027819.05777491
 10
537877.4413840929
 20
1027834.938832657
1001
DCO15
1071
        3
1071
        3
1000
datoslink
1004
0000000000B08D40
1001
ADE_ENTITY_LOCK
1071
1342624882
1071
1342625087
  0
LWPOLYLINE
  5
200
330
105C
100
AcDbEntity
  8
aguas buenas
100
AcDbPolyline
 90
        4
 70
     1
 43
0.0
 38
0.09375
 10
538040.8839367525
 20
1027646.351271897
 10
538000.5195816432
 20
1027646.351271897
 10
538000.5195816432
 20
1027686.715627003
 10
538040.8839367525
 20
1027686.715627003
1001
DCO15
1071
        3
1071
        3
1000
datoslink
1004
0000000000A88D40
1001
ADE_ENTITY_LOCK
1071
1342624882
1071
1342625087
  0
LWPOLYLINE
  5
201
330
105C
100
AcDbEntity
  8
aguas buenas
100
AcDbPolyline
 90
        4
 70
     1
 43
0.0
 38
0.0571428571428571
 10
538248.6611089632
 20
1027734.358800249
 10
538298.9511251654
 20
1027734.358800249
 10
538298.9511251654
 20
1027684.06878405
 10
538248.6611089632
 20
1027684.06878405
1001
DCO15
1071
        3
1071
        3
1000
datoslink
1004
0000000000A08D40
1001
ADE_ENTITY_LOCK
1071
1342624882
1071
1342625087
  0
LWPOLYLINE
  5
202
330
105C
100
AcDbEntity
  8
aguas buenas
100
AcDbPolyline
 90
        4
 70
     1
 43
0.0
 38
0.0909090909090909
 10
538031.6199864018
 20
1027881.920295162
 10
538031.6199864018
 20
1027831.63027896
 10
537981.9916809361
 20
1027831.63027896
 10
537968.7574661467
 20
1027881.920295162
1001
DCO15
1071
        3
1071
        3
1000
datoslink
1004
0000000000988D40
1001
ADE_ENTITY_LOCK
1071
1342624882
1071
1342625087
  0
LWPOLYLINE
  5
203
330
105C
100
AcDbEntity
  8
aguas buenas
100
AcDbPolyline
 90
        4
 70
     1
 43
0.0
 38
0.3333333333333333
 10
538077.9397381665
 20
1027830.306857479
 10
538130.8765973281
 20
1027830.306857479
 10
538152.0513409935
 20
1027780.016841277
 10
538077.9397381665
 20
1027780.016841277
1001
DCO15
1071
        3
1071
        3
1000
datoslink
1004
0000000000888D40
1001
ADE_ENTITY_LOCK
1071
1342624882
1071
1342625087
  0
LWPOLYLINE
  5
204
330
105C
100
AcDbEntity
  8
aguas buenas
100
AcDbPolyline
 90
        4
 70
     1
 43
0.0
 38
0.2916666666666667
 10
538076.6163166892
 20
1027830.306857479
 10
538076.6163166892
 20
1027780.016841277
 10
538006.4749783008
 20
1027780.016841277
 10
537983.3151024161
 20
1027830.306857479
1001
DCO15
1071
        3
1071
        3
1000
datoslink
1004
0000000000908D40
1001
ADE_ENTITY_LOCK
1071
1342624882
1071
1342625087
  0
LWPOLYLINE
  5
205
330
105C
100
AcDbEntity
  8
aguas buenas
100
AcDbPolyline
 90
        4
 70
     1
 43
0.0
 38
0.03125
 10
538032.9434078792
 20
1027831.63027896
 10
538032.9434078792
 20
1027881.920295162
 10
538075.9546059472
 20
1027881.920295162
 10
538111.6869858811
 20
1027831.63027896
1001
DCO15
1071
        3
1071
        3
1000
datoslink
1004
0000000000808D40
1001
ADE_ENTITY_LOCK
1071
1342624882
1071
1342625087
  0
LWPOLYLINE
  5
206
330
105C
100
AcDbEntity
  8
aguas buenas
100
AcDbPolyline
 90
        4
 70
     1
 43
0.0
 38
0.1666666666666666
 10
538259.248480795
 20
1027058.752135204
 10
538259.248480795
 20
1027109.042151406
 10
538309.538496998
 20
1027109.042151406
 10
538309.538496998
 20
1027058.752135204
1001
DCO15
1071
        3
1071
        3
1000
datoslink
1004
0000000000788D40
1001
ADE_ENTITY_LOCK
1071
1342624882
1071
1342625087
  0
LWPOLYLINE
  5
207
330
105C
100
AcDbEntity
  8
aguas buenas
100
AcDbPolyline
 90
        4
 70
     1
 43
0.0
 38
0.25
 10
538316.8173151325
 20
1027160.655589089
 10
538316.8173151325
 20
1027210.945605291
 10
538367.1073313355
 20
1027210.945605291
 10
538367.1073313355
 20
1027160.655589089
1001
DCO15
1071
        3
1071
        3
1000
datoslink
1004
0000000000708D40
1001
ADE_ENTITY_LOCK
1071
1342624882
1071
1342625087
  0
LWPOLYLINE
  5
208
330
105C
100
AcDbEntity
  8
aguas buenas
100
AcDbPolyline
 90
        4
 70
     1
 43
0.0
 38
0.1666666666666666
 10
538576.2631602538
 20
1026352.362305289
 10
538576.2631602538
 20
1026401.990610752
 10
538626.5531764571
 20
1026401.990610752
 10
538626.5531764571
 20
1026351.70059455
1001
DCO15
1071
        3
1071
        3
1000
datoslink
1004
0000000000388D40
1001
ADE_ENTITY_LOCK
1071
1342624882
1071
1342625087
  0
LWPOLYLINE
  5
209
330
105C
100
AcDbEntity
  8
aguas buenas
100
AcDbPolyline
 90
        4
 70
     1
 43
0.0
 38
0.1
 10
538825.0663983142
 20
1026311.997950177
 10
538789.3340183794
 20
1026347.730330111
 10
538825.0663983142
 20
1026383.462710047
 10
538860.7987782482
 20
1026347.730330111
1001
DCO15
1071
        3
1071
        3
1000
datoslink
1004
0000000000188D40
1001
ADE_ENTITY_LOCK
1071
1342624882
1071
1342625087
  0
LWPOLYLINE
  5
20A
330
105C
100
AcDbEntity
  8
aguas buenas
100
AcDbPolyline
 90
        4
 70
     1
 43
0.0
 38
0.0625
 10
538862.1221997256
 20
1026346.406908634
 10
538897.1928689203
 20
1026310.674528699
 10
538862.1221997256
 20
1026275.603859506
 10
538826.3898197918
 20
1026310.674528699
1001
DCO15
1071
        3
1071
        3
1000
datoslink
1004
0000000000108D40
1001
ADE_ENTITY_LOCK
1071
1342624882
1071
1342625087
  0
LWPOLYLINE
  5
20B
330
105C
100
AcDbEntity
  8
aguas buenas
100
AcDbPolyline
 90
        4
 70
     1
 43
0.0
 38
0.1
 10
538076.0098411774
 20
1025795.201862616
 10
538122.991303684
 20
1025805.789234448
 10
538141.5192043911
 20
1025758.807771943
 10
538093.2143204042
 20
1025744.250135675
1001
DCO15
1071
        3
1071
        3
1000
datoslink
1004
0000000000088D40
1001
ADE_ENTITY_LOCK
1071
1342624882
1071
1342625087
  0
LWPOLYLINE
  5
20C
330
105C
100
AcDbEntity
  8
aguas buenas
100
AcDbPolyline
 90
        4
 70
     1
 43
0.0
 38
0.14
 10
538824.801714016
 20
1024786.622353441
 10
538871.1214657835
 20
1024786.622353441
 10
538881.7088376161
 20
1024736.994047978
 10
538831.4188214129
 20
1024736.994047978
1001
DCO15
1071
        3
1071
        3
1000
datoslink
1004
0000000000E08C40
1001
ADE_ENTITY_LOCK
1071
1342624882
1071
1342625087
  0
LWPOLYLINE
  5
20D
330
105C
100
AcDbEntity
  8
aguas buenas
100
AcDbPolyline
 90
        4
 70
     1
 43
0.0
 38
0.1
 10
536850.5215515915
 20
1039788.795897649
 10
536873.6814274733
 20
1039735.859038489
 10
536861.108923424
 20
1039721.963112959
 10
536814.1274609175
 20
1039758.357203634
1001
DCO15
1071
        3
1071
        3
1000
datoslink
1004
0000000000308B40
1001
ADE_ENTITY_LOCK
1071
1342624882
1071
1342625087
  0
LWPOLYLINE
  5
20E
330
105C
100
AcDbEntity
  8
aguas buenas
100
AcDbPolyline
 90
        4
 70
     1
 43
0.0
 38
0.09375
 10
537123.6757448643
 20
1037065.194493795
 10
537072.724017919
 20
1037092.986344853
 10
537072.724017919
 20
1037143.276361055
 10
537123.6757448643
 20
1037116.807931477
1001
DCO15
1071
        3
1071
        3
1000
datoslink
1004
0000000000A08A40
1001
ADE_ENTITY_LOCK
1071
1342624882
1071
1342625087
  0
LWPOLYLINE
  5
20F
330
105C
100
AcDbEntity
  8
aguas buenas
100
AcDbPolyline
 90
        4
 70
     1
 43
0.0
 38
1.231999999999999
 10
536831.8613087367
 20
1036982.480651356
 10
536780.9095817935
 20
1036982.480651356
 10
536780.9095817935
 20
1037038.064353477
 10
536831.8613087367
 20
1037038.064353477
1001
DCO15
1071
        3
1071
        3
1000
datoslink
1004
0000000000788A40
1001
ADE_ENTITY_LOCK
1071
1342624882
1071
1342625087
  0
LWPOLYLINE
  5
210
330
105C
100
AcDbEntity
  8
aguas buenas
100
AcDbPolyline
 90
        4
 70
     1
 43
0.0
 38
0.125
 10
536782.8773188824
 20
1036980.278080016
 10
536836.4477086728
 20
1036980.278080016
 10
536836.4932839116
 20
1036926.896949235
 10
536782.8947140109
 20
1036926.896949235
1001
DCO15
1071
        3
1071
        3
1000
datoslink
1004
0000000000708A40
1001
ADE_ENTITY_LOCK
1071
1342624882
1071
1342625087
  0
LWPOLYLINE
  5
211
330
105C
100
AcDbEntity
  8
aguas buenas
100
AcDbPolyline
 90
        4
 70
     1
 43
0.0
 38
1.135555555555554
 10
536642.007034617
 20
1037193.898276338
 10
536642.007034617
 20
1037254.082294497
 10
536692.2706102221
 20
1037254.082294497
 10
536692.2706102221
 20
1037193.898276338
1001
DCO15
1071
        3
1071
        3
1000
datoslink
1004
0000000000688A40
1001
ADE_ENTITY_LOCK
1071
1342624882
1071
1342625087
  0
LWPOLYLINE
  5
212
330
105C
100
AcDbEntity
  8
aguas buenas
100
AcDbPolyline
 90
        4
 70
     1
 43
0.0
 38
2.66
 10
536866.8703991716
 20
1037978.274600928
 10
536866.8703991716
 20
1038031.183627881
 10
536911.843072081
 20
1038031.183627881
 10
536911.843072081
 20
1037978.274600928
1001
DCO15
1071
        3
1071
        3
1000
datoslink
1004
0000000000588A40
1001
ADE_ENTITY_LOCK
1071
1342624882
1071
1342625087
  0
LWPOLYLINE
  5
213
330
105C
100
AcDbEntity
  8
aguas buenas
100
AcDbPolyline
 90
        4
 70
     1
 43
0.0
 38
0.05
 10
536966.0748247095
 20
1037330.800383581
 10
537016.3384003156
 20
1037330.800383581
 10
537016.3384003156
 20
1037280.536807975
 10
536966.0748247095
 20
1037280.536807975
1001
DCO15
1071
        3
1071
        3
1000
datoslink
1004
0000000000488A40
1001
ADE_ENTITY_LOCK
1071
1342624882
1071
1342625087
  0
LWPOLYLINE
  5
214
330
105C
100
AcDbEntity
  8
aguas buenas
100
AcDbPolyline
 90
        4
 70
     1
 43
0.0
 38
1.135384615384614
 10
536848.3522397372
 20
1037250.114117477
 10
536848.3522397372
 20
1037303.684507267
 10
536918.4567004489
 20
1037303.684507267
 10
536918.4567004489
 20
1037250.114117477
1001
DCO15
1071
        3
1071
        3
1000
datoslink
1004
0000000000408A40
1001
ADE_ENTITY_LOCK
1071
1342624882
1071
1342625087
  0
LWPOLYLINE
  5
215
330
105C
100
AcDbEntity
  8
aguas buenas
100
AcDbPolyline
 90
        4
 70
     1
 43
0.0
 38
1.14121212121212
 10
536641.3456717815
 20
1037255.405020173
 10
536641.3456717815
 20
1037305.00723294
 10
536692.2706102235
 20
1037305.00723294
 10
536692.2706102235
 20
1037255.405020173
1001
DCO15
1071
        3
1071
        3
1000
datoslink
1004
0000000000388A40
1001
ADE_ENTITY_LOCK
1071
1342624882
1071
1342625087
  0
LWPOLYLINE
  5
216
330
105C
100
AcDbEntity
  8
aguas buenas
100
AcDbPolyline
 90
        4
 70
     1
 43
0.0
 38
2.459999999999999
 10
537019.2483967982
 20
1037978.274600928
 10
536961.0484671481
 20
1037978.274600928
 10
536961.0484671481
 20
1038017.295008305
 10
537019.2483967982
 20
1038017.295008305
1001
DCO15
1071
        3
1071
        3
1000
datoslink
1004
0000000000288A40
1001
ADE_ENTITY_LOCK
1071
1342624882
1071
1342625087
  0
LWPOLYLINE
  5
217
330
105C
100
AcDbEntity
  8
aguas buenas
100
AcDbPolyline
 90
        4
 70
     1
 43
0.0
 38
1.87268817204301
 10
536951.7893874329
 20
1038032.506353555
 10
536881.0235638822
 20
1038032.506353555
 10
536881.0235638822
 20
1038092.690371713
 10
536951.7893874329
 20
1038092.690371713
1001
DCO15
1071
        3
1071
        3
1000
datoslink
1004
0000000000208A40
1001
ADE_ENTITY_LOCK
1071
1342624882
1071
1342625087
  0
LWPOLYLINE
  5
218
330
105C
100
AcDbEntity
  8
aguas buenas
100
AcDbPolyline
 90
        4
 70
     1
 43
0.0
 38
1.423333333333332
 10
537012.6347684275
 20
1038018.617733978
 10
536953.7734759413
 20
1038018.617733978
 10
536953.7734759413
 20
1038061.606318379
 10
537012.6347684275
 20
1038061.606318379
1001
DCO15
1071
        3
1071
        3
1000
datoslink
1004
0000000000188A40
1001
ADE_ENTITY_LOCK
1071
1342624882
1071
1342625087
  0
LWPOLYLINE
  5
219
330
105C
100
AcDbEntity
  8
aguas buenas
100
AcDbPolyline
 90
        4
 70
     1
 43
0.0
 38
1.147999999999999
 10
536912.7689800525
 20
1037938.59283071
 10
536912.7689800525
 20
1037976.290512416
 10
536963.0325556602
 20
1037976.951875251
 10
536963.0325556602
 20
1037938.59283071
1001
DCO15
1071
        3
1071
        3
1000
datoslink
1004
0000000000088A40
1001
ADE_ENTITY_LOCK
1071
1342624882
1071
1342625087
  0
LWPOLYLINE
  5
21A
330
105C
100
AcDbEntity
  8
aguas buenas
100
AcDbPolyline
 90
        4
 70
     1
 43
0.0
 38
1.221818181818181
 10
537013.9574941015
 20
1038060.944955542
 10
537084.0619548168
 20
1038060.944955542
 10
537083.4005919778
 20
1038017.956371142
 10
537013.9574941015
 20
1038018.617733978
1001
DCO15
1071
        3
1071
        3
1000
datoslink
1004
0000000000008A40
1001
ADE_ENTITY_LOCK
1071
1342624882
1071
1342625087
  0
LWPOLYLINE
  5
21B
330
105C
100
AcDbEntity
  8
aguas buenas
100
AcDbPolyline
 90
        4
 70
     1
 43
0.0
 38
1.975555555555555
 10
536994.1166089951
 20
1038100.626725755
 10
537044.3801846011
 20
1038100.626725755
 10
537044.3801846011
 20
1038062.929044055
 10
536994.1166089951
 20
1038062.929044055
1001
DCO15
1071
        3
1071
        3
1000
datoslink
1004
0000000000F88940
1001
ADE_ENTITY_LOCK
1071
1342624882
1071
1342625087
  0
LWPOLYLINE
  5
21C
330
105C
100
AcDbEntity
  8
aguas buenas
100
AcDbPolyline
 90
        4
 70
     1
 43
0.0
 38
0.275
 10
536964.3552813344
 20
1037976.951875251
 10
537019.9097596342
 20
1037976.951875251
 10
537019.9097596342
 20
1037943.883733406
 10
536964.3552813344
 20
1037944.545096243
1001
DCO15
1071
        3
1071
        3
1000
datoslink
1004
0000000000F08940
1001
ADE_ENTITY_LOCK
1071
1342624882
1071
1342625087
  0
LWPOLYLINE
  5
21D
330
105C
100
AcDbEntity
  8
aguas buenas
100
AcDbPolyline
 90
        4
 70
     1
 43
0.0
 38
1.1
 10
537353.8979922803
 20
1037978.274600928
 10
537393.5797624961
 20
1037978.274600928
 10
537393.5797624961
 20
1037939.25419355
 10
537353.8979922803
 20
1037939.25419355
1001
DCO15
1071
        3
1071
        3
1000
datoslink
1004
0000000000C08940
1001
ADE_ENTITY_LOCK
1071
1342624882
1071
1342625087
  0
LWPOLYLINE
  5
21E
330
105C
100
AcDbEntity
  8
aguas buenas
100
AcDbPolyline
 90
        4
 70
     1
 43
0.0
 38
1.147999999999999
 10
537144.9073358122
 20
1037718.359006019
 10
537195.1709114183
 20
1037718.359006019
 10
537195.1709114183
 20
1037668.095430413
 10
537144.9073358122
 20
1037668.095430413
1001
DCO15
1071
        3
1071
        3
1000
datoslink
1004
0000000000B88940
1001
ADE_ENTITY_LOCK
1071
1342624882
1071
1342625087
  0
LWPOLYLINE
  5
21F
330
105C
100
AcDbEntity
  8
aguas buenas
100
AcDbPolyline
 90
        4
 70
     1
 43
0.0
 38
1.147999999999999
 10
537187.6313750772
 20
1037087.815677294
 10
537240.5404020315
 20
1037087.815677294
 10
537240.5404020315
 20
1037037.552101688
 10
537187.6313750772
 20
1037037.552101688
1001
DCO15
1071
        3
1071
        3
1000
datoslink
1004
0000000000888940
1001
ADE_ENTITY_LOCK
1071
1342624882
1071
1342625087
  0
LWPOLYLINE
  5
220
330
105C
100
AcDbEntity
  8
aguas buenas
100
AcDbPolyline
 90
        4
 70
     1
 43
0.0
 38
1.203999999999999
 10
537296.094880333
 20
1036627.507142797
 10
537347.0198187753
 20
1036627.507142797
 10
537347.0198187753
 20
1036577.904930033
 10
537296.094880333
 20
1036577.904930033
1001
DCO15
1071
        3
1071
        3
1000
datoslink
1004
0000000000788940
1001
ADE_ENTITY_LOCK
1071
1342624882
1071
1342625087
  0
LWPOLYLINE
  5
221
330
105C
100
AcDbEntity
  8
aguas buenas
100
AcDbPolyline
 90
        5
 70
     1
 43
0.0
 38
1.147999999999999
 10
537186.970012241
 20
1036304.762078382
 10
537186.970012241
 20
1036353.041565476
 10
537204.8268088382
 20
1036382.802893137
 10
537269.640366856
 20
1036382.802893137
 10
537257.7358357916
 20
1036304.762078382
1001
DCO15
1071
        3
1071
        3
1000
datoslink
1004
0000000000708940
1001
ADE_ENTITY_LOCK
1071
1342624882
1071
1342625087
  0
LWPOLYLINE
  5
222
330
105C
100
AcDbEntity
  8
aguas buenas
100
AcDbPolyline
 90
        4
 70
     1
 43
0.0
 38
0.0333333333333333
 10
537206.1495345123
 20
1036456.214168036
 10
537276.2539952248
 20
1036456.214168036
 10
537276.2539952248
 20
1036384.125618813
 10
537206.1495345123
 20
1036384.125618813
1001
DCO15
1071
        3
1071
        3
1000
datoslink
1004
0000000000688940
1001
ADE_ENTITY_LOCK
1071
1342624882
1071
1342625087
  0
LWPOLYLINE
  5
223
330
105C
100
AcDbEntity
  8
aguas buenas
100
AcDbPolyline
 90
        4
 70
     1
 43
0.0
 38
0.0083333333333333
 10
537146.6268791873
 20
1036259.128042632
 10
537196.8904547962
 20
1036259.128042632
 10
537196.8904547962
 20
1036209.525829866
 10
537146.6268791873
 20
1036209.525829866
1001
DCO15
1071
        3
1071
        3
1000
datoslink
1004
0000000000608940
1001
ADE_ENTITY_LOCK
1071
1342624882
1071
1342625087
  0
LWPOLYLINE
  5
224
330
105C
100
AcDbEntity
  8
aguas buenas
100
AcDbPolyline
 90
        4
 70
     1
 43
0.0
 38
0.125
 10
537124.8019055709
 20
1036353.041565478
 10
537185.6472865673
 20
1036353.041565478
 10
537185.6472865673
 20
1036302.777989872
 10
537124.8019055709
 20
1036302.777989872
1001
DCO15
1071
        3
1071
        3
1000
datoslink
1004
0000000000588940
1001
ADE_ENTITY_LOCK
1071
1342624882
1071
1342625087
  0
LWPOLYLINE
  5
225
330
105C
100
AcDbEntity
  8
aguas buenas
100
AcDbPolyline
 90
        4
 70
     1
 43
0.0
 38
1.147999999999999
 10
537486.5673773662
 20
1035644.721967134
 10
537536.1695901362
 20
1035644.721967134
 10
537536.1695901362
 20
1035594.458391528
 10
537486.5673773662
 20
1035594.458391528
1001
DCO15
1071
        3
1071
        3
1000
datoslink
1004
0000000000508940
1001
ADE_ENTITY_LOCK
1071
1342624882
1071
1342625087
  0
LWPOLYLINE
  5
226
330
105C
100
AcDbEntity
  8
aguas buenas
100
AcDbPolyline
 90
        4
 70
     1
 43
0.0
 38
0.2
 10
540658.7321936292
 20
1026721.964561403
 10
540681.8920695111
 20
1026677.629941858
 10
540636.8957392238
 20
1026658.440330412
 10
540619.691259996
 20
1026705.421792915
1001
DCO15
1071
        3
1071
        3
1000
datoslink
1004
0000000000C08840
1001
ADE_ENTITY_LOCK
1071
1342624882
1071
1342625087
  0
LWPOLYLINE
  5
227
330
105C
100
AcDbEntity
  8
aguas buenas
100
AcDbPolyline
 90
        4
 70
     1
 43
0.0
 38
0.1904761904761905
 10
540576.5477197803
 20
1027508.076919954
 10
540620.8823393276
 20
1027488.225597767
 10
540601.6927278815
 20
1027441.905845998
 10
540556.0346868541
 20
1027462.418878924
1001
DCO15
1071
        3
1071
        3
1000
datoslink
1004
0000000000B88840
1001
ADE_ENTITY_LOCK
1071
1342624882
1071
1342625087
  0
LWPOLYLINE
  5
228
330
105C
100
AcDbEntity
  8
aguas buenas
100
AcDbPolyline
 90
        4
 70
     1
 43
0.0
 38
0.3541666666666667
 10
540587.1350916129
 20
1027723.794621033
 10
540636.7633970762
 20
1027723.794621033
 10
540636.7633970762
 20
1027645.712753773
 10
540587.1350916129
 20
1027645.712753773
1001
DCO15
1071
        3
1071
        3
1000
datoslink
1004
0000000000A88840
1001
ADE_ENTITY_LOCK
1071
1342624882
1071
1342625087
  0
LWPOLYLINE
  5
229
330
105C
100
AcDbEntity
  8
aguas buenas
100
AcDbPolyline
 90
        4
 70
     1
 43
0.0
 38
0.0592592592592593
 10
540630.1462896809
 20
1027725.118042512
 10
540580.5179842161
 20
1027725.118042512
 10
540580.5179842161
 20
1027795.921091642
 10
540630.1462896809
 20
1027795.921091642
1001
DCO15
1071
        3
1071
        3
1000
datoslink
1004
0000000000A08840
1001
ADE_ENTITY_LOCK
1071
1342624882
1071
1342625087
  0
LWPOLYLINE
  5
22A
330
105C
100
AcDbEntity
  8
aguas buenas
100
AcDbPolyline
 90
        4
 70
     1
 43
0.0
 38
0.025
 10
540617.970812073
 20
1028820.778685007
 10
540617.970812073
 20
1028732.109445912
 10
540576.9447462242
 20
1028732.109445912
 10
540576.9447462242
 20
1028820.778685007
1001
DCO15
1071
        3
1071
        3
1000
datoslink
1004
0000000000708840
1001
ADE_ENTITY_LOCK
1071
1342624882
1071
1342625087
  0
LWPOLYLINE
  5
22B
330
105C
100
AcDbEntity
  8
aguas buenas
100
AcDbPolyline
 90
        4
 70
     1
 43
0.0
 38
0.275
 10
540644.4392416537
 20
1028560.064653637
 10
540604.0748865422
 20
1028560.064653637
 10
540604.0748865422
 20
1028600.429008748
 10
540644.4392416537
 20
1028600.429008748
1001
DCO15
1071
        3
1071
        3
1000
datoslink
1004
0000000000688840
1001
ADE_ENTITY_LOCK
1071
1342624882
1071
1342625087
  0
LWPOLYLINE
  5
22C
330
105C
100
AcDbEntity
  8
aguas buenas
100
AcDbPolyline
 90
        4
 70
     1
 43
0.0
 38
0.275
 10
540580.9150106599
 20
1028405.886051332
 10
540530.6249944568
 20
1028405.224340591
 10
540530.6249944568
 20
1028455.514356796
 10
540580.9150106599
 20
1028455.514356796
1001
DCO15
1071
        3
1071
        3
1000
datoslink
1004
0000000000608840
1001
ADE_ENTITY_LOCK
1071
1342624882
1071
1342625087
  0
LWPOLYLINE
  5
22D
330
105C
100
AcDbEntity
  8
aguas buenas
100
AcDbPolyline
 90
        5
 70
     1
 43
0.0
 38
0.0555555555555556
 10
540017.7991713295
 20
1028899.522263013
 10
539969.4942873465
 20
1028882.317783786
 10
539946.3344114618
 20
1028951.797411434
 10
539975.4496840015
 20
1028984.22123767
 10
540005.8883780175
 20
1028926.65240333
1001
DCO15
1071
        3
1071
        3
1000
datoslink
1004
0000000000408840
1001
ADE_ENTITY_LOCK
1071
1342624882
1071
1342625087
  0
LWPOLYLINE
  5
22E
330
105C
100
AcDbEntity
  8
aguas buenas
100
AcDbPolyline
 90
        4
 70
     1
 43
0.0
 38
1.511999999999999
 10
538069.9752362855
 20
1035567.20250982
 10
538069.9752362855
 20
1035637.799872834
 10
538141.4550663382
 20
1035637.799872834
 10
538141.4550663382
 20
1035567.20250982
1001
DCO15
1071
        3
1071
        3
1000
datoslink
1004
0000000000488040
1001
ADE_ENTITY_LOCK
1071
1342624882
1071
1342625087
  0
LWPOLYLINE
  5
22F
330
105C
100
AcDbEntity
  8
aguas buenas
100
AcDbPolyline
 90
        4
 70
     1
 43
0.0
 38
0.05
 10
538421.1971172772
 20
1035721.634241411
 10
538471.4977384216
 20
1035721.634241411
 10
538471.4977384216
 20
1035671.333620264
 10
538421.1971172772
 20
1035671.333620264
1001
DCO15
1071
        3
1071
        3
1000
datoslink
1004
0000000000388040
1001
ADE_ENTITY_LOCK
1071
1342624882
1071
1342625087
  0
LWPOLYLINE
  5
230
330
105C
100
AcDbEntity
  8
aguas buenas
100
AcDbPolyline
 90
        4
 70
     1
 43
0.0
 38
13.0
 10
537930.5454443367
 20
1035880.478308189
 10
537980.8460654832
 20
1035880.478308189
 10
538004.6726754986
 20
1035835.472489269
 10
537960.5493236156
 20
1035835.472489269
1001
DCO15
1071
        3
1071
        3
1000
datoslink
1004
0000000000308040
1001
ADE_ENTITY_LOCK
1071
1342624882
1071
1342625087
  0
LWPOLYLINE
  5
231
330
105C
100
AcDbEntity
  8
aguas buenas
100
AcDbPolyline
 90
        5
 70
     1
 43
0.0
 38
0.04
 10
537873.6388393697
 20
1035818.912837593
 10
537854.4593170965
 20
1035853.965067945
 10
537854.4593170965
 20
1035892.324112486
 10
537896.7865386596
 20
1035880.419581422
 10
537922.6032409967
 20
1035818.705615554
1001
DCO15
1071
        3
1071
        3
1000
datoslink
1004
0000000000288040
1001
ADE_ENTITY_LOCK
1071
1342624882
1071
1342625087
  0
LWPOLYLINE
  5
232
330
105C
100
AcDbEntity
  8
aguas buenas
100
AcDbPolyline
 90
        4
 70
     1
 43
0.0
 38
0.0615384615384616
 10
537835.2390042683
 20
1035672.216087302
 10
537888.1870265268
 20
1035672.216087302
 10
537922.6032409967
 20
1035598.971323179
 10
537868.7727517001
 20
1035598.971323179
1001
DCO15
1071
        3
1071
        3
1000
datoslink
1004
0000000000188040
1001
ADE_ENTITY_LOCK
1071
1342624882
1071
1342625087
  0
LWPOLYLINE
  5
233
330
105C
100
AcDbEntity
  8
aguas buenas
100
AcDbPolyline
 90
        4
 70
     1
 43
0.0
 38
3.156363636363635
 10
537883.7746913396
 20
1035794.879005538
 10
537828.1792679662
 20
1035794.879005538
 10
537808.7649931386
 20
1035854.004297061
 10
537852.4752285861
 20
1035853.965067945
1001
DCO15
1071
        3
1071
        3
1000
datoslink
1004
0000000000088040
1001
ADE_ENTITY_LOCK
1071
1342624882
1071
1342625087
  0
LWPOLYLINE
  5
234
330
105C
100
AcDbEntity
  8
aguas buenas
100
AcDbPolyline
 90
        4
 70
     1
 43
0.0
 38
0.0166666666666667
 10
537700.2215475049
 20
1035650.154411362
 10
537649.9209263585
 20
1035650.154411362
 10
537632.2715856071
 20
1035731.341378828
 10
537688.7494760156
 20
1035731.341378828
1001
DCO15
1071
        3
1071
        3
1000
datoslink
1004
0000000000008040
1001
ADE_ENTITY_LOCK
1071
1342624882
1071
1342625087
  0
LWPOLYLINE
  5
235
330
105C
100
AcDbEntity
  8
aguas buenas
100
AcDbPolyline
 90
        4
 70
     1
 43
0.0
 38
1.189999999999999
 10
537883.7746913396
 20
1035793.114071462
 10
537883.7746913396
 20
1035728.693977717
 10
537835.2390042683
 20
1035728.693977717
 10
537828.1792679662
 20
1035793.114071462
1001
DCO15
1071
        3
1071
        3
1000
datoslink
1004
0000000000F07F40
1001
ADE_ENTITY_LOCK
1071
1342624882
1071
1342625087
  0
LWPOLYLINE
  5
236
330
105C
100
AcDbEntity
  8
aguas buenas
100
AcDbPolyline
 90
        4
 70
     1
 43
0.0
 38
0.25
 10
538414.8059311162
 20
1035536.897981338
 10
538414.8059311162
 20
1035586.900842426
 10
538464.8087922053
 20
1035586.900842426
 10
538464.8087922053
 20
1035536.897981338
1001
DCO15
1071
        3
1071
        3
1000
datoslink
1004
0000000000307F40
1001
ADE_ENTITY_LOCK
1071
1342624882
1071
1342625087
  0
LWPOLYLINE
  5
237
330
105C
100
AcDbEntity
  8
aguas buenas
100
AcDbPolyline
 90
        4
 70
     1
 43
0.0
 38
1.189999999999999
 10
539216.9493424026
 20
1036466.193290049
 10
539216.9493424026
 20
1036544.702531498
 10
539281.3445629189
 20
1036544.702531498
 10
539281.3445629189
 20
1036466.193290049
1001
DCO15
1071
        3
1071
        3
1000
datoslink
1004
0000000000E07E40
1001
ADE_ENTITY_LOCK
1071
1342624882
1071
1342625087
  0
LWPOLYLINE
  5
238
330
105C
100
AcDbEntity
  8
aguas buenas
100
AcDbPolyline
 90
        4
 70
     1
 43
0.0
 38
0.0888888888888889
 10
537727.7797627169
 20
1032943.155316541
 10
537727.7797627169
 20
1033023.428810606
 10
537793.0571095411
 20
1033023.428810606
 10
537793.0571095411
 20
1032943.155316541
1001
DCO15
1071
        3
1071
        3
1000
datoslink
1004
0000000000207E40
1001
ADE_ENTITY_LOCK
1071
1342624882
1071
1342625087
  0
LWPOLYLINE
  5
239
330
105C
100
AcDbEntity
  8
aguas buenas
100
AcDbPolyline
 90
        4
 70
     1
 43
0.0
 38
0.1
 10
537833.4403447778
 20
1034958.713132806
 10
537833.4403447778
 20
1035016.318073053
 10
537872.3626017039
 20
1035016.318073053
 10
537884.8177239206
 20
1034958.713132806
1001
DCO15
1071
        3
1071
        3
1000
datoslink
1004
0000000000C07D40
1001
ADE_ENTITY_LOCK
1071
1342624882
1071
1342625087
  0
LWPOLYLINE
  5
23A
330
105C
100
AcDbEntity
  8
aguas buenas
100
AcDbPolyline
 90
        4
 70
     1
 43
0.0
 38
1.0
 10
537969.6682440163
 20
1034902.665082833
 10
537969.6682440163
 20
1034978.174261266
 10
538036.6145259282
 20
1034978.174261266
 10
538036.6145259282
 20
1034902.665082833
1001
DCO15
1071
        3
1071
        3
1000
datoslink
1004
0000000000A07D40
1001
ADE_ENTITY_LOCK
1071
1342624882
1071
1342625087
  0
LWPOLYLINE
  5
23B
330
105C
100
AcDbEntity
  8
aguas buenas
100
AcDbPolyline
 90
        4
 70
     1
 43
0.0
 38
0.1166666666666667
 10
538051.4049835607
 20
1035074.701458441
 10
537984.4587016497
 20
1035075.479903579
 10
537984.4587016497
 20
1035126.857282724
 10
538051.4049835607
 20
1035126.857282724
1001
DCO15
1071
        3
1071
        3
1000
datoslink
1004
0000000000707D40
1001
ADE_ENTITY_LOCK
1071
1342624882
1071
1342625087
  0
LWPOLYLINE
  5
23C
330
105C
100
AcDbEntity
  8
aguas buenas
100
AcDbPolyline
 90
        4
 70
     1
 43
0.0
 38
1.203999999999999
 10
537336.0139012719
 20
1035420.331099942
 10
537288.528747825
 20
1035420.331099942
 10
537303.3192054553
 20
1035457.696466586
 10
537336.0139012719
 20
1035470.930033942
1001
DCO15
1071
        3
1071
        3
1000
datoslink
1004
0000000000007D40
1001
ADE_ENTITY_LOCK
1071
1342624882
1071
1342625087
  0
LWPOLYLINE
  5
23D
330
105C
100
AcDbEntity
  8
aguas buenas
100
AcDbPolyline
 90
        5
 70
     1
 43
0.0
 38
0.025
 10
537530.6251858985
 20
1035279.432529872
 10
537579.6672296265
 20
1035279.432529872
 10
537579.6672296265
 20
1035228.055150726
 10
537551.6432046389
 20
1035228.055150726
 10
537530.6251858985
 20
1035249.851614605
1001
DCO15
1071
        3
1071
        3
1000
datoslink
1004
0000000000C07C40
1001
ADE_ENTITY_LOCK
1071
1342624882
1071
1342625087
  0
LWPOLYLINE
  5
23E
330
105C
100
AcDbEntity
  8
aguas buenas
100
AcDbPolyline
 90
        4
 70
     1
 43
0.0
 38
0.1666666666666666
 10
537505.6850454043
 20
1035052.344294255
 10
537555.9965212289
 20
1035052.344294255
 10
537555.9965212289
 20
1035002.032818429
 10
537505.6850454043
 20
1035002.032818429
1001
DCO15
1071
        3
1071
        3
1000
datoslink
1004
0000000000707C40
1001
ADE_ENTITY_LOCK
1071
1342624882
1071
1342625087
  0
LWPOLYLINE
  5
23F
330
105C
100
AcDbEntity
  8
aguas buenas
100
AcDbPolyline
 90
        4
 70
     1
 43
0.0
 38
0.2121212121212121
 10
537517.9539842448
 20
1034053.617366252
 10
537568.2654600702
 20
1034053.617366252
 10
537568.2654600702
 20
1033994.479315722
 10
537517.9539842448
 20
1033994.479315722
1001
DCO15
1071
        3
1071
        3
1000
datoslink
1004
0000000000807A40
1001
ADE_ENTITY_LOCK
1071
1342624882
1071
1342625087
  0
LWPOLYLINE
  5
240
330
105C
100
AcDbEntity
  8
aguas buenas
100
AcDbPolyline
 90
        4
 70
     1
 43
0.0
 38
0.0125
 10
537780.7211132469
 20
1034142.324442051
 10
537831.0325890725
 20
1034142.324442051
 10
537831.0325890725
 20
1034092.895623695
 10
537780.7211132469
 20
1034092.895623695
1001
DCO15
1071
        3
1071
        3
1000
datoslink
1004
0000000000707A40
1001
ADE_ENTITY_LOCK
1071
1342624882
1071
1342625087
  0
LWPOLYLINE
  5
241
330
105C
100
AcDbEntity
  8
aguas buenas
100
AcDbPolyline
 90
        4
 70
     1
 43
0.0
 38
0.0416666666666667
 10
537916.6503637211
 20
1034077.007789224
 10
537916.6503637211
 20
1034027.578970868
 10
537856.6296557188
 20
1034027.578970868
 10
537856.6296557188
 20
1034077.007789224
1001
DCO15
1071
        3
1071
        3
1000
datoslink
1004
0000000000607A40
1001
ADE_ENTITY_LOCK
1071
1342624882
1071
1342625087
  0
LWPOLYLINE
  5
242
330
105C
100
AcDbEntity
  8
aguas buenas
100
AcDbPolyline
 90
        4
 70
     1
 43
0.0
 38
0.1428571428571428
 10
537958.1352648409
 20
1034025.813655929
 10
537958.1352648409
 20
1033975.502180101
 10
537905.175816603
 20
1033975.502180101
 10
537905.175816603
 20
1034025.813655929
1001
DCO15
1071
        3
1071
        3
1000
datoslink
1004
0000000000507A40
1001
ADE_ENTITY_LOCK
1071
1342624882
1071
1342625087
  0
LWPOLYLINE
  5
243
330
105C
100
AcDbEntity
  8
aguas buenas
100
AcDbPolyline
 90
        4
 70
     1
 43
0.0
 38
0.1666666666666666
 10
537903.4105016616
 20
1033951.6704284
 10
537964.3138671358
 20
1033951.6704284
 10
537964.3138671358
 20
1033901.358952572
 10
537903.4105016616
 20
1033901.358952572
1001
DCO15
1071
        3
1071
        3
1000
datoslink
1004
0000000000407A40
1001
ADE_ENTITY_LOCK
1071
1342624882
1071
1342625087
  0
LWPOLYLINE
  5
244
330
105C
100
AcDbEntity
  8
aguas buenas
100
AcDbPolyline
 90
        4
 70
     1
 43
0.0
 38
0.4222222222222224
 10
537982.8496740181
 20
1034027.578970868
 10
537918.4156786623
 20
1034027.578970868
 10
537918.4156786623
 20
1034077.007789224
 10
537982.8496740181
 20
1034077.007789224
1001
DCO15
1071
        3
1071
        3
1000
datoslink
1004
0000000000307A40
1001
ADE_ENTITY_LOCK
1071
1342624882
1071
1342625087
  0
LWPOLYLINE
  5
245
330
105C
100
AcDbEntity
  8
aguas buenas
100
AcDbPolyline
 90
        4
 70
     1
 43
0.0
 38
0.4888888888888889
 10
537959.9005797813
 20
1034024.930998457
 10
538010.2120556068
 20
1034024.930998457
 10
538010.2120556068
 20
1033972.854207691
 10
537959.9005797813
 20
1033972.854207691
1001
DCO15
1071
        3
1071
        3
1000
datoslink
1004
0000000000207A40
1001
ADE_ENTITY_LOCK
1071
1342624882
1071
1342625087
  0
LWPOLYLINE
  5
246
330
105C
100
AcDbEntity
  8
aguas buenas
100
AcDbPolyline
 90
        4
 70
     1
 43
0.0
 38
0.2826086956521739
 10
538006.7696914711
 20
1033786.878278633
 10
538006.7696914711
 20
1033836.307096988
 10
538056.1985098264
 20
1033836.307096988
 10
538056.1985098264
 20
1033786.878278633
1001
DCO15
1071
        3
1071
        3
1000
datoslink
1004
0000000000C07940
1001
ADE_ENTITY_LOCK
1071
1342624882
1071
1342625087
  0
LWPOLYLINE
  5
247
330
105C
100
AcDbEntity
  8
aguas buenas
100
AcDbPolyline
 90
        4
 70
     1
 43
0.0
 38
0.4333333333333334
 10
537951.6918653054
 20
1033720.502436841
 10
538015.2432031892
 20
1033720.502436841
 10
538015.2432031892
 20
1033669.661366533
 10
537951.6918653054
 20
1033669.661366533
1001
DCO15
1071
        3
1071
        3
1000
datoslink
1004
0000000000A07940
1001
ADE_ENTITY_LOCK
1071
1342624882
1071
1342625087
  0
LWPOLYLINE
  5
248
330
105C
100
AcDbEntity
  8
aguas buenas
100
AcDbPolyline
 90
        4
 70
     1
 43
0.0
 38
0.3166666666666666
 10
537858.4832364088
 20
1033836.307096988
 10
537950.2796133515
 20
1033836.307096988
 10
537950.2796133515
 20
1033784.053774724
 10
537858.4832364088
 20
1033784.053774724
1001
DCO15
1071
        3
1071
        3
1000
datoslink
1004
0000000000907940
1001
ADE_ENTITY_LOCK
1071
1342624882
1071
1342625087
  0
LWPOLYLINE
  5
249
330
105C
100
AcDbEntity
  8
aguas buenas
100
AcDbPolyline
 90
        4
 70
     1
 43
0.0
 38
0.375
 10
537883.9037715625
 20
1033782.641522772
 10
537950.2796133515
 20
1033782.641522772
 10
537950.2796133515
 20
1033748.747475903
 10
537900.850794998
 20
1033748.747475903
1001
DCO15
1071
        3
1071
        3
1000
datoslink
1004
0000000000807940
1001
ADE_ENTITY_LOCK
1071
1342624882
1071
1342625087
  0
LWPOLYLINE
  5
24A
330
105C
100
AcDbEntity
  8
aguas buenas
100
AcDbPolyline
 90
        4
 70
     1
 43
0.0
 38
0.2133333333333333
 10
537796.3441504771
 20
1033836.307096988
 10
537855.6587325029
 20
1033836.307096988
 10
537855.6587325029
 20
1033784.053774724
 10
537804.8176621953
 20
1033784.053774724
1001
DCO15
1071
        3
1071
        3
1000
datoslink
1004
0000000000707940
1001
ADE_ENTITY_LOCK
1071
1342624882
1071
1342625087
  0
LWPOLYLINE
  5
24B
330
105C
100
AcDbEntity
  8
aguas buenas
100
AcDbPolyline
 90
        5
 70
     1
 43
0.0
 38
0.4
 10
537820.3524336768
 20
1033676.722626302
 10
537827.4136934429
 20
1033618.820296226
 10
537779.3971270416
 20
1033614.583540369
 10
537769.5113633694
 20
1033644.240831384
 10
537745.5030801697
 20
1033678.134878253
1001
DCO15
1071
        3
1071
        3
1000
datoslink
1004
0000000000507940
1001
ADE_ENTITY_LOCK
1071
1342624882
1071
1342625087
  0
LWPOLYLINE
  5
24C
330
105C
100
AcDbEntity
  8
aguas buenas
100
AcDbPolyline
 90
        4
 70
     1
 43
0.0
 38
0.2
 10
537703.4885845678
 20
1033639.297949545
 10
537767.0399224516
 20
1033639.297949545
 10
537784.6930718654
 20
1033577.511926604
 10
537717.6111040991
 20
1033577.511926604
1001
DCO15
1071
        3
1071
        3
1000
datoslink
1004
0000000000407940
1001
ADE_ENTITY_LOCK
1071
1342624882
1071
1342625087
  0
LWPOLYLINE
  5
24D
330
105C
100
AcDbEntity
  8
aguas buenas
100
AcDbPolyline
 90
        4
 70
     1
 43
0.0
 38
0.0717948717948718
 10
537601.1003179772
 20
1033776.99251496
 10
537671.7129156254
 20
1033776.99251496
 10
537705.253899509
 20
1033720.502436841
 10
537641.7025616244
 20
1033720.502436841
1001
DCO15
1071
        3
1071
        3
1000
datoslink
1004
0000000000307940
1001
ADE_ENTITY_LOCK
1071
1342624882
1071
1342625087
  0
LWPOLYLINE
  5
24E
330
105C
100
AcDbEntity
  8
aguas buenas
100
AcDbPolyline
 90
        4
 70
     1
 43
0.0
 38
0.4166666666666667
 10
537646.9985064482
 20
1033715.20649202
 10
537717.6111040991
 20
1033715.20649202
 10
537761.7439776287
 20
1033642.828579427
 10
537699.9579546852
 20
1033642.828579427
1001
DCO15
1071
        3
1071
        3
1000
datoslink
1004
0000000000207940
1001
ADE_ENTITY_LOCK
1071
1342624882
1071
1342625087
  0
LWPOLYLINE
  5
24F
330
105C
100
AcDbEntity
  8
aguas buenas
100
AcDbPolyline
 90
        4
 70
     1
 43
0.0
 38
0.22
 10
537849.4801302077
 20
1033418.986644879
 10
537848.5974727366
 20
1033349.256704701
 10
537795.6380245006
 20
1033313.067748407
 10
537795.6380245006
 20
1033381.915031112
1001
DCO15
1071
        3
1071
        3
1000
datoslink
1004
0000000000107940
1001
ADE_ENTITY_LOCK
1071
1342624882
1071
1342625087
  0
LWPOLYLINE
  5
250
330
105C
100
AcDbEntity
  8
aguas buenas
100
AcDbPolyline
 90
        4
 70
     1
 43
0.0
 38
0.0576923076923077
 10
537852.1281026211
 20
1033427.813219586
 10
537902.4395784439
 20
1033427.813219586
 10
537902.4395784439
 20
1033377.50174376
 10
537852.1281026211
 20
1033377.50174376
1001
DCO15
1071
        3
1071
        3
1000
datoslink
1004
0000000000007940
1001
ADE_ENTITY_LOCK
1071
1342624882
1071
1342625087
  0
LWPOLYLINE
  5
251
330
105C
100
AcDbEntity
  8
aguas buenas
100
AcDbPolyline
 90
        4
 70
     1
 43
0.0
 38
0.0520833333333334
 10
537821.2350911479
 20
1033187.730387578
 10
537849.4801302077
 20
1033187.730387578
 10
537849.4801302077
 20
1033137.418911755
 10
537821.2350911479
 20
1033137.418911755
1001
DCO15
1071
        3
1071
        3
1000
datoslink
1004
0000000000E07840
1001
ADE_ENTITY_LOCK
1071
1342624882
1071
1342625087
  0
LWPOLYLINE
  5
252
330
105C
100
AcDbEntity
  8
aguas buenas
100
AcDbPolyline
 90
        4
 70
     1
 43
0.0
 38
0.1607142857142857
 10
537988.0573530953
 20
1032978.981895776
 10
538038.3688289197
 20
1032978.981895776
 10
538038.3688289197
 20
1032928.670419954
 10
537988.0573530953
 20
1032928.670419954
1001
DCO15
1071
        3
1071
        3
1000
datoslink
1004
0000000000607840
1001
ADE_ENTITY_LOCK
1071
1342624882
1071
1342625087
  0
LWPOLYLINE
  5
253
330
105C
100
AcDbEntity
  8
aguas buenas
100
AcDbPolyline
 90
        4
 70
     1
 43
0.0
 38
0.1
 10
540832.4035336619
 20
1029089.977722336
 10
540941.9589954407
 20
1029091.41924157
 10
540905.9210145924
 20
1029027.992395277
 10
540855.4678414049
 20
1029027.992395277
1001
DCO15
1071
        3
1071
        3
1000
datoslink
1004
0000000000907740
1001
ADE_ENTITY_LOCK
1071
1342624882
1071
1342625087
  0
LWPOLYLINE
  5
254
330
105C
100
AcDbEntity
  8
aguas buenas
100
AcDbPolyline
 90
        5
 70
     1
 43
0.0
 38
0.1666666666666666
 10
540088.3031329562
 20
1029583.486637137
 10
540134.3844370416
 20
1029609.407370685
 10
540157.4250890841
 20
1029586.366718642
 10
540148.7848445682
 20
1029544.605536815
 10
540105.5836219881
 20
1029547.48561832
1001
DCO15
1071
        3
1071
        3
1000
datoslink
1004
0000000000107740
1001
ADE_ENTITY_LOCK
1071
1342624882
1071
1342625087
  0
LWPOLYLINE
  5
255
330
105C
100
AcDbEntity
  8
aguas buenas
100
AcDbPolyline
 90
        5
 70
     1
 43
0.0
 38
0.175
 10
538950.7472194098
 20
1030343.423923452
 10
539016.8805577239
 20
1030366.937999297
 10
539049.2124120108
 20
1030277.290585138
 10
539046.2731525302
 20
1030244.958730851
 10
538988.9575926581
 20
1030231.732063189
1001
DCO15
1071
        3
1071
        3
1000
datoslink
1004
0000000000007740
1001
ADE_ENTITY_LOCK
1071
1342624882
1071
1342625087
  0
LWPOLYLINE
  5
256
330
105C
100
AcDbEntity
  8
aguas buenas
100
AcDbPolyline
 90
        4
 70
     1
 43
0.0
 38
0.75
 10
539015.4109279836
 20
1030377.22540748
 10
539107.9976016234
 20
1030377.22540748
 10
539113.8761205847
 20
1030327.257996309
 10
539035.9857443479
 20
1030327.257996309
1001
DCO15
1071
        3
1071
        3
1000
datoslink
1004
0000000000F07640
1001
ADE_ENTITY_LOCK
1071
1342624882
1071
1342625087
  0
LWPOLYLINE
  5
257
330
105C
100
AcDbEntity
  8
aguas buenas
100
AcDbPolyline
 90
        4
 70
     1
 43
0.0
 38
0.1296296296296296
 10
539053.6213012318
 20
1030280.229844619
 10
539037.4553740883
 20
1030324.318736828
 10
539113.8761205847
 20
1030324.318736828
 10
539113.8761205847
 20
1030280.229844619
1001
DCO15
1071
        3
1071
        3
1000
datoslink
1004
0000000000E07640
1001
ADE_ENTITY_LOCK
1071
1342624882
1071
1342625087
  0
LWPOLYLINE
  5
258
330
105C
100
AcDbEntity
  8
aguas buenas
100
AcDbPolyline
 90
        4
 70
     1
 43
0.0
 38
0.24
 10
538931.6420327857
 20
1030421.314299689
 10
538987.4879629178
 20
1030421.314299689
 10
539016.8805577239
 20
1030369.877258778
 10
538955.1561086307
 20
1030347.832812673
1001
DCO15
1071
        3
1071
        3
1000
datoslink
1004
0000000000D07640
1001
ADE_ENTITY_LOCK
1071
1342624882
1071
1342625087
  0
LWPOLYLINE
  5
259
330
105C
100
AcDbEntity
  8
aguas buenas
100
AcDbPolyline
 90
        4
 70
     1
 43
0.0
 38
1.149999999999999
 10
539110.936861104
 20
1030377.22540748
 10
539168.2524209763
 20
1030377.22540748
 10
539168.2524209763
 20
1030325.788366569
 10
539118.2850098056
 20
1030325.788366569
1001
DCO15
1071
        3
1071
        3
1000
datoslink
1004
0000000000C07640
1001
ADE_ENTITY_LOCK
1071
1342624882
1071
1342625087
  0
LWPOLYLINE
  5
25A
330
105C
100
AcDbEntity
  8
aguas buenas
100
AcDbPolyline
 90
        5
 70
     1
 43
0.0
 38
0.4333333333333334
 10
539052.1516714914
 20
1030277.290585138
 10
539113.8761205847
 20
1030277.290585138
 10
539113.8761205847
 20
1030227.323173968
 10
539074.1961175963
 20
1030214.096506305
 10
539050.6820417511
 20
1030243.489101111
1001
DCO15
1071
        3
1071
        3
1000
datoslink
1004
0000000000B07640
1001
ADE_ENTITY_LOCK
1071
1342624882
1071
1342625087
  0
LWPOLYLINE
  5
25B
330
105C
100
AcDbEntity
  8
aguas buenas
100
AcDbPolyline
 90
        5
 70
     1
 43
0.0
 38
0.4
 10
539018.3501874643
 20
1030168.537984355
 10
538996.3057413594
 20
1030230.262433448
 10
539047.7427822706
 20
1030242.019471371
 10
539074.1961175963
 20
1030212.626876564
 10
539063.908709414
 20
1030175.886133056
1001
DCO15
1071
        3
1071
        3
1000
datoslink
1004
0000000000907640
1001
ADE_ENTITY_LOCK
1071
1342624882
1071
1342625087
  0
LWPOLYLINE
  5
25C
330
105C
100
AcDbEntity
  8
aguas buenas
100
AcDbPolyline
 90
        4
 70
     1
 43
0.0
 38
0.2846153846153846
 10
539231.4464998097
 20
1029777.616473431
 10
539293.170948903
 20
1029777.616473431
 10
539293.170948903
 20
1029723.24017304
 10
539231.4464998097
 20
1029723.24017304
1001
DCO15
1071
        3
1071
        3
1000
datoslink
1004
0000000000807640
1001
ADE_ENTITY_LOCK
1071
1342624882
1071
1342625087
  0
LWPOLYLINE
  5
25D
330
105C
100
AcDbEntity
  8
aguas buenas
100
AcDbPolyline
 90
        4
 70
     1
 43
0.0
 38
0.48
 10
538818.4805427815
 20
1029842.280182005
 10
538786.1486884946
 20
1029880.490555253
 10
538824.3590617426
 20
1029911.3527798
 10
538858.16054577
 20
1029871.672776812
1001
DCO15
1071
        3
1071
        3
1000
datoslink
1004
0000000000707640
1001
ADE_ENTITY_LOCK
1071
1342624882
1071
1342625087
  0
LWPOLYLINE
  5
25E
330
105C
100
AcDbEntity
  8
aguas buenas
100
AcDbPolyline
 90
        4
 70
     1
 43
0.0
 38
0.3583333333333333
 10
539174.1309399376
 20
1029830.523144083
 10
539174.1309399376
 20
1029777.616473431
 10
539130.0420477281
 20
1029765.859435509
 10
539118.2850098056
 20
1029815.82684668
1001
DCO15
1071
        3
1071
        3
1000
datoslink
1004
0000000000607640
1001
ADE_ENTITY_LOCK
1071
1342624882
1071
1342625087
  0
LWPOLYLINE
  5
25F
330
105C
100
AcDbEntity
  8
aguas buenas
100
AcDbPolyline
 90
        4
 70
     1
 43
0.0
 38
0.5333333333333333
 10
539228.5072403292
 20
1029780.555732912
 10
539177.0701994182
 20
1029780.555732912
 10
539177.0701994182
 20
1029831.992773823
 10
539228.5072403292
 20
1029831.992773823
1001
DCO15
1071
        3
1071
        3
1000
datoslink
1004
0000000000407640
1001
ADE_ENTITY_LOCK
1071
1342624882
1071
1342625087
  0
LWPOLYLINE
  5
260
330
105C
100
AcDbEntity
  8
aguas buenas
100
AcDbPolyline
 90
        7
 70
     1
 43
0.0
 38
0.0166666666666667
 10
538734.7116475839
 20
1030122.979462405
 10
538784.6790587542
 20
1030122.979462405
 10
538834.646469925
 20
1030099.46538656
 10
538802.314615638
 20
1030058.31575383
 10
538771.4523910915
 20
1030052.43723487
 10
538747.9383152464
 20
1030056.846124091
 10
538739.1205368047
 20
1030080.360199936
1001
DCO15
1071
        3
1071
        3
1000
datoslink
1004
0000000000507640
1001
ADE_ENTITY_LOCK
1071
1342624882
1071
1342625087
  0
LWPOLYLINE
  5
261
330
105C
100
AcDbEntity
  8
aguas buenas
100
AcDbPolyline
 90
        5
 70
     1
 43
0.0
 38
0.16875
 10
538792.0272074561
 20
1030164.129095134
 10
538853.751656549
 20
1030164.129095134
 10
538902.2494379794
 20
1030128.857981366
 10
538878.7353621344
 20
1030081.829829676
 10
538792.0272074561
 20
1030122.979462405
1001
DCO15
1071
        3
1071
        3
1000
datoslink
1004
0000000000307640
1001
ADE_ENTITY_LOCK
1071
1342624882
1071
1342625087
  0
LWPOLYLINE
  5
262
330
105C
100
AcDbEntity
  8
aguas buenas
100
AcDbPolyline
 90
        6
 70
     1
 43
0.0
 38
1.251249999999999
 10
538790.5575777153
 20
1030278.760214878
 10
538790.5575777153
 20
1030324.318736828
 10
538799.3753561574
 20
1030349.302442414
 10
538819.9501725217
 20
1030362.529110077
 10
538846.4035078475
 20
1030356.650591115
 10
538856.6909160296
 20
1030278.760214878
1001
DCO15
1071
        3
1071
        3
1000
datoslink
1004
0000000000D07540
1001
ADE_ENTITY_LOCK
1071
1342624882
1071
1342625087
  0
LWPOLYLINE
  5
263
330
105C
100
AcDbEntity
  8
aguas buenas
100
AcDbPolyline
 90
        4
 70
     1
 43
0.0
 38
0.1222222222222222
 10
538790.5575777153
 20
1030167.068354615
 10
538790.5575777153
 20
1030274.351325658
 10
538853.751656549
 20
1030274.351325658
 10
538853.751656549
 20
1030167.068354615
1001
DCO15
1071
        3
1071
        3
1000
datoslink
1004
0000000000C07540
1001
ADE_ENTITY_LOCK
1071
1342624882
1071
1342625087
  0
LWPOLYLINE
  5
264
330
105C
100
AcDbEntity
  8
aguas buenas
100
AcDbPolyline
 90
        4
 70
     1
 43
0.0
 38
0.3571428571428572
 10
538918.4153651228
 20
1030164.129095134
 10
538902.2494379794
 20
1030215.566136045
 10
538953.6864788904
 20
1030215.566136045
 10
538968.3827762936
 20
1030164.129095134
1001
DCO15
1071
        3
1071
        3
1000
datoslink
1004
0000000000B07540
1001
ADE_ENTITY_LOCK
1071
1342624882
1071
1342625087
  0
LWPOLYLINE
  5
265
330
105C
100
AcDbEntity
  8
aguas buenas
100
AcDbPolyline
 90
        4
 70
     1
 43
0.0
 38
0.3375
 10
538230.7030832374
 20
1031514.431580991
 10
538246.5810720558
 20
1031551.480221567
 10
538284.9528783662
 20
1031551.480221567
 10
538299.5077014496
 20
1031514.431580991
1001
DCO15
1071
        3
1071
        3
1000
datoslink
1004
0000000000607540
1001
ADE_ENTITY_LOCK
1071
1342624882
1071
1342625087
  0
LWPOLYLINE
  5
266
330
105C
100
AcDbEntity
  8
aguas buenas
100
AcDbPolyline
 90
        4
 70
     1
 43
0.0
 38
0.5375
 10
538192.3312769269
 20
1031667.918806234
 10
538242.6115748511
 20
1031667.918806234
 10
538242.6115748511
 20
1031622.931171249
 10
538192.3312769269
 20
1031622.931171249
1001
DCO15
1071
        3
1071
        3
1000
datoslink
1004
0000000000407540
1001
ADE_ENTITY_LOCK
1071
1342624882
1071
1342625087
  0
LWPOLYLINE
  5
267
330
105C
100
AcDbEntity
  8
aguas buenas
100
AcDbPolyline
 90
        4
 70
     1
 43
0.0
 38
0.1851851851851852
 10
538086.4780181393
 20
1031656.01031462
 10
538086.4780181393
 20
1031706.290612544
 10
538136.7583160633
 20
1031706.290612544
 10
538136.7583160633
 20
1031656.01031462
1001
DCO15
1071
        3
1071
        3
1000
datoslink
1004
0000000000307540
1001
ADE_ENTITY_LOCK
1071
1342624882
1071
1342625087
  0
LWPOLYLINE
  5
268
330
105C
100
AcDbEntity
  8
aguas buenas
100
AcDbPolyline
 90
        4
 70
     1
 43
0.0
 38
0.0142857142857143
 10
538191.0081111922
 20
1031670.565137703
 10
538193.6544426618
 20
1031707.613778279
 10
538225.4104202981
 20
1031707.613778279
 10
538235.9957461768
 20
1031670.565137703
1001
DCO15
1071
        3
1071
        3
1000
datoslink
1004
0000000000207540
1001
ADE_ENTITY_LOCK
1071
1342624882
1071
1342625087
  0
LWPOLYLINE
  5
269
330
105C
100
AcDbEntity
  8
aguas buenas
100
AcDbPolyline
 90
        4
 70
     1
 43
0.0
 38
0.2
 10
537913.1433068741
 20
1031706.290612544
 10
537954.1614446546
 20
1031706.290612544
 10
537954.1614446546
 20
1031656.01031462
 10
537913.1433068741
 20
1031656.01031462
1001
DCO15
1071
        3
1071
        3
1000
datoslink
1004
0000000000107540
1001
ADE_ENTITY_LOCK
1071
1342624882
1071
1342625087
  0
LWPOLYLINE
  5
26A
330
105C
100
AcDbEntity
  8
aguas buenas
100
AcDbPolyline
 90
        5
 70
     1
 43
0.0
 38
0.0980392156862745
 10
538314.0625245328
 20
1031215.396124916
 10
538242.6115748511
 20
1031211.426627711
 10
538237.3189119117
 20
1031235.243610939
 10
538242.6115748511
 20
1031255.091096961
 10
538298.1845357146
 20
1031270.969085779
1001
DCO15
1071
        3
1071
        3
1000
datoslink
1004
0000000000F07440
1001
ADE_ENTITY_LOCK
1071
1342624882
1071
1342625087
  0
LWPOLYLINE
  5
26B
330
105C
100
AcDbEntity
  8
aguas buenas
100
AcDbPolyline
 90
        4
 70
     1
 43
0.0
 38
1.244444444444444
 10
538233.3494147072
 20
1031439.011134105
 10
538299.5077014496
 20
1031439.011134105
 10
538296.8613699798
 20
1031396.66983059
 10
538246.5810720558
 20
1031396.66983059
1001
DCO15
1071
        3
1071
        3
1000
datoslink
1004
0000000000E07440
1001
ADE_ENTITY_LOCK
1071
1342624882
1071
1342625087
  0
LWPOLYLINE
  5
26C
330
105C
100
AcDbEntity
  8
aguas buenas
100
AcDbPolyline
 90
        4
 70
     1
 43
0.0
 38
0.3666666666666666
 10
538229.3799175029
 20
1031481.35243762
 10
538229.3799175029
 20
1031511.785249522
 10
538300.8308671843
 20
1031511.785249522
 10
538300.8308671843
 20
1031481.35243762
1001
DCO15
1071
        3
1071
        3
1000
datoslink
1004
0000000000D07440
1001
ADE_ENTITY_LOCK
1071
1342624882
1071
1342625087
  0
LWPOLYLINE
  5
26D
330
105C
100
AcDbEntity
  8
aguas buenas
100
AcDbPolyline
 90
        5
 70
     1
 43
0.0
 38
0.9015151515151515
 10
538245.2579063207
 20
1031394.02349912
 10
538296.8613699797
 20
1031394.02349912
 10
538292.8918727753
 20
1031362.267521484
 10
538274.3675524873
 20
1031360.944355748
 10
538258.4895636692
 20
1031360.944355748
1001
DCO15
1071
        3
1071
        3
1000
datoslink
1004
0000000000B07440
1001
ADE_ENTITY_LOCK
1071
1342624882
1071
1342625087
  0
LWPOLYLINE
  5
26E
330
105C
100
AcDbEntity
  8
aguas buenas
100
AcDbPolyline
 90
        6
 70
     1
 43
0.0
 38
0.3833333333333333
 10
538245.2579063207
 20
1031139.97567803
 10
538238.6420776465
 20
1031177.024318605
 10
538241.2884091163
 20
1031207.457130507
 10
538314.0625245328
 20
1031211.426627711
 10
538325.9710161464
 20
1031174.377987136
 10
538325.9710161464
 20
1031138.652512295
1001
DCO15
1071
        3
1071
        3
1000
datoslink
1004
0000000000C07440
1001
ADE_ENTITY_LOCK
1071
1342624882
1071
1342625087
  0
LWPOLYLINE
  5
26F
330
105C
100
AcDbEntity
  8
aguas buenas
100
AcDbPolyline
 90
        4
 70
     1
 43
0.0
 38
0.4
 10
538226.7335860329
 20
1031478.70610615
 10
538300.8308671843
 20
1031478.70610615
 10
538300.8308671843
 20
1031441.657465575
 10
538232.0262489722
 20
1031441.657465575
1001
DCO15
1071
        3
1071
        3
1000
datoslink
1004
0000000000A07440
1001
ADE_ENTITY_LOCK
1071
1342624882
1071
1342625087
  0
LWPOLYLINE
  5
270
330
105C
100
AcDbEntity
  8
aguas buenas
100
AcDbPolyline
 90
        4
 70
     1
 43
0.0
 38
0.3
 10
538325.9710161464
 20
1031072.494225552
 10
538258.4895636692
 20
1031072.494225552
 10
538245.2579063207
 20
1031134.68301509
 10
538328.6173476161
 20
1031133.359849355
1001
DCO15
1071
        3
1071
        3
1000
datoslink
1004
0000000000807440
1001
ADE_ENTITY_LOCK
1071
1342624882
1071
1342625087
  0
LWPOLYLINE
  5
271
330
105C
100
AcDbEntity
  8
aguas buenas
100
AcDbPolyline
 90
        5
 70
     1
 43
0.0
 38
0.8425925925925923
 10
538384.1903084796
 20
1031179.670650075
 10
538329.9405133509
 20
1031180.99381581
 10
538300.8308671843
 20
1031273.615417249
 10
538357.7269937826
 20
1031302.725063416
 10
538380.2208112751
 20
1031255.091096961
1001
DCO15
1071
        3
1071
        3
1000
datoslink
1004
0000000000607440
1001
ADE_ENTITY_LOCK
1071
1342624882
1071
1342625087
  0
LWPOLYLINE
  5
272
330
105C
100
AcDbEntity
  8
aguas buenas
100
AcDbPolyline
 90
        5
 70
     1
 43
0.0
 38
0.3425925925925926
 10
538386.8366399493
 20
1031256.414262696
 10
538364.3428224569
 20
1031304.048229151
 10
538409.3304574418
 20
1031306.69456062
 10
538431.8242749341
 20
1031284.200743128
 10
538434.4706064039
 20
1031256.414262696
1001
DCO15
1071
        3
1071
        3
1000
datoslink
1004
0000000000707440
1001
ADE_ENTITY_LOCK
1071
1342624882
1071
1342625087
  0
LWPOLYLINE
  5
273
330
105C
100
AcDbEntity
  8
aguas buenas
100
AcDbPolyline
 90
        5
 70
     1
 43
0.0
 38
3.0
 10
538388.1598056842
 20
1031183.64014728
 10
538386.8366399493
 20
1031252.444765492
 10
538437.1169378735
 20
1031252.444765492
 10
538429.1779434644
 20
1031222.01195359
 10
538413.2999546462
 20
1031204.810799037
1001
DCO15
1071
        3
1071
        3
1000
datoslink
1004
0000000000507440
1001
ADE_ENTITY_LOCK
1071
1342624882
1071
1342625087
  0
LWPOLYLINE
  5
274
330
105C
100
AcDbEntity
  8
aguas buenas
100
AcDbPolyline
 90
        4
 70
     1
 43
0.0
 38
0.3125
 10
538331.2636790858
 20
1031055.293070999
 10
538331.2636790858
 20
1031178.34748434
 10
538388.1598056842
 20
1031178.34748434
 10
538398.7451315629
 20
1031063.232065408
1001
DCO15
1071
        3
1071
        3
1000
datoslink
1004
0000000000407440
1001
ADE_ENTITY_LOCK
1071
1342624882
1071
1342625087
  0
LWPOLYLINE
  5
275
330
105C
100
AcDbEntity
  8
aguas buenas
100
AcDbPolyline
 90
        5
 70
     1
 43
0.0
 38
0.375
 10
538261.135895139
 20
1031010.305436015
 10
538263.7822266087
 20
1031042.061413651
 10
538257.1663979343
 20
1031068.524728348
 10
538325.9710161464
 20
1031068.524728348
 10
538325.9710161464
 20
1031010.305436015
1001
DCO15
1071
        3
1071
        3
1000
datoslink
1004
0000000000307440
1001
ADE_ENTITY_LOCK
1071
1342624882
1071
1342625087
  0
LWPOLYLINE
  5
276
330
105C
100
AcDbEntity
  8
aguas buenas
100
AcDbPolyline
 90
        4
 70
     1
 43
0.0
 38
1.679999999999999
 10
540956.8098464575
 20
1029327.681117553
 10
540884.2448385808
 20
1029327.681117553
 10
540884.2448385808
 20
1029379.779071926
 10
540956.8098464575
 20
1029379.779071926
1001
DCO15
1071
        3
1071
        3
1000
datoslink
1004
0000000000507240
1001
ADE_ENTITY_LOCK
1071
1342624882
1071
1342625087
  0
LWPOLYLINE
  5
277
330
105C
100
AcDbEntity
  8
aguas buenas
100
AcDbPolyline
 90
        4
 70
     1
 43
0.0
 38
0.7000000000000001
 10
540634.9189140818
 20
1029526.769728906
 10
540634.9189140818
 20
1029577.007042052
 10
540685.1562272271
 20
1029577.007042052
 10
540685.1562272271
 20
1029526.769728906
1001
DCO15
1071
        3
1071
        3
1000
datoslink
1004
0000000000407240
1001
ADE_ENTITY_LOCK
1071
1342624882
1071
1342625087
  0
LWPOLYLINE
  5
278
330
105C
100
AcDbEntity
  8
aguas buenas
100
AcDbPolyline
 90
        4
 70
     1
 43
0.0
 38
0.0416666666666667
 10
540233.7074534558
 20
1028967.726410159
 10
540283.9710290609
 20
1028967.726410159
 10
540283.9710290609
 20
1028916.801471717
 10
540233.7074534558
 20
1028916.801471717
1001
DCO15
1071
        3
1071
        3
1000
datoslink
1004
0000000000B08740
1001
ADE_ENTITY_LOCK
1071
1342624882
1071
1342625087
  0
LWPOLYLINE
  5
279
330
105C
100
AcDbEntity
  8
aguas buenas
100
AcDbPolyline
 90
        4
 70
     1
 43
0.0
 38
0.1666666666666666
 10
540463.8617207035
 20
1028662.838142341
 10
540470.4093171611
 20
1028756.592743276
 10
540518.0524904048
 20
1028763.209850669
 10
540513.4639334736
 20
1028662.838142341
1001
DCO15
1071
        3
1071
        3
1000
datoslink
1004
0000000000688740
1001
ADE_ENTITY_LOCK
1071
1342624882
1071
1342625087
  0
LWPOLYLINE
  5
27A
330
105C
100
AcDbEntity
  8
aguas buenas
100
AcDbPolyline
 90
        4
 70
     1
 43
0.0
 38
0.2857142857142857
 10
536886.2392024528
 20
1037427.537301598
 10
536886.2392024528
 20
1037346.945206579
 10
536805.6471074392
 20
1037346.945206579
 10
536805.6471074392
 20
1037427.537301598
1001
DCO15
1071
        3
1071
        3
1000
datoslink
1004
0000000000588740
1001
ADE_ENTITY_LOCK
1071
1342624882
1071
1342625087
  0
LWPOLYLINE
  5
27B
330
105C
100
AcDbEntity
  8
aguas buenas
100
AcDbPolyline
 90
        4
 70
     1
 43
0.0
 38
1.3
 10
536825.8552745469
 20
1038427.721286725
 10
536925.693242996
 20
1038427.721286725
 10
536925.693242996
 20
1038323.673283459
 10
536825.8552745469
 20
1038323.673283459
1001
DCO15
1071
        3
1071
        3
1000
datoslink
1004
0000000000408740
1001
ADE_ENTITY_LOCK
1071
1342624882
1071
1342625087
  0
LWPOLYLINE
  5
27C
330
105C
100
AcDbEntity
  8
aguas buenas
100
AcDbPolyline
 90
        4
 70
     1
 43
0.0
 38
1.137499999999999
 10
536675.4968883292
 20
1038354.94782779
 10
536776.5377238672
 20
1038354.94782779
 10
536777.1391574135
 20
1038255.109859343
 10
536675.4968883292
 20
1038255.109859343
1001
DCO15
1071
        3
1071
        3
1000
datoslink
1004
0000000000488740
1001
ADE_ENTITY_LOCK
1071
1342624882
1071
1342625087
  0
LWPOLYLINE
  5
27D
330
105C
100
AcDbEntity
  8
aguas buenas
100
AcDbPolyline
 90
        4
 70
     1
 43
0.0
 38
1.225
 10
537089.8846007484
 20
1040760.682007294
 10
537089.8846007484
 20
1040710.16158952
 10
537039.3641829799
 20
1040710.16158952
 10
537039.3641829799
 20
1040760.682007294
1001
DCO15
1071
        3
1071
        3
1000
datoslink
1004
0000000000308740
1001
ADE_ENTITY_LOCK
1071
1342624882
1071
1342625087
  0
LWPOLYLINE
  5
27E
330
105C
100
AcDbEntity
  8
aguas buenas
100
AcDbPolyline
 90
        4
 70
     1
 43
0.0
 38
0.0416666666666667
 10
537513.8952498843
 20
1044397.670939856
 10
537513.8952498843
 20
1044357.374892349
 10
537483.2221390949
 20
1044357.374892349
 10
537483.2221390949
 20
1044397.670939856
1001
DCO15
1071
        3
1071
        3
1000
datoslink
1004
0000000000F08640
1001
ADE_ENTITY_LOCK
1071
1342624882
1071
1342625087
  0
LWPOLYLINE
  5
27F
330
105C
100
AcDbEntity
  8
aguas buenas
100
AcDbPolyline
 90
        4
 70
     1
 43
0.0
 38
0.0633333333333334
 10
537258.8924265923
 20
1042006.222353171
 10
537258.8924265923
 20
1042056.512369375
 10
537309.1824427945
 20
1042056.512369375
 10
537309.1824427945
 20
1042006.222353171
1001
DCO15
1071
        3
1071
        3
1000
datoslink
1004
0000000000D08640
1001
ADE_ENTITY_LOCK
1071
1342624882
1071
1342625087
  0
LWPOLYLINE
  5
280
330
105C
100
AcDbEntity
  8
aguas buenas
100
AcDbPolyline
 90
        4
 70
     1
 43
0.0
 38
0.025
 10
537450.9208831992
 20
1044658.756023608
 10
537450.9208831992
 20
1044719.633411646
 10
537491.2852383088
 20
1044720.295122381
 10
537491.2852383088
 20
1044659.417734347
1001
DCO15
1071
        3
1071
        3
1000
datoslink
1004
0000000000A88640
1001
ADE_ENTITY_LOCK
1071
1342624882
1071
1342625087
  0
LWPOLYLINE
  5
281
330
105C
100
AcDbEntity
  8
aguas buenas
100
AcDbPolyline
 90
        5
 70
     1
 43
0.0
 38
1.143333333333333
 10
537268.6800941676
 20
1044280.655297365
 10
537268.6800941676
 20
1044326.97504913
 10
537307.0593170599
 20
1044353.443478713
 10
537318.9701103697
 20
1044326.97504913
 10
537319.2404460376
 20
1044280.919191345
1001
DCO15
1071
        3
1071
        3
1000
datoslink
1004
0000000000A08640
1001
ADE_ENTITY_LOCK
1071
1342624882
1071
1342625087
  0
LWPOLYLINE
  5
282
330
105C
100
AcDbEntity
  8
aguas buenas
100
AcDbPolyline
 90
        4
 70
     1
 43
0.0
 38
0.6333333333333333
 10
537448.9357509808
 20
1044650.153783992
 10
537398.6457347776
 20
1044650.153783992
 10
537399.3074455178
 20
1044711.03117203
 10
537448.9357509808
 20
1044711.03117203
1001
DCO15
1071
        3
1071
        3
1000
datoslink
1004
0000000000988640
1001
ADE_ENTITY_LOCK
1071
1342624882
1071
1342625087
  0
LWPOLYLINE
  5
283
330
105C
100
AcDbEntity
  8
aguas buenas
100
AcDbPolyline
 90
        4
 70
     1
 43
0.0
 38
0.0444444444444445
 10
538179.1349436522
 20
1042059.745080307
 10
538192.3622003896
 20
1042106.701841729
 10
538242.6257759957
 20
1042094.797310663
 10
538227.4144307477
 20
1042046.517823571
1001
DCO15
1071
        3
1071
        3
1000
datoslink
1004
0000000000F08540
1001
ADE_ENTITY_LOCK
1071
1342624882
1071
1342625087
  0
LWPOLYLINE
  5
284
330
105C
100
AcDbEntity
  8
aguas buenas
100
AcDbPolyline
 90
        4
 70
     1
 43
0.0
 38
1.353333333333333
 10
537993.2919864765
 20
1042063.713257328
 10
537993.2919864765
 20
1042013.449681721
 10
537943.0284108706
 20
1042013.449681721
 10
537942.3670480353
 20
1042063.713257328
1001
DCO15
1071
        3
1071
        3
1000
datoslink
1004
0000000000E08540
1001
ADE_ENTITY_LOCK
1071
1342624882
1071
1342625087
  0
LWPOLYLINE
  5
285
330
105C
100
AcDbEntity
  8
aguas buenas
100
AcDbPolyline
 90
        5
 70
     1
 43
0.0
 38
1.143333333333333
 10
537951.6261277514
 20
1042235.66759493
 10
537989.9851722932
 20
1042203.26081592
 10
537962.869295978
 20
1042168.208585562
 10
537917.8966230686
 20
1042168.208585562
 10
537917.8966230686
 20
1042203.26081592
1001
DCO15
1071
        3
1071
        3
1000
datoslink
1004
0000000000C08540
1001
ADE_ENTITY_LOCK
1071
1342624882
1071
1342625087
  0
LWPOLYLINE
  5
286
330
105C
100
AcDbEntity
  8
aguas buenas
100
AcDbPolyline
 90
        4
 70
     1
 43
0.0
 38
0.1071428571428571
 10
539790.214814392
 20
1042477.065030407
 10
539790.214814392
 20
1042532.619508704
 10
539841.8011156721
 20
1042532.619508704
 10
539841.8011156721
 20
1042477.065030407
1001
DCO15
1071
        3
1071
        3
1000
datoslink
1004
0000000000A08540
1001
ADE_ENTITY_LOCK
1071
1342624882
1071
1342625087
  0
LWPOLYLINE
  5
287
330
105C
100
AcDbEntity
  8
aguas buenas
100
AcDbPolyline
 90
        4
 70
     1
 43
0.0
 38
1.275555555555555
 10
539704.8990084287
 20
1042401.00830416
 10
539755.1625840347
 20
1042401.00830416
 10
539755.1625840347
 20
1042350.744728554
 10
539704.8990084287
 20
1042350.744728554
1001
DCO15
1071
        3
1071
        3
1000
datoslink
1004
0000000000988540
1001
ADE_ENTITY_LOCK
1071
1342624882
1071
1342625087
  0
LWPOLYLINE
  5
288
330
105C
100
AcDbEntity
  8
aguas buenas
100
AcDbPolyline
 90
        4
 70
     1
 43
0.0
 38
1.139999999999999
 10
539589.1605119686
 20
1042668.198890278
 10
539639.4240875747
 20
1042668.198890278
 10
539639.4240875747
 20
1042617.935314672
 10
539589.1605119686
 20
1042617.935314672
1001
DCO15
1071
        3
1071
        3
1000
datoslink
1004
0000000000888540
1001
ADE_ENTITY_LOCK
1071
1342624882
1071
1342625087
  0
LWPOLYLINE
  5
289
330
105C
100
AcDbEntity
  8
aguas buenas
100
AcDbPolyline
 90
        5
 70
     1
 43
0.0
 38
1.175999999999999
 10
539498.5538033098
 20
1042238.974409112
 10
539553.4469187735
 20
1042238.974409112
 10
539553.4469187735
 20
1042180.113116627
 10
539523.0242282767
 20
1042155.642691662
 10
539498.5538033098
 20
1042155.642691662
1001
DCO15
1071
        3
1071
        3
1000
datoslink
1004
0000000000708540
1001
ADE_ENTITY_LOCK
1071
1342624882
1071
1342625087
  0
LWPOLYLINE
  5
28A
330
105C
100
AcDbEntity
  8
aguas buenas
100
AcDbPolyline
 90
        4
 70
     1
 43
0.0
 38
0.0666666666666667
 10
539439.6925108243
 20
1042238.313046274
 10
539496.5697147982
 20
1042238.313046274
 10
539496.5697147982
 20
1042157.62678017
 10
539439.6925108243
 20
1042157.62678017
1001
DCO15
1071
        3
1071
        3
1000
datoslink
1004
0000000000608540
1001
ADE_ENTITY_LOCK
1071
1342624882
1071
1342625087
  0
LWPOLYLINE
  5
28B
330
105C
100
AcDbEntity
  8
aguas buenas
100
AcDbPolyline
 90
        4
 70
     1
 43
0.0
 38
0.125
 10
538503.9963691478
 20
1041859.219868153
 10
538554.2599447537
 20
1041859.219868153
 10
538554.2599447537
 20
1041808.956292547
 10
538503.9963691478
 20
1041808.956292547
1001
DCO15
1071
        3
1071
        3
1000
datoslink
1004
0000000000588540
1001
ADE_ENTITY_LOCK
1071
1342624882
1071
1342625087
  0
LWPOLYLINE
  5
28C
330
105C
100
AcDbEntity
  8
aguas buenas
100
AcDbPolyline
 90
        4
 70
     1
 43
0.0
 38
1.147999999999999
 10
538666.5593544636
 20
1041982.762446087
 10
538666.5593544636
 20
1042033.026021693
 10
538716.8229300698
 20
1042033.026021693
 10
538716.8229300698
 20
1041982.762446087
1001
DCO15
1071
        3
1071
        3
1000
datoslink
1004
0000000000208540
1001
ADE_ENTITY_LOCK
1071
1342624882
1071
1342625087
  0
LWPOLYLINE
  5
28D
330
105C
100
AcDbEntity
  8
aguas buenas
100
AcDbPolyline
 90
        4
 70
     1
 43
0.0
 38
1.344
 10
538734.0183638279
 20
1041888.848923243
 10
538733.3570009918
 20
1041939.773861689
 10
538784.2819394338
 20
1041939.773861689
 10
538784.2819394338
 20
1041888.848923243
1001
DCO15
1071
        3
1071
        3
1000
datoslink
1004
0000000000188540
1001
ADE_ENTITY_LOCK
1071
1342624882
1071
1342625087
  0
LWPOLYLINE
  5
28E
330
105C
100
AcDbEntity
  8
aguas buenas
100
AcDbPolyline
 90
        4
 70
     1
 43
0.0
 38
1.231999999999999
 10
538528.9958843822
 20
1041626.949239826
 10
538559.4185748818
 20
1041667.292372875
 10
538601.745796445
 20
1041638.853770891
 10
538570.6617431073
 20
1041598.510637836
1001
DCO15
1071
        3
1071
        3
1000
datoslink
1004
0000000000088540
1001
ADE_ENTITY_LOCK
1071
1342624882
1071
1342625087
  0
LWPOLYLINE
  5
28F
330
105C
100
AcDbEntity
  8
aguas buenas
100
AcDbPolyline
 90
        4
 70
     1
 43
0.0
 38
1.344
 10
538074.6396154175
 20
1041271.797396397
 10
538134.8236335778
 20
1041271.797396397
 10
538134.8236335778
 20
1041210.290652563
 10
538074.6396154175
 20
1041210.290652563
1001
DCO15
1071
        3
1071
        3
1000
datoslink
1004
0000000000008540
1001
ADE_ENTITY_LOCK
1071
1342624882
1071
1342625087
  0
LWPOLYLINE
  5
290
330
105C
100
AcDbEntity
  8
aguas buenas
100
AcDbPolyline
 90
        4
 70
     1
 43
0.0
 38
0.125
 10
539383.6089422517
 20
1041481.978505971
 10
539383.6089422517
 20
1041532.242081577
 10
539433.8725178577
 20
1041532.242081577
 10
539433.8725178577
 20
1041481.978505971
1001
DCO15
1071
        3
1071
        3
1000
datoslink
1004
0000000000E08340
1001
ADE_ENTITY_LOCK
1071
1342624882
1071
1342625087
  0
LWPOLYLINE
  5
291
330
105C
100
AcDbEntity
  8
aguas buenas
100
AcDbPolyline
 90
        4
 70
     1
 43
0.0
 38
0.1
 10
539230.8341269242
 20
1041608.298807822
 10
539232.1568525983
 20
1041667.821463145
 10
539290.3567822465
 20
1041631.446507117
 10
539268.5318086278
 20
1041591.103374062
1001
DCO15
1071
        3
1071
        3
1000
datoslink
1004
0000000000D08340
1001
ADE_ENTITY_LOCK
1071
1342624882
1071
1342625087
  0
LWPOLYLINE
  5
292
330
105C
100
AcDbEntity
  8
aguas buenas
100
AcDbPolyline
 90
        4
 70
     1
 43
0.0
 38
2.2
 10
539147.5024094712
 20
1041605.653356475
 10
539147.5024094712
 20
1041550.098878173
 10
539080.7047629431
 20
1041554.067055197
 10
539080.7047629431
 20
1041605.653356475
1001
DCO15
1071
        3
1071
        3
1000
datoslink
1004
0000000000B08340
1001
ADE_ENTITY_LOCK
1071
1342624882
1071
1342625087
  0
LWPOLYLINE
  5
293
330
105C
100
AcDbEntity
  8
aguas buenas
100
AcDbPolyline
 90
        4
 70
     1
 43
0.0
 38
0.1041666666666667
 10
538779.7846721439
 20
1041411.874045256
 10
538779.7846721439
 20
1041455.523992494
 10
538819.4664423597
 20
1041455.523992494
 10
538819.4664423597
 20
1041411.874045256
1001
DCO15
1071
        3
1071
        3
1000
datoslink
1004
0000000000908340
1001
ADE_ENTITY_LOCK
1071
1342624882
1071
1342625087
  0
LWPOLYLINE
  5
294
330
105C
100
AcDbEntity
  8
aguas buenas
100
AcDbPolyline
 90
        4
 70
     1
 43
0.0
 38
2.632
 10
538921.977682081
 20
1041415.842222281
 10
538945.78674421
 20
1041460.81489519
 10
538991.4207799574
 20
1041439.651284409
 10
538967.6117178286
 20
1041395.339974336
1001
DCO15
1071
        3
1071
        3
1000
datoslink
1004
0000000000988340
1001
ADE_ENTITY_LOCK
1071
1342624882
1071
1342625087
  0
LWPOLYLINE
  5
295
330
105C
100
AcDbEntity
  8
aguas buenas
100
AcDbPolyline
 90
        4
 70
     1
 43
0.0
 38
1.155
 10
538781.768760654
 20
1040698.263544218
 10
538781.768760654
 20
1040648.661331448
 10
538732.1665478861
 20
1040648.661331448
 10
538732.1665478861
 20
1040698.263544218
1001
DCO15
1071
        3
1071
        3
1000
datoslink
1004
0000000000588340
1001
ADE_ENTITY_LOCK
1071
1342624882
1071
1342625087
  0
LWPOLYLINE
  5
296
330
105C
100
AcDbEntity
  8
aguas buenas
100
AcDbPolyline
 90
        4
 70
     1
 43
0.0
 38
1.344
 10
538470.9713672226
 20
1040038.541415945
 10
538521.2613834259
 20
1040037.879705206
 10
538521.1918029072
 20
1039988.621220201
 10
538470.9282273011
 20
1039988.621220201
1001
DCO15
1071
        3
1071
        3
1000
datoslink
1004
0000000000388340
1001
ADE_ENTITY_LOCK
1071
1342624882
1071
1342625087
  0
LWPOLYLINE
  5
297
330
105C
100
AcDbEntity
  8
aguas buenas
100
AcDbPolyline
 90
        4
 70
     1
 43
0.0
 38
0.1
 10
537880.5878268853
 20
1039383.848289294
 10
537880.5878268853
 20
1039423.550933666
 10
537920.9521819977
 20
1039423.550933666
 10
537920.9521819977
 20
1039383.848289294
1001
DCO15
1071
        3
1071
        3
1000
datoslink
1004
0000000000088340
1001
ADE_ENTITY_LOCK
1071
1342624882
1071
1342625087
  0
LWPOLYLINE
  5
298
330
105C
100
AcDbEntity
  8
aguas buenas
100
AcDbPolyline
 90
        4
 70
     1
 43
0.0
 38
1.26
 10
538196.2238496356
 20
1039086.74016725
 10
538195.5621388983
 20
1039137.030183453
 10
538246.5138658408
 20
1039137.030183453
 10
538246.5138658408
 20
1039086.74016725
1001
DCO15
1071
        3
1071
        3
1000
datoslink
1004
0000000000008340
1001
ADE_ENTITY_LOCK
1071
1342624882
1071
1342625087
  0
LWPOLYLINE
  5
299
330
105C
100
AcDbEntity
  8
aguas buenas
100
AcDbPolyline
 90
        4
 70
     1
 43
0.0
 38
0.28125
 10
537878.6688657431
 20
1038572.987949088
 10
537878.0071550012
 20
1038623.27796529
 10
537928.2971712053
 20
1038623.27796529
 10
537928.9588819453
 20
1038572.987949088
1001
DCO15
1071
        3
1071
        3
1000
datoslink
1004
0000000000F08240
1001
ADE_ENTITY_LOCK
1071
1342624882
1071
1342625087
  0
LWPOLYLINE
  5
29A
330
105C
100
AcDbEntity
  8
aguas buenas
100
AcDbPolyline
 90
        4
 70
     1
 43
0.0
 38
1.147999999999999
 10
538005.0556169888
 20
1038449.248040797
 10
538005.0556169888
 20
1038499.538057001
 10
538054.6839224547
 20
1038499.538057001
 10
538055.345633192
 20
1038449.248040797
1001
DCO15
1071
        3
1071
        3
1000
datoslink
1004
0000000000E88240
1001
ADE_ENTITY_LOCK
1071
1342624882
1071
1342625087
  0
LWPOLYLINE
  5
29B
330
105C
100
AcDbEntity
  8
aguas buenas
100
AcDbPolyline
 90
        4
 70
     1
 43
0.0
 38
1.231999999999999
 10
538139.4613186512
 20
1038495.848532391
 10
538139.9023818057
 20
1038546.129731975
 10
538189.3014550768
 20
1038546.129731975
 10
538189.3014550768
 20
1038495.848532391
1001
DCO15
1071
        3
1071
        3
1000
datoslink
1004
0000000000E08240
1001
ADE_ENTITY_LOCK
1071
1342624882
1071
1342625087
  0
LWPOLYLINE
  5
29C
330
105C
100
AcDbEntity
  8
aguas buenas
100
AcDbPolyline
 90
        4
 70
     1
 43
0.0
 38
0.1111111111111111
 10
540142.68195247
 20
1037943.28461279
 10
540142.68195247
 20
1037893.003413211
 10
540092.400752889
 20
1037893.003413211
 10
540092.400752889
 20
1037943.28461279
1001
DCO15
1071
        3
1071
        3
1000
datoslink
1004
0000000000888240
1001
ADE_ENTITY_LOCK
1071
1342624882
1071
1342625087
  0
LWPOLYLINE
  5
29D
330
105C
100
AcDbEntity
  8
aguas buenas
100
AcDbPolyline
 90
        4
 70
     1
 43
0.0
 38
1.147999999999999
 10
540147.0925840121
 20
1037952.105875874
 10
540147.0925840121
 20
1038002.387075457
 10
540197.373783593
 20
1038002.387075457
 10
540197.373783593
 20
1037952.105875874
1001
DCO15
1071
        3
1071
        3
1000
datoslink
1004
0000000000808240
1001
ADE_ENTITY_LOCK
1071
1342624882
1071
1342625087
  0
LWPOLYLINE
  5
29E
330
105C
100
AcDbEntity
  8
aguas buenas
100
AcDbPolyline
 90
        4
 70
     1
 43
0.0
 38
0.925
 10
539852.4623969951
 20
1037952.105875874
 10
539852.4623969951
 20
1038003.269201763
 10
539893.0402071829
 20
1038003.269201763
 10
539893.0402071829
 20
1037952.988002183
1001
DCO15
1071
        3
1071
        3
1000
datoslink
1004
0000000000788240
1001
ADE_ENTITY_LOCK
1071
1342624882
1071
1342625087
  0
LWPOLYLINE
  5
29F
330
105C
100
AcDbEntity
  8
aguas buenas
100
AcDbPolyline
 90
        5
 70
     1
 43
0.0
 38
1.333333333333333
 10
539212.0386970741
 20
1036401.327825652
 10
539279.9624228217
 20
1036401.327825652
 10
539279.9624228217
 20
1036358.103636537
 10
539256.1450124951
 20
1036358.103636537
 10
539227.0348443175
 20
1036375.746162707
1001
DCO15
1071
        3
1071
        3
1000
datoslink
1004
0000000000708240
1001
ADE_ENTITY_LOCK
1071
1342624882
1071
1342625087
  0
LWPOLYLINE
  5
2A0
330
105C
100
AcDbEntity
  8
aguas buenas
100
AcDbPolyline
 90
        4
 70
     1
 43
0.0
 38
0.5
 10
540035.9446691498
 20
1037701.582004279
 10
540035.9446691498
 20
1037659.239941478
 10
539996.24898527
 20
1037659.239941478
 10
539996.24898527
 20
1037701.582004279
1001
DCO15
1071
        3
1071
        3
1000
datoslink
1004
0000000000688240
1001
ADE_ENTITY_LOCK
1071
1342624882
1071
1342625087
  0
LWPOLYLINE
  5
2A1
330
105C
100
AcDbEntity
  8
aguas buenas
100
AcDbPolyline
 90
        4
 70
     1
 43
0.0
 38
2.0
 10
539059.4308457154
 20
1037862.128992415
 10
539059.4308457154
 20
1037902.706802604
 10
539100.0086559031
 20
1037902.706802604
 10
539100.0086559031
 20
1037862.128992415
1001
DCO15
1071
        3
1071
        3
1000
datoslink
1004
0000000000588240
1001
ADE_ENTITY_LOCK
1071
1342624882
1071
1342625087
  0
LWPOLYLINE
  5
2A2
330
105C
100
AcDbEntity
  8
aguas buenas
100
AcDbPolyline
 90
        4
 70
     1
 43
0.0
 38
0.5200000000000001
 10
539663.6873669904
 20
1037448.411753761
 10
539663.6873669904
 20
1037490.753816565
 10
539704.2651771783
 20
1037490.753816565
 10
539704.2651771783
 20
1037448.411753761
1001
DCO15
1071
        3
1071
        3
1000
datoslink
1004
0000000000288240
1001
ADE_ENTITY_LOCK
1071
1342624882
1071
1342625087
  0
LWPOLYLINE
  5
2A3
330
105C
100
AcDbEntity
  8
aguas buenas
100
AcDbPolyline
 90
        4
 70
     1
 43
0.0
 38
1.75
 10
538569.8451804696
 20
1037545.833080385
 10
538619.815191944
 20
1037545.833080385
 10
538619.815191944
 20
1037495.86306891
 10
538569.8451804696
 20
1037495.86306891
1001
DCO15
1071
        3
1071
        3
1000
datoslink
1004
0000000000188240
1001
ADE_ENTITY_LOCK
1071
1342624882
1071
1342625087
  0
LWPOLYLINE
  5
2A4
330
105C
100
AcDbEntity
  8
aguas buenas
100
AcDbPolyline
 90
        4
 70
     1
 43
0.0
 38
0.2
 10
538372.7412463194
 20
1037488.460104246
 10
538372.7412463194
 20
1037538.43011572
 10
538422.7112577939
 20
1037538.43011572
 10
538422.7112577939
 20
1037488.460104246
1001
DCO15
1071
        3
1071
        3
1000
datoslink
1004
0000000000108240
1001
ADE_ENTITY_LOCK
1071
1342624882
1071
1342625087
  0
LWPOLYLINE
  5
2A5
330
105C
100
AcDbEntity
  8
aguas buenas
100
AcDbPolyline
 90
        4
 70
     1
 43
0.0
 38
0.1666666666666666
 10
537973.8400666704
 20
1036888.014052894
 10
537973.8400666704
 20
1036937.432207005
 10
538024.1406878177
 20
1036937.432207005
 10
538024.1406878177
 20
1036888.014052894
1001
DCO15
1071
        3
1071
        3
1000
datoslink
1004
0000000000008240
1001
ADE_ENTITY_LOCK
1071
1342624882
1071
1342625087
  0
LWPOLYLINE
  5
2A6
330
105C
100
AcDbEntity
  8
aguas buenas
100
AcDbPolyline
 90
        4
 70
     1
 43
0.0
 38
0.0133333333333333
 10
538059.4393693227
 20
1036719.462848702
 10
538059.4393693227
 20
1036769.763469849
 10
538109.739990469
 20
1036769.763469849
 10
538109.739990469
 20
1036719.462848702
1001
DCO15
1071
        3
1071
        3
1000
datoslink
1004
0000000000F88140
1001
ADE_ENTITY_LOCK
1071
1342624882
1071
1342625087
  0
LWPOLYLINE
  5
2A7
330
105C
100
AcDbEntity
  8
aguas buenas
100
AcDbPolyline
 90
        4
 70
     1
 43
0.0
 38
0.6410256410256411
 10
537546.3545778226
 20
1036718.378396595
 10
537616.4590385379
 20
1036718.378396595
 10
537616.6195141049
 20
1036616.772230573
 10
537546.3545778226
 20
1036615.86715687
1001
DCO15
1071
        3
1071
        3
1000
datoslink
1004
0000000000E88140
1001
ADE_ENTITY_LOCK
1071
1342624882
1071
1342625087
  0
LWPOLYLINE
  5
2A8
330
105C
100
AcDbEntity
  8
aguas buenas
100
AcDbPolyline
 90
        4
 70
     1
 43
0.0
 38
1.203999999999999
 10
537570.3241155195
 20
1036538.731415814
 10
537632.492222189
 20
1036538.731415814
 10
537652.3331072964
 20
1036434.236087583
 10
537570.3241155195
 20
1036434.236087583
1001
DCO15
1071
        3
1071
        3
1000
datoslink
1004
0000000000E08140
1001
ADE_ENTITY_LOCK
1071
1342624882
1071
1342625087
  0
LWPOLYLINE
  5
2A9
330
105C
100
AcDbEntity
  8
aguas buenas
100
AcDbPolyline
 90
        4
 70
     1
 43
0.0
 38
0.1458333333333333
 10
537555.1127702687
 20
1036434.236087583
 10
537555.1127702687
 20
1036375.374795096
 10
537504.8491946645
 20
1036375.374795096
 10
537504.8491946645
 20
1036434.236087583
1001
DCO15
1071
        3
1071
        3
1000
datoslink
1004
0000000000B08140
1001
ADE_ENTITY_LOCK
1071
1342624882
1071
1342625087
  0
LWPOLYLINE
  5
2AA
330
105C
100
AcDbEntity
  8
aguas buenas
100
AcDbPolyline
 90
        4
 70
     1
 43
0.0
 38
0.12
 10
537576.9377438873
 20
1036430.929273393
 10
537654.9785586437
 20
1036430.929273393
 10
537669.5285410566
 20
1036370.083892399
 10
537610.6672485704
 20
1036370.083892399
1001
DCO15
1071
        3
1071
        3
1000
datoslink
1004
0000000000A08140
1001
ADE_ENTITY_LOCK
1071
1342624882
1071
1342625087
  0
LWPOLYLINE
  5
2AB
330
105C
100
AcDbEntity
  8
aguas buenas
100
AcDbPolyline
 90
        4
 70
     1
 43
0.0
 38
0.1363636363636363
 10
537518.0764514022
 20
1036486.483751697
 10
537568.3400270073
 20
1036486.483751697
 10
537568.3400270073
 20
1036436.220176091
 10
537508.1560088471
 20
1036436.220176091
1001
DCO15
1071
        3
1071
        3
1000
datoslink
1004
0000000000988140
1001
ADE_ENTITY_LOCK
1071
1342624882
1071
1342625087
  0
LWPOLYLINE
  5
2AC
330
105C
100
AcDbEntity
  8
aguas buenas
100
AcDbPolyline
 90
        4
 70
     1
 43
0.0
 38
0.0185185185185185
 10
538660.9114336025
 20
1036288.074900621
 10
538660.9114336025
 20
1036337.677113391
 10
538711.1750092087
 20
1036337.677113391
 10
538711.1750092087
 20
1036288.074900621
1001
DCO15
1071
        3
1071
        3
1000
datoslink
1004
0000000000908140
1001
ADE_ENTITY_LOCK
1071
1342624882
1071
1342625087
  0
LWPOLYLINE
  5
2AD
330
105C
100
AcDbEntity
  8
aguas buenas
100
AcDbPolyline
 90
        4
 70
     1
 43
0.0
 38
0.05
 10
538174.1483856278
 20
1036082.391058339
 10
538174.1483856278
 20
1036131.993271109
 10
538223.7505983977
 20
1036131.993271109
 10
538223.7505983977
 20
1036081.729695503
1001
DCO15
1071
        3
1071
        3
1000
datoslink
1004
0000000000788140
1001
ADE_ENTITY_LOCK
1071
1342624882
1071
1342625087
  0
LWPOLYLINE
  5
2AE
330
105C
100
AcDbEntity
  8
aguas buenas
100
AcDbPolyline
 90
        4
 70
     1
 43
0.0
 38
0.5833333333333334
 10
537898.3600826328
 20
1036120.088740043
 10
537898.3600826328
 20
1036069.825164437
 10
537848.0965070279
 20
1036069.825164437
 10
537848.0965070279
 20
1036120.088740043
1001
DCO15
1071
        3
1071
        3
1000
datoslink
1004
0000000000708140
1001
ADE_ENTITY_LOCK
1071
1342624882
1071
1342625087
  0
LWPOLYLINE
  5
2AF
330
105C
100
AcDbEntity
  8
aguas buenas
100
AcDbPolyline
 90
        4
 70
     1
 43
0.0
 38
0.65
 10
537742.9398159552
 20
1036180.272758204
 10
537786.5897631934
 20
1036180.272758204
 10
537786.5897631934
 20
1036138.606899476
 10
537742.9398159552
 20
1036138.606899476
1001
DCO15
1071
        3
1071
        3
1000
datoslink
1004
0000000000688140
1001
ADE_ENTITY_LOCK
1071
1342624882
1071
1342625087
  0
LWPOLYLINE
  5
2B0
330
105C
100
AcDbEntity
  8
aguas buenas
100
AcDbPolyline
 90
        4
 70
     1
 43
0.0
 38
0.0333333333333333
 10
537723.7602936849
 20
1036270.879466865
 10
537774.0238692911
 20
1036229.87497097
 10
537774.685232129
 20
1036181.595483877
 10
537723.7602936849
 20
1036181.595483877
1001
DCO15
1071
        3
1071
        3
1000
datoslink
1004
0000000000608140
1001
ADE_ENTITY_LOCK
1071
1342624882
1071
1342625087
  0
LWPOLYLINE
  5
2B1
330
105C
100
AcDbEntity
  8
aguas buenas
100
AcDbPolyline
 90
        4
 70
     1
 43
0.0
 38
0.0185185185185185
 10
537672.173992405
 20
1036229.213608134
 10
537722.4375680128
 20
1036229.213608138
 10
537722.4375680128
 20
1036182.256846716
 10
537672.1739924079
 20
1036182.256846716
1001
DCO15
1071
        3
1071
        3
1000
datoslink
1004
0000000000488140
1001
ADE_ENTITY_LOCK
1071
1342624882
1071
1342625087
  0
LWPOLYLINE
  5
2B2
330
105C
100
AcDbEntity
  8
aguas buenas
100
AcDbPolyline
 90
        4
 70
     1
 43
0.0
 38
1.5
 10
537706.5648599267
 20
1036092.31150089
 10
537691.353514676
 20
1036136.622810967
 10
537784.6056746814
 20
1036137.284173803
 10
537784.6056746832
 20
1036092.31150089
1001
DCO15
1071
        3
1071
        3
1000
datoslink
1004
0000000000408140
1001
ADE_ENTITY_LOCK
1071
1342624882
1071
1342625087
  0
LWPOLYLINE
  5
2B3
330
105C
100
AcDbEntity
  8
aguas buenas
100
AcDbPolyline
 90
        4
 70
     1
 43
0.0
 38
0.3692307692307692
 10
537522.4551729625
 20
1036228.296433642
 10
537515.1801817585
 20
1036290.464540317
 10
537572.7187485686
 20
1036290.464540317
 10
537594.1331776483
 20
1036228.552245298
1001
DCO15
1071
        3
1071
        3
1000
datoslink
1004
0000000000388140
1001
ADE_ENTITY_LOCK
1071
1342624882
1071
1342625087
  0
LWPOLYLINE
  5
2B4
330
105C
100
AcDbEntity
  8
aguas buenas
100
AcDbPolyline
 90
        4
 70
     1
 43
0.0
 38
0.28125
 10
537617.280876941
 20
1036182.918209549
 10
537534.3597040271
 20
1036182.662397897
 10
537523.7778986368
 20
1036226.97370797
 10
537593.8823593512
 20
1036226.97370797
1001
DCO15
1071
        3
1071
        3
1000
datoslink
1004
0000000000288140
1001
ADE_ENTITY_LOCK
1071
1342624882
1071
1342625087
  0
LWPOLYLINE
  5
2B5
330
105C
100
AcDbEntity
  8
aguas buenas
100
AcDbPolyline
 90
        4
 70
     1
 43
0.0
 38
0.55
 10
537534.3597040271
 20
1036136.366999311
 10
537530.3915270064
 20
1036180.678309384
 10
537618.6036026152
 20
1036180.934121041
 10
537631.1694965158
 20
1036136.622810967
1001
DCO15
1071
        3
1071
        3
1000
datoslink
1004
0000000000308140
1001
ADE_ENTITY_LOCK
1071
1342624882
1071
1342625087
  0
LWPOLYLINE
  5
2B6
330
105C
100
AcDbEntity
  8
aguas buenas
100
AcDbPolyline
 90
        4
 70
     1
 43
0.0
 38
0.08
 10
537553.1286817584
 20
1036134.638722455
 10
537645.0581160924
 20
1036134.638722455
 10
537679.4489836115
 20
1036077.761518482
 10
537569.4119343862
 20
1036077.505706824
1001
DCO15
1071
        3
1071
        3
1000
datoslink
1004
0000000000208140
1001
ADE_ENTITY_LOCK
1071
1342624882
1071
1342625087
  0
LWPOLYLINE
  5
2B7
330
105C
100
AcDbEntity
  8
aguas buenas
100
AcDbPolyline
 90
        4
 70
     1
 43
0.0
 38
0.15
 10
537674.5686254539
 20
1035973.010378594
 10
537674.5686254539
 20
1035930.683157026
 10
537614.3846072955
 20
1035930.683157026
 10
537614.3846072955
 20
1035973.010378594
1001
DCO15
1071
        3
1071
        3
1000
datoslink
1004
0000000000108140
1001
ADE_ENTITY_LOCK
1071
1342624882
1071
1342625087
  0
LWPOLYLINE
  5
2B8
330
105C
100
AcDbEntity
  8
aguas buenas
100
AcDbPolyline
 90
        4
 70
     1
 43
0.0
 38
0.5428571428571428
 10
537638.8550322604
 20
1036075.521618318
 10
537638.8550322604
 20
1036026.580768384
 10
537568.08920871
 20
1036026.580768384
 10
537568.08920871
 20
1036075.521618318
1001
DCO15
1071
        3
1071
        3
1000
datoslink
1004
0000000000088140
1001
ADE_ENTITY_LOCK
1071
1342624882
1071
1342625087
  0
LWPOLYLINE
  5
2B9
330
105C
100
AcDbEntity
  8
aguas buenas
100
AcDbPolyline
 90
        4
 70
     1
 43
0.0
 38
0.2166666666666667
 10
537558.1687661558
 20
1035891.66274965
 10
537554.8619519714
 20
1035928.69906852
 10
537626.9505011961
 20
1035928.69906852
 10
537623.6436870117
 20
1035891.66274965
1001
DCO15
1071
        3
1071
        3
1000
datoslink
1004
0000000000008140
1001
ADE_ENTITY_LOCK
1071
1342624882
1071
1342625087
  0
LWPOLYLINE
  5
2BA
330
105C
100
AcDbEntity
  8
aguas buenas
100
AcDbPolyline
 90
        4
 70
     1
 43
0.0
 38
0.625
 10
537787.6616705684
 20
1035978.962644127
 10
537831.9729806418
 20
1035978.962644127
 10
537831.9729806418
 20
1035935.974059724
 10
537802.2116529802
 20
1035935.974059724
1001
DCO15
1071
        3
1071
        3
1000
datoslink
1004
0000000000F08040
1001
ADE_ENTITY_LOCK
1071
1342624882
1071
1342625087
  0
LWPOLYLINE
  5
2BB
330
105C
100
AcDbEntity
  8
aguas buenas
100
AcDbPolyline
 90
        5
 70
     1
 43
0.0
 38
0.2708333333333333
 10
537785.6775820582
 20
1035976.978555614
 10
537800.227564471
 20
1035934.651334053
 10
537800.227564471
 20
1035914.149086106
 10
537742.02763482
 20
1035933.989971216
 10
537734.7526436141
 20
1035976.978555614
1001
DCO15
1071
        3
1071
        3
1000
datoslink
1004
0000000000F88040
1001
ADE_ENTITY_LOCK
1071
1342624882
1071
1342625087
  0
LWPOLYLINE
  5
2BC
330
105C
100
AcDbEntity
  8
aguas buenas
100
AcDbPolyline
 90
        5
 70
     1
 43
0.0
 38
1.225
 10
537852.4752285861
 20
1035855.287793621
 10
537806.8411928389
 20
1035855.287793621
 10
537801.550290145
 20
1035908.858183412
 10
537801.550290145
 20
1035934.651334053
 10
537852.4752285861
 20
1035934.651334053
1001
DCO15
1071
        3
1071
        3
1000
datoslink
1004
0000000000E08040
1001
ADE_ENTITY_LOCK
1071
1342624882
1071
1342625087
  0
LWPOLYLINE
  5
2BD
330
105C
100
AcDbEntity
  8
aguas buenas
100
AcDbPolyline
 90
        4
 70
     1
 43
0.0
 38
0.1666666666666666
 10
537615.0459701317
 20
1035974.994467102
 10
537615.0459701317
 20
1036025.258042706
 10
537685.1504308461
 20
1036025.258042706
 10
537685.1504308461
 20
1035974.994467102
1001
DCO15
1071
        3
1071
        3
1000
datoslink
1004
0000000000D88040
1001
ADE_ENTITY_LOCK
1071
1342624882
1071
1342625087
  0
LWPOLYLINE
  5
2BE
330
105C
100
AcDbEntity
  8
aguas buenas
100
AcDbPolyline
 90
        4
 70
     1
 43
0.0
 38
1.197777777777776
 10
537785.6775820582
 20
1036048.405742
 10
537785.6775820582
 20
1036016.660325831
 10
537734.7526436141
 20
1036016.660325831
 10
537724.4216565212
 20
1036048.661553657
1001
DCO15
1071
        3
1071
        3
1000
datoslink
1004
0000000000D08040
1001
ADE_ENTITY_LOCK
1071
1342624882
1071
1342625087
  0
LWPOLYLINE
  5
2BF
330
105C
100
AcDbEntity
  8
aguas buenas
100
AcDbPolyline
 90
        4
 70
     1
 43
0.0
 38
13.0
 10
537894.1410873141
 20
1035935.974059723
 10
537833.9570691539
 20
1035935.974059723
 10
537833.9570691539
 20
1035986.898998169
 10
537894.1410873141
 20
1035986.898998169
1001
DCO15
1071
        3
1071
        3
1000
datoslink
1004
0000000000C88040
1001
ADE_ENTITY_LOCK
1071
1342624882
1071
1342625087
  0
LWPOLYLINE
  5
2C0
330
105C
100
AcDbEntity
  8
aguas buenas
100
AcDbPolyline
 90
        4
 70
     1
 43
0.0
 38
0.15
 10
537550.2324121138
 20
1036025.258042706
 10
537613.0618816214
 20
1036025.258042706
 10
537613.0618816214
 20
1035974.333104266
 10
537550.2324121138
 20
1035974.333104266
1001
DCO15
1071
        3
1071
        3
1000
datoslink
1004
0000000000C08040
1001
ADE_ENTITY_LOCK
1071
1342624882
1071
1342625087
  0
LWPOLYLINE
  5
2C1
330
105C
100
AcDbEntity
  8
aguas buenas
100
AcDbPolyline
 90
        4
 70
     1
 43
0.0
 38
0.3625
 10
537785.6775820582
 20
1036049.728467677
 10
537723.7602936849
 20
1036049.984279327
 10
537709.2103112723
 20
1036090.988775218
 10
537785.6775820582
 20
1036090.732963566
1001
DCO15
1071
        3
1071
        3
1000
datoslink
1004
0000000000B88040
1001
ADE_ENTITY_LOCK
1071
1342624882
1071
1342625087
  0
LWPOLYLINE
  5
2C2
330
105C
100
AcDbEntity
  8
aguas buenas
100
AcDbPolyline
 90
        4
 70
     1
 43
0.0
 38
0.4600000000000001
 10
537735.4140064521
 20
1036015.337600155
 10
537785.6775820582
 20
1036015.337600155
 10
537785.6775820582
 20
1035978.30128129
 10
537735.4140064521
 20
1035978.30128129
1001
DCO15
1071
        3
1071
        3
1000
datoslink
1004
0000000000B08040
1001
ADE_ENTITY_LOCK
1071
1342624882
1071
1342625087
  0
ENDSEC
  0
SECTION
  2
OBJECTS
  0
DICTIONARY
  5
FFD
330
0
100
AcDbDictionary
281
     1
  3
ACAD_CIP_PREVIOUS_PRODUCT_INFO
350
1071
  3
ACAD_COLOR
350
1053
  3
ACAD_GROUP
350
FFE
  3
ACAD_LAYOUT
350
1052
  3
ACAD_MATERIAL
350
1001
  3
ACAD_MLEADERSTYLE
350
1056
  3
ACAD_MLINESTYLE
350
104F
  3
ACAD_PLOTSETTINGS
350
1051
  3
ACAD_PLOTSTYLENAME
350
FFF
  3
ACAD_SCALELIST
350
1033
  3
ACAD_TABLESTYLE
350
1054
  3
ACAD_VISUALSTYLE
350
101A
  3
ACDB_RECOMPOSE_DATA
350
109A
  3
AcDbVariableDictionary
350
108C
  3
ADE_QUERY_LIBRARY
350
1081
  3
ASE_INDEX_DICTIONARY
350
1089
  3
Autodesk_MAP
350
106B
1001
ADE
1000
ADE02C004
1000
[Query]
1000
CaseSensitiveMatch=0
1000
SaveCurrQueryInSession=1
1000
MkSelSetWithQryObj=0
1000
ShowBlockAsInsPt=0
1000
CreateAssociativeHatchObjects=0
1000
ReferenceBoundaryForAreaLocation=1
1000
ShowImageAsBoundary=1
1000
DefaultJoinOperator=2
1000
ColorForAdd=red
1000
ColorForRemove=red
1000
BlockLocnForQuery=1
1000
TextLocnForQuery=1
1000
IncludeAllObjectsInGroups=0
1000
AlwaysUseLibraryDefinitions=0
1000
PreviewDefinitionsFrom=2
1000
[Save Back]
1000
RedefineBlockDefinitions=1
1000
RedefineLayerDefinitions=1
1000
RedefineTextStyleDefinitions=1
1000
RemoveUnusedGroups=1
1000
EraseSavedBackObjects=1
1000
RemoveLockAfterSave=1
1000
CreateHistoryFileOfChanges=0
1000
CreateBackupFileOfSourceDwg=1
1000
DontAddObjectsToSaveSet=0
1000
MarkObjectsForEditingWithoutPrompting=0
1000
FdoDontAddObjsToSvSet=0
1000
FdoEditWithoutPrompt=1
1000
FdoRemUnusedGrps=1
1000
FdoEraseSvdBkObjs=1
1000
FdoRemoveLockOnSave=1
1000
FdoTesselationMaxPointsDistance=0
1000
FdoTesselationMaxCurvesDistance=0
1000
[Coordinate Transformation]
1000
RestoreLastActiveDwgsOnStartup=1
1000
ActivateDwgsOnAttach=1
1000
AdjustSizesAndScalesForChangesInUnits=1
1000
AdjustRotationsForMapDistortions=1
1000
AdjustSizesAndScalesForMapDistortions=1
1000
AdjustElevations=1
1000
AdjustZeroRotationObjects=1
1000
ReconnectDbOnWSOpen=1
1000
NoOfSQLConditionsInHistory=10
  0
DICTIONARY
  5
1084
330
1045
100
AcDbDictionary
280
     1
281
     1
  3
ADSK_XREC_LAYER_RECONCILED
360
1085
  0
DICTIONARY
  5
1086
330
1061
100
AcDbDictionary
280
     1
281
     1
  3
ADSK_XREC_LAYER_RECONCILED
360
1087
  0
DICTIONARY
  5
107D
330
105C
100
AcDbDictionary
280
     1
281
     1
  3
ACAD_SORTENTS
360
107E
  0
XRECORD
  5
1071
102
{ACAD_REACTORS
330
FFD
102
}
330
FFD
100
AcDbXrecord
280
     1
300
MAP
300
2012
300
MAP_F_S
  0
DICTIONARY
  5
1053
102
{ACAD_REACTORS
330
FFD
102
}
330
FFD
100
AcDbDictionary
281
     1
  0
DICTIONARY
  5
FFE
102
{ACAD_REACTORS
330
FFD
102
}
330
FFD
100
AcDbDictionary
281
     1
  0
DICTIONARY
  5
1052
102
{ACAD_REACTORS
330
FFD
102
}
330
FFD
100
AcDbDictionary
281
     1
  3
Layout1
350
105B
  3
Model
350
105F
  0
DICTIONARY
  5
1001
102
{ACAD_REACTORS
330
FFD
102
}
330
FFD
100
AcDbDictionary
281
     1
  3
ByBlock
350
100A
  3
ByLayer
350
1002
  3
Global
350
1012
  0
DICTIONARY
  5
1056
102
{ACAD_REACTORS
330
FFD
102
}
330
FFD
100
AcDbDictionary
281
     1
  3
Standard
350
1057
  0
DICTIONARY
  5
104F
102
{ACAD_REACTORS
330
FFD
102
}
330
FFD
100
AcDbDictionary
281
     1
  3
Standard
350
1050
  0
DICTIONARY
  5
1051
102
{ACAD_REACTORS
330
FFD
102
}
330
FFD
100
AcDbDictionary
281
     1
  0
ACDBDICTIONARYWDFLT
  5
FFF
102
{ACAD_REACTORS
330
FFD
102
}
330
FFD
100
AcDbDictionary
281
     1
  3
Normal
350
1000
100
AcDbDictionaryWithDefault
340
1000
  0
DICTIONARY
  5
1033
102
{ACAD_REACTORS
330
FFD
102
}
330
FFD
100
AcDbDictionary
281
     1
  3
A0
350
1034
  3
A1
350
1035
  3
A2
350
1036
  3
A3
350
1037
  3
A4
350
1038
  3
A5
350
1039
  3
A6
350
103A
  3
A7
350
103B
  3
A8
350
103C
  3
A9
350
103D
  3
B0
350
103E
  3
B1
350
103F
  3
B2
350
1040
  3
B3
350
1041
  3
B4
350
1042
  3
B5
350
1043
  3
B6
350
1044
  0
DICTIONARY
  5
1054
102
{ACAD_REACTORS
330
FFD
102
}
330
FFD
100
AcDbDictionary
281
     1
  3
Legend
350
1076
  3
Standard
350
1055
  0
DICTIONARY
  5
101A
102
{ACAD_REACTORS
330
FFD
102
}
330
FFD
100
AcDbDictionary
281
     1
  3
2dWireframe
350
1020
  3
Basic
350
101F
  3
Brighten
350
1026
  3
ColorChange
350
102A
  3
Conceptual
350
1023
  3
Dim
350
1025
  3
EdgeColorOff
350
1032
  3
Facepattern
350
1029
  3
Flat
350
101B
  3
FlatWithEdges
350
101C
  3
Gouraud
350
101D
  3
GouraudWithEdges
350
101E
  3
Hidden
350
1022
  3
JitterOff
350
1030
  3
Linepattern
350
1028
  3
OverhangOff
350
1031
  3
Realistic
350
1024
  3
Shaded
350
102F
  3
Shaded with edges
350
102E
  3
Shades of Gray
350
102B
  3
Sketchy
350
102C
  3
Thicken
350
1027
  3
Wireframe
350
1021
  3
X-Ray
350
102D
  0
XRECORD
  5
109A
102
{ACAD_REACTORS
330
FFD
102
}
330
FFD
100
AcDbXrecord
280
     1
 90
        1
330
1055
330
1076
  0
DICTIONARY
  5
108C
102
{ACAD_REACTORS
330
FFD
102
}
330
FFD
100
AcDbDictionary
281
     1
  3
CANNOSCALE
350
1090
  3
CMLEADERSTYLE
350
108E
  3
CTABLESTYLE
350
108D
  3
LAYEREVAL
350
1092
  3
LAYERNOTIFY
350
1093
  3
LIGHTINGUNITS
350
1091
  3
MSLTSCALE
350
108F
  3
XCLIPFRAME
350
1094
  0
DICTIONARY
  5
1081
102
{ACAD_REACTORS
330
FFD
102
}
330
FFD
100
AcDbDictionary
281
     1
  3
_CurrQry
350
1082
  0
DICTIONARY
  5
1089
102
{ACAD_REACTORS
330
FFD
102
}
330
FFD
100
AcDbDictionary
281
     1
  3
ASEBlockHierarchyIndexRecord
350
108A
1001
DCO15
1040
1762235996.265
  0
DICTIONARY
  5
106B
102
{ACAD_REACTORS
330
FFD
102
}
330
FFD
100
AcDbDictionary
281
     1
  3
AcMapDMStylizedEntities
350
107F
  3
FSD_Dictionary
350
1072
  3
MAP_DISPLAY_CUSTOMOBJ_REG_TABLE
350
106F
  3
MAP_DISPLAY_MANAGEMENT_DICTIONARY
350
106C
  3
MAP_DISPLAY_STYLELIBRARY_DICTIONARY
350
106D
  3
MAP_RESOURCE_VERSION_MANAGEMENT_DICTIONARY
350
1080
1001
MapGWS
1000
C:\ProgramData\Autodesk\AutoCAD Map 3D 2012\R18.2\MapCache\xm2supABGWS.xml
  0
XRECORD
  5
1085
102
{ACAD_REACTORS
330
1084
102
}
330
1084
100
AcDbXrecord
280
     1
290
     1
  0
XRECORD
  5
1087
102
{ACAD_REACTORS
330
1086
102
}
330
1086
100
AcDbXrecord
280
     1
290
     1
  0
SORTENTSTABLE
  5
107E
102
{ACAD_REACTORS
330
107D
102
}
330
107D
100
AcDbSortentsTable
330
105C
  0
LAYOUT
  5
105B
102
{ACAD_REACTORS
330
1052
102
}
330
1052
100
AcDbPlotSettings
  1

  2
Lexmark Pro700 Series (de red)
  4

  6

 40
0.0
 41
0.0
 42
0.0
 43
0.0
 44
0.0
 45
0.0
 46
0.0
 47
0.0
 48
0.0
 49
0.0
140
0.0
141
0.0
142
1.0
143
1.0
 70
   688
 72
     0
 73
     0
 74
     5
  7

 75
    16
147
1.0
 76
     0
 77
     2
 78
   300
148
0.0
149
0.0
100
AcDbLayout
  1
Layout1
 70
     1
 71
     1
 10
0.0
 20
0.0
 11
420.0
 21
297.0
 12
0.0
 22
0.0
 32
0.0
 14
1.000000000000000E+20
 24
1.000000000000000E+20
 34
1.000000000000000E+20
 15
-1.000000000000000E+20
 25
-1.000000000000000E+20
 35
-1.000000000000000E+20
146
0.0
 13
0.0
 23
0.0
 33
0.0
 16
1.0
 26
0.0
 36
0.0
 17
0.0
 27
1.0
 37
0.0
 76
     0
330
1058
  0
LAYOUT
  5
105F
102
{ACAD_REACTORS
330
1052
102
}
330
1052
100
AcDbPlotSettings
  1

  2
Lexmark Pro700 Series (de red)
  4

  6

 40
0.0
 41
0.0
 42
0.0
 43
0.0
 44
0.0
 45
0.0
 46
0.0
 47
0.0
 48
0.0
 49
0.0
140
0.0
141
0.0
142
1.0
143
1.0
 70
  1712
 72
     0
 73
     0
 74
     0
  7

 75
     0
147
1.0
 76
     0
 77
     2
 78
   300
148
0.0
149
0.0
100
AcDbLayout
  1
Model
 70
     1
 71
     0
 10
0.0
 20
0.0
 11
12.0
 21
9.0
 12
0.0
 22
0.0
 32
0.0
 14
0.0
 24
0.0
 34
0.0
 15
0.0
 25
0.0
 35
0.0
146
0.0
 13
0.0
 23
0.0
 33
0.0
 16
1.0
 26
0.0
 36
0.0
 17
0.0
 27
1.0
 37
0.0
 76
     0
330
105C
331
1060
  0
MATERIAL
  5
100A
102
{ACAD_XDICTIONARY
360
100B
102
}
102
{ACAD_REACTORS
330
1001
102
}
330
1001
100
AcDbMaterial
  1
ByBlock
 72
     0
 43
0.0208333333333333
 43
0.0
 43
0.0
 43
0.0
 43
0.0
 43
0.0208333333333333
 43
0.0
 43
0.0
 43
0.0
 43
0.0
 43
1.0
 43
0.0
 43
0.0
 43
0.0
 43
0.0
 43
1.0
 77
     0
 47
0.0208333333333333
 47
0.0
 47
0.0
 47
0.0
 47
0.0
 47
0.0208333333333333
 47
0.0
 47
0.0
 47
0.0
 47
0.0
 47
1.0
 47
0.0
 47
0.0
 47
0.0
 47
0.0
 47
1.0
171
     0
 49
0.0208333333333333
 49
0.0
 49
0.0
 49
0.0
 49
0.0
 49
0.0208333333333333
 49
0.0
 49
0.0
 49
0.0
 49
0.0
 49
1.0
 49
0.0
 49
0.0
 49
0.0
 49
0.0
 49
1.0
175
     0
142
0.0208333333333333
142
0.0
142
0.0
142
0.0
142
0.0
142
0.0208333333333333
142
0.0
142
0.0
142
0.0
142
0.0
142
1.0
142
0.0
142
0.0
142
0.0
142
0.0
142
1.0
179
     0
144
0.0208333333333333
144
0.0
144
0.0
144
0.0
144
0.0
144
0.0208333333333333
144
0.0
144
0.0
144
0.0
144
0.0
144
1.0
144
0.0
144
0.0
144
0.0
144
0.0
144
1.0
147
0.0208333333333333
147
0.0
147
0.0
147
0.0
147
0.0
147
0.0208333333333333
147
0.0
147
0.0
147
0.0
147
0.0
147
1.0
147
0.0
147
0.0
147
0.0
147
0.0
147
1.0
  0
MATERIAL
  5
1002
102
{ACAD_XDICTIONARY
360
1003
102
}
102
{ACAD_REACTORS
330
1001
102
}
330
1001
100
AcDbMaterial
  1
ByLayer
 72
     0
 43
0.0208333333333333
 43
0.0
 43
0.0
 43
0.0
 43
0.0
 43
0.0208333333333333
 43
0.0
 43
0.0
 43
0.0
 43
0.0
 43
1.0
 43
0.0
 43
0.0
 43
0.0
 43
0.0
 43
1.0
 77
     0
 47
0.0208333333333333
 47
0.0
 47
0.0
 47
0.0
 47
0.0
 47
0.0208333333333333
 47
0.0
 47
0.0
 47
0.0
 47
0.0
 47
1.0
 47
0.0
 47
0.0
 47
0.0
 47
0.0
 47
1.0
171
     0
 49
0.0208333333333333
 49
0.0
 49
0.0
 49
0.0
 49
0.0
 49
0.0208333333333333
 49
0.0
 49
0.0
 49
0.0
 49
0.0
 49
1.0
 49
0.0
 49
0.0
 49
0.0
 49
0.0
 49
1.0
175
     0
142
0.0208333333333333
142
0.0
142
0.0
142
0.0
142
0.0
142
0.0208333333333333
142
0.0
142
0.0
142
0.0
142
0.0
142
1.0
142
0.0
142
0.0
142
0.0
142
0.0
142
1.0
179
     0
144
0.0208333333333333
144
0.0
144
0.0
144
0.0
144
0.0
144
0.0208333333333333
144
0.0
144
0.0
144
0.0
144
0.0
144
1.0
144
0.0
144
0.0
144
0.0
144
0.0
144
1.0
147
0.0208333333333333
147
0.0
147
0.0
147
0.0
147
0.0
147
0.0208333333333333
147
0.0
147
0.0
147
0.0
147
0.0
147
1.0
147
0.0
147
0.0
147
0.0
147
0.0
147
1.0
  0
MATERIAL
  5
1012
102
{ACAD_XDICTIONARY
360
1013
102
}
102
{ACAD_REACTORS
330
1001
102
}
330
1001
100
AcDbMaterial
  1
Global
 72
     0
 43
0.0208333333333333
 43
0.0
 43
0.0
 43
0.0
 43
0.0
 43
0.0208333333333333
 43
0.0
 43
0.0
 43
0.0
 43
0.0
 43
1.0
 43
0.0
 43
0.0
 43
0.0
 43
0.0
 43
1.0
 77
     0
 47
0.0208333333333333
 47
0.0
 47
0.0
 47
0.0
 47
0.0
 47
0.0208333333333333
 47
0.0
 47
0.0
 47
0.0
 47
0.0
 47
1.0
 47
0.0
 47
0.0
 47
0.0
 47
0.0
 47
1.0
171
     0
 49
0.0208333333333333
 49
0.0
 49
0.0
 49
0.0
 49
0.0
 49
0.0208333333333333
 49
0.0
 49
0.0
 49
0.0
 49
0.0
 49
1.0
 49
0.0
 49
0.0
 49
0.0
 49
0.0
 49
1.0
175
     0
142
0.0208333333333333
142
0.0
142
0.0
142
0.0
142
0.0
142
0.0208333333333333
142
0.0
142
0.0
142
0.0
142
0.0
142
1.0
142
0.0
142
0.0
142
0.0
142
0.0
142
1.0
179
     0
144
0.0208333333333333
144
0.0
144
0.0
144
0.0
144
0.0
144
0.0208333333333333
144
0.0
144
0.0
144
0.0
144
0.0
144
1.0
144
0.0
144
0.0
144
0.0
144
0.0
144
1.0
147
0.0208333333333333
147
0.0
147
0.0
147
0.0
147
0.0
147
0.0208333333333333
147
0.0
147
0.0
147
0.0
147
0.0
147
1.0
147
0.0
147
0.0
147
0.0
147
0.0
147
1.0
  0
MLEADERSTYLE
  5
1057
102
{ACAD_REACTORS
330
1056
102
}
330
1056
100
AcDbMLeaderStyle
170
     2
171
     1
172
     0
 90
        2
 40
0.0
 41
0.0
173
     1
 91
-1056964608
340
104B
 92
       -2
290
     1
 42
0.09
291
     1
 43
0.36
  3
Standard
 44
0.18
300

342
1046
174
     1
178
     6
175
     1
176
     0
 93
-1056964608
 45
0.18
292
     0
297
     0
 46
0.18
 94
-1056964608
 47
1.0
 49
1.0
140
1.0
293
     1
141
0.0
294
     1
177
     0
142
1.0
295
     0
296
     0
143
0.125
1001
ACAD_MLEADERVER
1070
     2
  0
MLINESTYLE
  5
1050
102
{ACAD_REACTORS
330
104F
102
}
330
104F
100
AcDbMlineStyle
  2
STANDARD
 70
     0
  3

 62
   256
 51
90.0
 52
90.0
 71
     2
 49
0.5
 62
   256
  6
BYLAYER
 49
-0.5
 62
   256
  6
BYLAYER
  0
ACDBPLACEHOLDER
  5
1000
102
{ACAD_REACTORS
330
FFF
102
}
330
FFF
  0
SCALE
  5
1034
102
{ACAD_REACTORS
330
1033
102
}
330
1033
100
AcDbScale
 70
     0
300
1:1
140
1.0
141
1.0
290
     1
  0
SCALE
  5
1035
102
{ACAD_REACTORS
330
1033
102
}
330
1033
100
AcDbScale
 70
     0
300
1/128" = 1'-0"
140
0.0078125
141
12.0
290
     0
  0
SCALE
  5
1036
102
{ACAD_REACTORS
330
1033
102
}
330
1033
100
AcDbScale
 70
     0
300
1/64" = 1'-0"
140
0.015625
141
12.0
290
     0
  0
SCALE
  5
1037
102
{ACAD_REACTORS
330
1033
102
}
330
1033
100
AcDbScale
 70
     0
300
1/32" = 1'-0"
140
0.03125
141
12.0
290
     0
  0
SCALE
  5
1038
102
{ACAD_REACTORS
330
1033
102
}
330
1033
100
AcDbScale
 70
     0
300
1/16" = 1'-0"
140
0.0625
141
12.0
290
     0
  0
SCALE
  5
1039
102
{ACAD_REACTORS
330
1033
102
}
330
1033
100
AcDbScale
 70
     0
300
3/32" = 1'-0"
140
0.09375
141
12.0
290
     0
  0
SCALE
  5
103A
102
{ACAD_REACTORS
330
1033
102
}
330
1033
100
AcDbScale
 70
     0
300
1/8" = 1'-0"
140
0.125
141
12.0
290
     0
  0
SCALE
  5
103B
102
{ACAD_REACTORS
330
1033
102
}
330
1033
100
AcDbScale
 70
     0
300
3/16" = 1'-0"
140
0.1875
141
12.0
290
     0
  0
SCALE
  5
103C
102
{ACAD_REACTORS
330
1033
102
}
330
1033
100
AcDbScale
 70
     0
300
1/4" = 1'-0"
140
0.25
141
12.0
290
     0
  0
SCALE
  5
103D
102
{ACAD_REACTORS
330
1033
102
}
330
1033
100
AcDbScale
 70
     0
300
3/8" = 1'-0"
140
0.375
141
12.0
290
     0
  0
SCALE
  5
103E
102
{ACAD_REACTORS
330
1033
102
}
330
1033
100
AcDbScale
 70
     0
300
1/2" = 1'-0"
140
0.5
141
12.0
290
     0
  0
SCALE
  5
103F
102
{ACAD_REACTORS
330
1033
102
}
330
1033
100
AcDbScale
 70
     0
300
3/4" = 1'-0"
140
0.75
141
12.0
290
     0
  0
SCALE
  5
1040
102
{ACAD_REACTORS
330
1033
102
}
330
1033
100
AcDbScale
 70
     0
300
1" = 1'-0"
140
1.0
141
12.0
290
     0
  0
SCALE
  5
1041
102
{ACAD_REACTORS
330
1033
102
}
330
1033
100
AcDbScale
 70
     0
300
1-1/2" = 1'-0"
140
1.5
141
12.0
290
     0
  0
SCALE
  5
1042
102
{ACAD_REACTORS
330
1033
102
}
330
1033
100
AcDbScale
 70
     0
300
3" = 1'-0"
140
3.0
141
12.0
290
     0
  0
SCALE
  5
1043
102
{ACAD_REACTORS
330
1033
102
}
330
1033
100
AcDbScale
 70
     0
300
6" = 1'-0"
140
6.0
141
12.0
290
     0
  0
SCALE
  5
1044
102
{ACAD_REACTORS
330
1033
102
}
330
1033
100
AcDbScale
 70
     0
300
1'-0" = 1'-0"
140
12.0
141
12.0
290
     0
  0
TABLESTYLE
  5
1076
102
{ACAD_XDICTIONARY
360
1098
102
}
102
{ACAD_REACTORS
330
1054
102
}
330
1054
100
AcDbTableStyle
  3

 70
     0
 71
     3
 40
0.06
 41
0.06
280
     0
281
     0
  7
Legend
140
0.4
170
     4
 62
     0
 63
     7
283
     0
 90
      512
 91
        0
  1

274
    -2
284
     0
 64
     0
275
    -2
285
     0
 65
     0
276
    -2
286
     0
 66
     0
277
    -2
287
     0
 67
     0
278
    -2
288
     0
 68
     0
279
    -2
289
     0
 69
     0
  7
Legend
140
0.5
170
     5
 62
     0
 63
     7
283
     0
 90
      512
 91
        0
  1

274
    -2
284
     0
 64
     0
275
    -2
285
     0
 65
     0
276
    -2
286
     0
 66
     0
277
    -2
287
     0
 67
     0
278
    -2
288
     0
 68
     0
279
    -2
289
     0
 69
     0
  7
Legend
140
0.4
170
     4
 62
     0
 63
     7
283
     0
 90
      512
 91
        0
  1

274
    -2
284
     0
 64
     0
275
    -2
285
     0
 65
     0
276
    -2
286
     0
 66
     0
277
    -2
287
     0
 67
     0
278
    -2
288
     0
 68
     0
279
    -2
289
     0
 69
     0
  0
TABLESTYLE
  5
1055
102
{ACAD_XDICTIONARY
360
1096
102
}
102
{ACAD_REACTORS
330
1054
102
}
330
1054
100
AcDbTableStyle
  3
Standard
 70
     0
 71
     0
 40
0.06
 41
0.06
280
     0
281
     0
  7
STANDARD
140
0.18
170
     2
 62
     0
 63
     7
283
     0
 90
      512
 91
        0
  1

274
    -2
284
     1
 64
     0
275
    -2
285
     1
 65
     0
276
    -2
286
     1
 66
     0
277
    -2
287
     1
 67
     0
278
    -2
288
     1
 68
     0
279
    -2
289
     1
 69
     0
  7
STANDARD
140
0.25
170
     5
 62
     0
 63
     7
283
     0
 90
      512
 91
        0
  1

274
    -2
284
     1
 64
     0
275
    -2
285
     1
 65
     0
276
    -2
286
     1
 66
     0
277
    -2
287
     1
 67
     0
278
    -2
288
     1
 68
     0
279
    -2
289
     1
 69
     0
  7
STANDARD
140
0.18
170
     5
 62
     0
 63
     7
283
     0
 90
      512
 91
        0
  1

274
    -2
284
     1
 64
     0
275
    -2
285
     1
 65
     0
276
    -2
286
     1
 66
     0
277
    -2
287
     1
 67
     0
278
    -2
288
     1
 68
     0
279
    -2
289
     1
 69
     0
  0
VISUALSTYLE
  5
1020
102
{ACAD_XDICTIONARY
360
10A5
102
}
102
{ACAD_REACTORS
330
101A
102
}
330
101A
100
AcDbVisualStyle
  2
2dWireframe
 70
     4
 71
     0
 72
     2
 73
     0
 90
        0
 40
-0.6
 41
-30.0
 62
     5
 63
     7
421
 16777215
 74
     1
 91
        4
 64
     7
 65
   257
 75
     1
175
     1
 42
1.0
 92
        0
 66
   257
 43
1.0
 76
     1
 77
     6
 78
     2
 67
     7
 79
     5
170
     0
171
     0
290
     0
174
     0
 93
        1
 44
0.0
173
     0
291
     0
 45
0.0
1001
ACAD
1000
AcDbSavedByObjectVersion
1070
     0
  0
VISUALSTYLE
  5
101F
102
{ACAD_XDICTIONARY
360
10A3
102
}
102
{ACAD_REACTORS
330
101A
102
}
330
101A
100
AcDbVisualStyle
  2
Basic
 70
     7
 71
     1
 72
     0
 73
     1
 90
        0
 40
-0.6
 41
-30.0
 62
     5
 63
     7
421
 16777215
 74
     0
 91
        4
 64
     7
 65
   257
 75
     1
175
     1
 42
1.0
 92
        8
 66
     7
 43
1.0
 76
     1
 77
     6
 78
     2
 67
     7
 79
     5
170
     0
171
     0
290
     0
174
     0
 93
        1
 44
0.0
173
     0
291
     1
 45
0.0
1001
ACAD
1000
AcDbSavedByObjectVersion
1070
     0
  0
VISUALSTYLE
  5
1026
102
{ACAD_XDICTIONARY
360
10B1
102
}
102
{ACAD_REACTORS
330
101A
102
}
330
101A
100
AcDbVisualStyle
  2
Brighten
 70
    12
 71
     2
 72
     2
 73
     0
 90
        0
 40
-0.6
 41
-30.0
 62
     5
 63
     7
421
 16777215
 74
     1
 91
        4
 64
     7
 65
   257
 75
     1
175
     1
 42
1.0
 92
        8
 66
     7
 43
1.0
 76
     1
 77
     6
 78
     2
 67
     7
 79
     5
170
     0
171
     0
290
     0
174
     0
 93
        1
 44
50.0
173
     0
291
     1
 45
0.0
1001
ACAD
1000
AcDbSavedByObjectVersion
1070
     0
  0
VISUALSTYLE
  5
102A
102
{ACAD_XDICTIONARY
360
10B9
102
}
102
{ACAD_REACTORS
330
101A
102
}
330
101A
100
AcDbVisualStyle
  2
ColorChange
 70
    16
 71
     2
 72
     2
 73
     3
 90
        0
 40
-0.6
 41
-30.0
 62
     5
 63
     8
421
  8421504
 74
     1
 91
        4
 64
     7
 65
   257
 75
     1
175
     1
 42
1.0
 92
        8
 66
     8
424
  8421504
 43
1.0
 76
     1
 77
     6
 78
     2
 67
     7
 79
     5
170
     0
171
     0
290
     0
174
     0
 93
        1
 44
0.0
173
     0
291
     1
 45
0.0
1001
ACAD
1000
AcDbSavedByObjectVersion
1070
     0
  0
VISUALSTYLE
  5
1023
102
{ACAD_XDICTIONARY
360
10AB
102
}
102
{ACAD_REACTORS
330
101A
102
}
330
101A
100
AcDbVisualStyle
  2
Conceptual
 70
     9
 71
     3
 72
     2
 73
     0
 90
        0
 40
-0.6
 41
-30.0
 62
     5
 63
     7
421
 16777215
 74
     2
 91
        2
 64
     7
 65
   257
 75
     1
175
     1
 42
179.0
 92
        8
 66
     7
 43
1.0
 76
     1
 77
     6
 78
     2
 67
     7
 79
     3
170
     0
171
     0
290
     0
174
     0
 93
        1
 44
0.0
173
     0
291
     0
 45
0.0
1001
ACAD
1000
AcDbSavedByObjectVersion
1070
     0
  0
VISUALSTYLE
  5
1025
102
{ACAD_XDICTIONARY
360
10AF
102
}
102
{ACAD_REACTORS
330
101A
102
}
330
101A
100
AcDbVisualStyle
  2
Dim
 70
    11
 71
     2
 72
     2
 73
     0
 90
        0
 40
-0.6
 41
-30.0
 62
     5
 63
     7
421
 16777215
 74
     1
 91
        4
 64
     7
 65
   257
 75
     1
175
     1
 42
1.0
 92
        8
 66
     7
 43
1.0
 76
     1
 77
     6
 78
     2
 67
     7
 79
     5
170
     0
171
     0
290
     0
174
     0
 93
        1
 44
-50.0
173
     0
291
     1
 45
0.0
1001
ACAD
1000
AcDbSavedByObjectVersion
1070
     0
  0
VISUALSTYLE
  5
1032
102
{ACAD_XDICTIONARY
360
10C9
102
}
102
{ACAD_REACTORS
330
101A
102
}
330
101A
100
AcDbVisualStyle
  2
EdgeColorOff
 70
    22
 71
     2
 72
     2
 73
     0
 90
        0
 40
-0.6
 41
-30.0
 62
     5
 63
     7
421
 16777215
 74
     1
 91
        4
 64
     7
 65
   257
 75
     1
175
     1
 42
1.0
 92
        8
 66
     7
 43
1.0
 76
     1
 77
     6
 78
     2
 67
     7
 79
     5
170
     0
171
     0
290
     0
174
     0
 93
        1
 44
0.0
173
     0
291
     1
 45
0.0
1001
ACAD
1000
AcDbSavedByObjectVersion
1070
     0
  0
VISUALSTYLE
  5
1029
102
{ACAD_XDICTIONARY
360
10B7
102
}
102
{ACAD_REACTORS
330
101A
102
}
330
101A
100
AcDbVisualStyle
  2
Facepattern
 70
    15
 71
     2
 72
     2
 73
     0
 90
        0
 40
-0.6
 41
-30.0
 62
     5
 63
     7
421
 16777215
 74
     1
 91
        4
 64
     7
 65
   257
 75
     1
175
     1
 42
1.0
 92
        8
 66
     7
 43
1.0
 76
     1
 77
     6
 78
     2
 67
     7
 79
     5
170
     0
171
     0
290
     0
174
     0
 93
        1
 44
0.0
173
     0
291
     1
 45
0.0
1001
ACAD
1000
AcDbSavedByObjectVersion
1070
     0
  0
VISUALSTYLE
  5
101B
102
{ACAD_XDICTIONARY
360
109B
102
}
102
{ACAD_REACTORS
330
101A
102
}
330
101A
100
AcDbVisualStyle
  2
Flat
 70
     0
 71
     2
 72
     1
 73
     1
 90
        2
 40
-0.6
 41
30.0
 62
     5
 63
     7
421
 16777215
 74
     0
 91
        0
 64
     7
 65
   257
 75
     1
175
     1
 42
1.0
 92
        8
 66
     7
 43
1.0
 76
     1
 77
     6
 78
     2
 67
     7
 79
     5
170
     0
171
     0
290
     0
174
     0
 93
       13
 44
0.0
173
     0
291
     1
 45
0.0
1001
ACAD
1000
AcDbSavedByObjectVersion
1070
     0
  0
VISUALSTYLE
  5
101C
102
{ACAD_XDICTIONARY
360
109D
102
}
102
{ACAD_REACTORS
330
101A
102
}
330
101A
100
AcDbVisualStyle
  2
FlatWithEdges
 70
     1
 71
     2
 72
     1
 73
     1
 90
        2
 40
-0.6
 41
30.0
 62
     5
 63
     7
421
 16777215
 74
     1
 91
        0
 64
     7
 65
   257
 75
     1
175
     1
 42
1.0
 92
        0
 66
   257
 43
1.0
 76
     1
 77
     6
 78
     2
 67
     7
 79
     5
170
     0
171
     0
290
     0
174
     0
 93
       13
 44
0.0
173
     0
291
     1
 45
0.0
1001
ACAD
1000
AcDbSavedByObjectVersion
1070
     0
  0
VISUALSTYLE
  5
101D
102
{ACAD_XDICTIONARY
360
109F
102
}
102
{ACAD_REACTORS
330
101A
102
}
330
101A
100
AcDbVisualStyle
  2
Gouraud
 70
     2
 71
     2
 72
     2
 73
     1
 90
        2
 40
-0.6
 41
30.0
 62
     5
 63
     7
421
 16777215
 74
     0
 91
        0
 64
     7
 65
   257
 75
     1
175
     1
 42
1.0
 92
        0
 66
     7
 43
1.0
 76
     1
 77
     6
 78
     2
 67
     7
 79
     5
170
     0
171
     0
290
     0
174
     0
 93
       13
 44
0.0
173
     0
291
     1
 45
0.0
1001
ACAD
1000
AcDbSavedByObjectVersion
1070
     0
  0
VISUALSTYLE
  5
101E
102
{ACAD_XDICTIONARY
360
10A1
102
}
102
{ACAD_REACTORS
330
101A
102
}
330
101A
100
AcDbVisualStyle
  2
GouraudWithEdges
 70
     3
 71
     2
 72
     2
 73
     1
 90
        2
 40
-0.6
 41
30.0
 62
     5
 63
     7
421
 16777215
 74
     1
 91
        0
 64
     7
 65
   257
 75
     1
175
     1
 42
1.0
 92
        0
 66
   257
 43
1.0
 76
     1
 77
     6
 78
     2
 67
     7
 79
     5
170
     0
171
     0
290
     0
174
     0
 93
       13
 44
0.0
173
     0
291
     1
 45
0.0
1001
ACAD
1000
AcDbSavedByObjectVersion
1070
     0
  0
VISUALSTYLE
  5
1022
102
{ACAD_XDICTIONARY
360
10A9
102
}
102
{ACAD_REACTORS
330
101A
102
}
330
101A
100
AcDbVisualStyle
  2
Hidden
 70
     6
 71
     1
 72
     2
 73
     2
 90
        0
 40
-0.6
 41
-30.0
 62
     5
 63
     7
421
 16777215
 74
     2
 91
        2
 64
     7
 65
   257
 75
     2
175
     1
 42
40.0
 92
        0
 66
   257
 43
1.0
 76
     1
 77
     6
 78
     2
 67
     7
 79
     3
170
     0
171
     0
290
     0
174
     0
 93
        1
 44
0.0
173
     0
291
     0
 45
0.0
1001
ACAD
1000
AcDbSavedByObjectVersion
1070
     0
  0
VISUALSTYLE
  5
1030
102
{ACAD_XDICTIONARY
360
10C5
102
}
102
{ACAD_REACTORS
330
101A
102
}
330
101A
100
AcDbVisualStyle
  2
JitterOff
 70
    20
 71
     2
 72
     2
 73
     0
 90
        0
 40
-0.6
 41
-30.0
 62
     5
 63
     7
421
 16777215
 74
     1
 91
        4
 64
     7
 65
   257
 75
     1
175
     1
 42
1.0
 92
       10
 66
     7
 43
1.0
 76
     1
 77
     6
 78
     2
 67
     7
 79
     5
170
     0
171
     0
290
     0
174
     0
 93
        1
 44
0.0
173
     0
291
     1
 45
0.0
1001
ACAD
1000
AcDbSavedByObjectVersion
1070
     0
  0
VISUALSTYLE
  5
1028
102
{ACAD_XDICTIONARY
360
10B5
102
}
102
{ACAD_REACTORS
330
101A
102
}
330
101A
100
AcDbVisualStyle
  2
Linepattern
 70
    14
 71
     2
 72
     2
 73
     0
 90
        0
 40
-0.6
 41
-30.0
 62
     5
 63
     7
421
 16777215
 74
     1
 91
        4
 64
     7
 65
   257
 75
     7
175
     7
 42
1.0
 92
        8
 66
     7
 43
1.0
 76
     1
 77
     6
 78
     2
 67
     7
 79
     5
170
     0
171
     0
290
     0
174
     0
 93
        1
 44
0.0
173
     0
291
     1
 45
0.0
1001
ACAD
1000
AcDbSavedByObjectVersion
1070
     0
  0
VISUALSTYLE
  5
1031
102
{ACAD_XDICTIONARY
360
10C7
102
}
102
{ACAD_REACTORS
330
101A
102
}
330
101A
100
AcDbVisualStyle
  2
OverhangOff
 70
    21
 71
     2
 72
     2
 73
     0
 90
        0
 40
-0.6
 41
-30.0
 62
     5
 63
     7
421
 16777215
 74
     1
 91
        4
 64
     7
 65
   257
 75
     1
175
     1
 42
1.0
 92
        9
 66
     7
 43
1.0
 76
     1
 77
     6
 78
     2
 67
     7
 79
     5
170
     0
171
     0
290
     0
174
     0
 93
        1
 44
0.0
173
     0
291
     1
 45
0.0
1001
ACAD
1000
AcDbSavedByObjectVersion
1070
     0
  0
VISUALSTYLE
  5
1024
102
{ACAD_XDICTIONARY
360
10AD
102
}
102
{ACAD_REACTORS
330
101A
102
}
330
101A
100
AcDbVisualStyle
  2
Realistic
 70
     8
 71
     2
 72
     3
 73
     0
 90
        2
 40
-0.6
 41
30.0
 62
     5
 63
     7
421
 16777215
 74
     0
 91
        0
 64
     7
 65
   257
 75
     1
175
     1
 42
1.0
 92
        8
 66
   257
 43
1.0
 76
     1
 77
     6
 78
     2
 67
     7
 79
     3
170
     0
171
     0
290
     0
174
     0
 93
       13
 44
0.0
173
     0
291
     0
 45
0.0
1001
ACAD
1000
AcDbSavedByObjectVersion
1070
     0
  0
VISUALSTYLE
  5
102F
102
{ACAD_XDICTIONARY
360
10C3
102
}
102
{ACAD_REACTORS
330
101A
102
}
330
101A
100
AcDbVisualStyle
  2
Shaded
 70
    27
 71
     2
 72
     2
 73
     1
 90
        2
 40
-0.6
 41
30.0
 62
     5
 63
     7
421
 16777215
 74
     0
 91
        4
 64
     7
 65
   257
 75
     1
175
     1
 42
1.0
 92
        8
 66
   257
 43
1.0
 76
     1
 77
     6
 78
     2
 67
     8
425
  7895160
 79
     3
170
     0
171
     0
290
     0
174
     0
 93
        5
 44
0.0
173
     0
291
     0
 45
0.0
1001
ACAD
1000
AcDbSavedByObjectVersion
1070
     0
  0
VISUALSTYLE
  5
102E
102
{ACAD_XDICTIONARY
360
10C1
102
}
102
{ACAD_REACTORS
330
101A
102
}
330
101A
100
AcDbVisualStyle
  2
Shaded with edges
 70
    26
 71
     2
 72
     2
 73
     1
 90
        2
 40
-0.6
 41
30.0
 62
     5
 63
     7
421
 16777215
 74
     1
 91
       10
 64
     7
 65
   257
 75
     2
175
     1
 42
1.0
 92
        8
 66
   257
 43
1.0
 76
     1
 77
     6
 78
     2
 67
     7
 79
     3
170
     0
171
     0
290
     0
174
     0
 93
        5
 44
0.0
173
     0
291
     0
 45
0.0
1001
ACAD
1000
AcDbSavedByObjectVersion
1070
     0
  0
VISUALSTYLE
  5
102B
102
{ACAD_XDICTIONARY
360
10BB
102
}
102
{ACAD_REACTORS
330
101A
102
}
330
101A
100
AcDbVisualStyle
  2
Shades of Gray
 70
    23
 71
     2
 72
     2
 73
     3
 90
        0
 40
-0.6
 41
-30.0
 62
     5
 63
     7
421
 16777215
 74
     2
 91
        2
 64
     7
 65
     7
 75
     1
175
     1
 42
40.0
 92
        8
 66
     7
 43
1.0
 76
     1
 77
     6
 78
     2
 67
     7
 79
     3
170
     0
171
     0
290
     0
174
     0
 93
        1
 44
0.0
173
     0
291
     0
 45
0.0
1001
ACAD
1000
AcDbSavedByObjectVersion
1070
     0
  0
VISUALSTYLE
  5
102C
102
{ACAD_XDICTIONARY
360
10BD
102
}
102
{ACAD_REACTORS
330
101A
102
}
330
101A
100
AcDbVisualStyle
  2
Sketchy
 70
    24
 71
     1
 72
     2
 73
     2
 90
        0
 40
-0.6
 41
-30.0
 62
     5
 63
     7
421
 16777215
 74
     2
 91
        2
 64
     7
 65
     7
 75
     1
175
     1
 42
40.0
 92
       11
 66
     7
 43
1.0
 76
     1
 77
     6
 78
     2
 67
     7
 79
     6
170
     0
171
     0
290
     0
174
     0
 93
        1
 44
0.0
173
     0
291
     0
 45
0.0
1001
ACAD
1000
AcDbSavedByObjectVersion
1070
     0
  0
VISUALSTYLE
  5
1027
102
{ACAD_XDICTIONARY
360
10B3
102
}
102
{ACAD_REACTORS
330
101A
102
}
330
101A
100
AcDbVisualStyle
  2
Thicken
 70
    13
 71
     2
 72
     2
 73
     0
 90
        0
 40
-0.6
 41
-30.0
 62
     5
 63
     7
421
 16777215
 74
     1
 91
        4
 64
     7
 65
   257
 75
     1
175
     1
 42
1.0
 92
       12
 66
     7
 43
1.0
 76
     1
 77
     6
 78
     2
 67
     7
 79
     5
170
     0
171
     0
290
     0
174
     0
 93
        1
 44
0.0
173
     0
291
     1
 45
0.0
1001
ACAD
1000
AcDbSavedByObjectVersion
1070
     0
  0
VISUALSTYLE
  5
1021
102
{ACAD_XDICTIONARY
360
10A7
102
}
102
{ACAD_REACTORS
330
101A
102
}
330
101A
100
AcDbVisualStyle
  2
Wireframe
 70
     5
 71
     0
 72
     2
 73
     0
 90
        0
 40
-0.6
 41
-30.0
 62
     5
 63
     7
421
 16777215
 74
     1
 91
        4
 64
     7
 65
   257
 75
     1
175
     1
 42
1.0
 92
        0
 66
   257
 43
1.0
 76
     1
 77
     6
 78
     2
 67
     7
 79
     3
170
     0
171
     0
290
     0
174
     0
 93
        1
 44
0.0
173
     0
291
     0
 45
0.0
1001
ACAD
1000
AcDbSavedByObjectVersion
1070
     0
  0
VISUALSTYLE
  5
102D
102
{ACAD_XDICTIONARY
360
10BF
102
}
102
{ACAD_REACTORS
330
101A
102
}
330
101A
100
AcDbVisualStyle
  2
X-Ray
 70
    25
 71
     2
 72
     2
 73
     1
 90
        1
 40
0.5
 41
-30.0
 62
     5
 63
     7
421
 16777215
 74
     1
 91
        0
 64
     7
 65
   257
 75
     1
175
     1
 42
1.0
 92
        8
 66
     7
 43
1.0
 76
     1
 77
     6
 78
     2
 67
     7
 79
     3
170
     0
171
     0
290
     0
174
     0
 93
       13
 44
0.0
173
     0
291
     0
 45
0.0
1001
ACAD
1000
AcDbSavedByObjectVersion
1070
     0
  0
DICTIONARYVAR
  5
1090
102
{ACAD_REACTORS
330
108C
102
}
330
108C
100
DictionaryVariables
280
     0
  1
1:1
  0
DICTIONARYVAR
  5
108E
102
{ACAD_REACTORS
330
108C
102
}
330
108C
100
DictionaryVariables
280
     0
  1
STANDARD
  0
DICTIONARYVAR
  5
108D
102
{ACAD_REACTORS
330
108C
102
}
330
108C
100
DictionaryVariables
280
     0
  1
STANDARD
  0
DICTIONARYVAR
  5
1092
102
{ACAD_REACTORS
330
108C
102
}
330
108C
100
DictionaryVariables
280
     0
  1
1
  0
DICTIONARYVAR
  5
1093
102
{ACAD_REACTORS
330
108C
102
}
330
108C
100
DictionaryVariables
280
     0
  1
15
  0
DICTIONARYVAR
  5
1091
102
{ACAD_REACTORS
330
108C
102
}
330
108C
100
DictionaryVariables
280
     0
  1
0
  0
DICTIONARYVAR
  5
108F
102
{ACAD_REACTORS
330
108C
102
}
330
108C
100
DictionaryVariables
280
     0
  1
0
  0
DICTIONARYVAR
  5
1094
102
{ACAD_REACTORS
330
108C
102
}
330
108C
100
DictionaryVariables
280
     0
  1
2
  0
XRECORD
  5
1082
102
{ACAD_REACTORS
330
1081
102
}
330
1081
100
AcDbXrecord
280
     1
1000
ADE02C001
1070
     1
1070
     0
1002
{
1002
}
1002
{
1002
}
1002
{
1002
}
1000

  0
XRECORD
  5
108A
102
{ACAD_REACTORS
330
1089
102
}
330
1089
100
AcDbXrecord
280
     1
  0
DMSTYLIZEDENTITIESTABLE
  5
107F
102
{ACAD_REACTORS
330
106B
102
}
330
106B
100
AcMapDMStylizedEntitiesTable
 70
     1
  0
DICTIONARY
  5
1072
102
{ACAD_REACTORS
330
106B
102
}
330
106B
100
AcDbDictionary
280
     1
281
     1
  0
DATATABLE
  5
106F
102
{ACAD_REACTORS
330
106B
102
}
330
106B
100
AcDbDataTable
 70
     2
 90
        4
 91
       15
  1

 92
        3
  2
OriginalClassName
  3
AcMapDMDefaultStyle
  3
AcMapDMEntityStyle
  3
AcMapDMRasterStyle
  3
AcMapDMSEAnnotationStyle
  3
AcMapDMSEHatchStyle
  3
AcMapDMSETextStyle
  3
AcMapDMThematicStyle
  3
AcMapDMBaseElement
  3
AcMapDMAttachedDwgsQueryElement
  3
AcMapDMFeatureElement
  3
AcMapDMLayerElement
  3
AcMapDMCurrentDwgQueryElement
  3
AcMapDMRasterElement
  3
AcMapDMTopoElement
  3
AcMapDMTopoQueryElement
 92
        3
  2
ProxyDisplayName
  3
Default
  3
Entity
  3
Raster
  3
Annotation
  3
Hatch
  3
Text
  3
Thematic
  3
Map Base
  3
Ade Query
  3
Feature Class
  3
Layer
  3
Ade Project Query
  3
Raster
  3
Topology
  3
Topology Query
 92
        1
  2
CustomObjectType
 93
        2
 93
        2
 93
        2
 93
        2
 93
        2
 93
        2
 93
        2
 93
        1
 93
        1
 93
        1
 93
        1
 93
        1
 93
        1
 93
        1
 93
        1
 92
        1
  2
StyleCoExistanceType
 93
        1
 93
        1
 93
        1
 93
        1
 93
        1
 93
        1
 93
        2
 93
        0
 93
        0
 93
        0
 93
        0
 93
        0
 93
        0
 93
        0
 93
        0
  0
DMMAPMANAGER
  5
106C
102
{ACAD_REACTORS
330
106B
102
}
330
106B
100
AcDbDictionary
281
     1
  3
DisplayMap1
350
1074
100
AcDbDictionaryWithDefault
340
1074
100
AcMapDMMapManager
 70
     1
340
1074
  0
DMSTYLELIBRARY
  5
106D
102
{ACAD_REACTORS
330
106B
102
}
330
106B
100
AcMapDMStyleLibrary
 70
     1
 70
     1
360
106E
  0
DICTIONARY
  5
1080
102
{ACAD_REACTORS
330
106B
102
}
330
106B
100
AcDbDictionary
281
     1
  0
DICTIONARY
  5
100B
330
100A
100
AcDbDictionary
280
     1
281
     1
  3
BUMPTILE
360
100D
  3
DIFFUSETILE
360
100C
  3
OPACITYTILE
360
1010
  3
REFLECTIONTILE
360
100F
  3
REFRACTIONTILE
360
1011
  3
SPECULARTILE
360
100E
  0
DICTIONARY
  5
1003
330
1002
100
AcDbDictionary
280
     1
281
     1
  3
BUMPTILE
360
1005
  3
DIFFUSETILE
360
1004
  3
OPACITYTILE
360
1008
  3
REFLECTIONTILE
360
1007
  3
REFRACTIONTILE
360
1009
  3
SPECULARTILE
360
1006
  0
DICTIONARY
  5
1013
330
1012
100
AcDbDictionary
280
     1
281
     1
  3
BUMPTILE
360
1015
  3
DIFFUSETILE
360
1014
  3
OPACITYTILE
360
1018
  3
REFLECTIONTILE
360
1017
  3
REFRACTIONTILE
360
1019
  3
SPECULARTILE
360
1016
  0
DICTIONARY
  5
1098
330
1076
100
AcDbDictionary
280
     1
281
     1
  3
ACAD_ROUNDTRIP_2008_TABLESTYLE_CELLSTYLEMAP
360
1099
  0
DICTIONARY
  5
1096
330
1055
100
AcDbDictionary
280
     1
281
     1
  3
ACAD_ROUNDTRIP_2008_TABLESTYLE_CELLSTYLEMAP
360
1097
  0
DICTIONARY
  5
10A5
330
1020
100
AcDbDictionary
280
     1
281
     1
  3
ACAD_XREC_ROUNDTRIP
360
10A6
  0
DICTIONARY
  5
10A3
330
101F
100
AcDbDictionary
280
     1
281
     1
  3
ACAD_XREC_ROUNDTRIP
360
10A4
  0
DICTIONARY
  5
10B1
330
1026
100
AcDbDictionary
280
     1
281
     1
  3
ACAD_XREC_ROUNDTRIP
360
10B2
  0
DICTIONARY
  5
10B9
330
102A
100
AcDbDictionary
280
     1
281
     1
  3
ACAD_XREC_ROUNDTRIP
360
10BA
  0
DICTIONARY
  5
10AB
330
1023
100
AcDbDictionary
280
     1
281
     1
  3
ACAD_XREC_ROUNDTRIP
360
10AC
  0
DICTIONARY
  5
10AF
330
1025
100
AcDbDictionary
280
     1
281
     1
  3
ACAD_XREC_ROUNDTRIP
360
10B0
  0
DICTIONARY
  5
10C9
330
1032
100
AcDbDictionary
280
     1
281
     1
  3
ACAD_XREC_ROUNDTRIP
360
10CA
  0
DICTIONARY
  5
10B7
330
1029
100
AcDbDictionary
280
     1
281
     1
  3
ACAD_XREC_ROUNDTRIP
360
10B8
  0
DICTIONARY
  5
109B
330
101B
100
AcDbDictionary
280
     1
281
     1
  3
ACAD_XREC_ROUNDTRIP
360
109C
  0
DICTIONARY
  5
109D
330
101C
100
AcDbDictionary
280
     1
281
     1
  3
ACAD_XREC_ROUNDTRIP
360
109E
  0
DICTIONARY
  5
109F
330
101D
100
AcDbDictionary
280
     1
281
     1
  3
ACAD_XREC_ROUNDTRIP
360
10A0
  0
DICTIONARY
  5
10A1
330
101E
100
AcDbDictionary
280
     1
281
     1
  3
ACAD_XREC_ROUNDTRIP
360
10A2
  0
DICTIONARY
  5
10A9
330
1022
100
AcDbDictionary
280
     1
281
     1
  3
ACAD_XREC_ROUNDTRIP
360
10AA
  0
DICTIONARY
  5
10C5
330
1030
100
AcDbDictionary
280
     1
281
     1
  3
ACAD_XREC_ROUNDTRIP
360
10C6
  0
DICTIONARY
  5
10B5
330
1028
100
AcDbDictionary
280
     1
281
     1
  3
ACAD_XREC_ROUNDTRIP
360
10B6
  0
DICTIONARY
  5
10C7
330
1031
100
AcDbDictionary
280
     1
281
     1
  3
ACAD_XREC_ROUNDTRIP
360
10C8
  0
DICTIONARY
  5
10AD
330
1024
100
AcDbDictionary
280
     1
281
     1
  3
ACAD_XREC_ROUNDTRIP
360
10AE
  0
DICTIONARY
  5
10C3
330
102F
100
AcDbDictionary
280
     1
281
     1
  3
ACAD_XREC_ROUNDTRIP
360
10C4
  0
DICTIONARY
  5
10C1
330
102E
100
AcDbDictionary
280
     1
281
     1
  3
ACAD_XREC_ROUNDTRIP
360
10C2
  0
DICTIONARY
  5
10BB
330
102B
100
AcDbDictionary
280
     1
281
     1
  3
ACAD_XREC_ROUNDTRIP
360
10BC
  0
DICTIONARY
  5
10BD
330
102C
100
AcDbDictionary
280
     1
281
     1
  3
ACAD_XREC_ROUNDTRIP
360
10BE
  0
DICTIONARY
  5
10B3
330
1027
100
AcDbDictionary
280
     1
281
     1
  3
ACAD_XREC_ROUNDTRIP
360
10B4
  0
DICTIONARY
  5
10A7
330
1021
100
AcDbDictionary
280
     1
281
     1
  3
ACAD_XREC_ROUNDTRIP
360
10A8
  0
DICTIONARY
  5
10BF
330
102D
100
AcDbDictionary
280
     1
281
     1
  3
ACAD_XREC_ROUNDTRIP
360
10C0
  0
DMMAP
  5
1074
102
{ACAD_REACTORS
330
106C
330
1077
102
}
330
106C
100
AcMapDMMap
 70
     1
  1
Default
 70
     1
330
0
100
AcMapDMMap
 70
     1
 90
        1
360
1077
 90
        1
 40
1.797693134862314E+99
 70
     1
100
AcMapDMMap
 70
     5
 70
     0
 40
1.797693134862314E+99
290
     1
290
     1
 40
1.0
 40
3.0
  1
Legend
 90
        1
 40
1.797693134862314E+99
  1

 70
     0
 40
1.0
 70
     1
 90
        0
 90
        1
360
1078
 40
233325.0837706277
290
     0
290
     1
 40
1.0
 90
    40
290
     0
290
     1
 40
45.0
 40
45.0
  0
DMSTYLECATEGORY
  5
106E
102
{ACAD_REACTORS
330
106D
102
}
330
106D
100
AcMapDMStyleCategory
 70
     1
  1
Display Styles
 70
     0
  0
XRECORD
  5
100D
102
{ACAD_REACTORS
330
100B
102
}
330
100B
100
AcDbXrecord
280
     1
270
     1
271
     1
  0
XRECORD
  5
100C
102
{ACAD_REACTORS
330
100B
102
}
330
100B
100
AcDbXrecord
280
     1
270
     1
271
     1
  0
XRECORD
  5
1010
102
{ACAD_REACTORS
330
100B
102
}
330
100B
100
AcDbXrecord
280
     1
270
     1
271
     1
  0
XRECORD
  5
100F
102
{ACAD_REACTORS
330
100B
102
}
330
100B
100
AcDbXrecord
280
     1
270
     1
271
     1
  0
XRECORD
  5
1011
102
{ACAD_REACTORS
330
100B
102
}
330
100B
100
AcDbXrecord
280
     1
270
     1
271
     1
  0
XRECORD
  5
100E
102
{ACAD_REACTORS
330
100B
102
}
330
100B
100
AcDbXrecord
280
     1
270
     1
271
     1
  0
XRECORD
  5
1005
102
{ACAD_REACTORS
330
1003
102
}
330
1003
100
AcDbXrecord
280
     1
270
     1
271
     1
  0
XRECORD
  5
1004
102
{ACAD_REACTORS
330
1003
102
}
330
1003
100
AcDbXrecord
280
     1
270
     1
271
     1
  0
XRECORD
  5
1008
102
{ACAD_REACTORS
330
1003
102
}
330
1003
100
AcDbXrecord
280
     1
270
     1
271
     1
  0
XRECORD
  5
1007
102
{ACAD_REACTORS
330
1003
102
}
330
1003
100
AcDbXrecord
280
     1
270
     1
271
     1
  0
XRECORD
  5
1009
102
{ACAD_REACTORS
330
1003
102
}
330
1003
100
AcDbXrecord
280
     1
270
     1
271
     1
  0
XRECORD
  5
1006
102
{ACAD_REACTORS
330
1003
102
}
330
1003
100
AcDbXrecord
280
     1
270
     1
271
     1
  0
XRECORD
  5
1015
102
{ACAD_REACTORS
330
1013
102
}
330
1013
100
AcDbXrecord
280
     1
270
     1
271
     1
  0
XRECORD
  5
1014
102
{ACAD_REACTORS
330
1013
102
}
330
1013
100
AcDbXrecord
280
     1
270
     1
271
     1
  0
XRECORD
  5
1018
102
{ACAD_REACTORS
330
1013
102
}
330
1013
100
AcDbXrecord
280
     1
270
     1
271
     1
  0
XRECORD
  5
1017
102
{ACAD_REACTORS
330
1013
102
}
330
1013
100
AcDbXrecord
280
     1
270
     1
271
     1
  0
XRECORD
  5
1019
102
{ACAD_REACTORS
330
1013
102
}
330
1013
100
AcDbXrecord
280
     1
270
     1
271
     1
  0
XRECORD
  5
1016
102
{ACAD_REACTORS
330
1013
102
}
330
1013
100
AcDbXrecord
280
     1
270
     1
271
     1
  0
CELLSTYLEMAP
  5
1099
102
{ACAD_REACTORS
330
1098
102
}
330
1098
100
AcDbCellStyleMap
 90
        3
300
CELLSTYLE
  1
TABLEFORMAT_BEGIN
 90
        5
170
     1
 91
        0
 92
    32768
 62
   257
 93
        1
300
CONTENTFORMAT
  1
CONTENTFORMAT_BEGIN
 90
        0
 91
        0
 92
      512
 93
        0
300

 40
0.0
140
1.0
 94
        5
 62
     0
340
1075
144
0.5
309
CONTENTFORMAT_END
171
     0
 94
        6
 95
        1
302
GRIDFORMAT
  1
GRIDFORMAT_BEGIN
 90
        0
 91
        1
 62
     0
 92
       -2
340
0
 93
        1
 40
0.045
309
GRIDFORMAT_END
 95
        2
302
GRIDFORMAT
  1
GRIDFORMAT_BEGIN
 90
        0
 91
        1
 62
     0
 92
       -2
340
0
 93
        1
 40
0.045
309
GRIDFORMAT_END
 95
        4
302
GRIDFORMAT
  1
GRIDFORMAT_BEGIN
 90
        0
 91
        1
 62
     0
 92
       -2
340
0
 93
        1
 40
0.045
309
GRIDFORMAT_END
 95
        8
302
GRIDFORMAT
  1
GRIDFORMAT_BEGIN
 90
        0
 91
        1
 62
     0
 92
       -2
340
0
 93
        1
 40
0.045
309
GRIDFORMAT_END
 95
       16
302
GRIDFORMAT
  1
GRIDFORMAT_BEGIN
 90
        0
 91
        1
 62
     0
 92
       -2
340
0
 93
        1
 40
0.045
309
GRIDFORMAT_END
 95
       32
302
GRIDFORMAT
  1
GRIDFORMAT_BEGIN
 90
        0
 91
        1
 62
     0
 92
       -2
340
0
 93
        1
 40
0.045
309
GRIDFORMAT_END
309
TABLEFORMAT_END
  1
CELLSTYLE_BEGIN
 90
        1
 91
        1
300
_TITLE
309
CELLSTYLE_END
300
CELLSTYLE
  1
TABLEFORMAT_BEGIN
 90
        5
170
     1
 91
        0
 92
        0
 62
   257
 93
        1
300
CONTENTFORMAT
  1
CONTENTFORMAT_BEGIN
 90
        0
 91
        0
 92
      512
 93
        0
300

 40
0.0
140
1.0
 94
        4
 62
     0
340
1075
144
0.4
309
CONTENTFORMAT_END
171
     0
 94
        6
 95
        1
302
GRIDFORMAT
  1
GRIDFORMAT_BEGIN
 90
        0
 91
        1
 62
     0
 92
       -2
340
0
 93
        1
 40
0.045
309
GRIDFORMAT_END
 95
        2
302
GRIDFORMAT
  1
GRIDFORMAT_BEGIN
 90
        0
 91
        1
 62
     0
 92
       -2
340
0
 93
        1
 40
0.045
309
GRIDFORMAT_END
 95
        4
302
GRIDFORMAT
  1
GRIDFORMAT_BEGIN
 90
        0
 91
        1
 62
     0
 92
       -2
340
0
 93
        1
 40
0.045
309
GRIDFORMAT_END
 95
        8
302
GRIDFORMAT
  1
GRIDFORMAT_BEGIN
 90
        0
 91
        1
 62
     0
 92
       -2
340
0
 93
        1
 40
0.045
309
GRIDFORMAT_END
 95
       16
302
GRIDFORMAT
  1
GRIDFORMAT_BEGIN
 90
        0
 91
        1
 62
     0
 92
       -2
340
0
 93
        1
 40
0.045
309
GRIDFORMAT_END
 95
       32
302
GRIDFORMAT
  1
GRIDFORMAT_BEGIN
 90
        0
 91
        1
 62
     0
 92
       -2
340
0
 93
        1
 40
0.045
309
GRIDFORMAT_END
309
TABLEFORMAT_END
  1
CELLSTYLE_BEGIN
 90
        2
 91
        1
300
_HEADER
309
CELLSTYLE_END
300
CELLSTYLE
  1
TABLEFORMAT_BEGIN
 90
        5
170
     1
 91
        0
 92
        0
 62
   257
 93
        1
300
CONTENTFORMAT
  1
CONTENTFORMAT_BEGIN
 90
        0
 91
        0
 92
      512
 93
        0
300

 40
0.0
140
1.0
 94
        4
 62
     0
340
1075
144
0.4
309
CONTENTFORMAT_END
171
     0
 94
        6
 95
        1
302
GRIDFORMAT
  1
GRIDFORMAT_BEGIN
 90
        0
 91
        1
 62
     0
 92
       -2
340
0
 93
        1
 40
0.045
309
GRIDFORMAT_END
 95
        2
302
GRIDFORMAT
  1
GRIDFORMAT_BEGIN
 90
        0
 91
        1
 62
     0
 92
       -2
340
0
 93
        1
 40
0.045
309
GRIDFORMAT_END
 95
        4
302
GRIDFORMAT
  1
GRIDFORMAT_BEGIN
 90
        0
 91
        1
 62
     0
 92
       -2
340
0
 93
        1
 40
0.045
309
GRIDFORMAT_END
 95
        8
302
GRIDFORMAT
  1
GRIDFORMAT_BEGIN
 90
        0
 91
        1
 62
     0
 92
       -2
340
0
 93
        1
 40
0.045
309
GRIDFORMAT_END
 95
       16
302
GRIDFORMAT
  1
GRIDFORMAT_BEGIN
 90
        0
 91
        1
 62
     0
 92
       -2
340
0
 93
        1
 40
0.045
309
GRIDFORMAT_END
 95
       32
302
GRIDFORMAT
  1
GRIDFORMAT_BEGIN
 90
        0
 91
        1
 62
     0
 92
       -2
340
0
 93
        1
 40
0.045
309
GRIDFORMAT_END
309
TABLEFORMAT_END
  1
CELLSTYLE_BEGIN
 90
        3
 91
        2
300
_DATA
309
CELLSTYLE_END
  0
CELLSTYLEMAP
  5
1097
102
{ACAD_REACTORS
330
1096
102
}
330
1096
100
AcDbCellStyleMap
 90
        3
300
CELLSTYLE
  1
TABLEFORMAT_BEGIN
 90
        5
170
     1
 91
        0
 92
    32768
 62
   257
 93
        1
300
CONTENTFORMAT
  1
CONTENTFORMAT_BEGIN
 90
        0
 91
        0
 92
      512
 93
        0
300

 40
0.0
140
1.0
 94
        5
 62
     0
340
1046
144
0.25
309
CONTENTFORMAT_END
171
     0
 94
        0
309
TABLEFORMAT_END
  1
CELLSTYLE_BEGIN
 90
        1
 91
        1
300
_TITLE
309
CELLSTYLE_END
300
CELLSTYLE
  1
TABLEFORMAT_BEGIN
 90
        5
170
     1
 91
        0
 92
        0
 62
   257
 93
        1
300
CONTENTFORMAT
  1
CONTENTFORMAT_BEGIN
 90
        0
 91
        0
 92
      512
 93
        0
300

 40
0.0
140
1.0
 94
        5
 62
     0
340
1046
144
0.18
309
CONTENTFORMAT_END
171
     0
 94
        0
309
TABLEFORMAT_END
  1
CELLSTYLE_BEGIN
 90
        2
 91
        1
300
_HEADER
309
CELLSTYLE_END
300
CELLSTYLE
  1
TABLEFORMAT_BEGIN
 90
        5
170
     1
 91
        0
 92
        0
 62
   257
 93
        1
300
CONTENTFORMAT
  1
CONTENTFORMAT_BEGIN
 90
        0
 91
        0
 92
      512
 93
        0
300

 40
0.0
140
1.0
 94
        2
 62
     0
340
1046
144
0.18
309
CONTENTFORMAT_END
171
     0
 94
        0
309
TABLEFORMAT_END
  1
CELLSTYLE_BEGIN
 90
        3
 91
        2
300
_DATA
309
CELLSTYLE_END
  0
XRECORD
  5
10A6
102
{ACAD_REACTORS
330
10A5
102
}
330
10A5
100
AcDbXrecord
280
     1
102
RTVSPropertyOp0
 70
     1
102
RTVSPropertyOp1
 70
     1
102
RTVSPropertyOp2
 70
     1
102
RTVSPropertyOp3
 70
     1
102
RTVSPropertyOp4
 70
     1
102
RTVSPropertyOp5
 70
     1
102
RTVSPropertyOp6
 70
     1
102
RTVSPropertyOp7
 70
     1
102
RTVSPropertyOp8
 70
     1
102
RTVSPropertyOp9
 70
     1
102
RTVSPropertyOp10
 70
     1
102
RTVSPropertyOp11
 70
     1
102
RTVSPropertyOp12
 70
     1
102
RTVSPropertyOp13
 70
     1
102
RTVSPropertyOp14
 70
     1
102
RTVSPropertyOp15
 70
     1
102
RTVSPropertyOp16
 70
     1
102
RTVSPropertyOp17
 70
     1
102
RTVSPropertyOp18
 70
     1
102
RTVSPropertyOp19
 70
     1
102
RTVSPropertyOp20
 70
     1
102
RTVSPropertyOp21
 70
     1
102
RTVSPropertyOp22
 70
     1
102
RTVSPropertyOp23
 70
     1
102
RTVSPropertyOp24
 70
     1
102
RTVSPropertyOp25
 70
     1
102
RTVSPropertyOp26
 70
     1
102
RTVSPropertyOp27
 70
     1
102
RTVSPropertyOp28
 70
     1
102
RTVSPropertyOp29
 70
     1
102
RTVSPropertyOp30
 70
     1
102
RTVSPropertyOp31
 70
     1
102
RTVSPropertyOp32
 70
     1
  0
XRECORD
  5
10A4
102
{ACAD_REACTORS
330
10A3
102
}
330
10A3
100
AcDbXrecord
280
     1
102
RTVSPropertyOp0
 70
     1
102
RTVSPropertyOp1
 70
     1
102
RTVSPropertyOp2
 70
     1
102
RTVSPropertyOp3
 70
     1
102
RTVSPropertyOp4
 70
     1
102
RTVSPropertyOp5
 70
     1
102
RTVSPropertyOp6
 70
     1
102
RTVSPropertyOp7
 70
     1
102
RTVSPropertyOp8
 70
     1
102
RTVSPropertyOp9
 70
     1
102
RTVSPropertyOp10
 70
     1
102
RTVSPropertyOp11
 70
     1
102
RTVSPropertyOp12
 70
     1
102
RTVSPropertyOp13
 70
     1
102
RTVSPropertyOp14
 70
     1
102
RTVSPropertyOp15
 70
     1
102
RTVSPropertyOp16
 70
     1
102
RTVSPropertyOp17
 70
     1
102
RTVSPropertyOp18
 70
     1
102
RTVSPropertyOp19
 70
     1
102
RTVSPropertyOp20
 70
     1
102
RTVSPropertyOp21
 70
     1
102
RTVSPropertyOp22
 70
     1
102
RTVSPropertyOp23
 70
     1
102
RTVSPropertyOp24
 70
     1
102
RTVSPropertyOp25
 70
     1
102
RTVSPropertyOp26
 70
     1
102
RTVSPropertyOp27
 70
     1
102
RTVSPropertyOp28
 70
     1
102
RTVSPropertyOp29
 70
     1
102
RTVSPropertyOp30
 70
     1
102
RTVSPropertyOp31
 70
     1
102
RTVSPropertyOp32
 70
     1
  0
XRECORD
  5
10B2
102
{ACAD_REACTORS
330
10B1
102
}
330
10B1
100
AcDbXrecord
280
     1
102
RTVSPropertyOp0
 70
     1
102
RTVSPropertyOp1
 70
     1
102
RTVSPropertyOp2
 70
     1
102
RTVSPropertyOp3
 70
     1
102
RTVSPropertyOp4
 70
     1
102
RTVSPropertyOp5
 70
     1
102
RTVSPropertyOp6
 70
     1
102
RTVSPropertyOp7
 70
     1
102
RTVSPropertyOp8
 70
     1
102
RTVSPropertyOp9
 70
     1
102
RTVSPropertyOp10
 70
     1
102
RTVSPropertyOp11
 70
     1
102
RTVSPropertyOp12
 70
     1
102
RTVSPropertyOp13
 70
     1
102
RTVSPropertyOp14
 70
     1
102
RTVSPropertyOp15
 70
     1
102
RTVSPropertyOp16
 70
     1
102
RTVSPropertyOp17
 70
     1
102
RTVSPropertyOp18
 70
     1
102
RTVSPropertyOp19
 70
     1
102
RTVSPropertyOp20
 70
     1
102
RTVSPropertyOp21
 70
     1
102
RTVSPropertyOp22
 70
     1
102
RTVSPropertyOp23
 70
     1
102
RTVSPropertyOp24
 70
     1
102
RTVSPropertyOp25
 70
     1
102
RTVSPropertyOp26
 70
     1
102
RTVSPropertyOp27
 70
     1
102
RTVSPropertyOp28
 70
     1
102
RTVSPropertyOp29
 70
     1
102
RTVSPropertyOp30
 70
     1
102
RTVSPropertyOp31
 70
     1
102
RTVSPropertyOp32
 70
     1
  0
XRECORD
  5
10BA
102
{ACAD_REACTORS
330
10B9
102
}
330
10B9
100
AcDbXrecord
280
     1
102
RTVSPropertyOp0
 70
     1
102
RTVSPropertyOp1
 70
     1
102
RTVSPropertyOp2
 70
     1
102
RTVSPropertyOp3
 70
     1
102
RTVSPropertyOp4
 70
     1
102
RTVSPropertyOp5
 70
     1
102
RTVSPropertyOp6
 70
     1
102
RTVSPropertyOp7
 70
     1
102
RTVSPropertyOp8
 70
     1
102
RTVSPropertyOp9
 70
     1
102
RTVSPropertyOp10
 70
     1
102
RTVSPropertyOp11
 70
     1
102
RTVSPropertyOp12
 70
     1
102
RTVSPropertyOp13
 70
     1
102
RTVSPropertyOp14
 70
     1
102
RTVSPropertyOp15
 70
     1
102
RTVSPropertyOp16
 70
     1
102
RTVSPropertyOp17
 70
     1
102
RTVSPropertyOp18
 70
     1
102
RTVSPropertyOp19
 70
     1
102
RTVSPropertyOp20
 70
     1
102
RTVSPropertyOp21
 70
     1
102
RTVSPropertyOp22
 70
     1
102
RTVSPropertyOp23
 70
     1
102
RTVSPropertyOp24
 70
     1
102
RTVSPropertyOp25
 70
     1
102
RTVSPropertyOp26
 70
     1
102
RTVSPropertyOp27
 70
     1
102
RTVSPropertyOp28
 70
     1
102
RTVSPropertyOp29
 70
     1
102
RTVSPropertyOp30
 70
     1
102
RTVSPropertyOp31
 70
     1
102
RTVSPropertyOp32
 70
     1
  0
XRECORD
  5
10AC
102
{ACAD_REACTORS
330
10AB
102
}
330
10AB
100
AcDbXrecord
280
     1
102
RTVSPropertyOp0
 70
     1
102
RTVSPropertyOp1
 70
     1
102
RTVSPropertyOp2
 70
     1
102
RTVSPropertyOp3
 70
     1
102
RTVSPropertyOp4
 70
     1
102
RTVSPropertyOp5
 70
     1
102
RTVSPropertyOp6
 70
     1
102
RTVSPropertyOp7
 70
     1
102
RTVSPropertyOp8
 70
     1
102
RTVSPropertyOp9
 70
     1
102
RTVSPropertyOp10
 70
     1
102
RTVSPropertyOp11
 70
     1
102
RTVSPropertyOp12
 70
     1
102
RTVSPropertyOp13
 70
     1
102
RTVSPropertyOp14
 70
     1
102
RTVSPropertyOp15
 70
     1
102
RTVSPropertyOp16
 70
     1
102
RTVSPropertyOp17
 70
     1
102
RTVSPropertyOp18
 70
     1
102
RTVSPropertyOp19
 70
     1
102
RTVSPropertyOp20
 70
     1
102
RTVSPropertyOp21
 70
     1
102
RTVSPropertyOp22
 70
     1
102
RTVSPropertyOp23
 70
     1
102
RTVSPropertyOp24
 70
     1
102
RTVSPropertyOp25
 70
     1
102
RTVSPropertyOp26
 70
     1
102
RTVSPropertyOp27
 70
     1
102
RTVSPropertyOp28
 70
     1
102
RTVSPropertyOp29
 70
     1
102
RTVSPropertyOp30
 70
     1
102
RTVSPropertyOp31
 70
     1
102
RTVSPropertyOp32
 70
     1
  0
XRECORD
  5
10B0
102
{ACAD_REACTORS
330
10AF
102
}
330
10AF
100
AcDbXrecord
280
     1
102
RTVSPropertyOp0
 70
     1
102
RTVSPropertyOp1
 70
     1
102
RTVSPropertyOp2
 70
     1
102
RTVSPropertyOp3
 70
     1
102
RTVSPropertyOp4
 70
     1
102
RTVSPropertyOp5
 70
     1
102
RTVSPropertyOp6
 70
     1
102
RTVSPropertyOp7
 70
     1
102
RTVSPropertyOp8
 70
     1
102
RTVSPropertyOp9
 70
     1
102
RTVSPropertyOp10
 70
     1
102
RTVSPropertyOp11
 70
     1
102
RTVSPropertyOp12
 70
     1
102
RTVSPropertyOp13
 70
     1
102
RTVSPropertyOp14
 70
     1
102
RTVSPropertyOp15
 70
     1
102
RTVSPropertyOp16
 70
     1
102
RTVSPropertyOp17
 70
     1
102
RTVSPropertyOp18
 70
     1
102
RTVSPropertyOp19
 70
     1
102
RTVSPropertyOp20
 70
     1
102
RTVSPropertyOp21
 70
     1
102
RTVSPropertyOp22
 70
     1
102
RTVSPropertyOp23
 70
     1
102
RTVSPropertyOp24
 70
     1
102
RTVSPropertyOp25
 70
     1
102
RTVSPropertyOp26
 70
     1
102
RTVSPropertyOp27
 70
     1
102
RTVSPropertyOp28
 70
     1
102
RTVSPropertyOp29
 70
     1
102
RTVSPropertyOp30
 70
     1
102
RTVSPropertyOp31
 70
     1
102
RTVSPropertyOp32
 70
     1
  0
XRECORD
  5
10CA
102
{ACAD_REACTORS
330
10C9
102
}
330
10C9
100
AcDbXrecord
280
     1
102
RTVSPropertyOp0
 70
     0
102
RTVSPropertyOp1
 70
     0
102
RTVSPropertyOp2
 70
     0
102
RTVSPropertyOp3
 70
     0
102
RTVSPropertyOp4
 70
     0
102
RTVSPropertyOp5
 70
     0
102
RTVSPropertyOp6
 70
     0
102
RTVSPropertyOp7
 70
     0
102
RTVSPropertyOp8
 70
     0
102
RTVSPropertyOp9
 70
     0
102
RTVSPropertyOp10
 70
     0
102
RTVSPropertyOp11
 70
     0
102
RTVSPropertyOp12
 70
     0
102
RTVSPropertyOp13
 70
     0
102
RTVSPropertyOp14
 70
     2
102
RTVSPropertyOp15
 70
     0
102
RTVSPropertyOp16
 70
     0
102
RTVSPropertyOp17
 70
     0
102
RTVSPropertyOp18
 70
     0
102
RTVSPropertyOp19
 70
     0
102
RTVSPropertyOp20
 70
     0
102
RTVSPropertyOp21
 70
     0
102
RTVSPropertyOp22
 70
     0
102
RTVSPropertyOp23
 70
     0
102
RTVSPropertyOp24
 70
     0
102
RTVSPropertyOp25
 70
     0
102
RTVSPropertyOp26
 70
     0
102
RTVSPropertyOp27
 70
     0
102
RTVSPropertyOp28
 70
     0
102
RTVSPropertyOp29
 70
     0
102
RTVSPropertyOp30
 70
     0
102
RTVSPropertyOp31
 70
     0
102
RTVSPropertyOp32
 70
     0
  0
XRECORD
  5
10B8
102
{ACAD_REACTORS
330
10B7
102
}
330
10B7
100
AcDbXrecord
280
     1
102
RTVSPropertyOp0
 70
     1
102
RTVSPropertyOp1
 70
     1
102
RTVSPropertyOp2
 70
     1
102
RTVSPropertyOp3
 70
     1
102
RTVSPropertyOp4
 70
     1
102
RTVSPropertyOp5
 70
     1
102
RTVSPropertyOp6
 70
     1
102
RTVSPropertyOp7
 70
     1
102
RTVSPropertyOp8
 70
     1
102
RTVSPropertyOp9
 70
     1
102
RTVSPropertyOp10
 70
     1
102
RTVSPropertyOp11
 70
     1
102
RTVSPropertyOp12
 70
     1
102
RTVSPropertyOp13
 70
     1
102
RTVSPropertyOp14
 70
     1
102
RTVSPropertyOp15
 70
     1
102
RTVSPropertyOp16
 70
     1
102
RTVSPropertyOp17
 70
     1
102
RTVSPropertyOp18
 70
     1
102
RTVSPropertyOp19
 70
     1
102
RTVSPropertyOp20
 70
     1
102
RTVSPropertyOp21
 70
     1
102
RTVSPropertyOp22
 70
     1
102
RTVSPropertyOp23
 70
     1
102
RTVSPropertyOp24
 70
     1
102
RTVSPropertyOp25
 70
     1
102
RTVSPropertyOp26
 70
     1
102
RTVSPropertyOp27
 70
     1
102
RTVSPropertyOp28
 70
     1
102
RTVSPropertyOp29
 70
     1
102
RTVSPropertyOp30
 70
     1
102
RTVSPropertyOp31
 70
     1
102
RTVSPropertyOp32
 70
     1
  0
XRECORD
  5
109C
102
{ACAD_REACTORS
330
109B
102
}
330
109B
100
AcDbXrecord
280
     1
102
RTVSPropertyOp0
 70
     1
102
RTVSPropertyOp1
 70
     1
102
RTVSPropertyOp2
 70
     1
102
RTVSPropertyOp3
 70
     1
102
RTVSPropertyOp4
 70
     1
102
RTVSPropertyOp5
 70
     1
102
RTVSPropertyOp6
 70
     1
102
RTVSPropertyOp7
 70
     1
102
RTVSPropertyOp8
 70
     1
102
RTVSPropertyOp9
 70
     1
102
RTVSPropertyOp10
 70
     1
102
RTVSPropertyOp11
 70
     1
102
RTVSPropertyOp12
 70
     1
102
RTVSPropertyOp13
 70
     1
102
RTVSPropertyOp14
 70
     1
102
RTVSPropertyOp15
 70
     1
102
RTVSPropertyOp16
 70
     1
102
RTVSPropertyOp17
 70
     1
102
RTVSPropertyOp18
 70
     1
102
RTVSPropertyOp19
 70
     1
102
RTVSPropertyOp20
 70
     1
102
RTVSPropertyOp21
 70
     1
102
RTVSPropertyOp22
 70
     1
102
RTVSPropertyOp23
 70
     1
102
RTVSPropertyOp24
 70
     1
102
RTVSPropertyOp25
 70
     1
102
RTVSPropertyOp26
 70
     1
102
RTVSPropertyOp27
 70
     1
102
RTVSPropertyOp28
 70
     1
102
RTVSPropertyOp29
 70
     1
102
RTVSPropertyOp30
 70
     1
102
RTVSPropertyOp31
 70
     1
102
RTVSPropertyOp32
 70
     1
  0
XRECORD
  5
109E
102
{ACAD_REACTORS
330
109D
102
}
330
109D
100
AcDbXrecord
280
     1
102
RTVSPropertyOp0
 70
     1
102
RTVSPropertyOp1
 70
     1
102
RTVSPropertyOp2
 70
     1
102
RTVSPropertyOp3
 70
     1
102
RTVSPropertyOp4
 70
     1
102
RTVSPropertyOp5
 70
     1
102
RTVSPropertyOp6
 70
     1
102
RTVSPropertyOp7
 70
     1
102
RTVSPropertyOp8
 70
     1
102
RTVSPropertyOp9
 70
     1
102
RTVSPropertyOp10
 70
     1
102
RTVSPropertyOp11
 70
     1
102
RTVSPropertyOp12
 70
     1
102
RTVSPropertyOp13
 70
     1
102
RTVSPropertyOp14
 70
     1
102
RTVSPropertyOp15
 70
     1
102
RTVSPropertyOp16
 70
     1
102
RTVSPropertyOp17
 70
     1
102
RTVSPropertyOp18
 70
     1
102
RTVSPropertyOp19
 70
     1
102
RTVSPropertyOp20
 70
     1
102
RTVSPropertyOp21
 70
     1
102
RTVSPropertyOp22
 70
     1
102
RTVSPropertyOp23
 70
     1
102
RTVSPropertyOp24
 70
     1
102
RTVSPropertyOp25
 70
     1
102
RTVSPropertyOp26
 70
     1
102
RTVSPropertyOp27
 70
     1
102
RTVSPropertyOp28
 70
     1
102
RTVSPropertyOp29
 70
     1
102
RTVSPropertyOp30
 70
     1
102
RTVSPropertyOp31
 70
     1
102
RTVSPropertyOp32
 70
     1
  0
XRECORD
  5
10A0
102
{ACAD_REACTORS
330
109F
102
}
330
109F
100
AcDbXrecord
280
     1
102
RTVSPropertyOp0
 70
     1
102
RTVSPropertyOp1
 70
     1
102
RTVSPropertyOp2
 70
     1
102
RTVSPropertyOp3
 70
     1
102
RTVSPropertyOp4
 70
     1
102
RTVSPropertyOp5
 70
     1
102
RTVSPropertyOp6
 70
     1
102
RTVSPropertyOp7
 70
     1
102
RTVSPropertyOp8
 70
     1
102
RTVSPropertyOp9
 70
     1
102
RTVSPropertyOp10
 70
     1
102
RTVSPropertyOp11
 70
     1
102
RTVSPropertyOp12
 70
     1
102
RTVSPropertyOp13
 70
     1
102
RTVSPropertyOp14
 70
     1
102
RTVSPropertyOp15
 70
     1
102
RTVSPropertyOp16
 70
     1
102
RTVSPropertyOp17
 70
     1
102
RTVSPropertyOp18
 70
     1
102
RTVSPropertyOp19
 70
     1
102
RTVSPropertyOp20
 70
     1
102
RTVSPropertyOp21
 70
     1
102
RTVSPropertyOp22
 70
     1
102
RTVSPropertyOp23
 70
     1
102
RTVSPropertyOp24
 70
     1
102
RTVSPropertyOp25
 70
     1
102
RTVSPropertyOp26
 70
     1
102
RTVSPropertyOp27
 70
     1
102
RTVSPropertyOp28
 70
     1
102
RTVSPropertyOp29
 70
     1
102
RTVSPropertyOp30
 70
     1
102
RTVSPropertyOp31
 70
     1
102
RTVSPropertyOp32
 70
     1
  0
XRECORD
  5
10A2
102
{ACAD_REACTORS
330
10A1
102
}
330
10A1
100
AcDbXrecord
280
     1
102
RTVSPropertyOp0
 70
     1
102
RTVSPropertyOp1
 70
     1
102
RTVSPropertyOp2
 70
     1
102
RTVSPropertyOp3
 70
     1
102
RTVSPropertyOp4
 70
     1
102
RTVSPropertyOp5
 70
     1
102
RTVSPropertyOp6
 70
     1
102
RTVSPropertyOp7
 70
     1
102
RTVSPropertyOp8
 70
     1
102
RTVSPropertyOp9
 70
     1
102
RTVSPropertyOp10
 70
     1
102
RTVSPropertyOp11
 70
     1
102
RTVSPropertyOp12
 70
     1
102
RTVSPropertyOp13
 70
     1
102
RTVSPropertyOp14
 70
     1
102
RTVSPropertyOp15
 70
     1
102
RTVSPropertyOp16
 70
     1
102
RTVSPropertyOp17
 70
     1
102
RTVSPropertyOp18
 70
     1
102
RTVSPropertyOp19
 70
     1
102
RTVSPropertyOp20
 70
     1
102
RTVSPropertyOp21
 70
     1
102
RTVSPropertyOp22
 70
     1
102
RTVSPropertyOp23
 70
     1
102
RTVSPropertyOp24
 70
     1
102
RTVSPropertyOp25
 70
     1
102
RTVSPropertyOp26
 70
     1
102
RTVSPropertyOp27
 70
     1
102
RTVSPropertyOp28
 70
     1
102
RTVSPropertyOp29
 70
     1
102
RTVSPropertyOp30
 70
     1
102
RTVSPropertyOp31
 70
     1
102
RTVSPropertyOp32
 70
     1
  0
XRECORD
  5
10AA
102
{ACAD_REACTORS
330
10A9
102
}
330
10A9
100
AcDbXrecord
280
     1
102
RTVSPropertyOp0
 70
     1
102
RTVSPropertyOp1
 70
     1
102
RTVSPropertyOp2
 70
     1
102
RTVSPropertyOp3
 70
     1
102
RTVSPropertyOp4
 70
     1
102
RTVSPropertyOp5
 70
     1
102
RTVSPropertyOp6
 70
     1
102
RTVSPropertyOp7
 70
     1
102
RTVSPropertyOp8
 70
     1
102
RTVSPropertyOp9
 70
     1
102
RTVSPropertyOp10
 70
     1
102
RTVSPropertyOp11
 70
     1
102
RTVSPropertyOp12
 70
     1
102
RTVSPropertyOp13
 70
     1
102
RTVSPropertyOp14
 70
     1
102
RTVSPropertyOp15
 70
     1
102
RTVSPropertyOp16
 70
     1
102
RTVSPropertyOp17
 70
     1
102
RTVSPropertyOp18
 70
     1
102
RTVSPropertyOp19
 70
     1
102
RTVSPropertyOp20
 70
     1
102
RTVSPropertyOp21
 70
     1
102
RTVSPropertyOp22
 70
     1
102
RTVSPropertyOp23
 70
     1
102
RTVSPropertyOp24
 70
     1
102
RTVSPropertyOp25
 70
     1
102
RTVSPropertyOp26
 70
     1
102
RTVSPropertyOp27
 70
     1
102
RTVSPropertyOp28
 70
     1
102
RTVSPropertyOp29
 70
     1
102
RTVSPropertyOp30
 70
     1
102
RTVSPropertyOp31
 70
     1
102
RTVSPropertyOp32
 70
     1
  0
XRECORD
  5
10C6
102
{ACAD_REACTORS
330
10C5
102
}
330
10C5
100
AcDbXrecord
280
     1
102
RTVSPropertyOp0
 70
     0
102
RTVSPropertyOp1
 70
     0
102
RTVSPropertyOp2
 70
     0
102
RTVSPropertyOp3
 70
     0
102
RTVSPropertyOp4
 70
     0
102
RTVSPropertyOp5
 70
     0
102
RTVSPropertyOp6
 70
     0
102
RTVSPropertyOp7
 70
     0
102
RTVSPropertyOp8
 70
     0
102
RTVSPropertyOp9
 70
     0
102
RTVSPropertyOp10
 70
     0
102
RTVSPropertyOp11
 70
     0
102
RTVSPropertyOp12
 70
     0
102
RTVSPropertyOp13
 70
     0
102
RTVSPropertyOp14
 70
     2
102
RTVSPropertyOp15
 70
     0
102
RTVSPropertyOp16
 70
     0
102
RTVSPropertyOp17
 70
     0
102
RTVSPropertyOp18
 70
     0
102
RTVSPropertyOp19
 70
     0
102
RTVSPropertyOp20
 70
     0
102
RTVSPropertyOp21
 70
     0
102
RTVSPropertyOp22
 70
     0
102
RTVSPropertyOp23
 70
     0
102
RTVSPropertyOp24
 70
     0
102
RTVSPropertyOp25
 70
     0
102
RTVSPropertyOp26
 70
     0
102
RTVSPropertyOp27
 70
     0
102
RTVSPropertyOp28
 70
     0
102
RTVSPropertyOp29
 70
     0
102
RTVSPropertyOp30
 70
     0
102
RTVSPropertyOp31
 70
     0
102
RTVSPropertyOp32
 70
     0
  0
XRECORD
  5
10B6
102
{ACAD_REACTORS
330
10B5
102
}
330
10B5
100
AcDbXrecord
280
     1
102
RTVSPropertyOp0
 70
     1
102
RTVSPropertyOp1
 70
     1
102
RTVSPropertyOp2
 70
     1
102
RTVSPropertyOp3
 70
     1
102
RTVSPropertyOp4
 70
     1
102
RTVSPropertyOp5
 70
     1
102
RTVSPropertyOp6
 70
     1
102
RTVSPropertyOp7
 70
     1
102
RTVSPropertyOp8
 70
     1
102
RTVSPropertyOp9
 70
     1
102
RTVSPropertyOp10
 70
     1
102
RTVSPropertyOp11
 70
     1
102
RTVSPropertyOp12
 70
     1
102
RTVSPropertyOp13
 70
     1
102
RTVSPropertyOp14
 70
     1
102
RTVSPropertyOp15
 70
     1
102
RTVSPropertyOp16
 70
     1
102
RTVSPropertyOp17
 70
     1
102
RTVSPropertyOp18
 70
     1
102
RTVSPropertyOp19
 70
     1
102
RTVSPropertyOp20
 70
     1
102
RTVSPropertyOp21
 70
     1
102
RTVSPropertyOp22
 70
     1
102
RTVSPropertyOp23
 70
     1
102
RTVSPropertyOp24
 70
     1
102
RTVSPropertyOp25
 70
     1
102
RTVSPropertyOp26
 70
     1
102
RTVSPropertyOp27
 70
     1
102
RTVSPropertyOp28
 70
     1
102
RTVSPropertyOp29
 70
     1
102
RTVSPropertyOp30
 70
     1
102
RTVSPropertyOp31
 70
     1
102
RTVSPropertyOp32
 70
     1
  0
XRECORD
  5
10C8
102
{ACAD_REACTORS
330
10C7
102
}
330
10C7
100
AcDbXrecord
280
     1
102
RTVSPropertyOp0
 70
     0
102
RTVSPropertyOp1
 70
     0
102
RTVSPropertyOp2
 70
     0
102
RTVSPropertyOp3
 70
     0
102
RTVSPropertyOp4
 70
     0
102
RTVSPropertyOp5
 70
     0
102
RTVSPropertyOp6
 70
     0
102
RTVSPropertyOp7
 70
     0
102
RTVSPropertyOp8
 70
     0
102
RTVSPropertyOp9
 70
     0
102
RTVSPropertyOp10
 70
     0
102
RTVSPropertyOp11
 70
     0
102
RTVSPropertyOp12
 70
     0
102
RTVSPropertyOp13
 70
     0
102
RTVSPropertyOp14
 70
     2
102
RTVSPropertyOp15
 70
     0
102
RTVSPropertyOp16
 70
     0
102
RTVSPropertyOp17
 70
     0
102
RTVSPropertyOp18
 70
     0
102
RTVSPropertyOp19
 70
     0
102
RTVSPropertyOp20
 70
     0
102
RTVSPropertyOp21
 70
     0
102
RTVSPropertyOp22
 70
     0
102
RTVSPropertyOp23
 70
     0
102
RTVSPropertyOp24
 70
     0
102
RTVSPropertyOp25
 70
     0
102
RTVSPropertyOp26
 70
     0
102
RTVSPropertyOp27
 70
     0
102
RTVSPropertyOp28
 70
     0
102
RTVSPropertyOp29
 70
     0
102
RTVSPropertyOp30
 70
     0
102
RTVSPropertyOp31
 70
     0
102
RTVSPropertyOp32
 70
     0
  0
XRECORD
  5
10AE
102
{ACAD_REACTORS
330
10AD
102
}
330
10AD
100
AcDbXrecord
280
     1
102
RTVSPropertyOp0
 70
     1
102
RTVSPropertyOp1
 70
     1
102
RTVSPropertyOp2
 70
     1
102
RTVSPropertyOp3
 70
     1
102
RTVSPropertyOp4
 70
     1
102
RTVSPropertyOp5
 70
     1
102
RTVSPropertyOp6
 70
     1
102
RTVSPropertyOp7
 70
     1
102
RTVSPropertyOp8
 70
     1
102
RTVSPropertyOp9
 70
     1
102
RTVSPropertyOp10
 70
     1
102
RTVSPropertyOp11
 70
     1
102
RTVSPropertyOp12
 70
     1
102
RTVSPropertyOp13
 70
     1
102
RTVSPropertyOp14
 70
     1
102
RTVSPropertyOp15
 70
     1
102
RTVSPropertyOp16
 70
     1
102
RTVSPropertyOp17
 70
     1
102
RTVSPropertyOp18
 70
     1
102
RTVSPropertyOp19
 70
     1
102
RTVSPropertyOp20
 70
     1
102
RTVSPropertyOp21
 70
     1
102
RTVSPropertyOp22
 70
     1
102
RTVSPropertyOp23
 70
     1
102
RTVSPropertyOp24
 70
     1
102
RTVSPropertyOp25
 70
     1
102
RTVSPropertyOp26
 70
     1
102
RTVSPropertyOp27
 70
     1
102
RTVSPropertyOp28
 70
     1
102
RTVSPropertyOp29
 70
     1
102
RTVSPropertyOp30
 70
     1
102
RTVSPropertyOp31
 70
     1
102
RTVSPropertyOp32
 70
     1
  0
XRECORD
  5
10C4
102
{ACAD_REACTORS
330
10C3
102
}
330
10C3
100
AcDbXrecord
280
     1
102
RTVSPropertyOp0
 70
     1
102
RTVSPropertyOp1
 70
     1
102
RTVSPropertyOp2
 70
     1
102
RTVSPropertyOp3
 70
     1
102
RTVSPropertyOp4
 70
     1
102
RTVSPropertyOp5
 70
     1
102
RTVSPropertyOp6
 70
     1
102
RTVSPropertyOp7
 70
     1
102
RTVSPropertyOp8
 70
     1
102
RTVSPropertyOp9
 70
     1
102
RTVSPropertyOp10
 70
     1
102
RTVSPropertyOp11
 70
     1
102
RTVSPropertyOp12
 70
     1
102
RTVSPropertyOp13
 70
     1
102
RTVSPropertyOp14
 70
     1
102
RTVSPropertyOp15
 70
     1
102
RTVSPropertyOp16
 70
     1
102
RTVSPropertyOp17
 70
     1
102
RTVSPropertyOp18
 70
     1
102
RTVSPropertyOp19
 70
     1
102
RTVSPropertyOp20
 70
     1
102
RTVSPropertyOp21
 70
     1
102
RTVSPropertyOp22
 70
     1
102
RTVSPropertyOp23
 70
     1
102
RTVSPropertyOp24
 70
     1
102
RTVSPropertyOp25
 70
     1
102
RTVSPropertyOp26
 70
     1
102
RTVSPropertyOp27
 70
     1
102
RTVSPropertyOp28
 70
     1
102
RTVSPropertyOp29
 70
     1
102
RTVSPropertyOp30
 70
     1
102
RTVSPropertyOp31
 70
     1
102
RTVSPropertyOp32
 70
     1
  0
XRECORD
  5
10C2
102
{ACAD_REACTORS
330
10C1
102
}
330
10C1
100
AcDbXrecord
280
     1
102
RTVSPropertyOp0
 70
     1
102
RTVSPropertyOp1
 70
     1
102
RTVSPropertyOp2
 70
     1
102
RTVSPropertyOp3
 70
     1
102
RTVSPropertyOp4
 70
     1
102
RTVSPropertyOp5
 70
     1
102
RTVSPropertyOp6
 70
     1
102
RTVSPropertyOp7
 70
     1
102
RTVSPropertyOp8
 70
     1
102
RTVSPropertyOp9
 70
     1
102
RTVSPropertyOp10
 70
     1
102
RTVSPropertyOp11
 70
     1
102
RTVSPropertyOp12
 70
     1
102
RTVSPropertyOp13
 70
     1
102
RTVSPropertyOp14
 70
     1
102
RTVSPropertyOp15
 70
     1
102
RTVSPropertyOp16
 70
     1
102
RTVSPropertyOp17
 70
     1
102
RTVSPropertyOp18
 70
     1
102
RTVSPropertyOp19
 70
     1
102
RTVSPropertyOp20
 70
     1
102
RTVSPropertyOp21
 70
     1
102
RTVSPropertyOp22
 70
     1
102
RTVSPropertyOp23
 70
     1
102
RTVSPropertyOp24
 70
     1
102
RTVSPropertyOp25
 70
     1
102
RTVSPropertyOp26
 70
     1
102
RTVSPropertyOp27
 70
     1
102
RTVSPropertyOp28
 70
     1
102
RTVSPropertyOp29
 70
     1
102
RTVSPropertyOp30
 70
     1
102
RTVSPropertyOp31
 70
     1
102
RTVSPropertyOp32
 70
     1
  0
XRECORD
  5
10BC
102
{ACAD_REACTORS
330
10BB
102
}
330
10BB
100
AcDbXrecord
280
     1
102
RTVSPropertyOp0
 70
     1
102
RTVSPropertyOp1
 70
     1
102
RTVSPropertyOp2
 70
     1
102
RTVSPropertyOp3
 70
     1
102
RTVSPropertyOp4
 70
     1
102
RTVSPropertyOp5
 70
     1
102
RTVSPropertyOp6
 70
     1
102
RTVSPropertyOp7
 70
     1
102
RTVSPropertyOp8
 70
     1
102
RTVSPropertyOp9
 70
     1
102
RTVSPropertyOp10
 70
     1
102
RTVSPropertyOp11
 70
     1
102
RTVSPropertyOp12
 70
     1
102
RTVSPropertyOp13
 70
     1
102
RTVSPropertyOp14
 70
     1
102
RTVSPropertyOp15
 70
     1
102
RTVSPropertyOp16
 70
     1
102
RTVSPropertyOp17
 70
     1
102
RTVSPropertyOp18
 70
     1
102
RTVSPropertyOp19
 70
     1
102
RTVSPropertyOp20
 70
     1
102
RTVSPropertyOp21
 70
     1
102
RTVSPropertyOp22
 70
     1
102
RTVSPropertyOp23
 70
     1
102
RTVSPropertyOp24
 70
     1
102
RTVSPropertyOp25
 70
     1
102
RTVSPropertyOp26
 70
     1
102
RTVSPropertyOp27
 70
     1
102
RTVSPropertyOp28
 70
     1
102
RTVSPropertyOp29
 70
     1
102
RTVSPropertyOp30
 70
     1
102
RTVSPropertyOp31
 70
     1
102
RTVSPropertyOp32
 70
     1
  0
XRECORD
  5
10BE
102
{ACAD_REACTORS
330
10BD
102
}
330
10BD
100
AcDbXrecord
280
     1
102
RTVSPropertyOp0
 70
     1
102
RTVSPropertyOp1
 70
     1
102
RTVSPropertyOp2
 70
     1
102
RTVSPropertyOp3
 70
     1
102
RTVSPropertyOp4
 70
     1
102
RTVSPropertyOp5
 70
     1
102
RTVSPropertyOp6
 70
     1
102
RTVSPropertyOp7
 70
     1
102
RTVSPropertyOp8
 70
     1
102
RTVSPropertyOp9
 70
     1
102
RTVSPropertyOp10
 70
     1
102
RTVSPropertyOp11
 70
     1
102
RTVSPropertyOp12
 70
     1
102
RTVSPropertyOp13
 70
     1
102
RTVSPropertyOp14
 70
     1
102
RTVSPropertyOp15
 70
     1
102
RTVSPropertyOp16
 70
     1
102
RTVSPropertyOp17
 70
     1
102
RTVSPropertyOp18
 70
     1
102
RTVSPropertyOp19
 70
     1
102
RTVSPropertyOp20
 70
     1
102
RTVSPropertyOp21
 70
     1
102
RTVSPropertyOp22
 70
     1
102
RTVSPropertyOp23
 70
     1
102
RTVSPropertyOp24
 70
     1
102
RTVSPropertyOp25
 70
     1
102
RTVSPropertyOp26
 70
     1
102
RTVSPropertyOp27
 70
     1
102
RTVSPropertyOp28
 70
     1
102
RTVSPropertyOp29
 70
     1
102
RTVSPropertyOp30
 70
     1
102
RTVSPropertyOp31
 70
     1
102
RTVSPropertyOp32
 70
     1
  0
XRECORD
  5
10B4
102
{ACAD_REACTORS
330
10B3
102
}
330
10B3
100
AcDbXrecord
280
     1
102
RTVSPropertyOp0
 70
     1
102
RTVSPropertyOp1
 70
     1
102
RTVSPropertyOp2
 70
     1
102
RTVSPropertyOp3
 70
     1
102
RTVSPropertyOp4
 70
     1
102
RTVSPropertyOp5
 70
     1
102
RTVSPropertyOp6
 70
     1
102
RTVSPropertyOp7
 70
     1
102
RTVSPropertyOp8
 70
     1
102
RTVSPropertyOp9
 70
     1
102
RTVSPropertyOp10
 70
     1
102
RTVSPropertyOp11
 70
     1
102
RTVSPropertyOp12
 70
     1
102
RTVSPropertyOp13
 70
     1
102
RTVSPropertyOp14
 70
     1
102
RTVSPropertyOp15
 70
     1
102
RTVSPropertyOp16
 70
     1
102
RTVSPropertyOp17
 70
     1
102
RTVSPropertyOp18
 70
     1
102
RTVSPropertyOp19
 70
     1
102
RTVSPropertyOp20
 70
     1
102
RTVSPropertyOp21
 70
     1
102
RTVSPropertyOp22
 70
     1
102
RTVSPropertyOp23
 70
     1
102
RTVSPropertyOp24
 70
     1
102
RTVSPropertyOp25
 70
     1
102
RTVSPropertyOp26
 70
     1
102
RTVSPropertyOp27
 70
     1
102
RTVSPropertyOp28
 70
     1
102
RTVSPropertyOp29
 70
     1
102
RTVSPropertyOp30
 70
     1
102
RTVSPropertyOp31
 70
     1
102
RTVSPropertyOp32
 70
     1
  0
XRECORD
  5
10A8
102
{ACAD_REACTORS
330
10A7
102
}
330
10A7
100
AcDbXrecord
280
     1
102
RTVSPropertyOp0
 70
     1
102
RTVSPropertyOp1
 70
     1
102
RTVSPropertyOp2
 70
     1
102
RTVSPropertyOp3
 70
     1
102
RTVSPropertyOp4
 70
     1
102
RTVSPropertyOp5
 70
     1
102
RTVSPropertyOp6
 70
     1
102
RTVSPropertyOp7
 70
     1
102
RTVSPropertyOp8
 70
     1
102
RTVSPropertyOp9
 70
     1
102
RTVSPropertyOp10
 70
     1
102
RTVSPropertyOp11
 70
     1
102
RTVSPropertyOp12
 70
     1
102
RTVSPropertyOp13
 70
     1
102
RTVSPropertyOp14
 70
     1
102
RTVSPropertyOp15
 70
     1
102
RTVSPropertyOp16
 70
     1
102
RTVSPropertyOp17
 70
     1
102
RTVSPropertyOp18
 70
     1
102
RTVSPropertyOp19
 70
     1
102
RTVSPropertyOp20
 70
     1
102
RTVSPropertyOp21
 70
     1
102
RTVSPropertyOp22
 70
     1
102
RTVSPropertyOp23
 70
     1
102
RTVSPropertyOp24
 70
     1
102
RTVSPropertyOp25
 70
     1
102
RTVSPropertyOp26
 70
     1
102
RTVSPropertyOp27
 70
     1
102
RTVSPropertyOp28
 70
     1
102
RTVSPropertyOp29
 70
     1
102
RTVSPropertyOp30
 70
     1
102
RTVSPropertyOp31
 70
     1
102
RTVSPropertyOp32
 70
     1
  0
XRECORD
  5
10C0
102
{ACAD_REACTORS
330
10BF
102
}
330
10BF
100
AcDbXrecord
280
     1
102
RTVSPropertyOp0
 70
     1
102
RTVSPropertyOp1
 70
     1
102
RTVSPropertyOp2
 70
     1
102
RTVSPropertyOp3
 70
     1
102
RTVSPropertyOp4
 70
     1
102
RTVSPropertyOp5
 70
     1
102
RTVSPropertyOp6
 70
     1
102
RTVSPropertyOp7
 70
     1
102
RTVSPropertyOp8
 70
     1
102
RTVSPropertyOp9
 70
     1
102
RTVSPropertyOp10
 70
     1
102
RTVSPropertyOp11
 70
     1
102
RTVSPropertyOp12
 70
     1
102
RTVSPropertyOp13
 70
     1
102
RTVSPropertyOp14
 70
     1
102
RTVSPropertyOp15
 70
     1
102
RTVSPropertyOp16
 70
     1
102
RTVSPropertyOp17
 70
     1
102
RTVSPropertyOp18
 70
     1
102
RTVSPropertyOp19
 70
     1
102
RTVSPropertyOp20
 70
     1
102
RTVSPropertyOp21
 70
     1
102
RTVSPropertyOp22
 70
     1
102
RTVSPropertyOp23
 70
     1
102
RTVSPropertyOp24
 70
     1
102
RTVSPropertyOp25
 70
     1
102
RTVSPropertyOp26
 70
     1
102
RTVSPropertyOp27
 70
     1
102
RTVSPropertyOp28
 70
     1
102
RTVSPropertyOp29
 70
     1
102
RTVSPropertyOp30
 70
     1
102
RTVSPropertyOp31
 70
     1
102
RTVSPropertyOp32
 70
     1
  0
DMBASEELEMENT
  5
1077
102
{ACAD_XDICTIONARY
360
107B
102
}
102
{ACAD_REACTORS
330
1074
102
}
330
1074
100
AcMapDMBaseElement
 70
     1
  1
Map Base
 70
     1
330
1074
100
AcMapDMBaseElement
 70
     1
  1

 70
     2
  1

 70
     1
 40
1.797693134862314E+99
 70
     1
 70
     1
 70
     1
 70
     1
360
107A
100
AcMapDMBaseElement
 70
     1
  0
DMDEFAULTSTYLE
  5
1078
102
{ACAD_REACTORS
330
1074
102
}
330
1074
100
AcMapDMDefaultStyle
 70
     1
 90
        1
  1
Default
100
AcMapDMDefaultStyle
 70
     1
280
   100
 90
     0
1001
AcMapDMDisplayStyleRegapp
1070
     2
1071
        1
1000
Default
1000

  0
DICTIONARY
  5
107B
330
1077
100
AcDbDictionary
280
     1
281
     1
  3
AcMapDMSurrogateStyleSets
360
107C
  0
DMSTYLEREFERENCE
  5
107A
330
1077
100
AcMapDMStyleReference
 70
     1
 70
     0
340
1078
330
1074
  0
DMSURROGATESTYLESETS
  5
107C
102
{ACAD_REACTORS
330
107B
102
}
330
107B
100
AcMapDMSurrogateStyleSets
 70
     1
  1
Map Base
 70
     1
 40
1.797693134862314E+99
 70
     1
 70
     1
 70
     1
 70
     1
330
107A
 70
     0
  0
ENDSEC
  0
EOF
