  0
SECTION
  2
HEADER
  9
$ACADVER
  1
AC1009
  9
$INSBASE
 10
0.0
 20
0.0
 30
0.0
  9
$EXTMIN
 10
408807.1642495093983598
 20
4667723.686557374894619
 30
0.0
  9
$EXTMAX
 10
408860.249890043924097
 20
4667801.6910396814346313
 30
0.0
  9
$LIMMIN
 10
0.0
 20
0.0
  9
$LIMMAX
 10
12.0
 20
9.0
  9
$ORTHOMODE
 70
     0
  9
$REGENMODE
 70
     1
  9
$FILLMODE
 70
     1
  9
$QTEXTMODE
 70
     0
  9
$MIRRTEXT
 70
     1
  9
$DRAGMODE
 70
     2
  9
$LTSCALE
 40
1.0
  9
$OSMODE
 70
    37
  9
$ATTMODE
 70
     1
  9
$TEXTSIZE
 40
0.2
  9
$TRACEWID
 40
0.05
  9
$TEXTSTYLE
  7
STANDARD
  9
$CLAYER
  8
0
  9
$CELTYPE
  6
BYLAYER
  9
$CECOLOR
 62
   256
  9
$DIMSCALE
 40
1.0
  9
$DIMASZ
 40
0.18
  9
$DIMEXO
 40
0.0625
  9
$DIMDLI
 40
0.38
  9
$DIMRND
 40
0.0
  9
$DIMDLE
 40
0.0
  9
$DIMEXE
 40
0.18
  9
$DIMTP
 40
0.0
  9
$DIMTM
 40
0.0
  9
$DIMTXT
 40
0.18
  9
$DIMCEN
 40
0.09
  9
$DIMTSZ
 40
0.0
  9
$DIMTOL
 70
     0
  9
$DIMLIM
 70
     0
  9
$DIMTIH
 70
     1
  9
$DIMTOH
 70
     1
  9
$DIMSE1
 70
     0
  9
$DIMSE2
 70
     0
  9
$DIMTAD
 70
     0
  9
$DIMZIN
 70
     0
  9
$DIMBLK
  1

  9
$DIMASO
 70
     1
  9
$DIMSHO
 70
     1
  9
$DIMPOST
  1

  9
$DIMAPOST
  1

  9
$DIMALT
 70
     0
  9
$DIMALTD
 70
     2
  9
$DIMALTF
 40
25.3999999999999986
  9
$DIMLFAC
 40
1.0
  9
$DIMTOFL
 70
     0
  9
$DIMTVP
 40
0.0
  9
$DIMTIX
 70
     0
  9
$DIMSOXD
 70
     0
  9
$DIMSAH
 70
     0
  9
$DIMBLK1
  1

  9
$DIMBLK2
  1

  9
$DIMSTYLE
  2
STANDARD
  9
$DIMCLRD
 70
     0
  9
$DIMCLRE
 70
     0
  9
$DIMCLRT
 70
     0
  9
$DIMTFAC
 40
1.0
  9
$DIMGAP
 40
0.09
  9
$LUNITS
 70
     2
  9
$LUPREC
 70
     4
  9
$SKETCHINC
 40
0.1
  9
$FILLETRAD
 40
0.5
  9
$AUNITS
 70
     0
  9
$AUPREC
 70
     0
  9
$MENU
  1
.
  9
$ELEVATION
 40
0.0
  9
$PELEVATION
 40
0.0
  9
$THICKNESS
 40
0.0
  9
$LIMCHECK
 70
     0
  9
$BLIPMODE
 70
     0
  9
$CHAMFERA
 40
0.0
  9
$CHAMFERB
 40
0.0
  9
$SKPOLY
 70
     0
  9
$TDCREATE
 40
2458654.0917708328925073
  9
$TDUPDATE
 40
2459034.7135648149996996
  9
$TDINDWG
 40
0.0015393634
  9
$TDUSRTIMER
 40
0.0015393634
  9
$USRTIMER
 70
     1
  9
$ANGBASE
 50
0.0
  9
$ANGDIR
 70
     0
  9
$PDMODE
 70
     0
  9
$PDSIZE
 40
0.0
  9
$PLINEWID
 40
0.0
  9
$COORDS
 70
     1
  9
$SPLFRAME
 70
     0
  9
$SPLINETYPE
 70
     6
  9
$SPLINESEGS
 70
     8
  9
$ATTDIA
 70
     1
  9
$ATTREQ
 70
     1
  9
$HANDLING
 70
     1
  9
$HANDSEED
  5
6FD
  9
$SURFTAB1
 70
     6
  9
$SURFTAB2
 70
     6
  9
$SURFTYPE
 70
     6
  9
$SURFU
 70
     6
  9
$SURFV
 70
     6
  9
$UCSNAME
  2

  9
$UCSORG
 10
0.0
 20
0.0
 30
0.0
  9
$UCSXDIR
 10
1.0
 20
0.0
 30
0.0
  9
$UCSYDIR
 10
0.0
 20
1.0
 30
0.0
  9
$PUCSNAME
  2

  9
$PUCSORG
 10
0.0
 20
0.0
 30
0.0
  9
$PUCSXDIR
 10
1.0
 20
0.0
 30
0.0
  9
$PUCSYDIR
 10
0.0
 20
1.0
 30
0.0
  9
$USERI1
 70
     0
  9
$USERI2
 70
     0
  9
$USERI3
 70
     0
  9
$USERI4
 70
     0
  9
$USERI5
 70
     0
  9
$USERR1
 40
0.0
  9
$USERR2
 40
0.0
  9
$USERR3
 40
0.0
  9
$USERR4
 40
0.0
  9
$USERR5
 40
0.0
  9
$WORLDVIEW
 70
     1
  9
$SHADEDGE
 70
     3
  9
$SHADEDIF
 70
    70
  9
$TILEMODE
 70
     1
  9
$MAXACTVP
 70
    64
  9
$PLIMCHECK
 70
     0
  9
$PEXTMIN
 10
1.0000000000000000E+20
 20
1.0000000000000000E+20
 30
1.0000000000000000E+20
  9
$PEXTMAX
 10
-1.0000000000000000E+20
 20
-1.0000000000000000E+20
 30
-1.0000000000000000E+20
  9
$PLIMMIN
 10
0.0
 20
0.0
  9
$PLIMMAX
 10
12.0
 20
9.0
  9
$UNITMODE
 70
     0
  9
$VISRETAIN
 70
     1
  9
$PLINEGEN
 70
     0
  9
$PSLTSCALE
 70
     1
  0
ENDSEC
  0
SECTION
  2
TABLES
  0
TABLE
  2
VPORT
 70
     1
  0
VPORT
  2
*ACTIVE
 70
     0
 10
0.0
 20
0.0
 11
1.0
 21
1.0
 12
408833.707069776719436
 22
4667762.6887985290959477
 13
0.0
 23
0.0
 14
0.5
 24
0.5
 15
0.5
 25
0.5
 16
0.0
 26
0.0
 36
1.0
 17
0.0
 27
0.0
 37
0.0
 40
78.7380667785182595
 41
1.467817896389324
 42
50.0
 43
0.0
 44
0.0
 50
0.0
 51
0.0
 71
     0
 72
   100
 73
     1
 74
     3
 75
     0
 76
     0
 77
     0
 78
     0
  0
ENDTAB
  0
TABLE
  2
LTYPE
 70
     1
  0
LTYPE
  2
CONTINUOUS
 70
     0
  3
Solid line
 72
    65
 73
     0
 40
0.0
  0
ENDTAB
  0
TABLE
  2
LAYER
 70
     3
  0
LAYER
  2
0
 70
     0
 62
     7
  6
CONTINUOUS
  0
LAYER
  2
12D16_EXCAVATION_UNITS
 70
     0
 62
   254
  6
CONTINUOUS
  0
LAYER
  2
LABELS
 70
     0
 62
     2
  6
CONTINUOUS
  0
ENDTAB
  0
TABLE
  2
STYLE
 70
     2
  0
STYLE
  2
STANDARD
 70
     0
 40
0.0
 41
1.0
 50
0.0
 71
     0
 42
0.2
  3
txt
  4

  0
STYLE
  2
ANNOTATIVE
 70
     0
 40
0.0
 41
1.0
 50
0.0
 71
     0
 42
0.2
  3
txt
  4

  0
ENDTAB
  0
TABLE
  2
VIEW
 70
     0
  0
ENDTAB
  0
TABLE
  2
UCS
 70
     0
  0
ENDTAB
  0
TABLE
  2
APPID
 70
     4
  0
APPID
  2
ACAD
 70
     0
  0
APPID
  2
ACADANNOTATIVE
 70
     0
  0
APPID
  2
ACAD_MLEADERVER
 70
     0
  0
APPID
  2
ACAD_NAV_VCDISPLAY
 70
     0
  0
ENDTAB
  0
TABLE
  2
DIMSTYLE
 70
     2
  0
DIMSTYLE
  2
STANDARD
 70
     0
  3

  4

  5

  6

  7

 40
1.0
 41
0.18
 42
0.0625
 43
0.38
 44
0.18
 45
0.0
 46
0.0
 47
0.0
 48
0.0
140
0.18
141
0.09
142
0.0
143
25.3999999999999986
144
1.0
145
0.0
146
1.0
147
0.09
 71
     0
 72
     0
 73
     1
 74
     1
 75
     0
 76
     0
 77
     0
 78
     0
170
     0
171
     2
172
     0
173
     0
174
     0
175
     0
176
     0
177
     0
178
     0
  0
DIMSTYLE
  2
ANNOTATIVE
 70
     0
  3

  4

  5

  6

  7

 40
1.0
 41
0.18
 42
0.0625
 43
0.38
 44
0.18
 45
0.0
 46
0.0
 47
0.0
 48
0.0
140
0.18
141
0.09
142
0.0
143
25.3999999999999986
144
1.0
145
0.0
146
1.0
147
0.09
 71
     0
 72
     0
 73
     1
 74
     1
 75
     0
 76
     0
 77
     0
 78
     0
170
     0
171
     2
172
     0
173
     0
174
     0
175
     0
176
     0
177
     0
178
     0
  0
ENDTAB
  0
ENDSEC
  0
SECTION
  2
BLOCKS
  0
BLOCK
  8
0
  2
$MODEL_SPACE
 70
     0
 10
0.0
 20
0.0
 30
0.0
  3
$MODEL_SPACE
  1

  0
ENDBLK
  5
44A
  8
0
  0
BLOCK
 67
     1
  8
0
  2
$PAPER_SPACE
 70
     0
 10
0.0
 20
0.0
 30
0.0
  3
$PAPER_SPACE
  1

  0
ENDBLK
  5
446
 67
     1
  8
0
  0
BLOCK
  8
0
  2
12D16_EXCAVATION_UNITS_CEN
 70
     0
 10
0.0
 20
0.0
 30
0.0
  3
12D16_EXCAVATION_UNITS_CEN
  1

  0
TEXT
  5
138
  8
LABELS
 10
408838.4730272004962899
 20
4667799.1909951586276293
 30
0.0
 40
0.2
  1
A100
  0
TEXT
  5
139
  8
LABELS
 10
408831.4730042935116217
 20
4667783.190981506370008
 30
0.0
 40
0.2
  1
B200
  0
TEXT
  5
13A
  8
LABELS
 10
408828.473005264881067
 20
4667772.1909828195348382
 30
0.0
 40
0.2
  1
C300
  0
TEXT
  5
13B
  8
LABELS
 10
408846.4698779350146651
 20
4667764.1887004086747766
 30
0.0
 40
0.2
  1
E500
  0
TEXT
  5
13C
  8
LABELS
 10
408833.3070104354992509
 20
4667781.2450119154527783
 30
0.0
 40
0.2
  1
B201
  0
TEXT
  5
13D
  8
LABELS
 10
408826.4204152849270031
 20
4667770.587354488670826
 30
0.0
 40
0.2
  1
C301
  0
TEXT
  5
13E
  8
LABELS
 10
408814.3529601562186144
 20
4667748.1900668954476714
 30
0.0
 40
0.2
  1
D401
  0
TEXT
  5
13F
  8
LABELS
 10
408826.4073269022046588
 20
4667770.5680885845795274
 30
0.0
 40
0.2
  1
C302
  0
TEXT
  5
140
  8
LABELS
 10
408826.4204070019186474
 20
4667770.5873536113649607
 30
0.0
 40
0.2
  1
C303
  0
TEXT
  5
141
  8
LABELS
 10
408814.3538143652258441
 20
4667748.190846698358655
 30
0.0
 40
0.2
  1
D402
  0
TEXT
  5
142
  8
LABELS
 10
408812.4470239439979196
 20
4667736.4169607646763325
 30
0.0
 40
0.2
  1
F601
  0
TEXT
  5
143
  8
LABELS
 10
408850.4590280018746853
 20
4667729.1691062226891518
 30
0.0
 40
0.2
  1
I900
  0
TEXT
  5
144
  8
LABELS
 10
408809.0646624658256769
 20
4667750.885301262140274
 30
0.0
 40
0.2
  1
H800
  0
TEXT
  5
145
  8
LABELS
 10
408814.4729904038831592
 20
4667738.1910029631108046
 30
0.0
 40
0.2
  1
F600
  0
TEXT
  5
146
  8
LABELS
 10
408812.4470325371949002
 20
4667736.4169672690331936
 30
0.0
 40
0.2
  1
F602
  0
TEXT
  5
147
  8
LABELS
 10
408852.4495184030965902
 20
4667727.4431166751310229
 30
0.0
 40
0.2
  1
I901
  0
TEXT
  5
148
  8
LABELS
 10
408811.4033307321951725
 20
4667751.1574763441458344
 30
0.0
 40
0.2
  1
D404
  0
TEXT
  5
149
  8
LABELS
 10
408814.3539698497042991
 20
4667748.190476194024086
 30
0.0
 40
0.2
  1
D403
  0
TEXT
  5
14A
  8
LABELS
 10
408812.4754014880163595
 20
4667750.186707129701972
 30
0.0
 40
0.2
  1
D400
  0
TEXT
  5
14B
  8
LABELS
 10
408852.3258324973285198
 20
4667727.4439150039106607
 30
0.0
 40
0.2
  1
I904
  0
TEXT
  5
14C
  8
LABELS
 10
408852.3340204869164154
 20
4667728.6055316599085927
 30
0.0
 40
0.2
  1
I910
  0
TEXT
  5
14D
  8
LABELS
 10
408852.3340149344876409
 20
4667728.6055338466539979
 30
0.0
 40
0.2
  1
I914
  0
TEXT
  5
14E
  8
LABELS
 10
408852.3293833191273734
 20
4667726.2039535203948617
 30
0.0
 40
0.2
  1
I909
  0
TEXT
  5
14F
  8
LABELS
 10
408852.3293764544068836
 20
4667726.2039500530809164
 30
0.0
 40
0.2
  1
I912
  0
TEXT
  5
150
  8
LABELS
 10
408852.8106408827006817
 20
4667728.7417452139779925
 30
0.0
 40
0.2
  1
I913
  0
TEXT
  5
151
  8
LABELS
 10
408853.3125814506202005
 20
4667725.2760854894295335
 30
0.0
 40
0.2
  1
I916
  0
TEXT
  5
152
  8
LABELS
 10
408853.3277347888215445
 20
4667724.2382871843874454
 30
0.0
 40
0.2
  1
I917
  0
TEXT
  5
153
  8
LABELS
 10
408853.3125763973221183
 20
4667725.2760791871696711
 30
0.0
 40
0.2
  1
I915
  0
TEXT
  5
154
  8
LABELS
 10
408854.9795254440978169
 20
4667724.7562949173152447
 30
0.0
 40
0.2
  1
I921
  0
TEXT
  5
155
  8
LABELS
 10
408852.2920636729104444
 20
4667727.7002579132094979
 30
0.0
 40
0.2
  1
I920
  0
TEXT
  5
156
  8
LABELS
 10
408852.7722644247114658
 20
4667727.7583513539284468
 30
0.0
 40
0.2
  1
I919
  0
TEXT
  5
157
  8
LABELS
 10
408854.9807183499797247
 20
4667724.7562203761190176
 30
0.0
 40
0.2
  1
I922
  0
TEXT
  5
158
  8
LABELS
 10
408853.2860133199719712
 20
4667729.4223841121420264
 30
0.0
 40
0.2
  1
I923
  0
TEXT
  5
159
  8
LABELS
 10
408853.2863460563821718
 20
4667729.4231362259015441
 30
0.0
 40
0.2
  1
I924
  0
TEXT
  5
15A
  8
LABELS
 10
408853.1768932407721877
 20
4667730.8816665560007095
 30
0.0
 40
0.2
  1
I925
  0
TEXT
  5
15B
  8
LABELS
 10
408859.1403391815838404
 20
4667724.2772922283038497
 30
0.0
 40
0.2
  1
I930
  0
TEXT
  5
15C
  8
LABELS
 10
408859.1403293535113335
 20
4667724.2772978432476521
 30
0.0
 40
0.2
  1
I931
  0
TEXT
  5
15D
  8
LABELS
 10
408857.0198899916722439
 20
4667724.2749048219993711
 30
0.0
 40
0.2
  1
I927
  0
TEXT
  5
15E
  8
LABELS
 10
408857.0198869640007615
 20
4667724.2749038739129901
 30
0.0
 40
0.2
  1
I928
  0
TEXT
  5
15F
  8
LABELS
 10
408854.4210474184947088
 20
4667730.8700566496700048
 30
0.0
 40
0.2
  1
I932
  0
TEXT
  5
160
  8
LABELS
 10
408853.484469985589385
 20
4667726.2398608839139342
 30
0.0
 40
0.2
  1
I933
  0
TEXT
  5
161
  8
LABELS
 10
408854.4679733840748668
 20
4667730.7120009446516633
 30
0.0
 40
0.2
  1
I934
  0
TEXT
  5
162
  8
LABELS
 10
408853.484472258889582
 20
4667726.2398468600586057
 30
0.0
 40
0.2
  1
I935
  0
TEXT
  5
163
  8
LABELS
 10
408854.9379303427995183
 20
4667728.2368585718795657
 30
0.0
 40
0.2
  1
I939
  0
TEXT
  5
164
  8
LABELS
 10
408854.9356890235794708
 20
4667727.1904207449406385
 30
0.0
 40
0.2
  1
I940
  0
TEXT
  5
165
  8
LABELS
 10
408854.9260011463775299
 20
4667726.2544225268065929
 30
0.0
 40
0.2
  1
I941
  0
TEXT
  5
166
  8
LABELS
 10
408854.93336721038213
 20
4667727.1908939480781555
 30
0.0
 40
0.2
  1
I942
  0
TEXT
  5
167
  8
LABELS
 10
408854.9480675904778764
 20
4667729.546837386675179
 30
0.0
 40
0.2
  1
I943
  0
TEXT
  5
168
  8
LABELS
 10
408854.4264970041112974
 20
4667727.8959943121299148
 30
0.0
 40
0.2
  1
I948
  0
TEXT
  5
169
  8
LABELS
 10
408853.4608118031173944
 20
4667730.9334328798577189
 30
0.0
 40
0.2
  1
I929
  0
TEXT
  5
16A
  8
LABELS
 10
408854.9215693034930155
 20
4667728.0660635149106383
 30
0.0
 40
0.2
  1
I937
  0
TEXT
  5
16B
  8
LABELS
 10
408856.4061198232811876
 20
4667727.8821261133998632
 30
0.0
 40
0.2
  1
I944
  0
TEXT
  5
16C
  8
LABELS
 10
408856.4061198232811876
 20
4667727.8821261133998632
 30
0.0
 40
0.2
  1
I945
  0
TEXT
  5
16D
  8
LABELS
 10
408853.4541921569034457
 20
4667727.5401117904111743
 30
0.0
 40
0.2
  1
I905
  0
TEXT
  5
16E
  8
LABELS
 10
408853.4580110525130294
 20
4667727.538464242592454
 30
0.0
 40
0.2
  1
I906
  0
TEXT
  5
16F
  8
LABELS
 10
408853.4564300720230676
 20
4667727.5386312417685986
 30
0.0
 40
0.2
  1
I908
  0
TEXT
  5
170
  8
LABELS
 10
408831.0514902611030266
 20
4667783.8255118560045958
 30
0.0
 40
0.2
  1
<null>
  0
TEXT
  5
171
  8
LABELS
 10
408811.2198222726001404
 20
4667751.8380270767956972
 30
0.0
 40
0.2
  1
<null>
  0
TEXT
  5
172
  8
LABELS
 10
408826.4298712295130827
 20
4667770.5991275357082486
 30
0.0
 40
0.2
  1
<null>
  0
TEXT
  5
173
  8
LABELS
 10
408808.1838684640242718
 20
4667750.5199684044346213
 30
0.0
 40
0.2
  1
H805
  0
TEXT
  5
174
  8
LABELS
 10
408854.9668113150983118
 20
4667729.6513494737446308
 30
0.0
 40
0.2
  1
I938
  0
ENDBLK
  5
176
  8
0
  0
ENDSEC
  0
SECTION
  2
ENTITIES
  0
POLYLINE
  5
B3
  8
12D16_EXCAVATION_UNITS
 66
     1
 10
0.0
 20
0.0
 30
0.0
 70
     1
  0
VERTEX
  5
4AD
  8
12D16_EXCAVATION_UNITS
 10
408837.0715662984875962
 20
4667801.6910396814346313
 30
0.0
  0
VERTEX
  5
4AE
  8
12D16_EXCAVATION_UNITS
 10
408840.9730376612860709
 20
4667801.691026353277266
 30
0.0
  0
VERTEX
  5
4AF
  8
12D16_EXCAVATION_UNITS
 10
408840.9730249503045343
 20
4667796.6909586144611239
 30
0.0
  0
VERTEX
  5
4B0
  8
12D16_EXCAVATION_UNITS
 10
408835.9730162994237617
 20
4667796.6909574139863253
 30
0.0
  0
VERTEX
  5
4B1
  8
12D16_EXCAVATION_UNITS
 10
408835.9730325620039366
 20
4667801.6910252124071121
 30
0.0
  0
SEQEND
  5
4B2
  8
12D16_EXCAVATION_UNITS
  0
POLYLINE
  5
B4
  8
12D16_EXCAVATION_UNITS
 66
     1
 10
0.0
 20
0.0
 30
0.0
 70
     1
  0
VERTEX
  5
4B3
  8
12D16_EXCAVATION_UNITS
 10
408830.3550794051261619
 20
4667785.6909801317378879
 30
0.0
  0
VERTEX
  5
4B4
  8
12D16_EXCAVATION_UNITS
 10
408830.5535660709720105
 20
4667785.6909684324637055
 30
0.0
  0
VERTEX
  5
4B5
  8
12D16_EXCAVATION_UNITS
 10
408833.9729599392157979
 20
4667785.6909645320847631
 30
0.0
  0
VERTEX
  5
4B6
  8
12D16_EXCAVATION_UNITS
 10
408833.9730267970007844
 20
4667780.6910068104043603
 30
0.0
  0
VERTEX
  5
4B7
  8
12D16_EXCAVATION_UNITS
 10
408828.9730066627962515
 20
4667780.6910104006528854
 30
0.0
  0
VERTEX
  5
4B8
  8
12D16_EXCAVATION_UNITS
 10
408828.9730259680072777
 20
4667785.6909671109169722
 30
0.0
  0
SEQEND
  5
4B9
  8
12D16_EXCAVATION_UNITS
  0
POLYLINE
  5
B5
  8
12D16_EXCAVATION_UNITS
 66
     1
 10
0.0
 20
0.0
 30
0.0
 70
     1
  0
VERTEX
  5
4BA
  8
12D16_EXCAVATION_UNITS
 10
408827.6563409420778044
 20
4667774.6910257637500763
 30
0.0
  0
VERTEX
  5
4BB
  8
12D16_EXCAVATION_UNITS
 10
408830.9730259305797517
 20
4667774.6910157231613994
 30
0.0
  0
VERTEX
  5
4BC
  8
12D16_EXCAVATION_UNITS
 10
408830.97300693357829
 20
4667769.6909480839967728
 30
0.0
  0
VERTEX
  5
4BD
  8
12D16_EXCAVATION_UNITS
 10
408825.9729789450066164
 20
4667769.6909536710008979
 30
0.0
  0
VERTEX
  5
4BE
  8
12D16_EXCAVATION_UNITS
 10
408825.9730014856904745
 20
4667774.691021372564137
 30
0.0
  0
VERTEX
  5
4BF
  8
12D16_EXCAVATION_UNITS
 10
408826.7832284477772191
 20
4667774.6909857904538512
 30
0.0
  0
SEQEND
  5
4C0
  8
12D16_EXCAVATION_UNITS
  0
POLYLINE
  5
B6
  8
12D16_EXCAVATION_UNITS
 66
     1
 10
0.0
 20
0.0
 30
0.0
 70
     1
  0
VERTEX
  5
4C1
  8
12D16_EXCAVATION_UNITS
 10
408848.9730499220895581
 20
4667764.6601058775559068
 30
0.0
  0
VERTEX
  5
4C2
  8
12D16_EXCAVATION_UNITS
 10
408848.9730168303940445
 20
4667761.6910282075405121
 30
0.0
  0
VERTEX
  5
4C3
  8
12D16_EXCAVATION_UNITS
 10
408843.9729835395119153
 20
4667761.6910209516063333
 30
0.0
  0
VERTEX
  5
4C4
  8
12D16_EXCAVATION_UNITS
 10
408843.972991660120897
 20
4667766.6909773480147123
 30
0.0
  0
VERTEX
  5
4C5
  8
12D16_EXCAVATION_UNITS
 10
408848.9421156314201653
 20
4667766.6909397756680846
 30
0.0
  0
SEQEND
  5
4C6
  8
12D16_EXCAVATION_UNITS
  0
POLYLINE
  5
B7
  8
12D16_EXCAVATION_UNITS
 66
     1
 10
0.0
 20
0.0
 30
0.0
 70
     1
  0
VERTEX
  5
4C7
  8
12D16_EXCAVATION_UNITS
 10
408832.6409941773163155
 20
4667781.7990170540288091
 30
0.0
  0
VERTEX
  5
4C8
  8
12D16_EXCAVATION_UNITS
 10
408833.9728921484202147
 20
4667781.7992349611595273
 30
0.0
  0
VERTEX
  5
4C9
  8
12D16_EXCAVATION_UNITS
 10
408833.9730267970007844
 20
4667780.6910068104043603
 30
0.0
  0
VERTEX
  5
4CA
  8
12D16_EXCAVATION_UNITS
 10
408832.6411286144284531
 20
4667780.6907889014109969
 30
0.0
  0
SEQEND
  5
4CB
  8
12D16_EXCAVATION_UNITS
  0
POLYLINE
  5
B8
  8
12D16_EXCAVATION_UNITS
 66
     1
 10
0.0
 20
0.0
 30
0.0
 70
     1
  0
VERTEX
  5
4CC
  8
12D16_EXCAVATION_UNITS
 10
408826.0180316154146567
 20
4667769.7370146820321679
 30
0.0
  0
VERTEX
  5
4CD
  8
12D16_EXCAVATION_UNITS
 10
408825.9729783958755434
 20
4667771.4486347725614905
 30
0.0
  0
VERTEX
  5
4CE
  8
12D16_EXCAVATION_UNITS
 10
408826.8379715235787444
 20
4667771.4470027331262827
 30
0.0
  0
VERTEX
  5
4CF
  8
12D16_EXCAVATION_UNITS
 10
408826.8456789625925012
 20
4667769.6909988960251212
 30
0.0
  0
SEQEND
  5
4D0
  8
12D16_EXCAVATION_UNITS
  0
POLYLINE
  5
B9
  8
12D16_EXCAVATION_UNITS
 66
     1
 10
0.0
 20
0.0
 30
0.0
 70
     1
  0
VERTEX
  5
4D1
  8
12D16_EXCAVATION_UNITS
 10
408813.7329260263941251
 20
4667747.6910084243863821
 30
0.0
  0
VERTEX
  5
4D2
  8
12D16_EXCAVATION_UNITS
 10
408813.7403296775883064
 20
4667748.6981893610209227
 30
0.0
  0
VERTEX
  5
4D3
  8
12D16_EXCAVATION_UNITS
 10
408814.9729528820025735
 20
4667748.6891371700912714
 30
0.0
  0
VERTEX
  5
4D4
  8
12D16_EXCAVATION_UNITS
 10
408814.9656320164212957
 20
4667747.6819551726803184
 30
0.0
  0
SEQEND
  5
4D5
  8
12D16_EXCAVATION_UNITS
  0
POLYLINE
  5
BA
  8
12D16_EXCAVATION_UNITS
 66
     1
 10
0.0
 20
0.0
 30
0.0
 70
     1
  0
VERTEX
  5
4D6
  8
12D16_EXCAVATION_UNITS
 10
408826.8379715235787444
 20
4667771.4470027331262827
 30
0.0
  0
VERTEX
  5
4D7
  8
12D16_EXCAVATION_UNITS
 10
408826.8409629494999535
 20
4667770.7579735079780221
 30
0.0
  0
VERTEX
  5
4D8
  8
12D16_EXCAVATION_UNITS
 10
408826.8456789625925012
 20
4667769.6909988960251212
 30
0.0
  0
VERTEX
  5
4D9
  8
12D16_EXCAVATION_UNITS
 10
408825.9729789450066164
 20
4667769.6909536710008979
 30
0.0
  0
VERTEX
  5
4DA
  8
12D16_EXCAVATION_UNITS
 10
408825.9729783958755434
 20
4667771.4486347725614905
 30
0.0
  0
VERTEX
  5
4DB
  8
12D16_EXCAVATION_UNITS
 10
408826.4990967226913199
 20
4667771.4476078823208809
 30
0.0
  0
SEQEND
  5
4DC
  8
12D16_EXCAVATION_UNITS
  0
POLYLINE
  5
BB
  8
12D16_EXCAVATION_UNITS
 66
     1
 10
0.0
 20
0.0
 30
0.0
 70
     1
  0
VERTEX
  5
4DD
  8
12D16_EXCAVATION_UNITS
 10
408825.9729783958755434
 20
4667771.4486347725614905
 30
0.0
  0
VERTEX
  5
4DE
  8
12D16_EXCAVATION_UNITS
 10
408826.8379715235787444
 20
4667771.4470027331262827
 30
0.0
  0
VERTEX
  5
4DF
  8
12D16_EXCAVATION_UNITS
 10
408826.8409629494999535
 20
4667770.7579735079780221
 30
0.0
  0
VERTEX
  5
4E0
  8
12D16_EXCAVATION_UNITS
 10
408826.8456789625925012
 20
4667769.6909988960251212
 30
0.0
  0
VERTEX
  5
4E1
  8
12D16_EXCAVATION_UNITS
 10
408826.0180316154146567
 20
4667769.7370146820321679
 30
0.0
  0
SEQEND
  5
4E2
  8
12D16_EXCAVATION_UNITS
  0
POLYLINE
  5
BC
  8
12D16_EXCAVATION_UNITS
 66
     1
 10
0.0
 20
0.0
 30
0.0
 70
     1
  0
VERTEX
  5
4E3
  8
12D16_EXCAVATION_UNITS
 10
408814.9730203648796305
 20
4667747.6909662242978811
 30
0.0
  0
VERTEX
  5
4E4
  8
12D16_EXCAVATION_UNITS
 10
408814.2587609614711255
 20
4667747.6870968779549003
 30
0.0
  0
VERTEX
  5
4E5
  8
12D16_EXCAVATION_UNITS
 10
408813.7381311162025668
 20
4667747.6909411214292049
 30
0.0
  0
VERTEX
  5
4E6
  8
12D16_EXCAVATION_UNITS
 10
408813.7329260263941251
 20
4667747.6910084243863821
 30
0.0
  0
VERTEX
  5
4E7
  8
12D16_EXCAVATION_UNITS
 10
408813.7403296775883064
 20
4667748.6981893610209227
 30
0.0
  0
VERTEX
  5
4E8
  8
12D16_EXCAVATION_UNITS
 10
408814.9729528820025735
 20
4667748.6891371700912714
 30
0.0
  0
VERTEX
  5
4E9
  8
12D16_EXCAVATION_UNITS
 10
408814.9730111875105649
 20
4667748.0098077161237597
 30
0.0
  0
SEQEND
  5
4EA
  8
12D16_EXCAVATION_UNITS
  0
POLYLINE
  5
BD
  8
12D16_EXCAVATION_UNITS
 66
     1
 10
0.0
 20
0.0
 30
0.0
 70
     1
  0
VERTEX
  5
4EB
  8
12D16_EXCAVATION_UNITS
 10
408812.0089866790804081
 20
4667737.1509982608258724
 30
0.0
  0
VERTEX
  5
4EC
  8
12D16_EXCAVATION_UNITS
 10
408812.9239955986267887
 20
4667737.1379455039277673
 30
0.0
  0
VERTEX
  5
4ED
  8
12D16_EXCAVATION_UNITS
 10
408812.9153679721057415
 20
4667735.690999211743474
 30
0.0
  0
VERTEX
  5
4EE
  8
12D16_EXCAVATION_UNITS
 10
408811.973002917598933
 20
4667735.6909679211676121
 30
0.0
  0
VERTEX
  5
4EF
  8
12D16_EXCAVATION_UNITS
 10
408811.972991616697982
 20
4667736.917135814204812
 30
0.0
  0
SEQEND
  5
4F0
  8
12D16_EXCAVATION_UNITS
  0
POLYLINE
  5
BE
  8
12D16_EXCAVATION_UNITS
 66
     1
 10
0.0
 20
0.0
 30
0.0
 70
     1
  0
VERTEX
  5
4F1
  8
12D16_EXCAVATION_UNITS
 10
408847.9739627746166661
 20
4667726.6550495307892561
 30
0.0
  0
VERTEX
  5
4F2
  8
12D16_EXCAVATION_UNITS
 10
408847.9750629271729849
 20
4667727.1493448605760932
 30
0.0
  0
VERTEX
  5
4F3
  8
12D16_EXCAVATION_UNITS
 10
408847.9837202897761017
 20
4667731.1181466579437256
 30
0.0
  0
VERTEX
  5
4F4
  8
12D16_EXCAVATION_UNITS
 10
408847.9849650335963815
 20
4667731.6939551113173366
 30
0.0
  0
VERTEX
  5
4F5
  8
12D16_EXCAVATION_UNITS
 10
408852.9440584473195486
 20
4667731.6831672471016645
 30
0.0
  0
VERTEX
  5
4F6
  8
12D16_EXCAVATION_UNITS
 10
408852.9340605210163631
 20
4667727.0861399583518505
 30
0.0
  0
VERTEX
  5
4F7
  8
12D16_EXCAVATION_UNITS
 10
408852.9330597327207215
 20
4667726.6442617075517774
 30
0.0
  0
SEQEND
  5
4F8
  8
12D16_EXCAVATION_UNITS
  0
POLYLINE
  5
BF
  8
12D16_EXCAVATION_UNITS
 66
     1
 10
0.0
 20
0.0
 30
0.0
 70
     1
  0
VERTEX
  5
4F9
  8
12D16_EXCAVATION_UNITS
 10
408810.0120311243808828
 20
4667752.6796625759452581
 30
0.0
  0
VERTEX
  5
4FA
  8
12D16_EXCAVATION_UNITS
 10
408809.9729780679917894
 20
4667752.5480110729113221
 30
0.0
  0
VERTEX
  5
4FB
  8
12D16_EXCAVATION_UNITS
 10
408809.9730253429152071
 20
4667752.0595867717638612
 30
0.0
  0
VERTEX
  5
4FC
  8
12D16_EXCAVATION_UNITS
 10
408809.9910678184241988
 20
4667752.02981261536479
 30
0.0
  0
VERTEX
  5
4FD
  8
12D16_EXCAVATION_UNITS
 10
408809.9730154367862269
 20
4667751.4708797670900822
 30
0.0
  0
VERTEX
  5
4FE
  8
12D16_EXCAVATION_UNITS
 10
408809.9729671734967269
 20
4667750.981457200832665
 30
0.0
  0
VERTEX
  5
4FF
  8
12D16_EXCAVATION_UNITS
 10
408809.9729960201075301
 20
4667749.679993168450892
 30
0.0
  0
VERTEX
  5
500
  8
12D16_EXCAVATION_UNITS
 10
408809.9100506121758372
 20
4667749.6816955246031284
 30
0.0
  0
VERTEX
  5
501
  8
12D16_EXCAVATION_UNITS
 10
408808.376427945913747
 20
4667749.6808698102831841
 30
0.0
  0
VERTEX
  5
502
  8
12D16_EXCAVATION_UNITS
 10
408807.8518460359773599
 20
4667749.6922063352540135
 30
0.0
  0
VERTEX
  5
503
  8
12D16_EXCAVATION_UNITS
 10
408807.396575623890385
 20
4667749.7020913707092404
 30
0.0
  0
VERTEX
  5
504
  8
12D16_EXCAVATION_UNITS
 10
408808.2809670703718439
 20
4667751.1109489314258099
 30
0.0
  0
VERTEX
  5
505
  8
12D16_EXCAVATION_UNITS
 10
408809.3377482919022441
 20
4667752.6807185616344213
 30
0.0
  0
SEQEND
  5
506
  8
12D16_EXCAVATION_UNITS
  0
POLYLINE
  5
C0
  8
12D16_EXCAVATION_UNITS
 66
     1
 10
0.0
 20
0.0
 30
0.0
 70
     1
  0
VERTEX
  5
507
  8
12D16_EXCAVATION_UNITS
 10
408816.973000576486811
 20
4667740.6910213846713305
 30
0.0
  0
VERTEX
  5
508
  8
12D16_EXCAVATION_UNITS
 10
408816.9729428209830076
 20
4667736.8262782730162144
 30
0.0
  0
VERTEX
  5
509
  8
12D16_EXCAVATION_UNITS
 10
408816.972972666088026
 20
4667735.6909538563340902
 30
0.0
  0
VERTEX
  5
50A
  8
12D16_EXCAVATION_UNITS
 10
408812.9153679721057415
 20
4667735.690999211743474
 30
0.0
  0
VERTEX
  5
50B
  8
12D16_EXCAVATION_UNITS
 10
408811.973002917598933
 20
4667735.6909679211676121
 30
0.0
  0
VERTEX
  5
50C
  8
12D16_EXCAVATION_UNITS
 10
408811.972991616697982
 20
4667736.917135814204812
 30
0.0
  0
VERTEX
  5
50D
  8
12D16_EXCAVATION_UNITS
 10
408811.9730343716219068
 20
4667740.6910355109721422
 30
0.0
  0
VERTEX
  5
50E
  8
12D16_EXCAVATION_UNITS
 10
408816.3976164617924951
 20
4667740.6910200677812099
 30
0.0
  0
SEQEND
  5
50F
  8
12D16_EXCAVATION_UNITS
  0
POLYLINE
  5
C1
  8
12D16_EXCAVATION_UNITS
 66
     1
 10
0.0
 20
0.0
 30
0.0
 70
     1
  0
VERTEX
  5
510
  8
12D16_EXCAVATION_UNITS
 10
408812.9153679721057415
 20
4667735.690999211743474
 30
0.0
  0
VERTEX
  5
511
  8
12D16_EXCAVATION_UNITS
 10
408812.3045333892805502
 20
4667735.691012374125421
 30
0.0
  0
VERTEX
  5
512
  8
12D16_EXCAVATION_UNITS
 10
408811.973002917598933
 20
4667735.6909679211676121
 30
0.0
  0
VERTEX
  5
513
  8
12D16_EXCAVATION_UNITS
 10
408811.972991616697982
 20
4667736.917135814204812
 30
0.0
  0
VERTEX
  5
514
  8
12D16_EXCAVATION_UNITS
 10
408812.0089866790804081
 20
4667737.1509982608258724
 30
0.0
  0
VERTEX
  5
515
  8
12D16_EXCAVATION_UNITS
 10
408812.9239955986267887
 20
4667737.1379455039277673
 30
0.0
  0
VERTEX
  5
516
  8
12D16_EXCAVATION_UNITS
 10
408812.9178322437219322
 20
4667736.0988755170255899
 30
0.0
  0
SEQEND
  5
517
  8
12D16_EXCAVATION_UNITS
  0
POLYLINE
  5
C2
  8
12D16_EXCAVATION_UNITS
 66
     1
 10
0.0
 20
0.0
 30
0.0
 70
     1
  0
VERTEX
  5
518
  8
12D16_EXCAVATION_UNITS
 10
408851.9659771880833432
 20
4667728.2419717097654939
 30
0.0
  0
VERTEX
  5
519
  8
12D16_EXCAVATION_UNITS
 10
408852.9266539455275051
 20
4667728.245769708417356
 30
0.0
  0
VERTEX
  5
51A
  8
12D16_EXCAVATION_UNITS
 10
408852.9330597327207215
 20
4667726.6442617075517774
 30
0.0
  0
VERTEX
  5
51B
  8
12D16_EXCAVATION_UNITS
 10
408851.9723827469279058
 20
4667726.6404637042433023
 30
0.0
  0
SEQEND
  5
51C
  8
12D16_EXCAVATION_UNITS
  0
POLYLINE
  5
C3
  8
12D16_EXCAVATION_UNITS
 66
     1
 10
0.0
 20
0.0
 30
0.0
 70
     1
  0
VERTEX
  5
51D
  8
12D16_EXCAVATION_UNITS
 10
408810.3989954951102845
 20
4667749.6239543780684471
 30
0.0
  0
VERTEX
  5
51E
  8
12D16_EXCAVATION_UNITS
 10
408810.3968222187831998
 20
4667752.6895685316994786
 30
0.0
  0
VERTEX
  5
51F
  8
12D16_EXCAVATION_UNITS
 10
408812.4076655331882648
 20
4667752.6909985253587365
 30
0.0
  0
VERTEX
  5
520
  8
12D16_EXCAVATION_UNITS
 10
408812.4098396835033782
 20
4667749.6253843856975436
 30
0.0
  0
SEQEND
  5
521
  8
12D16_EXCAVATION_UNITS
  0
POLYLINE
  5
C4
  8
12D16_EXCAVATION_UNITS
 66
     1
 10
0.0
 20
0.0
 30
0.0
 70
     1
  0
VERTEX
  5
522
  8
12D16_EXCAVATION_UNITS
 10
408814.9730203648796305
 20
4667747.6909662242978811
 30
0.0
  0
VERTEX
  5
523
  8
12D16_EXCAVATION_UNITS
 10
408814.4592955479747616
 20
4667747.6856145551428199
 30
0.0
  0
VERTEX
  5
524
  8
12D16_EXCAVATION_UNITS
 10
408814.2587609614711255
 20
4667747.6870968779549003
 30
0.0
  0
VERTEX
  5
525
  8
12D16_EXCAVATION_UNITS
 10
408813.736974430794362
 20
4667747.6909560794010758
 30
0.0
  0
VERTEX
  5
526
  8
12D16_EXCAVATION_UNITS
 10
408813.7329260263941251
 20
4667747.6910084243863821
 30
0.0
  0
VERTEX
  5
527
  8
12D16_EXCAVATION_UNITS
 10
408813.7403296775883064
 20
4667748.6981893610209227
 30
0.0
  0
VERTEX
  5
528
  8
12D16_EXCAVATION_UNITS
 10
408814.9729528820025735
 20
4667748.6891371700912714
 30
0.0
  0
VERTEX
  5
529
  8
12D16_EXCAVATION_UNITS
 10
408814.9730111875105649
 20
4667748.0098077161237597
 30
0.0
  0
SEQEND
  5
52A
  8
12D16_EXCAVATION_UNITS
  0
POLYLINE
  5
C5
  8
12D16_EXCAVATION_UNITS
 66
     1
 10
0.0
 20
0.0
 30
0.0
 70
     1
  0
VERTEX
  5
52B
  8
12D16_EXCAVATION_UNITS
 10
408814.9729674286791123
 20
4667752.6910349354147911
 30
0.0
  0
VERTEX
  5
52C
  8
12D16_EXCAVATION_UNITS
 10
408814.9729945032740943
 20
4667752.0412467448040843
 30
0.0
  0
VERTEX
  5
52D
  8
12D16_EXCAVATION_UNITS
 10
408814.9729630392976105
 20
4667749.7508310712873936
 30
0.0
  0
VERTEX
  5
52E
  8
12D16_EXCAVATION_UNITS
 10
408814.9729528820025735
 20
4667748.6891371700912714
 30
0.0
  0
VERTEX
  5
52F
  8
12D16_EXCAVATION_UNITS
 10
408814.9730111875105649
 20
4667748.0098077161237597
 30
0.0
  0
VERTEX
  5
530
  8
12D16_EXCAVATION_UNITS
 10
408814.9730203648796305
 20
4667747.6909662242978811
 30
0.0
  0
VERTEX
  5
531
  8
12D16_EXCAVATION_UNITS
 10
408814.9656656871084124
 20
4667747.6909502614289522
 30
0.0
  0
VERTEX
  5
532
  8
12D16_EXCAVATION_UNITS
 10
408814.4592955479747616
 20
4667747.6856145551428199
 30
0.0
  0
VERTEX
  5
533
  8
12D16_EXCAVATION_UNITS
 10
408814.2587609614711255
 20
4667747.6870968779549003
 30
0.0
  0
VERTEX
  5
534
  8
12D16_EXCAVATION_UNITS
 10
408813.7375527787953615
 20
4667747.6909485990181565
 30
0.0
  0
VERTEX
  5
535
  8
12D16_EXCAVATION_UNITS
 10
408813.7329260263941251
 20
4667747.6910084243863821
 30
0.0
  0
VERTEX
  5
536
  8
12D16_EXCAVATION_UNITS
 10
408809.9729764577932656
 20
4667747.6909829154610634
 30
0.0
  0
VERTEX
  5
537
  8
12D16_EXCAVATION_UNITS
 10
408809.9729960201075301
 20
4667749.679993168450892
 30
0.0
  0
VERTEX
  5
538
  8
12D16_EXCAVATION_UNITS
 10
408809.9729671734967269
 20
4667750.981457200832665
 30
0.0
  0
VERTEX
  5
539
  8
12D16_EXCAVATION_UNITS
 10
408809.9730154367862269
 20
4667751.4708797670900822
 30
0.0
  0
VERTEX
  5
53A
  8
12D16_EXCAVATION_UNITS
 10
408809.9730253429152071
 20
4667752.0595867717638612
 30
0.0
  0
VERTEX
  5
53B
  8
12D16_EXCAVATION_UNITS
 10
408810.0120311243808828
 20
4667752.6796625759452581
 30
0.0
  0
SEQEND
  5
53C
  8
12D16_EXCAVATION_UNITS
  0
POLYLINE
  5
C6
  8
12D16_EXCAVATION_UNITS
 66
     1
 10
0.0
 20
0.0
 30
0.0
 70
     1
  0
VERTEX
  5
53D
  8
12D16_EXCAVATION_UNITS
 10
408852.6825030678883195
 20
4667726.6436130311340094
 30
0.0
  0
VERTEX
  5
53E
  8
12D16_EXCAVATION_UNITS
 10
408851.9723827469279058
 20
4667726.6404637042433023
 30
0.0
  0
VERTEX
  5
53F
  8
12D16_EXCAVATION_UNITS
 10
408851.9659771880833432
 20
4667728.2419717097654939
 30
0.0
  0
VERTEX
  5
540
  8
12D16_EXCAVATION_UNITS
 10
408852.0954727455973625
 20
4667728.2425191625952721
 30
0.0
  0
VERTEX
  5
541
  8
12D16_EXCAVATION_UNITS
 10
408852.6075019559939392
 20
4667728.2444528006017208
 30
0.0
  0
VERTEX
  5
542
  8
12D16_EXCAVATION_UNITS
 10
408852.6825388924917206
 20
4667728.2448156652972102
 30
0.0
  0
SEQEND
  5
543
  8
12D16_EXCAVATION_UNITS
  0
POLYLINE
  5
C7
  8
12D16_EXCAVATION_UNITS
 66
     1
 10
0.0
 20
0.0
 30
0.0
 70
     1
  0
VERTEX
  5
544
  8
12D16_EXCAVATION_UNITS
 10
408851.9290163586265408
 20
4667728.1890315460041165
 30
0.0
  0
VERTEX
  5
545
  8
12D16_EXCAVATION_UNITS
 10
408851.9291229284717701
 20
4667729.0220600310713053
 30
0.0
  0
VERTEX
  5
546
  8
12D16_EXCAVATION_UNITS
 10
408852.7390245710848831
 20
4667729.0220317840576172
 30
0.0
  0
VERTEX
  5
547
  8
12D16_EXCAVATION_UNITS
 10
408852.7389180968748406
 20
4667728.189003306441009
 30
0.0
  0
SEQEND
  5
548
  8
12D16_EXCAVATION_UNITS
  0
POLYLINE
  5
C8
  8
12D16_EXCAVATION_UNITS
 66
     1
 10
0.0
 20
0.0
 30
0.0
 70
     1
  0
VERTEX
  5
549
  8
12D16_EXCAVATION_UNITS
 10
408851.9290163586265408
 20
4667728.1890315460041165
 30
0.0
  0
VERTEX
  5
54A
  8
12D16_EXCAVATION_UNITS
 10
408851.9291229284717701
 20
4667729.0220600310713053
 30
0.0
  0
VERTEX
  5
54B
  8
12D16_EXCAVATION_UNITS
 10
408852.7390245710848831
 20
4667729.0220317840576172
 30
0.0
  0
VERTEX
  5
54C
  8
12D16_EXCAVATION_UNITS
 10
408852.7390047070803121
 20
4667728.8734393268823624
 30
0.0
  0
VERTEX
  5
54D
  8
12D16_EXCAVATION_UNITS
 10
408852.7388992240885273
 20
4667728.2450867500156164
 30
0.0
  0
VERTEX
  5
54E
  8
12D16_EXCAVATION_UNITS
 10
408852.7389180968748406
 20
4667728.189003306441009
 30
0.0
  0
SEQEND
  5
54F
  8
12D16_EXCAVATION_UNITS
  0
POLYLINE
  5
C9
  8
12D16_EXCAVATION_UNITS
 66
     1
 10
0.0
 20
0.0
 30
0.0
 70
     1
  0
VERTEX
  5
550
  8
12D16_EXCAVATION_UNITS
 10
408851.9723827469279058
 20
4667726.6404637042433023
 30
0.0
  0
VERTEX
  5
551
  8
12D16_EXCAVATION_UNITS
 10
408852.6825030678883195
 20
4667726.6436130311340094
 30
0.0
  0
VERTEX
  5
552
  8
12D16_EXCAVATION_UNITS
 10
408852.6863839324796572
 20
4667725.76744335424155
 30
0.0
  0
VERTEX
  5
553
  8
12D16_EXCAVATION_UNITS
 10
408851.976263523218222
 20
4667725.7642940226942301
 30
0.0
  0
SEQEND
  5
554
  8
12D16_EXCAVATION_UNITS
  0
POLYLINE
  5
CA
  8
12D16_EXCAVATION_UNITS
 66
     1
 10
0.0
 20
0.0
 30
0.0
 70
     1
  0
VERTEX
  5
555
  8
12D16_EXCAVATION_UNITS
 10
408851.9723827469279058
 20
4667726.6404637042433023
 30
0.0
  0
VERTEX
  5
556
  8
12D16_EXCAVATION_UNITS
 10
408852.1329509519273415
 20
4667726.6411648513749242
 30
0.0
  0
VERTEX
  5
557
  8
12D16_EXCAVATION_UNITS
 10
408852.6825030678883195
 20
4667726.6436130311340094
 30
0.0
  0
VERTEX
  5
558
  8
12D16_EXCAVATION_UNITS
 10
408852.6863839324796572
 20
4667725.76744335424155
 30
0.0
  0
VERTEX
  5
559
  8
12D16_EXCAVATION_UNITS
 10
408851.976263523218222
 20
4667725.7642940226942301
 30
0.0
  0
VERTEX
  5
55A
  8
12D16_EXCAVATION_UNITS
 10
408851.9747443490778096
 20
4667726.100701798684895
 30
0.0
  0
SEQEND
  5
55B
  8
12D16_EXCAVATION_UNITS
  0
POLYLINE
  5
CB
  8
12D16_EXCAVATION_UNITS
 66
     1
 10
0.0
 20
0.0
 30
0.0
 70
     1
  0
VERTEX
  5
55C
  8
12D16_EXCAVATION_UNITS
 10
408852.6825388924917206
 20
4667728.2448156652972102
 30
0.0
  0
VERTEX
  5
55D
  8
12D16_EXCAVATION_UNITS
 10
408852.6788443878758699
 20
4667729.2377026239410043
 30
0.0
  0
VERTEX
  5
55E
  8
12D16_EXCAVATION_UNITS
 10
408852.9387428496265784
 20
4667729.2386747859418392
 30
0.0
  0
VERTEX
  5
55F
  8
12D16_EXCAVATION_UNITS
 10
408852.9424373992951587
 20
4667728.2457878282293677
 30
0.0
  0
SEQEND
  5
560
  8
12D16_EXCAVATION_UNITS
  0
POLYLINE
  5
CC
  8
12D16_EXCAVATION_UNITS
 66
     1
 10
0.0
 20
0.0
 30
0.0
 70
     1
  0
VERTEX
  5
561
  8
12D16_EXCAVATION_UNITS
 10
408852.6730382625246421
 20
4667724.7859932687133551
 30
0.0
  0
VERTEX
  5
562
  8
12D16_EXCAVATION_UNITS
 10
408852.6698691861238331
 20
4667725.7619929425418377
 30
0.0
  0
VERTEX
  5
563
  8
12D16_EXCAVATION_UNITS
 10
408853.9520829169196077
 20
4667725.7661887397989631
 30
0.0
  0
VERTEX
  5
564
  8
12D16_EXCAVATION_UNITS
 10
408853.9553347824257798
 20
4667724.7901879996061325
 30
0.0
  0
SEQEND
  5
565
  8
12D16_EXCAVATION_UNITS
  0
POLYLINE
  5
CD
  8
12D16_EXCAVATION_UNITS
 66
     1
 10
0.0
 20
0.0
 30
0.0
 70
     1
  0
VERTEX
  5
566
  8
12D16_EXCAVATION_UNITS
 10
408853.9553347824257798
 20
4667724.7901879996061325
 30
0.0
  0
VERTEX
  5
567
  8
12D16_EXCAVATION_UNITS
 10
408853.9520617126836441
 20
4667723.686557374894619
 30
0.0
  0
VERTEX
  5
568
  8
12D16_EXCAVATION_UNITS
 10
408853.1980212319176644
 20
4667723.6866408903151751
 30
0.0
  0
VERTEX
  5
569
  8
12D16_EXCAVATION_UNITS
 10
408852.8250073848175816
 20
4667723.6865753680467606
 30
0.0
  0
VERTEX
  5
56A
  8
12D16_EXCAVATION_UNITS
 10
408852.7059305905131623
 20
4667723.6865595718845725
 30
0.0
  0
VERTEX
  5
56B
  8
12D16_EXCAVATION_UNITS
 10
408852.6960007193847559
 20
4667724.766039608977735
 30
0.0
  0
VERTEX
  5
56C
  8
12D16_EXCAVATION_UNITS
 10
408852.7108046195935458
 20
4667724.7861715033650398
 30
0.0
  0
VERTEX
  5
56D
  8
12D16_EXCAVATION_UNITS
 10
408853.4361187451286241
 20
4667724.7884582038968801
 30
0.0
  0
SEQEND
  5
56E
  8
12D16_EXCAVATION_UNITS
  0
POLYLINE
  5
CE
  8
12D16_EXCAVATION_UNITS
 66
     1
 10
0.0
 20
0.0
 30
0.0
 70
     1
  0
VERTEX
  5
56F
  8
12D16_EXCAVATION_UNITS
 10
408853.9520829169196077
 20
4667725.7661887397989631
 30
0.0
  0
VERTEX
  5
570
  8
12D16_EXCAVATION_UNITS
 10
408853.9524267659289762
 20
4667725.6521299481391907
 30
0.0
  0
VERTEX
  5
571
  8
12D16_EXCAVATION_UNITS
 10
408853.9553347824257798
 20
4667724.7901879996061325
 30
0.0
  0
VERTEX
  5
572
  8
12D16_EXCAVATION_UNITS
 10
408853.4361187451286241
 20
4667724.7884582038968801
 30
0.0
  0
VERTEX
  5
573
  8
12D16_EXCAVATION_UNITS
 10
408853.3248880840255879
 20
4667724.7881188811734319
 30
0.0
  0
VERTEX
  5
574
  8
12D16_EXCAVATION_UNITS
 10
408853.1978725282242522
 20
4667724.7876504035666585
 30
0.0
  0
VERTEX
  5
575
  8
12D16_EXCAVATION_UNITS
 10
408852.7108046195935458
 20
4667724.7861715033650398
 30
0.0
  0
VERTEX
  5
576
  8
12D16_EXCAVATION_UNITS
 10
408852.6730382625246421
 20
4667724.7859932687133551
 30
0.0
  0
VERTEX
  5
577
  8
12D16_EXCAVATION_UNITS
 10
408852.6698691861238331
 20
4667725.7619929425418377
 30
0.0
  0
VERTEX
  5
578
  8
12D16_EXCAVATION_UNITS
 10
408853.5472386205219664
 20
4667725.7648687278851867
 30
0.0
  0
SEQEND
  5
579
  8
12D16_EXCAVATION_UNITS
  0
POLYLINE
  5
CF
  8
12D16_EXCAVATION_UNITS
 66
     1
 10
0.0
 20
0.0
 30
0.0
 70
     1
  0
VERTEX
  5
57A
  8
12D16_EXCAVATION_UNITS
 10
408856.0069888652069494
 20
4667725.8260325584560633
 30
0.0
  0
VERTEX
  5
57B
  8
12D16_EXCAVATION_UNITS
 10
408856.008945670502726
 20
4667723.688404499553144
 30
0.0
  0
VERTEX
  5
57C
  8
12D16_EXCAVATION_UNITS
 10
408853.9520617126836441
 20
4667723.686557374894619
 30
0.0
  0
VERTEX
  5
57D
  8
12D16_EXCAVATION_UNITS
 10
408853.9501055327709764
 20
4667725.8241854459047318
 30
0.0
  0
SEQEND
  5
57E
  8
12D16_EXCAVATION_UNITS
  0
POLYLINE
  5
D0
  8
12D16_EXCAVATION_UNITS
 66
     1
 10
0.0
 20
0.0
 30
0.0
 70
     1
  0
VERTEX
  5
57F
  8
12D16_EXCAVATION_UNITS
 10
408852.5850184396258555
 20
4667728.1480137510225177
 30
0.0
  0
VERTEX
  5
580
  8
12D16_EXCAVATION_UNITS
 10
408852.6519826673902571
 20
4667727.2360461661592126
 30
0.0
  0
VERTEX
  5
581
  8
12D16_EXCAVATION_UNITS
 10
408852.0669950653100386
 20
4667727.2219508858397603
 30
0.0
  0
VERTEX
  5
582
  8
12D16_EXCAVATION_UNITS
 10
408851.9700492371921428
 20
4667727.2207606285810471
 30
0.0
  0
VERTEX
  5
583
  8
12D16_EXCAVATION_UNITS
 10
408851.9694698574021459
 20
4667727.3741362318396568
 30
0.0
  0
VERTEX
  5
584
  8
12D16_EXCAVATION_UNITS
 10
408851.9662014776840806
 20
4667728.1889951741322875
 30
0.0
  0
VERTEX
  5
585
  8
12D16_EXCAVATION_UNITS
 10
408852.5850522567052394
 20
4667728.1889929138123989
 30
0.0
  0
SEQEND
  5
586
  8
12D16_EXCAVATION_UNITS
  0
POLYLINE
  5
D1
  8
12D16_EXCAVATION_UNITS
 66
     1
 10
0.0
 20
0.0
 30
0.0
 70
     1
  0
VERTEX
  5
587
  8
12D16_EXCAVATION_UNITS
 10
408852.6362611792865209
 20
4667728.2446363857015967
 30
0.0
  0
VERTEX
  5
588
  8
12D16_EXCAVATION_UNITS
 10
408852.6825388924917206
 20
4667728.2448156652972102
 30
0.0
  0
VERTEX
  5
589
  8
12D16_EXCAVATION_UNITS
 10
408852.7388992240885273
 20
4667728.2450867500156164
 30
0.0
  0
VERTEX
  5
58A
  8
12D16_EXCAVATION_UNITS
 10
408852.7529476378113031
 20
4667728.2451272923499346
 30
0.0
  0
VERTEX
  5
58B
  8
12D16_EXCAVATION_UNITS
 10
408852.8564104489050806
 20
4667728.2454559449106455
 30
0.0
  0
VERTEX
  5
58C
  8
12D16_EXCAVATION_UNITS
 10
408852.9266539455275051
 20
4667728.245769708417356
 30
0.0
  0
VERTEX
  5
58D
  8
12D16_EXCAVATION_UNITS
 10
408852.9311609485885128
 20
4667727.3477139342576265
 30
0.0
  0
VERTEX
  5
58E
  8
12D16_EXCAVATION_UNITS
 10
408852.930718754301779
 20
4667727.2367748711258173
 30
0.0
  0
VERTEX
  5
58F
  8
12D16_EXCAVATION_UNITS
 10
408852.6519826673902571
 20
4667727.2360461661592126
 30
0.0
  0
VERTEX
  5
590
  8
12D16_EXCAVATION_UNITS
 10
408852.5850522567052394
 20
4667728.1889929138123989
 30
0.0
  0
VERTEX
  5
591
  8
12D16_EXCAVATION_UNITS
 10
408852.5853552637854591
 20
4667728.2444058619439602
 30
0.0
  0
SEQEND
  5
592
  8
12D16_EXCAVATION_UNITS
  0
POLYLINE
  5
D2
  8
12D16_EXCAVATION_UNITS
 66
     1
 10
0.0
 20
0.0
 30
0.0
 70
     1
  0
VERTEX
  5
593
  8
12D16_EXCAVATION_UNITS
 10
408853.9501055327709764
 20
4667725.8241854459047318
 30
0.0
  0
VERTEX
  5
594
  8
12D16_EXCAVATION_UNITS
 10
408854.1392591265030205
 20
4667725.8244061376899481
 30
0.0
  0
VERTEX
  5
595
  8
12D16_EXCAVATION_UNITS
 10
408856.0069888652069494
 20
4667725.8260325584560633
 30
0.0
  0
VERTEX
  5
596
  8
12D16_EXCAVATION_UNITS
 10
408856.008945670502726
 20
4667723.688404499553144
 30
0.0
  0
VERTEX
  5
597
  8
12D16_EXCAVATION_UNITS
 10
408853.9520617126836441
 20
4667723.686557374894619
 30
0.0
  0
VERTEX
  5
598
  8
12D16_EXCAVATION_UNITS
 10
408853.9533047669101506
 20
4667724.1152168456465006
 30
0.0
  0
VERTEX
  5
599
  8
12D16_EXCAVATION_UNITS
 10
408853.9553347824257798
 20
4667724.7901879996061325
 30
0.0
  0
VERTEX
  5
59A
  8
12D16_EXCAVATION_UNITS
 10
408853.9532222998095676
 20
4667725.419568745419383
 30
0.0
  0
SEQEND
  5
59B
  8
12D16_EXCAVATION_UNITS
  0
POLYLINE
  5
D3
  8
12D16_EXCAVATION_UNITS
 66
     1
 10
0.0
 20
0.0
 30
0.0
 70
     1
  0
VERTEX
  5
59C
  8
12D16_EXCAVATION_UNITS
 10
408852.9366752536734566
 20
4667728.3050550632178783
 30
0.0
  0
VERTEX
  5
59D
  8
12D16_EXCAVATION_UNITS
 10
408852.9387428496265784
 20
4667729.2386747859418392
 30
0.0
  0
VERTEX
  5
59E
  8
12D16_EXCAVATION_UNITS
 10
408852.7568556711194105
 20
4667729.2380270482972264
 30
0.0
  0
VERTEX
  5
59F
  8
12D16_EXCAVATION_UNITS
 10
408852.6788443878758699
 20
4667729.2377026239410043
 30
0.0
  0
VERTEX
  5
5A0
  8
12D16_EXCAVATION_UNITS
 10
408852.3916882264893502
 20
4667729.237638040445745
 30
0.0
  0
VERTEX
  5
5A1
  8
12D16_EXCAVATION_UNITS
 10
408852.394310045579914
 20
4667730.3356132479384542
 30
0.0
  0
VERTEX
  5
5A2
  8
12D16_EXCAVATION_UNITS
 10
408852.5107428606133908
 20
4667730.3356632078066468
 30
0.0
  0
VERTEX
  5
5A3
  8
12D16_EXCAVATION_UNITS
 10
408852.8361710684839636
 20
4667730.3366768853738904
 30
0.0
  0
VERTEX
  5
5A4
  8
12D16_EXCAVATION_UNITS
 10
408852.941121026291512
 20
4667730.3369863098487258
 30
0.0
  0
VERTEX
  5
5A5
  8
12D16_EXCAVATION_UNITS
 10
408853.9619893223280087
 20
4667730.337008005939424
 30
0.0
  0
VERTEX
  5
5A6
  8
12D16_EXCAVATION_UNITS
 10
408853.9831445575109683
 20
4667730.3370677595958114
 30
0.0
  0
VERTEX
  5
5A7
  8
12D16_EXCAVATION_UNITS
 10
408853.9831901320721954
 20
4667728.300969404168427
 30
0.0
  0
VERTEX
  5
5A8
  8
12D16_EXCAVATION_UNITS
 10
408853.9620363258873112
 20
4667728.3010206883773208
 30
0.0
  0
SEQEND
  5
5A9
  8
12D16_EXCAVATION_UNITS
  0
POLYLINE
  5
D4
  8
12D16_EXCAVATION_UNITS
 66
     1
 10
0.0
 20
0.0
 30
0.0
 70
     1
  0
VERTEX
  5
5AA
  8
12D16_EXCAVATION_UNITS
 10
408852.941121026291512
 20
4667730.3369863098487258
 30
0.0
  0
VERTEX
  5
5AB
  8
12D16_EXCAVATION_UNITS
 10
408853.9619893223280087
 20
4667730.337008005939424
 30
0.0
  0
VERTEX
  5
5AC
  8
12D16_EXCAVATION_UNITS
 10
408853.9831445575109683
 20
4667730.3370677595958114
 30
0.0
  0
VERTEX
  5
5AD
  8
12D16_EXCAVATION_UNITS
 10
408853.9831986969220452
 20
4667728.4359021363779902
 30
0.0
  0
VERTEX
  5
5AE
  8
12D16_EXCAVATION_UNITS
 10
408853.9831901320721954
 20
4667728.300969404168427
 30
0.0
  0
VERTEX
  5
5AF
  8
12D16_EXCAVATION_UNITS
 10
408853.9620363258873112
 20
4667728.3010206883773208
 30
0.0
  0
VERTEX
  5
5B0
  8
12D16_EXCAVATION_UNITS
 10
408852.942210846580565
 20
4667728.3049835190176964
 30
0.0
  0
VERTEX
  5
5B1
  8
12D16_EXCAVATION_UNITS
 10
408852.9387428496265784
 20
4667729.2386747859418392
 30
0.0
  0
VERTEX
  5
5B2
  8
12D16_EXCAVATION_UNITS
 10
408852.7568556711194105
 20
4667729.2380270482972264
 30
0.0
  0
VERTEX
  5
5B3
  8
12D16_EXCAVATION_UNITS
 10
408852.6788443878758699
 20
4667729.2377026239410043
 30
0.0
  0
VERTEX
  5
5B4
  8
12D16_EXCAVATION_UNITS
 10
408852.3916882264893502
 20
4667729.237638040445745
 30
0.0
  0
VERTEX
  5
5B5
  8
12D16_EXCAVATION_UNITS
 10
408852.394310045579914
 20
4667730.3356132479384542
 30
0.0
  0
VERTEX
  5
5B6
  8
12D16_EXCAVATION_UNITS
 10
408852.5107428606133908
 20
4667730.3356632078066468
 30
0.0
  0
SEQEND
  5
5B7
  8
12D16_EXCAVATION_UNITS
  0
POLYLINE
  5
D5
  8
12D16_EXCAVATION_UNITS
 66
     1
 10
0.0
 20
0.0
 30
0.0
 70
     1
  0
VERTEX
  5
5B8
  8
12D16_EXCAVATION_UNITS
 10
408853.9619893223280087
 20
4667730.337008005939424
 30
0.0
  0
VERTEX
  5
5B9
  8
12D16_EXCAVATION_UNITS
 10
408852.3904699138947763
 20
4667730.3389945551753044
 30
0.0
  0
VERTEX
  5
5BA
  8
12D16_EXCAVATION_UNITS
 10
408852.391797281219624
 20
4667731.4263251340016723
 30
0.0
  0
VERTEX
  5
5BB
  8
12D16_EXCAVATION_UNITS
 10
408853.963316447508987
 20
4667731.4243385791778564
 30
0.0
  0
SEQEND
  5
5BC
  8
12D16_EXCAVATION_UNITS
  0
POLYLINE
  5
D6
  8
12D16_EXCAVATION_UNITS
 66
     1
 10
0.0
 20
0.0
 30
0.0
 70
     1
  0
VERTEX
  5
5BD
  8
12D16_EXCAVATION_UNITS
 10
408858.0344279312994331
 20
4667723.690213818103075
 30
0.0
  0
VERTEX
  5
5BE
  8
12D16_EXCAVATION_UNITS
 10
408858.0282509789103642
 20
4667724.8619327284395695
 30
0.0
  0
VERTEX
  5
5BF
  8
12D16_EXCAVATION_UNITS
 10
408860.2488352179061621
 20
4667724.8638866012915969
 30
0.0
  0
VERTEX
  5
5C0
  8
12D16_EXCAVATION_UNITS
 10
408860.249890043924097
 20
4667723.6922338996082544
 30
0.0
  0
SEQEND
  5
5C1
  8
12D16_EXCAVATION_UNITS
  0
POLYLINE
  5
D7
  8
12D16_EXCAVATION_UNITS
 66
     1
 10
0.0
 20
0.0
 30
0.0
 70
     1
  0
VERTEX
  5
5C2
  8
12D16_EXCAVATION_UNITS
 10
408858.0344279312994331
 20
4667723.690213818103075
 30
0.0
  0
VERTEX
  5
5C3
  8
12D16_EXCAVATION_UNITS
 10
408858.028390216815751
 20
4667724.8279478438198566
 30
0.0
  0
VERTEX
  5
5C4
  8
12D16_EXCAVATION_UNITS
 10
408858.0295729167992249
 20
4667724.8619156442582607
 30
0.0
  0
VERTEX
  5
5C5
  8
12D16_EXCAVATION_UNITS
 10
408860.2488352179061621
 20
4667724.8638866012915969
 30
0.0
  0
VERTEX
  5
5C6
  8
12D16_EXCAVATION_UNITS
 10
408860.249610057391692
 20
4667723.9710987210273743
 30
0.0
  0
VERTEX
  5
5C7
  8
12D16_EXCAVATION_UNITS
 10
408860.249890043924097
 20
4667723.6922338996082544
 30
0.0
  0
VERTEX
  5
5C8
  8
12D16_EXCAVATION_UNITS
 10
408859.8367950334795751
 20
4667723.6919085988774896
 30
0.0
  0
SEQEND
  5
5C9
  8
12D16_EXCAVATION_UNITS
  0
POLYLINE
  5
D8
  8
12D16_EXCAVATION_UNITS
 66
     1
 10
0.0
 20
0.0
 30
0.0
 70
     1
  0
VERTEX
  5
5CA
  8
12D16_EXCAVATION_UNITS
 10
408858.0344279312994331
 20
4667723.690213818103075
 30
0.0
  0
VERTEX
  5
5CB
  8
12D16_EXCAVATION_UNITS
 10
408856.008945670502726
 20
4667723.688404499553144
 30
0.0
  0
VERTEX
  5
5CC
  8
12D16_EXCAVATION_UNITS
 10
408856.0078915485064499
 20
4667724.8600572133436799
 30
0.0
  0
VERTEX
  5
5CD
  8
12D16_EXCAVATION_UNITS
 10
408858.0282509789103642
 20
4667724.8619327284395695
 30
0.0
  0
SEQEND
  5
5CE
  8
12D16_EXCAVATION_UNITS
  0
POLYLINE
  5
D9
  8
12D16_EXCAVATION_UNITS
 66
     1
 10
0.0
 20
0.0
 30
0.0
 70
     1
  0
VERTEX
  5
5CF
  8
12D16_EXCAVATION_UNITS
 10
408858.0344279312994331
 20
4667723.690213818103075
 30
0.0
  0
VERTEX
  5
5D0
  8
12D16_EXCAVATION_UNITS
 10
408856.008945670502726
 20
4667723.688404499553144
 30
0.0
  0
VERTEX
  5
5D1
  8
12D16_EXCAVATION_UNITS
 10
408856.0078915485064499
 20
4667724.8600572133436799
 30
0.0
  0
VERTEX
  5
5D2
  8
12D16_EXCAVATION_UNITS
 10
408858.0295729167992249
 20
4667724.8619156442582607
 30
0.0
  0
VERTEX
  5
5D3
  8
12D16_EXCAVATION_UNITS
 10
408858.028390216815751
 20
4667724.8279478438198566
 30
0.0
  0
SEQEND
  5
5D4
  8
12D16_EXCAVATION_UNITS
  0
POLYLINE
  5
DA
  8
12D16_EXCAVATION_UNITS
 66
     1
 10
0.0
 20
0.0
 30
0.0
 70
     1
  0
VERTEX
  5
5D5
  8
12D16_EXCAVATION_UNITS
 10
408853.963316447508987
 20
4667731.4243385791778564
 30
0.0
  0
VERTEX
  5
5D6
  8
12D16_EXCAVATION_UNITS
 10
408854.8825035991030745
 20
4667731.4212323166429996
 30
0.0
  0
VERTEX
  5
5D7
  8
12D16_EXCAVATION_UNITS
 10
408854.8787945663207211
 20
4667730.315830422565341
 30
0.0
  0
VERTEX
  5
5D8
  8
12D16_EXCAVATION_UNITS
 10
408853.959605835203547
 20
4667730.318825650960207
 30
0.0
  0
SEQEND
  5
5D9
  8
12D16_EXCAVATION_UNITS
  0
POLYLINE
  5
DB
  8
12D16_EXCAVATION_UNITS
 66
     1
 10
0.0
 20
0.0
 30
0.0
 70
     1
  0
VERTEX
  5
5DA
  8
12D16_EXCAVATION_UNITS
 10
408854.0440514736110345
 20
4667726.769722300581634
 30
0.0
  0
VERTEX
  5
5DB
  8
12D16_EXCAVATION_UNITS
 10
408854.0440731692942791
 20
4667725.7100272038951516
 30
0.0
  0
VERTEX
  5
5DC
  8
12D16_EXCAVATION_UNITS
 10
408852.924869583803229
 20
4667725.7100547840818763
 30
0.0
  0
VERTEX
  5
5DD
  8
12D16_EXCAVATION_UNITS
 10
408852.9248466215212829
 20
4667726.7696388438344002
 30
0.0
  0
SEQEND
  5
5DE
  8
12D16_EXCAVATION_UNITS
  0
POLYLINE
  5
DC
  8
12D16_EXCAVATION_UNITS
 66
     1
 10
0.0
 20
0.0
 30
0.0
 70
     1
  0
VERTEX
  5
5DF
  8
12D16_EXCAVATION_UNITS
 10
408854.0539620767813176
 20
4667730.3370409477502108
 30
0.0
  0
VERTEX
  5
5E0
  8
12D16_EXCAVATION_UNITS
 10
408854.0544893245096318
 20
4667731.0875495010986924
 30
0.0
  0
VERTEX
  5
5E1
  8
12D16_EXCAVATION_UNITS
 10
408854.8819846502738073
 20
4667731.0869609443470836
 30
0.0
  0
VERTEX
  5
5E2
  8
12D16_EXCAVATION_UNITS
 10
408854.8814574822899885
 20
4667730.3364523984491825
 30
0.0
  0
SEQEND
  5
5E3
  8
12D16_EXCAVATION_UNITS
  0
POLYLINE
  5
DD
  8
12D16_EXCAVATION_UNITS
 66
     1
 10
0.0
 20
0.0
 30
0.0
 70
     1
  0
VERTEX
  5
5E4
  8
12D16_EXCAVATION_UNITS
 10
408854.0440421957173385
 20
4667726.3278312366455793
 30
0.0
  0
VERTEX
  5
5E5
  8
12D16_EXCAVATION_UNITS
 10
408854.0440570111968555
 20
4667726.1691322512924671
 30
0.0
  0
VERTEX
  5
5E6
  8
12D16_EXCAVATION_UNITS
 10
408854.0440626696799882
 20
4667725.8243037946522236
 30
0.0
  0
VERTEX
  5
5E7
  8
12D16_EXCAVATION_UNITS
 10
408854.0440731692942791
 20
4667725.7100272038951516
 30
0.0
  0
VERTEX
  5
5E8
  8
12D16_EXCAVATION_UNITS
 10
408853.9512741545913741
 20
4667725.7100049396976829
 30
0.0
  0
VERTEX
  5
5E9
  8
12D16_EXCAVATION_UNITS
 10
408852.924869583803229
 20
4667725.7100547840818763
 30
0.0
  0
VERTEX
  5
5EA
  8
12D16_EXCAVATION_UNITS
 10
408852.9248902784893289
 20
4667725.7628060346469283
 30
0.0
  0
VERTEX
  5
5EB
  8
12D16_EXCAVATION_UNITS
 10
408852.9248650618246756
 20
4667725.7672486016526818
 30
0.0
  0
VERTEX
  5
5EC
  8
12D16_EXCAVATION_UNITS
 10
408852.924878834397532
 20
4667726.6442563850432634
 30
0.0
  0
VERTEX
  5
5ED
  8
12D16_EXCAVATION_UNITS
 10
408852.9248466215212829
 20
4667726.7696388438344002
 30
0.0
  0
VERTEX
  5
5EE
  8
12D16_EXCAVATION_UNITS
 10
408852.9342668282915838
 20
4667726.769628151319921
 30
0.0
  0
VERTEX
  5
5EF
  8
12D16_EXCAVATION_UNITS
 10
408853.2588560848962516
 20
4667726.7696531871333718
 30
0.0
  0
VERTEX
  5
5F0
  8
12D16_EXCAVATION_UNITS
 10
408853.3779328272212297
 20
4667726.7696689954027534
 30
0.0
  0
VERTEX
  5
5F1
  8
12D16_EXCAVATION_UNITS
 10
408853.8914249230874702
 20
4667726.7696958668529987
 30
0.0
  0
VERTEX
  5
5F2
  8
12D16_EXCAVATION_UNITS
 10
408854.0440514736110345
 20
4667726.769722300581634
 30
0.0
  0
VERTEX
  5
5F3
  8
12D16_EXCAVATION_UNITS
 10
408854.0440322136855684
 20
4667726.7170820822939277
 30
0.0
  0
SEQEND
  5
5F4
  8
12D16_EXCAVATION_UNITS
  0
POLYLINE
  5
DE
  8
12D16_EXCAVATION_UNITS
 66
     1
 10
0.0
 20
0.0
 30
0.0
 70
     1
  0
VERTEX
  5
5F5
  8
12D16_EXCAVATION_UNITS
 10
408853.9831901320721954
 20
4667728.300969404168427
 30
0.0
  0
VERTEX
  5
5F6
  8
12D16_EXCAVATION_UNITS
 10
408853.9831986969220452
 20
4667728.4359021363779902
 30
0.0
  0
VERTEX
  5
5F7
  8
12D16_EXCAVATION_UNITS
 10
408853.9832024786155671
 20
4667728.7750666197389364
 30
0.0
  0
VERTEX
  5
5F8
  8
12D16_EXCAVATION_UNITS
 10
408854.0460043582716025
 20
4667728.7750323563814163
 30
0.0
  0
VERTEX
  5
5F9
  8
12D16_EXCAVATION_UNITS
 10
408854.2739911010721698
 20
4667728.7748622139915824
 30
0.0
  0
VERTEX
  5
5FA
  8
12D16_EXCAVATION_UNITS
 10
408855.8931219750083983
 20
4667728.7739266073331237
 30
0.0
  0
VERTEX
  5
5FB
  8
12D16_EXCAVATION_UNITS
 10
408855.8931814684765413
 20
4667727.7043470572680235
 30
0.0
  0
VERTEX
  5
5FC
  8
12D16_EXCAVATION_UNITS
 10
408854.2634068182087503
 20
4667727.6937593556940556
 30
0.0
  0
VERTEX
  5
5FD
  8
12D16_EXCAVATION_UNITS
 10
408853.9894799775211141
 20
4667727.6943011190742254
 30
0.0
  0
VERTEX
  5
5FE
  8
12D16_EXCAVATION_UNITS
 10
408853.9897681711008772
 20
4667727.863657551817596
 30
0.0
  0
VERTEX
  5
5FF
  8
12D16_EXCAVATION_UNITS
 10
408853.9902617512852885
 20
4667728.1256318967789412
 30
0.0
  0
SEQEND
  5
600
  8
12D16_EXCAVATION_UNITS
  0
POLYLINE
  5
DF
  8
12D16_EXCAVATION_UNITS
 66
     1
 10
0.0
 20
0.0
 30
0.0
 70
     1
  0
VERTEX
  5
601
  8
12D16_EXCAVATION_UNITS
 10
408853.9639064046787098
 20
4667726.6810249909758568
 30
0.0
  0
VERTEX
  5
602
  8
12D16_EXCAVATION_UNITS
 10
408853.9894799775211141
 20
4667727.6943011190742254
 30
0.0
  0
VERTEX
  5
603
  8
12D16_EXCAVATION_UNITS
 10
408854.2634068182087503
 20
4667727.6937593556940556
 30
0.0
  0
VERTEX
  5
604
  8
12D16_EXCAVATION_UNITS
 10
408854.4357143294764683
 20
4667727.6948641128838062
 30
0.0
  0
VERTEX
  5
605
  8
12D16_EXCAVATION_UNITS
 10
408854.6024021916091442
 20
4667727.6959304427728057
 30
0.0
  0
VERTEX
  5
606
  8
12D16_EXCAVATION_UNITS
 10
408855.2797333932830952
 20
4667727.7003922434523702
 30
0.0
  0
VERTEX
  5
607
  8
12D16_EXCAVATION_UNITS
 10
408855.4186534695909359
 20
4667727.7012621881440282
 30
0.0
  0
VERTEX
  5
608
  8
12D16_EXCAVATION_UNITS
 10
408855.8931814684765413
 20
4667727.7043470572680235
 30
0.0
  0
VERTEX
  5
609
  8
12D16_EXCAVATION_UNITS
 10
408855.8931429667281918
 20
4667726.953276920132339
 30
0.0
  0
VERTEX
  5
60A
  8
12D16_EXCAVATION_UNITS
 10
408855.8931775739765726
 20
4667726.6874087927863002
 30
0.0
  0
VERTEX
  5
60B
  8
12D16_EXCAVATION_UNITS
 10
408855.1422583603998646
 20
4667726.6860080454498529
 30
0.0
  0
SEQEND
  5
60C
  8
12D16_EXCAVATION_UNITS
  0
POLYLINE
  5
E0
  8
12D16_EXCAVATION_UNITS
 66
     1
 10
0.0
 20
0.0
 30
0.0
 70
     1
  0
VERTEX
  5
60D
  8
12D16_EXCAVATION_UNITS
 10
408854.0440672881086357
 20
4667726.6814327044412494
 30
0.0
  0
VERTEX
  5
60E
  8
12D16_EXCAVATION_UNITS
 10
408855.1422583603998646
 20
4667726.6860080454498529
 30
0.0
  0
VERTEX
  5
60F
  8
12D16_EXCAVATION_UNITS
 10
408855.5338732175878249
 20
4667726.6867217356339097
 30
0.0
  0
VERTEX
  5
610
  8
12D16_EXCAVATION_UNITS
 10
408855.8931775739765726
 20
4667726.6874087927863002
 30
0.0
  0
VERTEX
  5
611
  8
12D16_EXCAVATION_UNITS
 10
408855.8931622431264259
 20
4667726.6158890360966325
 30
0.0
  0
VERTEX
  5
612
  8
12D16_EXCAVATION_UNITS
 10
408855.8931998448097147
 20
4667725.8259483687579632
 30
0.0
  0
VERTEX
  5
613
  8
12D16_EXCAVATION_UNITS
 10
408854.1392591265030205
 20
4667725.8244061376899481
 30
0.0
  0
VERTEX
  5
614
  8
12D16_EXCAVATION_UNITS
 10
408854.0440626696799882
 20
4667725.8243037946522236
 30
0.0
  0
VERTEX
  5
615
  8
12D16_EXCAVATION_UNITS
 10
408853.9501055327709764
 20
4667725.8241854459047318
 30
0.0
  0
VERTEX
  5
616
  8
12D16_EXCAVATION_UNITS
 10
408853.9639064046787098
 20
4667726.6810249909758568
 30
0.0
  0
SEQEND
  5
617
  8
12D16_EXCAVATION_UNITS
  0
POLYLINE
  5
E1
  8
12D16_EXCAVATION_UNITS
 66
     1
 10
0.0
 20
0.0
 30
0.0
 70
     1
  0
VERTEX
  5
618
  8
12D16_EXCAVATION_UNITS
 10
408853.9657139799091965
 20
4667726.7697352468967438
 30
0.0
  0
VERTEX
  5
619
  8
12D16_EXCAVATION_UNITS
 10
408853.9686151028727181
 20
4667726.8983004121109843
 30
0.0
  0
VERTEX
  5
61A
  8
12D16_EXCAVATION_UNITS
 10
408853.9705089519848116
 20
4667727.1151679893955588
 30
0.0
  0
VERTEX
  5
61B
  8
12D16_EXCAVATION_UNITS
 10
408853.9714218603912741
 20
4667727.1730162808671594
 30
0.0
  0
VERTEX
  5
61C
  8
12D16_EXCAVATION_UNITS
 10
408853.9743565847165883
 20
4667727.3553320448845625
 30
0.0
  0
VERTEX
  5
61D
  8
12D16_EXCAVATION_UNITS
 10
408853.9744426885154098
 20
4667727.361994281411171
 30
0.0
  0
VERTEX
  5
61E
  8
12D16_EXCAVATION_UNITS
 10
408853.9758457752759568
 20
4667727.451376099139452
 30
0.0
  0
VERTEX
  5
61F
  8
12D16_EXCAVATION_UNITS
 10
408853.9796380521729589
 20
4667727.6936509273946285
 30
0.0
  0
VERTEX
  5
620
  8
12D16_EXCAVATION_UNITS
 10
408853.9894799775211141
 20
4667727.6943011190742254
 30
0.0
  0
VERTEX
  5
621
  8
12D16_EXCAVATION_UNITS
 10
408854.2634068182087503
 20
4667727.6937593556940556
 30
0.0
  0
VERTEX
  5
622
  8
12D16_EXCAVATION_UNITS
 10
408854.4357143294764683
 20
4667727.6948641128838062
 30
0.0
  0
VERTEX
  5
623
  8
12D16_EXCAVATION_UNITS
 10
408854.6024021916091442
 20
4667727.6959304427728057
 30
0.0
  0
VERTEX
  5
624
  8
12D16_EXCAVATION_UNITS
 10
408855.2797333932830952
 20
4667727.7003922434523702
 30
0.0
  0
VERTEX
  5
625
  8
12D16_EXCAVATION_UNITS
 10
408855.4186534695909359
 20
4667727.7012621881440282
 30
0.0
  0
VERTEX
  5
626
  8
12D16_EXCAVATION_UNITS
 10
408855.8931814684765413
 20
4667727.7043470572680235
 30
0.0
  0
VERTEX
  5
627
  8
12D16_EXCAVATION_UNITS
 10
408855.8931424855836667
 20
4667727.4136033765971661
 30
0.0
  0
VERTEX
  5
628
  8
12D16_EXCAVATION_UNITS
 10
408855.8931663521216251
 20
4667727.2747832667082548
 30
0.0
  0
VERTEX
  5
629
  8
12D16_EXCAVATION_UNITS
 10
408855.8931429667281918
 20
4667726.953276920132339
 30
0.0
  0
VERTEX
  5
62A
  8
12D16_EXCAVATION_UNITS
 10
408855.8931775739765726
 20
4667726.6874087927863002
 30
0.0
  0
VERTEX
  5
62B
  8
12D16_EXCAVATION_UNITS
 10
408855.5338732175878249
 20
4667726.6867217356339097
 30
0.0
  0
VERTEX
  5
62C
  8
12D16_EXCAVATION_UNITS
 10
408855.1422583603998646
 20
4667726.6860080454498529
 30
0.0
  0
VERTEX
  5
62D
  8
12D16_EXCAVATION_UNITS
 10
408854.0440672881086357
 20
4667726.6814327044412494
 30
0.0
  0
VERTEX
  5
62E
  8
12D16_EXCAVATION_UNITS
 10
408853.9639064046787098
 20
4667726.6810249909758568
 30
0.0
  0
SEQEND
  5
62F
  8
12D16_EXCAVATION_UNITS
  0
POLYLINE
  5
E2
  8
12D16_EXCAVATION_UNITS
 66
     1
 10
0.0
 20
0.0
 30
0.0
 70
     1
  0
VERTEX
  5
630
  8
12D16_EXCAVATION_UNITS
 10
408854.0103483606944792
 20
4667729.6350653758272529
 30
0.0
  0
VERTEX
  5
631
  8
12D16_EXCAVATION_UNITS
 10
408854.0211655122111551
 20
4667730.31858532410115
 30
0.0
  0
VERTEX
  5
632
  8
12D16_EXCAVATION_UNITS
 10
408854.021493528271094
 20
4667730.3375716349110007
 30
0.0
  0
VERTEX
  5
633
  8
12D16_EXCAVATION_UNITS
 10
408854.0539620767813176
 20
4667730.3370409477502108
 30
0.0
  0
VERTEX
  5
634
  8
12D16_EXCAVATION_UNITS
 10
408854.7459681736072525
 20
4667730.3260983778163791
 30
0.0
  0
VERTEX
  5
635
  8
12D16_EXCAVATION_UNITS
 10
408854.878818140074145
 20
4667730.32404825091362
 30
0.0
  0
VERTEX
  5
636
  8
12D16_EXCAVATION_UNITS
 10
408855.1284055695869029
 20
4667730.320045180618763
 30
0.0
  0
VERTEX
  5
637
  8
12D16_EXCAVATION_UNITS
 10
408855.7332337949192151
 20
4667730.3092298964038491
 30
0.0
  0
VERTEX
  5
638
  8
12D16_EXCAVATION_UNITS
 10
408855.8930324828252196
 20
4667730.3079420691356063
 30
0.0
  0
VERTEX
  5
639
  8
12D16_EXCAVATION_UNITS
 10
408855.893072142789606
 20
4667730.170343367382884
 30
0.0
  0
VERTEX
  5
63A
  8
12D16_EXCAVATION_UNITS
 10
408855.8930240643094294
 20
4667729.9939873199909925
 30
0.0
  0
VERTEX
  5
63B
  8
12D16_EXCAVATION_UNITS
 10
408855.8931219750083983
 20
4667728.7739266073331237
 30
0.0
  0
VERTEX
  5
63C
  8
12D16_EXCAVATION_UNITS
 10
408854.2739911010721698
 20
4667728.7748622139915824
 30
0.0
  0
VERTEX
  5
63D
  8
12D16_EXCAVATION_UNITS
 10
408854.0460043582716025
 20
4667728.7750323563814163
 30
0.0
  0
VERTEX
  5
63E
  8
12D16_EXCAVATION_UNITS
 10
408853.9967551616718993
 20
4667728.7751135788857937
 30
0.0
  0
VERTEX
  5
63F
  8
12D16_EXCAVATION_UNITS
 10
408854.0068597011268139
 20
4667729.4098892183974385
 30
0.0
  0
VERTEX
  5
640
  8
12D16_EXCAVATION_UNITS
 10
408854.0072069863090292
 20
4667729.4367602439597249
 30
0.0
  0
SEQEND
  5
641
  8
12D16_EXCAVATION_UNITS
  0
POLYLINE
  5
E3
  8
12D16_EXCAVATION_UNITS
 66
     1
 10
0.0
 20
0.0
 30
0.0
 70
     1
  0
VERTEX
  5
642
  8
12D16_EXCAVATION_UNITS
 10
408854.8640221221721731
 20
4667728.3480008160695434
 30
0.0
  0
VERTEX
  5
643
  8
12D16_EXCAVATION_UNITS
 10
408854.8623164095915854
 20
4667727.4423624947667122
 30
0.0
  0
VERTEX
  5
644
  8
12D16_EXCAVATION_UNITS
 10
408853.9889718330232427
 20
4667727.4439878277480602
 30
0.0
  0
VERTEX
  5
645
  8
12D16_EXCAVATION_UNITS
 10
408853.990677647117991
 20
4667728.3496261509135365
 30
0.0
  0
SEQEND
  5
646
  8
12D16_EXCAVATION_UNITS
  0
POLYLINE
  5
E4
  8
12D16_EXCAVATION_UNITS
 66
     1
 10
0.0
 20
0.0
 30
0.0
 70
     1
  0
VERTEX
  5
647
  8
12D16_EXCAVATION_UNITS
 10
408852.4379659632104449
 20
4667730.8809995371848345
 30
0.0
  0
VERTEX
  5
648
  8
12D16_EXCAVATION_UNITS
 10
408853.2447496418026276
 20
4667731.3046896727755666
 30
0.0
  0
VERTEX
  5
649
  8
12D16_EXCAVATION_UNITS
 10
408853.5072633713134564
 20
4667731.4249020265415311
 30
0.0
  0
VERTEX
  5
64A
  8
12D16_EXCAVATION_UNITS
 10
408853.963316447508987
 20
4667731.4243385791778564
 30
0.0
  0
VERTEX
  5
64B
  8
12D16_EXCAVATION_UNITS
 10
408854.4716627508751117
 20
4667731.4226550962775946
 30
0.0
  0
VERTEX
  5
64C
  8
12D16_EXCAVATION_UNITS
 10
408854.4692934072809294
 20
4667731.4183545410633087
 30
0.0
  0
VERTEX
  5
64D
  8
12D16_EXCAVATION_UNITS
 10
408854.5304133123718202
 20
4667731.4224510779604316
 30
0.0
  0
VERTEX
  5
64E
  8
12D16_EXCAVATION_UNITS
 10
408854.9688382146996446
 20
4667731.4517674380913377
 30
0.0
  0
VERTEX
  5
64F
  8
12D16_EXCAVATION_UNITS
 10
408855.1606338876881637
 20
4667731.4646143764257431
 30
0.0
  0
VERTEX
  5
650
  8
12D16_EXCAVATION_UNITS
 10
408855.2111668597208336
 20
4667731.4679592913016677
 30
0.0
  0
VERTEX
  5
651
  8
12D16_EXCAVATION_UNITS
 10
408855.2452425006777048
 20
4667731.4702952960506082
 30
0.0
  0
VERTEX
  5
652
  8
12D16_EXCAVATION_UNITS
 10
408853.8789802771061659
 20
4667730.7939650481566787
 30
0.0
  0
VERTEX
  5
653
  8
12D16_EXCAVATION_UNITS
 10
408852.4470397818950005
 20
4667730.0869440557435155
 30
0.0
  0
SEQEND
  5
654
  8
12D16_EXCAVATION_UNITS
  0
POLYLINE
  5
E5
  8
12D16_EXCAVATION_UNITS
 66
     1
 10
0.0
 20
0.0
 30
0.0
 70
     1
  0
VERTEX
  5
655
  8
12D16_EXCAVATION_UNITS
 10
408855.8930324828252196
 20
4667730.3079420691356063
 30
0.0
  0
VERTEX
  5
656
  8
12D16_EXCAVATION_UNITS
 10
408855.8216456854715943
 20
4667725.7945558782666922
 30
0.0
  0
VERTEX
  5
657
  8
12D16_EXCAVATION_UNITS
 10
408853.9501055327709764
 20
4667725.8241854459047318
 30
0.0
  0
VERTEX
  5
658
  8
12D16_EXCAVATION_UNITS
 10
408854.021493528271094
 20
4667730.3375716349110007
 30
0.0
  0
SEQEND
  5
659
  8
12D16_EXCAVATION_UNITS
  0
POLYLINE
  5
E6
  8
12D16_EXCAVATION_UNITS
 66
     1
 10
0.0
 20
0.0
 30
0.0
 70
     1
  0
VERTEX
  5
65A
  8
12D16_EXCAVATION_UNITS
 10
408856.9730298686190508
 20
4667728.8600313821807504
 30
0.0
  0
VERTEX
  5
65B
  8
12D16_EXCAVATION_UNITS
 10
408856.9672118215239607
 20
4667726.9008594816550612
 30
0.0
  0
VERTEX
  5
65C
  8
12D16_EXCAVATION_UNITS
 10
408855.8392096214229241
 20
4667726.9042209284380078
 30
0.0
  0
VERTEX
  5
65D
  8
12D16_EXCAVATION_UNITS
 10
408855.8450279840035364
 20
4667728.863392842002213
 30
0.0
  0
SEQEND
  5
65E
  8
12D16_EXCAVATION_UNITS
  0
POLYLINE
  5
E7
  8
12D16_EXCAVATION_UNITS
 66
     1
 10
0.0
 20
0.0
 30
0.0
 70
     1
  0
VERTEX
  5
65F
  8
12D16_EXCAVATION_UNITS
 10
408856.9730298686190508
 20
4667728.8600313821807504
 30
0.0
  0
VERTEX
  5
660
  8
12D16_EXCAVATION_UNITS
 10
408856.9672118215239607
 20
4667726.9008594816550612
 30
0.0
  0
VERTEX
  5
661
  8
12D16_EXCAVATION_UNITS
 10
408855.8392096214229241
 20
4667726.9042209284380078
 30
0.0
  0
VERTEX
  5
662
  8
12D16_EXCAVATION_UNITS
 10
408855.8450279840035364
 20
4667728.863392842002213
 30
0.0
  0
SEQEND
  5
663
  8
12D16_EXCAVATION_UNITS
  0
POLYLINE
  5
E8
  8
12D16_EXCAVATION_UNITS
 66
     1
 10
0.0
 20
0.0
 30
0.0
 70
     1
  0
VERTEX
  5
664
  8
12D16_EXCAVATION_UNITS
 10
408853.9831901320721954
 20
4667728.300969404168427
 30
0.0
  0
VERTEX
  5
665
  8
12D16_EXCAVATION_UNITS
 10
408853.9900315630948171
 20
4667728.0119136888533831
 30
0.0
  0
VERTEX
  5
666
  8
12D16_EXCAVATION_UNITS
 10
408853.9897681711008772
 20
4667727.863657551817596
 30
0.0
  0
VERTEX
  5
667
  8
12D16_EXCAVATION_UNITS
 10
408853.9894699319847859
 20
4667727.6935238596051931
 30
0.0
  0
VERTEX
  5
668
  8
12D16_EXCAVATION_UNITS
 10
408853.9796380521729589
 20
4667727.6936509273946285
 30
0.0
  0
VERTEX
  5
669
  8
12D16_EXCAVATION_UNITS
 10
408853.9758457752759568
 20
4667727.451376099139452
 30
0.0
  0
VERTEX
  5
66A
  8
12D16_EXCAVATION_UNITS
 10
408853.9744426885154098
 20
4667727.361994281411171
 30
0.0
  0
VERTEX
  5
66B
  8
12D16_EXCAVATION_UNITS
 10
408853.9743565847165883
 20
4667727.3553320448845625
 30
0.0
  0
VERTEX
  5
66C
  8
12D16_EXCAVATION_UNITS
 10
408853.9714218603912741
 20
4667727.1730162808671594
 30
0.0
  0
VERTEX
  5
66D
  8
12D16_EXCAVATION_UNITS
 10
408853.9705089519848116
 20
4667727.1151679893955588
 30
0.0
  0
VERTEX
  5
66E
  8
12D16_EXCAVATION_UNITS
 10
408853.9657139799091965
 20
4667726.7697352468967438
 30
0.0
  0
VERTEX
  5
66F
  8
12D16_EXCAVATION_UNITS
 10
408853.8914249230874702
 20
4667726.7696958668529987
 30
0.0
  0
VERTEX
  5
670
  8
12D16_EXCAVATION_UNITS
 10
408853.3779328272212297
 20
4667726.7696689954027534
 30
0.0
  0
VERTEX
  5
671
  8
12D16_EXCAVATION_UNITS
 10
408853.2588560848962516
 20
4667726.7696531871333718
 30
0.0
  0
VERTEX
  5
672
  8
12D16_EXCAVATION_UNITS
 10
408852.9330275194952264
 20
4667726.7696441672742367
 30
0.0
  0
VERTEX
  5
673
  8
12D16_EXCAVATION_UNITS
 10
408852.9308013828122057
 20
4667727.2367738019675016
 30
0.0
  0
VERTEX
  5
674
  8
12D16_EXCAVATION_UNITS
 10
408852.9304999894229695
 20
4667727.3477224782109261
 30
0.0
  0
VERTEX
  5
675
  8
12D16_EXCAVATION_UNITS
 10
408852.9266539455275051
 20
4667728.245769708417356
 30
0.0
  0
VERTEX
  5
676
  8
12D16_EXCAVATION_UNITS
 10
408852.9365698798792437
 20
4667728.2457526065409184
 30
0.0
  0
VERTEX
  5
677
  8
12D16_EXCAVATION_UNITS
 10
408852.9366752536734566
 20
4667728.3050550632178783
 30
0.0
  0
VERTEX
  5
678
  8
12D16_EXCAVATION_UNITS
 10
408852.942210846580565
 20
4667728.3049835190176964
 30
0.0
  0
VERTEX
  5
679
  8
12D16_EXCAVATION_UNITS
 10
408853.8269354734220542
 20
4667728.301545144058764
 30
0.0
  0
SEQEND
  5
67A
  8
12D16_EXCAVATION_UNITS
  0
POLYLINE
  5
E9
  8
12D16_EXCAVATION_UNITS
 66
     1
 10
0.0
 20
0.0
 30
0.0
 70
     1
  0
VERTEX
  5
67B
  8
12D16_EXCAVATION_UNITS
 10
408853.9831901320721954
 20
4667728.300969404168427
 30
0.0
  0
VERTEX
  5
67C
  8
12D16_EXCAVATION_UNITS
 10
408853.9897681711008772
 20
4667727.863657551817596
 30
0.0
  0
VERTEX
  5
67D
  8
12D16_EXCAVATION_UNITS
 10
408853.9894699319847859
 20
4667727.6935238596051931
 30
0.0
  0
VERTEX
  5
67E
  8
12D16_EXCAVATION_UNITS
 10
408853.9682019936735742
 20
4667726.8983057513833046
 30
0.0
  0
VERTEX
  5
67F
  8
12D16_EXCAVATION_UNITS
 10
408853.9657139799091965
 20
4667726.7697352468967438
 30
0.0
  0
VERTEX
  5
680
  8
12D16_EXCAVATION_UNITS
 10
408853.8914249230874702
 20
4667726.7696958668529987
 30
0.0
  0
VERTEX
  5
681
  8
12D16_EXCAVATION_UNITS
 10
408853.3779328272212297
 20
4667726.7696689954027534
 30
0.0
  0
VERTEX
  5
682
  8
12D16_EXCAVATION_UNITS
 10
408853.2588560848962516
 20
4667726.7696531871333718
 30
0.0
  0
VERTEX
  5
683
  8
12D16_EXCAVATION_UNITS
 10
408852.9330275194952264
 20
4667726.7696441672742367
 30
0.0
  0
VERTEX
  5
684
  8
12D16_EXCAVATION_UNITS
 10
408852.9340605210163631
 20
4667727.0861399583518505
 30
0.0
  0
VERTEX
  5
685
  8
12D16_EXCAVATION_UNITS
 10
408852.9365698798792437
 20
4667728.2457526065409184
 30
0.0
  0
VERTEX
  5
686
  8
12D16_EXCAVATION_UNITS
 10
408852.9424373992951587
 20
4667728.2457878282293677
 30
0.0
  0
VERTEX
  5
687
  8
12D16_EXCAVATION_UNITS
 10
408852.942210846580565
 20
4667728.3049835190176964
 30
0.0
  0
VERTEX
  5
688
  8
12D16_EXCAVATION_UNITS
 10
408853.8269354734220542
 20
4667728.301545144058764
 30
0.0
  0
SEQEND
  5
689
  8
12D16_EXCAVATION_UNITS
  0
POLYLINE
  5
EA
  8
12D16_EXCAVATION_UNITS
 66
     1
 10
0.0
 20
0.0
 30
0.0
 70
     1
  0
VERTEX
  5
68A
  8
12D16_EXCAVATION_UNITS
 10
408853.9831901320721954
 20
4667728.300969404168427
 30
0.0
  0
VERTEX
  5
68B
  8
12D16_EXCAVATION_UNITS
 10
408853.9894728023791686
 20
4667727.6937459306791425
 30
0.0
  0
VERTEX
  5
68C
  8
12D16_EXCAVATION_UNITS
 10
408853.9796380521729589
 20
4667727.6936509273946285
 30
0.0
  0
VERTEX
  5
68D
  8
12D16_EXCAVATION_UNITS
 10
408853.9758457752759568
 20
4667727.451376099139452
 30
0.0
  0
VERTEX
  5
68E
  8
12D16_EXCAVATION_UNITS
 10
408853.9744426885154098
 20
4667727.361994281411171
 30
0.0
  0
VERTEX
  5
68F
  8
12D16_EXCAVATION_UNITS
 10
408853.9743565847165883
 20
4667727.3553320448845625
 30
0.0
  0
VERTEX
  5
690
  8
12D16_EXCAVATION_UNITS
 10
408853.9714218603912741
 20
4667727.1730162808671594
 30
0.0
  0
VERTEX
  5
691
  8
12D16_EXCAVATION_UNITS
 10
408853.9705089519848116
 20
4667727.1151679893955588
 30
0.0
  0
VERTEX
  5
692
  8
12D16_EXCAVATION_UNITS
 10
408853.9682019936735742
 20
4667726.8983057513833046
 30
0.0
  0
VERTEX
  5
693
  8
12D16_EXCAVATION_UNITS
 10
408853.9657139799091965
 20
4667726.7697352468967438
 30
0.0
  0
VERTEX
  5
694
  8
12D16_EXCAVATION_UNITS
 10
408853.8914249230874702
 20
4667726.7696958668529987
 30
0.0
  0
VERTEX
  5
695
  8
12D16_EXCAVATION_UNITS
 10
408853.3779328272212297
 20
4667726.7696689954027534
 30
0.0
  0
VERTEX
  5
696
  8
12D16_EXCAVATION_UNITS
 10
408853.2588560848962516
 20
4667726.7696531871333718
 30
0.0
  0
VERTEX
  5
697
  8
12D16_EXCAVATION_UNITS
 10
408852.9330275194952264
 20
4667726.7696441672742367
 30
0.0
  0
VERTEX
  5
698
  8
12D16_EXCAVATION_UNITS
 10
408852.9340605210163631
 20
4667727.0861399583518505
 30
0.0
  0
VERTEX
  5
699
  8
12D16_EXCAVATION_UNITS
 10
408852.9365698798792437
 20
4667728.2457526065409184
 30
0.0
  0
VERTEX
  5
69A
  8
12D16_EXCAVATION_UNITS
 10
408852.9424373992951587
 20
4667728.2457878282293677
 30
0.0
  0
VERTEX
  5
69B
  8
12D16_EXCAVATION_UNITS
 10
408852.942210846580565
 20
4667728.3049835190176964
 30
0.0
  0
VERTEX
  5
69C
  8
12D16_EXCAVATION_UNITS
 10
408853.6550640363129787
 20
4667728.3022116608917713
 30
0.0
  0
VERTEX
  5
69D
  8
12D16_EXCAVATION_UNITS
 10
408853.8269354734220542
 20
4667728.301545144058764
 30
0.0
  0
SEQEND
  5
69E
  8
12D16_EXCAVATION_UNITS
  0
POLYLINE
  5
EB
  8
12D16_EXCAVATION_UNITS
 66
     1
 10
0.0
 20
0.0
 30
0.0
 70
     1
  0
VERTEX
  5
69F
  8
12D16_EXCAVATION_UNITS
 10
408830.6799928267719224
 20
4667784.3420043271034956
 30
0.0
  0
VERTEX
  5
6A0
  8
12D16_EXCAVATION_UNITS
 10
408831.4268030460225418
 20
4667784.3392352983355522
 30
0.0
  0
VERTEX
  5
6A1
  8
12D16_EXCAVATION_UNITS
 10
408831.4229877524194308
 20
4667783.3090194100514054
 30
0.0
  0
VERTEX
  5
6A2
  8
12D16_EXCAVATION_UNITS
 10
408830.6761774161132053
 20
4667783.3117884388193488
 30
0.0
  0
SEQEND
  5
6A3
  8
12D16_EXCAVATION_UNITS
  0
POLYLINE
  5
EC
  8
12D16_EXCAVATION_UNITS
 66
     1
 10
0.0
 20
0.0
 30
0.0
 70
     1
  0
VERTEX
  5
6A4
  8
12D16_EXCAVATION_UNITS
 10
408811.1409920463920571
 20
4667750.7760044103488326
 30
0.0
  0
VERTEX
  5
6A5
  8
12D16_EXCAVATION_UNITS
 10
408811.0940398192033172
 20
4667751.2029549786821008
 30
0.0
  0
VERTEX
  5
6A6
  8
12D16_EXCAVATION_UNITS
 10
408810.9780204588896595
 20
4667751.6949888933449984
 30
0.0
  0
VERTEX
  5
6A7
  8
12D16_EXCAVATION_UNITS
 10
408810.9000221089227125
 20
4667752.1429972862824798
 30
0.0
  0
VERTEX
  5
6A8
  8
12D16_EXCAVATION_UNITS
 10
408810.8530024358769879
 20
4667752.6350274616852403
 30
0.0
  0
VERTEX
  5
6A9
  8
12D16_EXCAVATION_UNITS
 10
408810.8603803336736746
 20
4667752.6815755246207118
 30
0.0
  0
VERTEX
  5
6AA
  8
12D16_EXCAVATION_UNITS
 10
408811.2190239150077105
 20
4667752.6823798818513751
 30
0.0
  0
VERTEX
  5
6AB
  8
12D16_EXCAVATION_UNITS
 10
408811.3381174692185596
 20
4667752.6837274087592959
 30
0.0
  0
VERTEX
  5
6AC
  8
12D16_EXCAVATION_UNITS
 10
408811.4777591329766437
 20
4667752.6829213090240955
 30
0.0
  0
VERTEX
  5
6AD
  8
12D16_EXCAVATION_UNITS
 10
408811.465604790893849
 20
4667750.7651437167078257
 30
0.0
  0
SEQEND
  5
6AE
  8
12D16_EXCAVATION_UNITS
  0
POLYLINE
  5
ED
  8
12D16_EXCAVATION_UNITS
 66
     1
 10
0.0
 20
0.0
 30
0.0
 70
     1
  0
VERTEX
  5
6AF
  8
12D16_EXCAVATION_UNITS
 10
408825.9729783958755434
 20
4667771.4486347725614905
 30
0.0
  0
VERTEX
  5
6B0
  8
12D16_EXCAVATION_UNITS
 10
408826.8379715235787444
 20
4667771.4470027331262827
 30
0.0
  0
VERTEX
  5
6B1
  8
12D16_EXCAVATION_UNITS
 10
408826.8456789625925012
 20
4667769.6909988960251212
 30
0.0
  0
VERTEX
  5
6B2
  8
12D16_EXCAVATION_UNITS
 10
408826.0530221391818486
 20
4667769.758995596319437
 30
0.0
  0
SEQEND
  5
6B3
  8
12D16_EXCAVATION_UNITS
  0
POLYLINE
  5
EE
  8
12D16_EXCAVATION_UNITS
 66
     1
 10
0.0
 20
0.0
 30
0.0
 70
     1
  0
VERTEX
  5
6B4
  8
12D16_EXCAVATION_UNITS
 10
408808.1763533495250158
 20
4667751.6542542846873403
 30
0.0
  0
VERTEX
  5
6B5
  8
12D16_EXCAVATION_UNITS
 10
408808.7742948756786063
 20
4667751.6541853295639157
 30
0.0
  0
VERTEX
  5
6B6
  8
12D16_EXCAVATION_UNITS
 10
408808.7743150296155363
 20
4667749.6810555383563042
 30
0.0
  0
VERTEX
  5
6B7
  8
12D16_EXCAVATION_UNITS
 10
408807.1642495093983598
 20
4667749.6925462363287807
 30
0.0
  0
SEQEND
  5
6B8
  8
12D16_EXCAVATION_UNITS
  0
POLYLINE
  5
EF
  8
12D16_EXCAVATION_UNITS
 66
     1
 10
0.0
 20
0.0
 30
0.0
 70
     1
  0
VERTEX
  5
6B9
  8
12D16_EXCAVATION_UNITS
 10
408854.0460043582716025
 20
4667728.7750323563814163
 30
0.0
  0
VERTEX
  5
6BA
  8
12D16_EXCAVATION_UNITS
 10
408854.054100394481793
 20
4667730.5331637728959322
 30
0.0
  0
VERTEX
  5
6BB
  8
12D16_EXCAVATION_UNITS
 10
408855.8740295697934926
 20
4667730.5319651765748858
 30
0.0
  0
VERTEX
  5
6BC
  8
12D16_EXCAVATION_UNITS
 10
408855.8931219750083983
 20
4667728.7739266073331237
 30
0.0
  0
SEQEND
  5
6BD
  8
12D16_EXCAVATION_UNITS
  0
TEXT
  5
45A
  8
LABELS
 10
408838.4730272004962899
 20
4667799.1909951586276293
 30
0.0
 40
0.2
  1
A100
  0
TEXT
  5
45B
  8
LABELS
 10
408831.4730042935116217
 20
4667783.190981506370008
 30
0.0
 40
0.2
  1
B200
  0
TEXT
  5
45C
  8
LABELS
 10
408828.473005264881067
 20
4667772.1909828195348382
 30
0.0
 40
0.2
  1
C300
  0
TEXT
  5
45D
  8
LABELS
 10
408846.4698779350146651
 20
4667764.1887004086747766
 30
0.0
 40
0.2
  1
E500
  0
TEXT
  5
45E
  8
LABELS
 10
408833.3070104354992509
 20
4667781.2450119154527783
 30
0.0
 40
0.2
  1
B201
  0
TEXT
  5
45F
  8
LABELS
 10
408826.4204152849270031
 20
4667770.587354488670826
 30
0.0
 40
0.2
  1
C301
  0
TEXT
  5
460
  8
LABELS
 10
408814.3529601562186144
 20
4667748.1900668954476714
 30
0.0
 40
0.2
  1
D401
  0
TEXT
  5
461
  8
LABELS
 10
408826.4073269022046588
 20
4667770.5680885845795274
 30
0.0
 40
0.2
  1
C302
  0
TEXT
  5
462
  8
LABELS
 10
408826.4204070019186474
 20
4667770.5873536113649607
 30
0.0
 40
0.2
  1
C303
  0
TEXT
  5
463
  8
LABELS
 10
408814.3538143652258441
 20
4667748.190846698358655
 30
0.0
 40
0.2
  1
D402
  0
TEXT
  5
464
  8
LABELS
 10
408812.4470239439979196
 20
4667736.4169607646763325
 30
0.0
 40
0.2
  1
F601
  0
TEXT
  5
465
  8
LABELS
 10
408850.4590280018746853
 20
4667729.1691062226891518
 30
0.0
 40
0.2
  1
I900
  0
TEXT
  5
466
  8
LABELS
 10
408809.0646624658256769
 20
4667750.885301262140274
 30
0.0
 40
0.2
  1
H800
  0
TEXT
  5
467
  8
LABELS
 10
408814.4729904038831592
 20
4667738.1910029631108046
 30
0.0
 40
0.2
  1
F600
  0
TEXT
  5
468
  8
LABELS
 10
408812.4470325371949002
 20
4667736.4169672690331936
 30
0.0
 40
0.2
  1
F602
  0
TEXT
  5
469
  8
LABELS
 10
408852.4495184030965902
 20
4667727.4431166751310229
 30
0.0
 40
0.2
  1
I901
  0
TEXT
  5
46A
  8
LABELS
 10
408811.4033307321951725
 20
4667751.1574763441458344
 30
0.0
 40
0.2
  1
D404
  0
TEXT
  5
46B
  8
LABELS
 10
408814.3539698497042991
 20
4667748.190476194024086
 30
0.0
 40
0.2
  1
D403
  0
TEXT
  5
46C
  8
LABELS
 10
408812.4754014880163595
 20
4667750.186707129701972
 30
0.0
 40
0.2
  1
D400
  0
TEXT
  5
46D
  8
LABELS
 10
408852.3258324973285198
 20
4667727.4439150039106607
 30
0.0
 40
0.2
  1
I904
  0
TEXT
  5
46E
  8
LABELS
 10
408852.3340204869164154
 20
4667728.6055316599085927
 30
0.0
 40
0.2
  1
I910
  0
TEXT
  5
46F
  8
LABELS
 10
408852.3340149344876409
 20
4667728.6055338466539979
 30
0.0
 40
0.2
  1
I914
  0
TEXT
  5
470
  8
LABELS
 10
408852.3293833191273734
 20
4667726.2039535203948617
 30
0.0
 40
0.2
  1
I909
  0
TEXT
  5
471
  8
LABELS
 10
408852.3293764544068836
 20
4667726.2039500530809164
 30
0.0
 40
0.2
  1
I912
  0
TEXT
  5
472
  8
LABELS
 10
408852.8106408827006817
 20
4667728.7417452139779925
 30
0.0
 40
0.2
  1
I913
  0
TEXT
  5
473
  8
LABELS
 10
408853.3125814506202005
 20
4667725.2760854894295335
 30
0.0
 40
0.2
  1
I916
  0
TEXT
  5
474
  8
LABELS
 10
408853.3277347888215445
 20
4667724.2382871843874454
 30
0.0
 40
0.2
  1
I917
  0
TEXT
  5
475
  8
LABELS
 10
408853.3125763973221183
 20
4667725.2760791871696711
 30
0.0
 40
0.2
  1
I915
  0
TEXT
  5
476
  8
LABELS
 10
408854.9795254440978169
 20
4667724.7562949173152447
 30
0.0
 40
0.2
  1
I921
  0
TEXT
  5
477
  8
LABELS
 10
408852.2920636729104444
 20
4667727.7002579132094979
 30
0.0
 40
0.2
  1
I920
  0
TEXT
  5
478
  8
LABELS
 10
408852.7722644247114658
 20
4667727.7583513539284468
 30
0.0
 40
0.2
  1
I919
  0
TEXT
  5
479
  8
LABELS
 10
408854.9807183499797247
 20
4667724.7562203761190176
 30
0.0
 40
0.2
  1
I922
  0
TEXT
  5
47A
  8
LABELS
 10
408853.2860133199719712
 20
4667729.4223841121420264
 30
0.0
 40
0.2
  1
I923
  0
TEXT
  5
47B
  8
LABELS
 10
408853.2863460563821718
 20
4667729.4231362259015441
 30
0.0
 40
0.2
  1
I924
  0
TEXT
  5
47C
  8
LABELS
 10
408853.1768932407721877
 20
4667730.8816665560007095
 30
0.0
 40
0.2
  1
I925
  0
TEXT
  5
47D
  8
LABELS
 10
408859.1403391815838404
 20
4667724.2772922283038497
 30
0.0
 40
0.2
  1
I930
  0
TEXT
  5
47E
  8
LABELS
 10
408859.1403293535113335
 20
4667724.2772978432476521
 30
0.0
 40
0.2
  1
I931
  0
TEXT
  5
47F
  8
LABELS
 10
408857.0198899916722439
 20
4667724.2749048219993711
 30
0.0
 40
0.2
  1
I927
  0
TEXT
  5
480
  8
LABELS
 10
408857.0198869640007615
 20
4667724.2749038739129901
 30
0.0
 40
0.2
  1
I928
  0
TEXT
  5
481
  8
LABELS
 10
408854.4210474184947088
 20
4667730.8700566496700048
 30
0.0
 40
0.2
  1
I932
  0
TEXT
  5
482
  8
LABELS
 10
408853.484469985589385
 20
4667726.2398608839139342
 30
0.0
 40
0.2
  1
I933
  0
TEXT
  5
483
  8
LABELS
 10
408854.4679733840748668
 20
4667730.7120009446516633
 30
0.0
 40
0.2
  1
I934
  0
TEXT
  5
484
  8
LABELS
 10
408853.484472258889582
 20
4667726.2398468600586057
 30
0.0
 40
0.2
  1
I935
  0
TEXT
  5
485
  8
LABELS
 10
408854.9379303427995183
 20
4667728.2368585718795657
 30
0.0
 40
0.2
  1
I939
  0
TEXT
  5
486
  8
LABELS
 10
408854.9356890235794708
 20
4667727.1904207449406385
 30
0.0
 40
0.2
  1
I940
  0
TEXT
  5
487
  8
LABELS
 10
408854.9260011463775299
 20
4667726.2544225268065929
 30
0.0
 40
0.2
  1
I941
  0
TEXT
  5
488
  8
LABELS
 10
408854.93336721038213
 20
4667727.1908939480781555
 30
0.0
 40
0.2
  1
I942
  0
TEXT
  5
489
  8
LABELS
 10
408854.9480675904778764
 20
4667729.546837386675179
 30
0.0
 40
0.2
  1
I943
  0
TEXT
  5
48A
  8
LABELS
 10
408854.4264970041112974
 20
4667727.8959943121299148
 30
0.0
 40
0.2
  1
I948
  0
TEXT
  5
48B
  8
LABELS
 10
408853.4608118031173944
 20
4667730.9334328798577189
 30
0.0
 40
0.2
  1
I929
  0
TEXT
  5
48C
  8
LABELS
 10
408854.9215693034930155
 20
4667728.0660635149106383
 30
0.0
 40
0.2
  1
I937
  0
TEXT
  5
48D
  8
LABELS
 10
408856.4061198232811876
 20
4667727.8821261133998632
 30
0.0
 40
0.2
  1
I944
  0
TEXT
  5
48E
  8
LABELS
 10
408856.4061198232811876
 20
4667727.8821261133998632
 30
0.0
 40
0.2
  1
I945
  0
TEXT
  5
48F
  8
LABELS
 10
408853.4541921569034457
 20
4667727.5401117904111743
 30
0.0
 40
0.2
  1
I905
  0
TEXT
  5
490
  8
LABELS
 10
408853.4580110525130294
 20
4667727.538464242592454
 30
0.0
 40
0.2
  1
I906
  0
TEXT
  5
491
  8
LABELS
 10
408853.4564300720230676
 20
4667727.5386312417685986
 30
0.0
 40
0.2
  1
I908
  0
TEXT
  5
492
  8
LABELS
 10
408831.0514902611030266
 20
4667783.8255118560045958
 30
0.0
 40
0.2
  1
<null>
  0
TEXT
  5
493
  8
LABELS
 10
408811.2198222726001404
 20
4667751.8380270767956972
 30
0.0
 40
0.2
  1
<null>
  0
TEXT
  5
494
  8
LABELS
 10
408826.4298712295130827
 20
4667770.5991275357082486
 30
0.0
 40
0.2
  1
<null>
  0
TEXT
  5
495
  8
LABELS
 10
408808.1838684640242718
 20
4667750.5199684044346213
 30
0.0
 40
0.2
  1
H805
  0
TEXT
  5
496
  8
LABELS
 10
408854.9668113150983118
 20
4667729.6513494737446308
 30
0.0
 40
0.2
  1
I938
  0
ENDSEC
  0
EOF
