  0
SECTION
  2
HEADER
  9
$ACADVER
  1
AC1009
  9
$INSBASE
 10
0.0
 20
0.0
 30
0.0
  9
$EXTMIN
 10
678608.6673819368006662
 20
5872319.1371953347697854
 30
0.0
  9
$EXTMAX
 10
684084.3763933796435595
 20
5876648.1626831572502851
 30
0.0
  9
$LIMMIN
 10
0.0
 20
0.0
  9
$LIMMAX
 10
12.0
 20
9.0
  9
$ORTHOMODE
 70
     0
  9
$REGENMODE
 70
     1
  9
$FILLMODE
 70
     1
  9
$QTEXTMODE
 70
     0
  9
$MIRRTEXT
 70
     1
  9
$DRAGMODE
 70
     2
  9
$LTSCALE
 40
1.0
  9
$OSMODE
 70
    37
  9
$ATTMODE
 70
     1
  9
$TEXTSIZE
 40
5.0
  9
$TRACEWID
 40
0.05
  9
$TEXTSTYLE
  7
STANDARD
  9
$CLAYER
  8
TEST_PITS
  9
$CELTYPE
  6
BYLAYER
  9
$CECOLOR
 62
   256
  9
$DIMSCALE
 40
1.0
  9
$DIMASZ
 40
0.18
  9
$DIMEXO
 40
0.0625
  9
$DIMDLI
 40
0.38
  9
$DIMRND
 40
0.0
  9
$DIMDLE
 40
0.0
  9
$DIMEXE
 40
0.18
  9
$DIMTP
 40
0.0
  9
$DIMTM
 40
0.0
  9
$DIMTXT
 40
0.18
  9
$DIMCEN
 40
0.09
  9
$DIMTSZ
 40
0.0
  9
$DIMTOL
 70
     0
  9
$DIMLIM
 70
     0
  9
$DIMTIH
 70
     1
  9
$DIMTOH
 70
     1
  9
$DIMSE1
 70
     0
  9
$DIMSE2
 70
     0
  9
$DIMTAD
 70
     0
  9
$DIMZIN
 70
     0
  9
$DIMBLK
  1

  9
$DIMASO
 70
     1
  9
$DIMSHO
 70
     1
  9
$DIMPOST
  1

  9
$DIMAPOST
  1

  9
$DIMALT
 70
     0
  9
$DIMALTD
 70
     2
  9
$DIMALTF
 40
25.3999999999999986
  9
$DIMLFAC
 40
1.0
  9
$DIMTOFL
 70
     0
  9
$DIMTVP
 40
0.0
  9
$DIMTIX
 70
     0
  9
$DIMSOXD
 70
     0
  9
$DIMSAH
 70
     0
  9
$DIMBLK1
  1

  9
$DIMBLK2
  1

  9
$DIMSTYLE
  2
STANDARD
  9
$DIMCLRD
 70
     0
  9
$DIMCLRE
 70
     0
  9
$DIMCLRT
 70
     0
  9
$DIMTFAC
 40
1.0
  9
$DIMGAP
 40
0.09
  9
$LUNITS
 70
     2
  9
$LUPREC
 70
     4
  9
$SKETCHINC
 40
0.1
  9
$FILLETRAD
 40
0.5
  9
$AUNITS
 70
     0
  9
$AUPREC
 70
     0
  9
$MENU
  1
.
  9
$ELEVATION
 40
0.0
  9
$PELEVATION
 40
0.0
  9
$THICKNESS
 40
0.0
  9
$LIMCHECK
 70
     0
  9
$BLIPMODE
 70
     0
  9
$CHAMFERA
 40
0.0
  9
$CHAMFERB
 40
0.0
  9
$SKPOLY
 70
     0
  9
$TDCREATE
 40
2457953.1866589118726552
  9
$TDUPDATE
 40
2458202.6330476850271225
  9
$TDINDWG
 40
0.1236413773
  9
$TDUSRTIMER
 40
0.1236412153
  9
$USRTIMER
 70
     1
  9
$ANGBASE
 50
0.0
  9
$ANGDIR
 70
     0
  9
$PDMODE
 70
     0
  9
$PDSIZE
 40
0.0
  9
$PLINEWID
 40
0.0
  9
$COORDS
 70
     1
  9
$SPLFRAME
 70
     0
  9
$SPLINETYPE
 70
     6
  9
$SPLINESEGS
 70
     8
  9
$ATTDIA
 70
     1
  9
$ATTREQ
 70
     1
  9
$HANDLING
 70
     1
  9
$HANDSEED
  5
2F3
  9
$SURFTAB1
 70
     6
  9
$SURFTAB2
 70
     6
  9
$SURFTYPE
 70
     6
  9
$SURFU
 70
     6
  9
$SURFV
 70
     6
  9
$UCSNAME
  2

  9
$UCSORG
 10
0.0
 20
0.0
 30
0.0
  9
$UCSXDIR
 10
1.0
 20
0.0
 30
0.0
  9
$UCSYDIR
 10
0.0
 20
1.0
 30
0.0
  9
$PUCSNAME
  2

  9
$PUCSORG
 10
0.0
 20
0.0
 30
0.0
  9
$PUCSXDIR
 10
1.0
 20
0.0
 30
0.0
  9
$PUCSYDIR
 10
0.0
 20
1.0
 30
0.0
  9
$USERI1
 70
     0
  9
$USERI2
 70
     0
  9
$USERI3
 70
     0
  9
$USERI4
 70
     0
  9
$USERI5
 70
     0
  9
$USERR1
 40
0.0
  9
$USERR2
 40
0.0
  9
$USERR3
 40
0.0
  9
$USERR4
 40
0.0
  9
$USERR5
 40
0.0
  9
$WORLDVIEW
 70
     1
  9
$SHADEDGE
 70
     3
  9
$SHADEDIF
 70
    70
  9
$TILEMODE
 70
     1
  9
$MAXACTVP
 70
    64
  9
$PLIMCHECK
 70
     0
  9
$PEXTMIN
 10
1.0000000000000000E+20
 20
1.0000000000000000E+20
 30
1.0000000000000000E+20
  9
$PEXTMAX
 10
-1.0000000000000000E+20
 20
-1.0000000000000000E+20
 30
-1.0000000000000000E+20
  9
$PLIMMIN
 10
0.0
 20
0.0
  9
$PLIMMAX
 10
12.0
 20
9.0
  9
$UNITMODE
 70
     0
  9
$VISRETAIN
 70
     1
  9
$PLINEGEN
 70
     0
  9
$PSLTSCALE
 70
     1
  0
ENDSEC
  0
SECTION
  2
TABLES
  0
TABLE
  2
VPORT
 70
     1
  0
VPORT
  2
*ACTIVE
 70
     0
 10
0.0
 20
0.0
 11
1.0
 21
1.0
 12
680347.8978378941537812
 22
5874872.1127166906371713
 13
0.0
 23
0.0
 14
0.5
 24
0.5
 15
0.5
 25
0.5
 16
0.0
 26
0.0
 36
1.0
 17
0.0
 27
0.0
 37
0.0
 40
3425.5112592112282073
 41
1.4043887147335421
 42
50.0
 43
0.0
 44
0.0
 50
0.0
 51
0.0
 71
     0
 72
   100
 73
     1
 74
     3
 75
     0
 76
     0
 77
     0
 78
     0
  0
ENDTAB
  0
TABLE
  2
LTYPE
 70
     2
  0
LTYPE
  2
CONTINUOUS
 70
     0
  3
Solid line
 72
    65
 73
     0
 40
0.0
  0
ENDTAB
  0
TABLE
  2
LAYER
 70
     3
  0
LAYER
  2
0
 70
     0
 62
     7
  6
CONTINUOUS
  0
LAYER
  2
TEST_PITS
 70
     0
 62
     3
  6
CONTINUOUS
  0
LAYER
  2
TEST_PIT_NUMBERS
 70
     0
 62
     7
  6
CONTINUOUS
  0
ENDTAB
  0
TABLE
  2
STYLE
 70
     2
  0
STYLE
  2
STANDARD
 70
     0
 40
0.0
 41
1.0
 50
0.0
 71
     0
 42
5.0
  3
txt
  4

  0
STYLE
  2
ANNOTATIVE
 70
     0
 40
0.0
 41
1.0
 50
0.0
 71
     0
 42
0.2
  3
txt
  4

  0
ENDTAB
  0
TABLE
  2
VIEW
 70
     0
  0
ENDTAB
  0
TABLE
  2
UCS
 70
     0
  0
ENDTAB
  0
TABLE
  2
APPID
 70
     9
  0
APPID
  2
ACAD
 70
     0
  0
APPID
  2
ACADANNOTATIVE
 70
     0
  0
APPID
  2
ACAD_NAV_VCDISPLAY
 70
     0
  0
APPID
  2
ACAECLAYERSTANDARD
 70
     0
  0
APPID
  2
ACCMTRANSPARENCY
 70
     0
  0
APPID
  2
ADE
 70
     0
  0
APPID
  2
ADE_PROJECTION
 70
     0
  0
APPID
  2
ACAD_EXEMPT_FROM_CAD_STANDARDS
 70
     0
  0
APPID
  2
ACAD_MLEADERVER
 70
     0
  0
ENDTAB
  0
TABLE
  2
DIMSTYLE
 70
     2
  0
DIMSTYLE
  2
STANDARD
 70
     0
  3

  4

  5

  6

  7

 40
1.0
 41
0.18
 42
0.0625
 43
0.38
 44
0.18
 45
0.0
 46
0.0
 47
0.0
 48
0.0
140
0.18
141
0.09
142
0.0
143
25.3999999999999986
144
1.0
145
0.0
146
1.0
147
0.09
 71
     0
 72
     0
 73
     1
 74
     1
 75
     0
 76
     0
 77
     0
 78
     0
170
     0
171
     2
172
     0
173
     0
174
     0
175
     0
176
     0
177
     0
178
     0
  0
DIMSTYLE
  2
ANNOTATIVE
 70
     0
  3

  4

  5

  6

  7

 40
1.0
 41
0.18
 42
0.0625
 43
0.38
 44
0.18
 45
0.0
 46
0.0
 47
0.0
 48
0.0
140
0.18
141
0.09
142
0.0
143
25.3999999999999986
144
1.0
145
0.0
146
1.0
147
0.09
 71
     0
 72
     0
 73
     1
 74
     1
 75
     0
 76
     0
 77
     0
 78
     0
170
     0
171
     2
172
     0
173
     0
174
     0
175
     0
176
     0
177
     0
178
     0
  0
ENDTAB
  0
ENDSEC
  0
SECTION
  2
BLOCKS
  0
BLOCK
  8
0
  2
$MODEL_SPACE
 70
     0
 10
0.0
 20
0.0
 30
0.0
  3
$MODEL_SPACE
  1

  0
ENDBLK
  5
1E6
  8
0
  0
BLOCK
 67
     1
  8
0
  2
$PAPER_SPACE
 70
     0
 10
0.0
 20
0.0
 30
0.0
  3
$PAPER_SPACE
  1

  0
ENDBLK
  5
1E2
 67
     1
  8
0
  0
ENDSEC
  0
SECTION
  2
ENTITIES
  0
POLYLINE
  5
5C
  8
TEST_PITS
 66
     1
 10
0.0
 20
0.0
 30
0.0
 70
     1
  0
VERTEX
  5
20D
  8
TEST_PITS
 10
678865.9509372977772728
 20
5872319.1371953347697854
 30
0.0
  0
VERTEX
  5
20E
  8
TEST_PITS
 10
678866.9509372977772728
 20
5872319.1371953347697854
 30
0.0
  0
VERTEX
  5
20F
  8
TEST_PITS
 10
678866.9509372977772728
 20
5872320.1371953347697854
 30
0.0
  0
VERTEX
  5
210
  8
TEST_PITS
 10
678865.9509372977772728
 20
5872320.1371953347697854
 30
0.0
  0
SEQEND
  5
211
  8
TEST_PITS
  0
POLYLINE
  5
5D
  8
TEST_PITS
 66
     1
 10
0.0
 20
0.0
 30
0.0
 70
     1
  0
VERTEX
  5
212
  8
TEST_PITS
 10
678909.8828055870253593
 20
5872391.2117765713483095
 30
0.0
  0
VERTEX
  5
213
  8
TEST_PITS
 10
678910.8828055870253593
 20
5872391.2117765713483095
 30
0.0
  0
VERTEX
  5
214
  8
TEST_PITS
 10
678910.8828055870253593
 20
5872392.2117765713483095
 30
0.0
  0
VERTEX
  5
215
  8
TEST_PITS
 10
678909.8828055870253593
 20
5872392.2117765713483095
 30
0.0
  0
SEQEND
  5
216
  8
TEST_PITS
  0
POLYLINE
  5
5E
  8
TEST_PITS
 66
     1
 10
0.0
 20
0.0
 30
0.0
 70
     1
  0
VERTEX
  5
217
  8
TEST_PITS
 10
678937.4655653529334813
 20
5872400.1413342384621501
 30
0.0
  0
VERTEX
  5
218
  8
TEST_PITS
 10
678938.465565352817066
 20
5872400.1413342384621501
 30
0.0
  0
VERTEX
  5
219
  8
TEST_PITS
 10
678938.465565352817066
 20
5872401.1413342384621501
 30
0.0
  0
VERTEX
  5
21A
  8
TEST_PITS
 10
678937.4655653529334813
 20
5872401.1413342384621501
 30
0.0
  0
SEQEND
  5
21B
  8
TEST_PITS
  0
POLYLINE
  5
5F
  8
TEST_PITS
 66
     1
 10
0.0
 20
0.0
 30
0.0
 70
     1
  0
VERTEX
  5
21C
  8
TEST_PITS
 10
678618.829637027811259
 20
5872581.1414265241473913
 30
0.0
  0
VERTEX
  5
21D
  8
TEST_PITS
 10
678619.8296370280440897
 20
5872581.1414265241473913
 30
0.0
  0
VERTEX
  5
21E
  8
TEST_PITS
 10
678619.8296370280440897
 20
5872582.1414265250787139
 30
0.0
  0
VERTEX
  5
21F
  8
TEST_PITS
 10
678618.829637027811259
 20
5872582.1414265250787139
 30
0.0
  0
SEQEND
  5
220
  8
TEST_PITS
  0
POLYLINE
  5
60
  8
TEST_PITS
 66
     1
 10
0.0
 20
0.0
 30
0.0
 70
     1
  0
VERTEX
  5
221
  8
TEST_PITS
 10
678608.6673819368006662
 20
5872651.443283099681139
 30
0.0
  0
VERTEX
  5
222
  8
TEST_PITS
 10
678609.6673819368006662
 20
5872651.443283099681139
 30
0.0
  0
VERTEX
  5
223
  8
TEST_PITS
 10
678609.6673819368006662
 20
5872652.4432831006124616
 30
0.0
  0
VERTEX
  5
224
  8
TEST_PITS
 10
678608.6673819368006662
 20
5872652.4432831006124616
 30
0.0
  0
SEQEND
  5
225
  8
TEST_PITS
  0
POLYLINE
  5
61
  8
TEST_PITS
 66
     1
 10
0.0
 20
0.0
 30
0.0
 70
     1
  0
VERTEX
  5
226
  8
TEST_PITS
 10
678632.0019578217761591
 20
5872689.3325363406911492
 30
0.0
  0
VERTEX
  5
227
  8
TEST_PITS
 10
678633.0019578218925744
 20
5872689.3325363406911492
 30
0.0
  0
VERTEX
  5
228
  8
TEST_PITS
 10
678633.0019578218925744
 20
5872690.3325363416224718
 30
0.0
  0
VERTEX
  5
229
  8
TEST_PITS
 10
678632.0019578217761591
 20
5872690.3325363416224718
 30
0.0
  0
SEQEND
  5
22A
  8
TEST_PITS
  0
POLYLINE
  5
62
  8
TEST_PITS
 66
     1
 10
0.0
 20
0.0
 30
0.0
 70
     1
  0
VERTEX
  5
22B
  8
TEST_PITS
 10
679210.1229093001456931
 20
5872870.7539130551740527
 30
0.0
  0
VERTEX
  5
22C
  8
TEST_PITS
 10
679211.1229093001456931
 20
5872870.7539130551740527
 30
0.0
  0
VERTEX
  5
22D
  8
TEST_PITS
 10
679211.1229093001456931
 20
5872871.7539130561053753
 30
0.0
  0
VERTEX
  5
22E
  8
TEST_PITS
 10
679210.1229093001456931
 20
5872871.7539130561053753
 30
0.0
  0
SEQEND
  5
22F
  8
TEST_PITS
  0
POLYLINE
  5
63
  8
TEST_PITS
 66
     1
 10
0.0
 20
0.0
 30
0.0
 70
     1
  0
VERTEX
  5
230
  8
TEST_PITS
 10
679196.2329441397450864
 20
5872920.2322039874270558
 30
0.0
  0
VERTEX
  5
231
  8
TEST_PITS
 10
679197.2329441397450864
 20
5872920.2322039874270558
 30
0.0
  0
VERTEX
  5
232
  8
TEST_PITS
 10
679197.2329441397450864
 20
5872921.2322039883583784
 30
0.0
  0
VERTEX
  5
233
  8
TEST_PITS
 10
679196.2329441397450864
 20
5872921.2322039883583784
 30
0.0
  0
SEQEND
  5
234
  8
TEST_PITS
  0
POLYLINE
  5
64
  8
TEST_PITS
 66
     1
 10
0.0
 20
0.0
 30
0.0
 70
     1
  0
VERTEX
  5
235
  8
TEST_PITS
 10
679177.3335557576501742
 20
5872933.9672053763642907
 30
0.0
  0
VERTEX
  5
236
  8
TEST_PITS
 10
679178.3335557575337589
 20
5872933.9672053763642907
 30
0.0
  0
VERTEX
  5
237
  8
TEST_PITS
 10
679178.3335557575337589
 20
5872934.9672053763642907
 30
0.0
  0
VERTEX
  5
238
  8
TEST_PITS
 10
679177.3335557576501742
 20
5872934.9672053763642907
 30
0.0
  0
SEQEND
  5
239
  8
TEST_PITS
  0
POLYLINE
  5
65
  8
TEST_PITS
 66
     1
 10
0.0
 20
0.0
 30
0.0
 70
     1
  0
VERTEX
  5
23A
  8
TEST_PITS
 10
679186.3106966315535828
 20
5872942.1896836077794433
 30
0.0
  0
VERTEX
  5
23B
  8
TEST_PITS
 10
679187.3106966317864135
 20
5872942.1896836077794433
 30
0.0
  0
VERTEX
  5
23C
  8
TEST_PITS
 10
679187.3106966317864135
 20
5872943.1896836049854755
 30
0.0
  0
VERTEX
  5
23D
  8
TEST_PITS
 10
679186.3106966315535828
 20
5872943.1896836049854755
 30
0.0
  0
SEQEND
  5
23E
  8
TEST_PITS
  0
POLYLINE
  5
66
  8
TEST_PITS
 66
     1
 10
0.0
 20
0.0
 30
0.0
 70
     1
  0
VERTEX
  5
23F
  8
TEST_PITS
 10
679237.9081713805207983
 20
5873005.9770908923819661
 30
0.0
  0
VERTEX
  5
240
  8
TEST_PITS
 10
679238.9081713807536289
 20
5873005.9770908923819661
 30
0.0
  0
VERTEX
  5
241
  8
TEST_PITS
 10
679238.9081713807536289
 20
5873006.9770908923819661
 30
0.0
  0
VERTEX
  5
242
  8
TEST_PITS
 10
679237.9081713805207983
 20
5873006.9770908923819661
 30
0.0
  0
SEQEND
  5
243
  8
TEST_PITS
  0
POLYLINE
  5
67
  8
TEST_PITS
 66
     1
 10
0.0
 20
0.0
 30
0.0
 70
     1
  0
VERTEX
  5
244
  8
TEST_PITS
 10
679373.0323623054428026
 20
5873704.3403279697522521
 30
0.0
  0
VERTEX
  5
245
  8
TEST_PITS
 10
679374.0323623054428026
 20
5873704.3403279697522521
 30
0.0
  0
VERTEX
  5
246
  8
TEST_PITS
 10
679374.0323623054428026
 20
5873705.340327967889607
 30
0.0
  0
VERTEX
  5
247
  8
TEST_PITS
 10
679373.0323623054428026
 20
5873705.340327967889607
 30
0.0
  0
SEQEND
  5
248
  8
TEST_PITS
  0
POLYLINE
  5
68
  8
TEST_PITS
 66
     1
 10
0.0
 20
0.0
 30
0.0
 70
     1
  0
VERTEX
  5
249
  8
TEST_PITS
 10
679375.4782024058513343
 20
5873727.0392596060410142
 30
0.0
  0
VERTEX
  5
24A
  8
TEST_PITS
 10
679376.478202405734919
 20
5873727.0392596060410142
 30
0.0
  0
VERTEX
  5
24B
  8
TEST_PITS
 10
679376.478202405734919
 20
5873728.0392596060410142
 30
0.0
  0
VERTEX
  5
24C
  8
TEST_PITS
 10
679375.4782024058513343
 20
5873728.0392596060410142
 30
0.0
  0
SEQEND
  5
24D
  8
TEST_PITS
  0
POLYLINE
  5
69
  8
TEST_PITS
 66
     1
 10
0.0
 20
0.0
 30
0.0
 70
     1
  0
VERTEX
  5
24E
  8
TEST_PITS
 10
679690.5956138115143403
 20
5874702.5969303762540221
 30
0.0
  0
VERTEX
  5
24F
  8
TEST_PITS
 10
679691.595613811397925
 20
5874702.5969303762540221
 30
0.0
  0
VERTEX
  5
250
  8
TEST_PITS
 10
679691.595613811397925
 20
5874703.5969303762540221
 30
0.0
  0
VERTEX
  5
251
  8
TEST_PITS
 10
679690.5956138115143403
 20
5874703.5969303762540221
 30
0.0
  0
SEQEND
  5
252
  8
TEST_PITS
  0
POLYLINE
  5
6A
  8
TEST_PITS
 66
     1
 10
0.0
 20
0.0
 30
0.0
 70
     1
  0
VERTEX
  5
253
  8
TEST_PITS
 10
679736.765723351505585
 20
5874708.946567558683455
 30
0.0
  0
VERTEX
  5
254
  8
TEST_PITS
 10
679737.765723351854831
 20
5874708.946567558683455
 30
0.0
  0
VERTEX
  5
255
  8
TEST_PITS
 10
679737.765723351854831
 20
5874709.9465675596147776
 30
0.0
  0
VERTEX
  5
256
  8
TEST_PITS
 10
679736.765723351505585
 20
5874709.9465675596147776
 30
0.0
  0
SEQEND
  5
257
  8
TEST_PITS
  0
POLYLINE
  5
6B
  8
TEST_PITS
 66
     1
 10
0.0
 20
0.0
 30
0.0
 70
     1
  0
VERTEX
  5
258
  8
TEST_PITS
 10
679765.8699686285108328
 20
5874712.7829808779060841
 30
0.0
  0
VERTEX
  5
259
  8
TEST_PITS
 10
679766.8699686285108328
 20
5874712.7829808779060841
 30
0.0
  0
VERTEX
  5
25A
  8
TEST_PITS
 10
679766.8699686285108328
 20
5874713.7829808760434389
 30
0.0
  0
VERTEX
  5
25B
  8
TEST_PITS
 10
679765.8699686285108328
 20
5874713.7829808760434389
 30
0.0
  0
SEQEND
  5
25C
  8
TEST_PITS
  0
POLYLINE
  5
6C
  8
TEST_PITS
 66
     1
 10
0.0
 20
0.0
 30
0.0
 70
     1
  0
VERTEX
  5
25D
  8
TEST_PITS
 10
679776.3187273814110085
 20
5874725.7467787936329842
 30
0.0
  0
VERTEX
  5
25E
  8
TEST_PITS
 10
679777.3187273816438392
 20
5874725.7467787936329842
 30
0.0
  0
VERTEX
  5
25F
  8
TEST_PITS
 10
679777.3187273816438392
 20
5874726.7467787945643067
 30
0.0
  0
VERTEX
  5
260
  8
TEST_PITS
 10
679776.3187273814110085
 20
5874726.7467787945643067
 30
0.0
  0
SEQEND
  5
261
  8
TEST_PITS
  0
POLYLINE
  5
6D
  8
TEST_PITS
 66
     1
 10
0.0
 20
0.0
 30
0.0
 70
     1
  0
VERTEX
  5
262
  8
TEST_PITS
 10
679945.6378961364971474
 20
5875052.6112085552886128
 30
0.0
  0
VERTEX
  5
263
  8
TEST_PITS
 10
679946.6378961366135627
 20
5875052.6112085552886128
 30
0.0
  0
VERTEX
  5
264
  8
TEST_PITS
 10
679946.6378961366135627
 20
5875053.6112085562199354
 30
0.0
  0
VERTEX
  5
265
  8
TEST_PITS
 10
679945.6378961364971474
 20
5875053.6112085562199354
 30
0.0
  0
SEQEND
  5
266
  8
TEST_PITS
  0
POLYLINE
  5
6E
  8
TEST_PITS
 66
     1
 10
0.0
 20
0.0
 30
0.0
 70
     1
  0
VERTEX
  5
267
  8
TEST_PITS
 10
679956.0078284851042554
 20
5875058.5385132236406207
 30
0.0
  0
VERTEX
  5
268
  8
TEST_PITS
 10
679957.0078284851042554
 20
5875058.5385132236406207
 30
0.0
  0
VERTEX
  5
269
  8
TEST_PITS
 10
679957.0078284851042554
 20
5875059.5385132227092981
 30
0.0
  0
VERTEX
  5
26A
  8
TEST_PITS
 10
679956.0078284851042554
 20
5875059.5385132227092981
 30
0.0
  0
SEQEND
  5
26B
  8
TEST_PITS
  0
POLYLINE
  5
6F
  8
TEST_PITS
 66
     1
 10
0.0
 20
0.0
 30
0.0
 70
     1
  0
VERTEX
  5
26C
  8
TEST_PITS
 10
679956.645339643699117
 20
5875074.2001893604174256
 30
0.0
  0
VERTEX
  5
26D
  8
TEST_PITS
 10
679957.645339643699117
 20
5875074.2001893604174256
 30
0.0
  0
VERTEX
  5
26E
  8
TEST_PITS
 10
679957.645339643699117
 20
5875075.2001893604174256
 30
0.0
  0
VERTEX
  5
26F
  8
TEST_PITS
 10
679956.645339643699117
 20
5875075.2001893604174256
 30
0.0
  0
SEQEND
  5
270
  8
TEST_PITS
  0
POLYLINE
  5
70
  8
TEST_PITS
 66
     1
 10
0.0
 20
0.0
 30
0.0
 70
     1
  0
VERTEX
  5
271
  8
TEST_PITS
 10
679970.1912495037540793
 20
5875068.062480685301125
 30
0.0
  0
VERTEX
  5
272
  8
TEST_PITS
 10
679971.1912495037540793
 20
5875068.062480685301125
 30
0.0
  0
VERTEX
  5
273
  8
TEST_PITS
 10
679971.1912495037540793
 20
5875069.0624806834384799
 30
0.0
  0
VERTEX
  5
274
  8
TEST_PITS
 10
679970.1912495037540793
 20
5875069.0624806834384799
 30
0.0
  0
SEQEND
  5
275
  8
TEST_PITS
  0
POLYLINE
  5
71
  8
TEST_PITS
 66
     1
 10
0.0
 20
0.0
 30
0.0
 70
     1
  0
VERTEX
  5
276
  8
TEST_PITS
 10
680080.2154771742643788
 20
5875279.9819104736670852
 30
0.0
  0
VERTEX
  5
277
  8
TEST_PITS
 10
680081.2154771743807942
 20
5875279.9819104736670852
 30
0.0
  0
VERTEX
  5
278
  8
TEST_PITS
 10
680081.2154771743807942
 20
5875280.9819104736670852
 30
0.0
  0
VERTEX
  5
279
  8
TEST_PITS
 10
680080.2154771742643788
 20
5875280.9819104736670852
 30
0.0
  0
SEQEND
  5
27A
  8
TEST_PITS
  0
POLYLINE
  5
72
  8
TEST_PITS
 66
     1
 10
0.0
 20
0.0
 30
0.0
 70
     1
  0
VERTEX
  5
27B
  8
TEST_PITS
 10
680263.7849491654196754
 20
5875354.487226152792573
 30
0.0
  0
VERTEX
  5
27C
  8
TEST_PITS
 10
680264.7849491656525061
 20
5875354.487226152792573
 30
0.0
  0
VERTEX
  5
27D
  8
TEST_PITS
 10
680264.7849491656525061
 20
5875355.487226152792573
 30
0.0
  0
VERTEX
  5
27E
  8
TEST_PITS
 10
680263.7849491654196754
 20
5875355.487226152792573
 30
0.0
  0
SEQEND
  5
27F
  8
TEST_PITS
  0
POLYLINE
  5
73
  8
TEST_PITS
 66
     1
 10
0.0
 20
0.0
 30
0.0
 70
     1
  0
VERTEX
  5
280
  8
TEST_PITS
 10
680289.8193555343896151
 20
5875374.5965901138260961
 30
0.0
  0
VERTEX
  5
281
  8
TEST_PITS
 10
680290.8193555342731997
 20
5875374.5965901138260961
 30
0.0
  0
VERTEX
  5
282
  8
TEST_PITS
 10
680290.8193555342731997
 20
5875375.5965901147574186
 30
0.0
  0
VERTEX
  5
283
  8
TEST_PITS
 10
680289.8193555343896151
 20
5875375.5965901147574186
 30
0.0
  0
SEQEND
  5
284
  8
TEST_PITS
  0
POLYLINE
  5
74
  8
TEST_PITS
 66
     1
 10
0.0
 20
0.0
 30
0.0
 70
     1
  0
VERTEX
  5
285
  8
TEST_PITS
 10
680328.6780808494659141
 20
5875571.3299621222540736
 30
0.0
  0
VERTEX
  5
286
  8
TEST_PITS
 10
680329.6780808493494987
 20
5875571.3299621222540736
 30
0.0
  0
VERTEX
  5
287
  8
TEST_PITS
 10
680329.6780808493494987
 20
5875572.329962121322751
 30
0.0
  0
VERTEX
  5
288
  8
TEST_PITS
 10
680328.6780808494659141
 20
5875572.329962121322751
 30
0.0
  0
SEQEND
  5
289
  8
TEST_PITS
  0
POLYLINE
  5
75
  8
TEST_PITS
 66
     1
 10
0.0
 20
0.0
 30
0.0
 70
     1
  0
VERTEX
  5
28A
  8
TEST_PITS
 10
680423.9282383264508098
 20
5875565.9727706229314208
 30
0.0
  0
VERTEX
  5
28B
  8
TEST_PITS
 10
680424.9282383264508098
 20
5875565.9727706229314208
 30
0.0
  0
VERTEX
  5
28C
  8
TEST_PITS
 10
680424.9282383264508098
 20
5875566.9727706229314208
 30
0.0
  0
VERTEX
  5
28D
  8
TEST_PITS
 10
680423.9282383264508098
 20
5875566.9727706229314208
 30
0.0
  0
SEQEND
  5
28E
  8
TEST_PITS
  0
POLYLINE
  5
76
  8
TEST_PITS
 66
     1
 10
0.0
 20
0.0
 30
0.0
 70
     1
  0
VERTEX
  5
28F
  8
TEST_PITS
 10
680516.3992684659315273
 20
5875632.4434543289244175
 30
0.0
  0
VERTEX
  5
290
  8
TEST_PITS
 10
680517.3992684659315273
 20
5875632.4434543289244175
 30
0.0
  0
VERTEX
  5
291
  8
TEST_PITS
 10
680517.3992684659315273
 20
5875633.4434543298557401
 30
0.0
  0
VERTEX
  5
292
  8
TEST_PITS
 10
680516.3992684659315273
 20
5875633.4434543298557401
 30
0.0
  0
SEQEND
  5
293
  8
TEST_PITS
  0
POLYLINE
  5
77
  8
TEST_PITS
 66
     1
 10
0.0
 20
0.0
 30
0.0
 70
     1
  0
VERTEX
  5
294
  8
TEST_PITS
 10
681124.905707924393937
 20
5875586.3536851005628705
 30
0.0
  0
VERTEX
  5
295
  8
TEST_PITS
 10
681125.9057079245103523
 20
5875586.3536851005628705
 30
0.0
  0
VERTEX
  5
296
  8
TEST_PITS
 10
681125.9057079245103523
 20
5875587.3536851005628705
 30
0.0
  0
VERTEX
  5
297
  8
TEST_PITS
 10
681124.905707924393937
 20
5875587.3536851005628705
 30
0.0
  0
SEQEND
  5
298
  8
TEST_PITS
  0
POLYLINE
  5
78
  8
TEST_PITS
 66
     1
 10
0.0
 20
0.0
 30
0.0
 70
     1
  0
VERTEX
  5
299
  8
TEST_PITS
 10
681177.4261781866662204
 20
5875566.4307858310639858
 30
0.0
  0
VERTEX
  5
29A
  8
TEST_PITS
 10
681178.4261781865498051
 20
5875566.4307858310639858
 30
0.0
  0
VERTEX
  5
29B
  8
TEST_PITS
 10
681178.4261781865498051
 20
5875567.4307858292013407
 30
0.0
  0
VERTEX
  5
29C
  8
TEST_PITS
 10
681177.4261781866662204
 20
5875567.4307858292013407
 30
0.0
  0
SEQEND
  5
29D
  8
TEST_PITS
  0
POLYLINE
  5
79
  8
TEST_PITS
 66
     1
 10
0.0
 20
0.0
 30
0.0
 70
     1
  0
VERTEX
  5
29E
  8
TEST_PITS
 10
681662.897381040151231
 20
5875783.0990386791527271
 30
0.0
  0
VERTEX
  5
29F
  8
TEST_PITS
 10
681663.8973810400348157
 20
5875783.0990386791527271
 30
0.0
  0
VERTEX
  5
2A0
  8
TEST_PITS
 10
681663.8973810400348157
 20
5875784.0990386791527271
 30
0.0
  0
VERTEX
  5
2A1
  8
TEST_PITS
 10
681662.897381040151231
 20
5875784.0990386791527271
 30
0.0
  0
SEQEND
  5
2A2
  8
TEST_PITS
  0
POLYLINE
  5
7A
  8
TEST_PITS
 66
     1
 10
0.0
 20
0.0
 30
0.0
 70
     1
  0
VERTEX
  5
2A3
  8
TEST_PITS
 10
684058.8763830233365297
 20
5876318.7776465993374586
 30
0.0
  0
VERTEX
  5
2A4
  8
TEST_PITS
 10
684059.8763830231036991
 20
5876318.7776465993374586
 30
0.0
  0
VERTEX
  5
2A5
  8
TEST_PITS
 10
684059.8763830231036991
 20
5876319.777646598406136
 30
0.0
  0
VERTEX
  5
2A6
  8
TEST_PITS
 10
684058.8763830233365297
 20
5876319.777646598406136
 30
0.0
  0
SEQEND
  5
2A7
  8
TEST_PITS
  0
POLYLINE
  5
7B
  8
TEST_PITS
 66
     1
 10
0.0
 20
0.0
 30
0.0
 70
     1
  0
VERTEX
  5
2A8
  8
TEST_PITS
 10
684045.038454789435491
 20
5876642.6632386362180114
 30
0.0
  0
VERTEX
  5
2A9
  8
TEST_PITS
 10
684046.0384547893190756
 20
5876642.6632386362180114
 30
0.0
  0
VERTEX
  5
2AA
  8
TEST_PITS
 10
684046.0384547893190756
 20
5876643.6632386362180114
 30
0.0
  0
VERTEX
  5
2AB
  8
TEST_PITS
 10
684045.038454789435491
 20
5876643.6632386362180114
 30
0.0
  0
SEQEND
  5
2AC
  8
TEST_PITS
  0
POLYLINE
  5
7C
  8
TEST_PITS
 66
     1
 10
0.0
 20
0.0
 30
0.0
 70
     1
  0
VERTEX
  5
2AD
  8
TEST_PITS
 10
683615.0
 20
5876337.5
 30
0.0
  0
VERTEX
  5
2AE
  8
TEST_PITS
 10
683616.0
 20
5876337.5
 30
0.0
  0
VERTEX
  5
2AF
  8
TEST_PITS
 10
683616.0
 20
5876338.5000000009313226
 30
0.0
  0
VERTEX
  5
2B0
  8
TEST_PITS
 10
683615.0
 20
5876338.5000000009313226
 30
0.0
  0
SEQEND
  5
2B1
  8
TEST_PITS
  0
TEXT
  5
7D
  8
TEST_PIT_NUMBERS
 10
679776.821068914141506
 20
5874726.2475812723860145
 30
0.0
 40
5.0
  1
687
  0
TEXT
  5
7F
  8
TEST_PIT_NUMBERS
 10
679766.3700063455617055
 20
5874713.2829720079898834
 30
0.0
 40
5.0
  1
691
  0
TEXT
  5
80
  8
TEST_PIT_NUMBERS
 10
679737.2657814701087773
 20
5874709.4465060029178858
 30
0.0
 40
5.0
  1
699
  0
TEXT
  5
81
  8
TEST_PIT_NUMBERS
 10
679691.0958974638488144
 20
5874703.0964933009818196
 30
0.0
 40
5.0
  1
701w2
  0
TEXT
  5
82
  8
TEST_PIT_NUMBERS
 10
679375.9779588703531772
 20
5873727.5395617419853806
 30
0.0
 40
5.0
  1
669
  0
TEXT
  5
83
  8
TEST_PIT_NUMBERS
 10
679373.5338794199051335
 20
5873704.8407598808407784
 30
0.0
 40
5.0
  1
670s1
  0
TEXT
  5
84
  8
TEST_PIT_NUMBERS
 10
679238.4044211964355782
 20
5873006.4796691928058863
 30
0.0
 40
5.0
  1
270
  0
TEXT
  5
85
  8
TEST_PIT_NUMBERS
 10
679186.8105680085718632
 20
5872942.6884999452158809
 30
0.0
 40
5.0
  1
656
  0
TEXT
  5
86
  8
TEST_PIT_NUMBERS
 10
679177.8147166846320033
 20
5872934.4864002037793398
 30
0.0
 40
5.0
  1
655
  0
TEXT
  5
87
  8
TEST_PIT_NUMBERS
 10
679196.7324628514470533
 20
5872920.7280393559485674
 30
0.0
 40
5.0
  1
268
  0
TEXT
  5
88
  8
TEST_PIT_NUMBERS
 10
679210.6231156346620992
 20
5872871.2508570672944188
 30
0.0
 40
5.0
  1
1011
  0
TEXT
  5
89
  8
TEST_PIT_NUMBERS
 10
678937.9654166288673878
 20
5872400.6414053775370121
 30
0.0
 40
5.0
  1
948
  0
TEXT
  5
8A
  8
TEST_PIT_NUMBERS
 10
678910.3825489681912586
 20
5872391.711700021289289
 30
0.0
 40
5.0
  1
937
  0
TEXT
  5
8B
  8
TEST_PIT_NUMBERS
 10
678866.4509217564482242
 20
5872319.6371926078572869
 30
0.0
 40
5.0
  1
957
  0
TEXT
  5
8C
  8
TEST_PIT_NUMBERS
 10
678632.5033473884686828
 20
5872689.8315671309828758
 30
0.0
 40
5.0
  1
875
  0
TEXT
  5
8D
  8
TEST_PIT_NUMBERS
 10
678609.1670507119270042
 20
5872651.9431580072268844
 30
0.0
 40
5.0
  1
866
  0
TEXT
  5
8E
  8
TEST_PIT_NUMBERS
 10
678619.329594197217375
 20
5872581.641362464055419
 30
0.0
 40
5.0
  1
889
  0
TEXT
  5
8F
  8
TEST_PIT_NUMBERS
 10
684045.5386573649011552
 20
5876643.1626831572502851
 30
0.0
 40
5.0
  1
1173sw3
  0
TEXT
  5
90
  8
TEST_PIT_NUMBERS
 10
684059.3763933798763901
 20
5876319.2776395538821816
 30
0.0
 40
5.0
  1
1182n3
  0
TEXT
  5
91
  8
TEST_PIT_NUMBERS
 10
683615.528569441055879
 20
5876337.9439565259963274
 30
0.0
 40
5.0
  1
1157ne5
  0
TEXT
  5
92
  8
TEST_PIT_NUMBERS
 10
681663.3972386132227257
 20
5875783.598999872803688
 30
0.0
 40
5.0
  1
641
  0
TEXT
  5
93
  8
TEST_PIT_NUMBERS
 10
681177.9269310822710395
 20
5875566.9307897202670574
 30
0.0
 40
5.0
  1
1123
  0
TEXT
  5
94
  8
TEST_PIT_NUMBERS
 10
681125.4070343757048249
 20
5875586.8539545703679323
 30
0.0
 40
5.0
  1
1122
  0
TEXT
  5
95
  8
TEST_PIT_NUMBERS
 10
680516.899680002592504
 20
5875632.9487272091209888
 30
0.0
 40
5.0
  1
1125
  0
TEXT
  5
96
  8
TEST_PIT_NUMBERS
 10
680424.4276200607419014
 20
5875566.4720317609608173
 30
0.0
 40
5.0
  1
1119ne4
  0
TEXT
  5
97
  8
TEST_PIT_NUMBERS
 10
680329.1774295576615259
 20
5875571.8298549726605415
 30
0.0
 40
5.0
  1
438ne2
  0
TEXT
  5
98
  8
TEST_PIT_NUMBERS
 10
680290.3192093004472554
 20
5875375.0962740927934647
 30
0.0
 40
5.0
  1
712
  0
TEXT
  5
99
  8
TEST_PIT_NUMBERS
 10
680264.284157230053097
 20
5875354.9879005448892713
 30
0.0
 40
5.0
  1
247
  0
TEXT
  5
9A
  8
TEST_PIT_NUMBERS
 10
680080.7158734265249223
 20
5875280.4810848627239466
 30
0.0
 40
5.0
  1
248
  0
TEXT
  5
9B
  8
TEST_PIT_NUMBERS
 10
679957.1448972185608
 20
5875074.7008492583408952
 30
0.0
 40
5.0
  1
1129
  0
TEXT
  5
9C
  8
TEST_PIT_NUMBERS
 10
679970.6915909779490903
 20
5875068.5625036433339119
 30
0.0
 40
5.0
  1
1012ne3
  0
TEXT
  5
9D
  8
TEST_PIT_NUMBERS
 10
679956.5098959477618337
 20
5875059.0374845936894417
 30
0.0
 40
5.0
  1
1012ne1
  0
TEXT
  5
9E
  8
TEST_PIT_NUMBERS
 10
679946.1382085394579917
 20
5875053.1108060730621219
 30
0.0
 40
5.0
  1
1012
  0
ENDSEC
  0
EOF
