  0
SECTION
  2
HEADER
  9
$ACADVER
  1
AC1009
  9
$INSBASE
 10
0.0
 20
0.0
 30
0.0
  9
$EXTMIN
 10
679145.05364428088
 20
5872854.2095368952
 30
0.16
  9
$EXTMAX
 10
683652.02615657728
 20
5876376.4387015179
 30
3.75
  9
$LIMMIN
 10
0.0
 20
0.0
  9
$LIMMAX
 10
12.0
 20
9.0
  9
$ORTHOMODE
 70
     0
  9
$REGENMODE
 70
     1
  9
$FILLMODE
 70
     1
  9
$QTEXTMODE
 70
     0
  9
$MIRRTEXT
 70
     1
  9
$DRAGMODE
 70
     2
  9
$LTSCALE
 40
1.0
  9
$OSMODE
 70
    37
  9
$ATTMODE
 70
     1
  9
$TEXTSIZE
 40
10.0
  9
$TRACEWID
 40
0.05
  9
$TEXTSTYLE
  7
STANDARD
  9
$CLAYER
  8
0
  9
$CELTYPE
  6
BYLAYER
  9
$CECOLOR
 62
   256
  9
$DIMSCALE
 40
1.0
  9
$DIMASZ
 40
0.18
  9
$DIMEXO
 40
0.0625
  9
$DIMDLI
 40
0.38
  9
$DIMRND
 40
0.0
  9
$DIMDLE
 40
0.0
  9
$DIMEXE
 40
0.18
  9
$DIMTP
 40
0.0
  9
$DIMTM
 40
0.0
  9
$DIMTXT
 40
0.18
  9
$DIMCEN
 40
0.09
  9
$DIMTSZ
 40
0.0
  9
$DIMTOL
 70
     0
  9
$DIMLIM
 70
     0
  9
$DIMTIH
 70
     1
  9
$DIMTOH
 70
     1
  9
$DIMSE1
 70
     0
  9
$DIMSE2
 70
     0
  9
$DIMTAD
 70
     0
  9
$DIMZIN
 70
     0
  9
$DIMBLK
  1

  9
$DIMASO
 70
     1
  9
$DIMSHO
 70
     1
  9
$DIMPOST
  1

  9
$DIMAPOST
  1

  9
$DIMALT
 70
     0
  9
$DIMALTD
 70
     2
  9
$DIMALTF
 40
25.399999999999999
  9
$DIMLFAC
 40
1.0
  9
$DIMTOFL
 70
     0
  9
$DIMTVP
 40
0.0
  9
$DIMTIX
 70
     0
  9
$DIMSOXD
 70
     0
  9
$DIMSAH
 70
     0
  9
$DIMBLK1
  1

  9
$DIMBLK2
  1

  9
$DIMSTYLE
  2
STANDARD
  9
$DIMCLRD
 70
     0
  9
$DIMCLRE
 70
     0
  9
$DIMCLRT
 70
     0
  9
$DIMTFAC
 40
1.0
  9
$DIMGAP
 40
0.09
  9
$LUNITS
 70
     2
  9
$LUPREC
 70
     4
  9
$SKETCHINC
 40
0.1
  9
$FILLETRAD
 40
0.5
  9
$AUNITS
 70
     0
  9
$AUPREC
 70
     0
  9
$MENU
  1
.
  9
$ELEVATION
 40
0.0
  9
$PELEVATION
 40
0.0
  9
$THICKNESS
 40
0.0
  9
$LIMCHECK
 70
     0
  9
$BLIPMODE
 70
     0
  9
$CHAMFERA
 40
0.5
  9
$CHAMFERB
 40
0.5
  9
$SKPOLY
 70
     0
  9
$TDCREATE
 40
2457689.8942429749
  9
$TDUPDATE
 40
2457916.957225984
  9
$TDINDWG
 40
0.5774527431000001
  9
$TDUSRTIMER
 40
0.5774526505000001
  9
$USRTIMER
 70
     1
  9
$ANGBASE
 50
0.0
  9
$ANGDIR
 70
     0
  9
$PDMODE
 70
     0
  9
$PDSIZE
 40
0.0
  9
$PLINEWID
 40
0.0
  9
$COORDS
 70
     2
  9
$SPLFRAME
 70
     0
  9
$SPLINETYPE
 70
     6
  9
$SPLINESEGS
 70
     8
  9
$ATTDIA
 70
     1
  9
$ATTREQ
 70
     1
  9
$HANDLING
 70
     1
  9
$HANDSEED
  5
D80
  9
$SURFTAB1
 70
     6
  9
$SURFTAB2
 70
     6
  9
$SURFTYPE
 70
     6
  9
$SURFU
 70
     6
  9
$SURFV
 70
     6
  9
$UCSNAME
  2

  9
$UCSORG
 10
0.0
 20
0.0
 30
0.0
  9
$UCSXDIR
 10
1.0
 20
0.0
 30
0.0
  9
$UCSYDIR
 10
0.0
 20
1.0
 30
0.0
  9
$PUCSNAME
  2

  9
$PUCSORG
 10
0.0
 20
0.0
 30
0.0
  9
$PUCSXDIR
 10
1.0
 20
0.0
 30
0.0
  9
$PUCSYDIR
 10
0.0
 20
1.0
 30
0.0
  9
$USERI1
 70
     0
  9
$USERI2
 70
     0
  9
$USERI3
 70
     0
  9
$USERI4
 70
     0
  9
$USERI5
 70
     0
  9
$USERR1
 40
0.0
  9
$USERR2
 40
0.0
  9
$USERR3
 40
0.0
  9
$USERR4
 40
0.0
  9
$USERR5
 40
0.0
  9
$WORLDVIEW
 70
     1
  9
$SHADEDGE
 70
     3
  9
$SHADEDIF
 70
    70
  9
$TILEMODE
 70
     1
  9
$MAXACTVP
 70
    64
  9
$PLIMCHECK
 70
     0
  9
$PEXTMIN
 10
1.0000000000000000E+020
 20
1.0000000000000000E+020
 30
1.0000000000000000E+020
  9
$PEXTMAX
 10
-1.0000000000000000E+020
 20
-1.0000000000000000E+020
 30
-1.0000000000000000E+020
  9
$PLIMMIN
 10
0.0
 20
0.0
  9
$PLIMMAX
 10
12.0
 20
9.0
  9
$UNITMODE
 70
     0
  9
$VISRETAIN
 70
     1
  9
$PLINEGEN
 70
     0
  9
$PSLTSCALE
 70
     1
  0
ENDSEC
  0
SECTION
  2
TABLES
  0
TABLE
  2
VPORT
 70
     1
  0
VPORT
  2
*ACTIVE
 70
     0
 10
0.0
 20
0.0
 11
1.0
 21
1.0
 12
681662.13984141906
 22
5874615.3241192047
 13
0.0
 23
0.0
 14
0.5
 24
0.5
 15
0.5
 25
0.5
 16
0.0
 26
0.0
 36
1.0
 17
0.0
 27
0.0
 37
0.0
 40
3359.8903195528892
 41
2.563706563706563
 42
50.0
 43
0.0
 44
0.0
 50
0.0
 51
0.0
 71
     0
 72
   100
 73
     1
 74
     3
 75
     0
 76
     0
 77
     0
 78
     0
  0
ENDTAB
  0
TABLE
  2
LTYPE
 70
     2
  0
LTYPE
  2
CONTINUOUS
 70
     0
  3
Solid line
 72
    65
 73
     0
 40
0.0
  0
ENDTAB
  0
TABLE
  2
LAYER
 70
     2
  0
LAYER
  2
0
 70
     0
 62
     7
  6
CONTINUOUS
  0
LAYER
  2
MBA
 70
     2
 62
     1
  6
CONTINUOUS
  0
ENDTAB
  0
TABLE
  2
STYLE
 70
     3
  0
STYLE
  2
STANDARD
 70
     0
 40
0.0
 41
1.0
 50
0.0
 71
     0
 42
10.0
  3
txt
  4

  0
STYLE
  2
ANNOTATIVE
 70
     0
 40
0.0
 41
1.0
 50
0.0
 71
     0
 42
0.2
  3
txt
  4

  0
STYLE
  2
LEGEND
 70
     0
 40
0.0
 41
1.0
 50
0.0
 71
     0
 42
10.0
  3
txt
  4

  0
ENDTAB
  0
TABLE
  2
VIEW
 70
     0
  0
ENDTAB
  0
TABLE
  2
UCS
 70
     0
  0
ENDTAB
  0
TABLE
  2
APPID
 70
    12
  0
APPID
  2
ACAD
 70
     0
  0
APPID
  2
ACADANNOTATIVE
 70
     0
  0
APPID
  2
ACAD_NAV_VCDISPLAY
 70
     0
  0
APPID
  2
ACAECLAYERSTANDARD
 70
     0
  0
APPID
  2
ACCMTRANSPARENCY
 70
     0
  0
APPID
  2
ADE
 70
     0
  0
APPID
  2
ADE_PROJECTION
 70
     0
  0
APPID
  2
ACMAPDMDISPLAYSTYLEREGAPP
 70
     0
  0
APPID
  2
DCO15
 70
     0
  0
APPID
  2
MAPGWS
 70
     0
  0
APPID
  2
ACAD_MLEADERVER
 70
     0
  0
APPID
  2
MAPMANAGEMENTAPPNAME
 70
     0
  0
ENDTAB
  0
TABLE
  2
DIMSTYLE
 70
     3
  0
DIMSTYLE
  2
STANDARD
 70
     0
  3

  4

  5

  6

  7

 40
1.0
 41
0.18
 42
0.0625
 43
0.38
 44
0.18
 45
0.0
 46
0.0
 47
0.0
 48
0.0
140
0.18
141
0.09
142
0.0
143
25.399999999999999
144
1.0
145
0.0
146
1.0
147
0.09
 71
     0
 72
     0
 73
     1
 74
     1
 75
     0
 76
     0
 77
     0
 78
     0
170
     0
171
     2
172
     0
173
     0
174
     0
175
     0
176
     0
177
     0
178
     0
  0
DIMSTYLE
  2
ANNOTATIVE
 70
     0
  3

  4

  5

  6

  7

 40
1.0
 41
0.18
 42
0.0625
 43
0.38
 44
0.18
 45
0.0
 46
0.0
 47
0.0
 48
0.0
140
0.18
141
0.09
142
0.0
143
25.399999999999999
144
1.0
145
0.0
146
1.0
147
0.09
 71
     0
 72
     0
 73
     1
 74
     1
 75
     0
 76
     0
 77
     0
 78
     0
170
     0
171
     2
172
     0
173
     0
174
     0
175
     0
176
     0
177
     0
178
     0
  0
ENDTAB
  0
ENDSEC
  0
SECTION
  2
BLOCKS
  0
BLOCK
  8
0
  2
$MODEL_SPACE
 70
     0
 10
0.0
 20
0.0
 30
0.0
  3
$MODEL_SPACE
  1

  0
ENDBLK
  5
C34
  8
0
  0
BLOCK
 67
     1
  8
0
  2
$PAPER_SPACE
 70
     0
 10
0.0
 20
0.0
 30
0.0
  3
$PAPER_SPACE
  1

  0
ENDBLK
  5
C30
 67
     1
  8
0
  0
ENDSEC
  0
SECTION
  2
ENTITIES
  0
POLYLINE
  5
7A
  8
MBA
 66
     1
 10
0.0
 20
0.0
 30
0.25
 70
     1
  0
VERTEX
  5
C77
  8
MBA
 10
680002.9036434954
 20
5875065.556852269
 30
0.25
  0
VERTEX
  5
C78
  8
MBA
 10
679960.57022549398
 20
5875027.1921922006
 30
0.25
  0
VERTEX
  5
C79
  8
MBA
 10
679901.70031608758
 20
5875025.207813235
 30
0.25
  0
VERTEX
  5
C7A
  8
MBA
 10
679895.31723040156
 20
5875063.2417434659
 30
0.25
  0
VERTEX
  5
C7B
  8
MBA
 10
679932.45819010318
 20
5875126.0804108158
 30
0.25
  0
VERTEX
  5
C7C
  8
MBA
 10
680001.91145400982
 20
5875123.1038423609
 30
0.25
  0
SEQEND
  5
C7D
  8
MBA
  0
POLYLINE
  5
7D
  8
MBA
 66
     1
 10
0.0
 20
0.0
 30
0.5200000000000001
 70
     1
  0
VERTEX
  5
C7E
  8
MBA
 10
679218.29045742098
 20
5872948.7241842542
 30
0.5200000000000001
  0
VERTEX
  5
C7F
  8
MBA
 10
679213.21044726111
 20
5872920.7841283772
 30
0.5200000000000001
  0
VERTEX
  5
C80
  8
MBA
 10
679219.04452142864
 20
5872899.6438777624
 30
0.5200000000000001
  0
VERTEX
  5
C81
  8
MBA
 10
679231.32650432654
 20
5872889.3092320925
 30
0.5200000000000001
  0
VERTEX
  5
C82
  8
MBA
 10
679243.55027877365
 20
5872872.1641978025
 30
0.5200000000000001
  0
VERTEX
  5
C83
  8
MBA
 10
679196.07864216249
 20
5872854.2095368952
 30
0.5200000000000001
  0
VERTEX
  5
C84
  8
MBA
 10
679170.36109072808
 20
5872868.6558157885
 30
0.5200000000000001
  0
VERTEX
  5
C85
  8
MBA
 10
679149.24729850143
 20
5872872.148322775
 30
0.5200000000000001
  0
VERTEX
  5
C86
  8
MBA
 10
679167.27868872986
 20
5872917.1857878473
 30
0.5200000000000001
  0
VERTEX
  5
C87
  8
MBA
 10
679145.05364428088
 20
5872936.4474930353
 30
0.5200000000000001
  0
VERTEX
  5
C88
  8
MBA
 10
679173.62870143075
 20
5872944.2791753672
 30
0.5200000000000001
  0
VERTEX
  5
C89
  8
MBA
 10
679188.86873191118
 20
5872947.2425146271
 30
0.5200000000000001
  0
SEQEND
  5
C8A
  8
MBA
  0
POLYLINE
  5
86
  8
MBA
 66
     1
 10
0.0
 20
0.0
 30
1.3500000000000001
 70
     1
  0
VERTEX
  5
C8B
  8
MBA
 10
681803.94976945128
 20
5875836.8852474634
 30
1.3500000000000001
  0
VERTEX
  5
C8C
  8
MBA
 10
681815.55640724022
 20
5875826.814782327
 30
1.3500000000000001
  0
VERTEX
  5
C8D
  8
MBA
 10
681723.55885143019
 20
5875809.9203695813
 30
1.3500000000000001
  0
VERTEX
  5
C8E
  8
MBA
 10
681722.259501906
 20
5875820.4810479889
 30
1.3500000000000001
  0
VERTEX
  5
C8F
  8
MBA
 10
681703.73863152973
 20
5875825.7727252403
 30
1.3500000000000001
  0
VERTEX
  5
C90
  8
MBA
 10
681689.18651909207
 20
5875850.5113163842
 30
1.3500000000000001
  0
VERTEX
  5
C91
  8
MBA
 10
681683.23338218487
 20
5875863.409779679
 30
1.3500000000000001
  0
VERTEX
  5
C92
  8
MBA
 10
681697.78549462371
 20
5875889.2067062734
 30
1.3500000000000001
  0
VERTEX
  5
C93
  8
MBA
 10
681707.04592981189
 20
5875901.1129800864
 30
1.3500000000000001
  0
VERTEX
  5
C94
  8
MBA
 10
681726.22825984377
 20
5875923.6026083976
 30
1.3500000000000001
  0
VERTEX
  5
C95
  8
MBA
 10
681762.60854093637
 20
5875904.7510081921
 30
1.3500000000000001
  0
VERTEX
  5
C96
  8
MBA
 10
681798.65809220262
 20
5875901.7744397447
 30
1.3500000000000001
  0
VERTEX
  5
C97
  8
MBA
 10
681786.4210885606
 20
5875867.6431214772
 30
1.3500000000000001
  0
VERTEX
  5
C98
  8
MBA
 10
681795.68152374856
 20
5875865.3280126816
 30
1.3500000000000001
  0
SEQEND
  5
C99
  8
MBA
  0
POLYLINE
  5
89
  8
MBA
 66
     1
 10
0.0
 20
0.0
 30
0.18
 70
     1
  0
VERTEX
  5
C9A
  8
MBA
 10
681222.28419640288
 20
5875580.0360532114
 30
0.18
  0
VERTEX
  5
C9B
  8
MBA
 10
681220.77941446006
 20
5875569.4250683887
 30
0.18
  0
VERTEX
  5
C9C
  8
MBA
 10
681212.97419051453
 20
5875563.7100569587
 30
0.18
  0
VERTEX
  5
C9D
  8
MBA
 10
681208.05293067079
 20
5875561.4875525152
 30
0.18
  0
VERTEX
  5
C9E
  8
MBA
 10
681203.29042114422
 20
5875558.947547432
 30
0.18
  0
VERTEX
  5
C9F
  8
MBA
 10
681198.68666193634
 20
5875554.6612888612
 30
0.18
  0
VERTEX
  5
CA0
  8
MBA
 10
681193.7654020926
 20
5875549.4225283796
 30
0.18
  0
VERTEX
  5
CA1
  8
MBA
 10
681189.79664415494
 20
5875547.3587742532
 30
0.18
  0
VERTEX
  5
CA2
  8
MBA
 10
681185.03413462825
 20
5875547.6762748891
 30
0.18
  0
VERTEX
  5
CA3
  8
MBA
 10
681180.27162510261
 20
5875546.0887717167
 30
0.18
  0
VERTEX
  5
CA4
  8
MBA
 10
681175.93366071675
 20
5875541.7015516758
 30
0.18
  0
VERTEX
  5
CA5
  8
MBA
 10
681149.04738326475
 20
5875534.3159617698
 30
0.18
  0
VERTEX
  5
CA6
  8
MBA
 10
681106.13522681606
 20
5875531.1662418628
 30
0.18
  0
VERTEX
  5
CA7
  8
MBA
 10
681084.91225499287
 20
5875560.5626809299
 30
0.18
  0
VERTEX
  5
CA8
  8
MBA
 10
681089.5689309733
 20
5875588.7144039012
 30
0.18
  0
VERTEX
  5
CA9
  8
MBA
 10
681079.1972435629
 20
5875631.8944902606
 30
0.18
  0
VERTEX
  5
CAA
  8
MBA
 10
681083.43058536295
 20
5875637.8211687822
 30
0.18
  0
VERTEX
  5
CAB
  8
MBA
 10
681091.05060060427
 20
5875639.3028384112
 30
0.18
  0
VERTEX
  5
CAC
  8
MBA
 10
681111.79397542216
 20
5875646.4466026993
 30
0.18
  0
VERTEX
  5
CAD
  8
MBA
 10
681153.33364183572
 20
5875636.3924159249
 30
0.18
  0
VERTEX
  5
CAE
  8
MBA
 10
681207.57333364908
 20
5875613.3736198889
 30
0.18
  0
VERTEX
  5
CAF
  8
MBA
 10
681213.92334634904
 20
5875608.8756942237
 30
0.18
  0
SEQEND
  5
CB0
  8
MBA
  0
POLYLINE
  5
92
  8
MBA
 66
     1
 10
0.0
 20
0.0
 30
0.22
 70
     1
  0
VERTEX
  5
CB1
  8
MBA
 10
680448.75700818456
 20
5875474.1664075954
 30
0.22
  0
VERTEX
  5
CB2
  8
MBA
 10
680428.33169915073
 20
5875619.4985441519
 30
0.22
  0
VERTEX
  5
CB3
  8
MBA
 10
680430.04740663618
 20
5875618.0351465922
 30
0.22
  0
VERTEX
  5
CB4
  8
MBA
 10
680439.30784182355
 20
5875616.3814974502
 30
0.22
  0
VERTEX
  5
CB5
  8
MBA
 10
680453.52922443778
 20
5875633.5794485155
 30
0.22
  0
VERTEX
  5
CB6
  8
MBA
 10
680499.29513298185
 20
5875652.8570728451
 30
0.22
  0
VERTEX
  5
CB7
  8
MBA
 10
680500.01474264835
 20
5875574.8033793289
 30
0.22
  0
VERTEX
  5
CB8
  8
MBA
 10
680488.57948654902
 20
5875562.766267647
 30
0.22
  0
VERTEX
  5
CB9
  8
MBA
 10
680470.32320003305
 20
5875526.2536946116
 30
0.22
  0
VERTEX
  5
CBA
  8
MBA
 10
680469.52944844402
 20
5875492.1223763414
 30
0.22
  0
VERTEX
  5
CBB
  8
MBA
 10
680470.72007582535
 20
5875484.978612056
 30
0.22
  0
VERTEX
  5
CBC
  8
MBA
 10
680467.14819368161
 20
5875479.4223509431
 30
0.22
  0
VERTEX
  5
CBD
  8
MBA
 10
680459.21067780629
 20
5875478.2317235591
 30
0.22
  0
SEQEND
  5
CBE
  8
MBA
  0
POLYLINE
  5
95
  8
MBA
 66
     1
 10
0.0
 20
0.0
 30
0.16
 70
     1
  0
VERTEX
  5
CBF
  8
MBA
 10
680420.96512185596
 20
5875450.2685683127
 30
0.16
  0
VERTEX
  5
CC0
  8
MBA
 10
680389.22893523215
 20
5875581.8741800468
 30
0.16
  0
VERTEX
  5
CC1
  8
MBA
 10
680391.35201673768
 20
5875585.6236234317
 30
0.16
  0
VERTEX
  5
CC2
  8
MBA
 10
680395.32077467535
 20
5875591.576760334
 30
0.16
  0
VERTEX
  5
CC3
  8
MBA
 10
680400.28172209859
 20
5875625.6419326412
 30
0.16
  0
VERTEX
  5
CC4
  8
MBA
 10
680404.25048003613
 20
5875631.2643397208
 30
0.16
  0
VERTEX
  5
CC5
  8
MBA
 10
680412.18799591437
 20
5875632.5872590337
 30
0.16
  0
VERTEX
  5
CC6
  8
MBA
 10
680418.80259247695
 20
5875627.6263116077
 30
0.16
  0
VERTEX
  5
CC7
  8
MBA
 10
680428.33169915073
 20
5875619.4985441519
 30
0.16
  0
VERTEX
  5
CC8
  8
MBA
 10
680448.75700818456
 20
5875474.1664075954
 30
0.16
  0
VERTEX
  5
CC9
  8
MBA
 10
680437.77938493795
 20
5875469.8973318879
 30
0.16
  0
VERTEX
  5
CCA
  8
MBA
 10
680424.2856079489
 20
5875454.4191759285
 30
0.16
  0
SEQEND
  5
CCB
  8
MBA
  0
POLYLINE
  5
9B
  8
MBA
 66
     1
 10
0.0
 20
0.0
 30
2.1200000000000001
 70
     1
  0
VERTEX
  5
CCC
  8
MBA
 10
680318.06708241906
 20
5875303.1728536561
 30
2.1200000000000001
  0
VERTEX
  5
CCD
  8
MBA
 10
680247.2425117176
 20
5875397.4032396721
 30
2.1200000000000001
  0
VERTEX
  5
CCE
  8
MBA
 10
680261.31384391058
 20
5875404.4026394514
 30
2.1200000000000001
  0
VERTEX
  5
CCF
  8
MBA
 10
680270.24573470466
 20
5875415.8156110235
 30
2.1200000000000001
  0
VERTEX
  5
CD0
  8
MBA
 10
680294.38682672475
 20
5875430.5964418361
 30
2.1200000000000001
  0
VERTEX
  5
CD1
  8
MBA
 10
680296.45547435153
 20
5875431.2687523169
 30
2.1200000000000001
  0
VERTEX
  5
CD2
  8
MBA
 10
680309.20352302503
 20
5875435.4118681364
 30
2.1200000000000001
  0
VERTEX
  5
CD3
  8
MBA
 10
680316.34728731215
 20
5875436.4702035822
 30
2.1200000000000001
  0
VERTEX
  5
CD4
  8
MBA
 10
680324.28480318747
 20
5875424.5639297701
 30
2.1200000000000001
  0
VERTEX
  5
CD5
  8
MBA
 10
680330.10564816184
 20
5875401.0159660066
 30
2.1200000000000001
  0
VERTEX
  5
CD6
  8
MBA
 10
680299.48006607592
 20
5875383.0374925546
 30
2.1200000000000001
  0
VERTEX
  5
CD7
  8
MBA
 10
680336.58795279253
 20
5875340.2145944042
 30
2.1200000000000001
  0
SEQEND
  5
CD8
  8
MBA
  0
POLYLINE
  5
9E
  8
MBA
 66
     1
 10
0.0
 20
0.0
 30
0.45
 70
     1
  0
VERTEX
  5
CD9
  8
MBA
 10
680318.06708241906
 20
5875303.1728536561
 30
0.45
  0
VERTEX
  5
CDA
  8
MBA
 10
680285.32482943218
 20
5875299.2040957138
 30
0.45
  0
VERTEX
  5
CDB
  8
MBA
 10
680207.20644402783
 20
5875316.5607971009
 30
0.45
  0
VERTEX
  5
CDC
  8
MBA
 10
680200.92257729475
 20
5875320.5295550404
 30
0.45
  0
VERTEX
  5
CDD
  8
MBA
 10
680189.34703331068
 20
5875330.7821797123
 30
0.45
  0
VERTEX
  5
CDE
  8
MBA
 10
680188.02411399793
 20
5875361.5400537243
 30
0.45
  0
VERTEX
  5
CDF
  8
MBA
 10
680218.12052835815
 20
5875366.1702713203
 30
0.45
  0
VERTEX
  5
CE0
  8
MBA
 10
680224.70018451847
 20
5875375.7255811635
 30
0.45
  0
VERTEX
  5
CE1
  8
MBA
 10
680235.64920924802
 20
5875391.6364680827
 30
0.45
  0
VERTEX
  5
CE2
  8
MBA
 10
680247.2425117176
 20
5875397.4032396721
 30
0.45
  0
SEQEND
  5
CE3
  8
MBA
  0
POLYLINE
  5
A4
  8
MBA
 66
     1
 10
0.0
 20
0.0
 30
0.5400000000000002
 70
     1
  0
VERTEX
  5
CE4
  8
MBA
 10
679740.21060407907
 20
5874665.5523406249
 30
0.5400000000000002
  0
VERTEX
  5
CE5
  8
MBA
 10
679736.78056485299
 20
5874675.7510051541
 30
0.5400000000000002
  0
VERTEX
  5
CE6
  8
MBA
 10
679736.88084718771
 20
5874675.8537760042
 30
0.5400000000000002
  0
VERTEX
  5
CE7
  8
MBA
 10
679742.72285887413
 20
5874696.1844000015
 30
0.5400000000000002
  0
VERTEX
  5
CE8
  8
MBA
 10
679732.56283855159
 20
5874698.565654764
 30
0.5400000000000002
  0
VERTEX
  5
CE9
  8
MBA
 10
679721.21748252492
 20
5874691.3054735716
 30
0.5400000000000002
  0
VERTEX
  5
CEA
  8
MBA
 10
679718.88914453425
 20
5874680.9337861678
 30
0.5400000000000002
  0
VERTEX
  5
CEB
  8
MBA
 10
679697.93410262116
 20
5874684.9554608762
 30
0.5400000000000002
  0
VERTEX
  5
CEC
  8
MBA
 10
679674.0157214459
 20
5874712.6838496709
 30
0.5400000000000002
  0
VERTEX
  5
CED
  8
MBA
 10
679688.62075065926
 20
5874729.8288839608
 30
0.5400000000000002
  0
VERTEX
  5
CEE
  8
MBA
 10
679701.06527071923
 20
5874737.7043736279
 30
0.5400000000000002
  0
VERTEX
  5
CEF
  8
MBA
 10
679710.59028977156
 20
5874737.4397897674
 30
0.5400000000000002
  0
VERTEX
  5
CF0
  8
MBA
 10
679722.52412440185
 20
5874741.7062045587
 30
0.5400000000000002
  0
VERTEX
  5
CF1
  8
MBA
 10
679733.87477210455
 20
5874749.5643452723
 30
0.5400000000000002
  0
VERTEX
  5
CF2
  8
MBA
 10
679755.10538363922
 20
5874756.192020027
 30
0.5400000000000002
  0
VERTEX
  5
CF3
  8
MBA
 10
679760.65719247435
 20
5874754.6293414328
 30
0.5400000000000002
  0
VERTEX
  5
CF4
  8
MBA
 10
679742.07576940872
 20
5874681.0834270511
 30
0.5400000000000002
  0
SEQEND
  5
CF5
  8
MBA
  0
POLYLINE
  5
A7
  8
MBA
 66
     1
 10
0.0
 20
0.0
 30
1.45
 70
     1
  0
VERTEX
  5
CF6
  8
MBA
 10
679740.21060407907
 20
5874665.5523406249
 30
1.45
  0
VERTEX
  5
CF7
  8
MBA
 10
679742.07576940872
 20
5874681.0834270511
 30
1.45
  0
VERTEX
  5
CF8
  8
MBA
 10
679748.50350288022
 20
5874706.5246181749
 30
1.45
  0
VERTEX
  5
CF9
  8
MBA
 10
679760.65719247435
 20
5874754.6293414328
 30
1.45
  0
VERTEX
  5
CFA
  8
MBA
 10
679775.58417460229
 20
5874750.4770085979
 30
1.45
  0
VERTEX
  5
CFB
  8
MBA
 10
679788.28420000349
 20
5874741.2694901768
 30
1.45
  0
VERTEX
  5
CFC
  8
MBA
 10
679790.82420508505
 20
5874726.0294596953
 30
1.45
  0
VERTEX
  5
CFD
  8
MBA
 10
679787.01419746305
 20
5874705.074417782
 30
1.45
  0
VERTEX
  5
CFE
  8
MBA
 10
679781.61668666918
 20
5874686.9768815851
 30
1.45
  0
VERTEX
  5
CFF
  8
MBA
 10
679777.94426265638
 20
5874666.3287569508
 30
1.45
  0
VERTEX
  5
D00
  8
MBA
 10
679763.12756635353
 20
5874650.4537251964
 30
1.45
  0
VERTEX
  5
D01
  8
MBA
 10
679759.31755873188
 20
5874644.1460459167
 30
1.45
  0
VERTEX
  5
D02
  8
MBA
 10
679751.48587640293
 20
5874642.664376284
 30
1.45
  0
VERTEX
  5
D03
  8
MBA
 10
679744.9241966093
 20
5874646.897718085
 30
1.45
  0
VERTEX
  5
D04
  8
MBA
 10
679743.65419406898
 20
5874654.8987340908
 30
1.45
  0
SEQEND
  5
D05
  8
MBA
  0
POLYLINE
  5
AD
  8
MBA
 66
     1
 10
0.0
 20
0.0
 30
0.3
 70
     1
  0
VERTEX
  5
D06
  8
MBA
 10
683652.02615657728
 20
5876333.0549550829
 30
0.3
  0
VERTEX
  5
D07
  8
MBA
 10
683639.59071503975
 20
5876315.8570040241
 30
0.3
  0
VERTEX
  5
D08
  8
MBA
 10
683635.3573732404
 20
5876266.1152378712
 30
0.3
  0
VERTEX
  5
D09
  8
MBA
 10
683605.08897936926
 20
5876259.9504338736
 30
0.3
  0
VERTEX
  5
D0A
  8
MBA
 10
683584.82185550325
 20
5876265.5860701436
 30
0.3
  0
VERTEX
  5
D0B
  8
MBA
 10
683572.25412203395
 20
5876261.4850202799
 30
0.3
  0
VERTEX
  5
D0C
  8
MBA
 10
683564.31660615839
 20
5876260.691268689
 30
0.3
  0
VERTEX
  5
D0D
  8
MBA
 10
683558.76034504548
 20
5876264.6600266248
 30
0.3
  0
VERTEX
  5
D0E
  8
MBA
 10
683545.9280277146
 20
5876274.3173376061
 30
0.3
  0
VERTEX
  5
D0F
  8
MBA
 10
683540.63635046419
 20
5876288.3402823219
 30
0.3
  0
VERTEX
  5
D10
  8
MBA
 10
683545.6634438521
 20
5876316.1215878827
 30
0.3
  0
VERTEX
  5
D11
  8
MBA
 10
683558.36346925155
 20
5876335.1716259811
 30
0.3
  0
VERTEX
  5
D12
  8
MBA
 10
683572.68388902326
 20
5876352.0864028139
 30
0.3
  0
VERTEX
  5
D13
  8
MBA
 10
683605.83624699526
 20
5876376.4387015179
 30
0.3
  0
VERTEX
  5
D14
  8
MBA
 10
683627.15527350258
 20
5876360.0425090594
 30
0.3
  0
VERTEX
  5
D15
  8
MBA
 10
683635.88654096425
 20
5876349.0622787653
 30
0.3
  0
SEQEND
  5
D16
  8
MBA
  0
POLYLINE
  5
323
  8
MBA
 66
     1
 10
0.0
 20
0.0
 30
3.75
 70
     1
  0
VERTEX
  5
D17
  8
MBA
 10
681815.55640724022
 20
5875826.814782327
 30
3.75
  0
VERTEX
  5
D18
  8
MBA
 10
681826.43939776439
 20
5875817.3721876033
 30
3.75
  0
VERTEX
  5
D19
  8
MBA
 10
681808.24925721798
 20
5875792.5674504964
 30
3.75
  0
VERTEX
  5
D1A
  8
MBA
 10
681810.68985756044
 20
5875788.1376180472
 30
3.75
  0
VERTEX
  5
D1B
  8
MBA
 10
681739.78092282545
 20
5875734.4422375606
 30
3.75
  0
VERTEX
  5
D1C
  8
MBA
 10
681726.08538455598
 20
5875738.5367799317
 30
3.75
  0
VERTEX
  5
D1D
  8
MBA
 10
681696.8753261352
 20
5875736.6317761233
 30
3.75
  0
VERTEX
  5
D1E
  8
MBA
 10
681656.37812014227
 20
5875766.3736481089
 30
3.75
  0
VERTEX
  5
D1F
  8
MBA
 10
681648.04372847278
 20
5875765.1830207249
 30
3.75
  0
VERTEX
  5
D20
  8
MBA
 10
681642.09059156571
 20
5875769.9455302553
 30
3.75
  0
VERTEX
  5
D21
  8
MBA
 10
681640.50308839127
 20
5875777.4861703301
 30
3.75
  0
VERTEX
  5
D22
  8
MBA
 10
681639.92100389581
 20
5875792.0911995424
 30
3.75
  0
VERTEX
  5
D23
  8
MBA
 10
681688.8557892628
 20
5875808.8393580345
 30
3.75
  0
VERTEX
  5
D24
  8
MBA
 10
681693.4860068569
 20
5875814.7924949462
 30
3.75
  0
VERTEX
  5
D25
  8
MBA
 10
681701.42352273234
 20
5875815.5201005666
 30
3.75
  0
VERTEX
  5
D26
  8
MBA
 10
681722.259501906
 20
5875820.4810479889
 30
3.75
  0
VERTEX
  5
D27
  8
MBA
 10
681723.55885143019
 20
5875809.9203695813
 30
3.75
  0
VERTEX
  5
D28
  8
MBA
 10
681796.46006290813
 20
5875823.3079334721
 30
3.75
  0
SEQEND
  5
D29
  8
MBA
  0
POLYLINE
  5
324
  8
MBA
 66
     1
 10
0.0
 20
0.0
 30
2.3100000000000001
 70
     1
  0
VERTEX
  5
D2A
  8
MBA
 10
681810.68985756044
 20
5875788.1376180472
 30
2.3100000000000001
  0
VERTEX
  5
D2B
  8
MBA
 10
681817.1789625762
 20
5875778.0153380558
 30
2.3100000000000001
  0
VERTEX
  5
D2C
  8
MBA
 10
681834.04618381057
 20
5875754.5335202608
 30
2.3100000000000001
  0
VERTEX
  5
D2D
  8
MBA
 10
681827.85492143035
 20
5875734.5574386427
 30
2.3100000000000001
  0
VERTEX
  5
D2E
  8
MBA
 10
681833.35826576781
 20
5875721.8574132398
 30
2.3100000000000001
  0
VERTEX
  5
D2F
  8
MBA
 10
681840.55494682956
 20
5875701.1140384246
 30
2.3100000000000001
  0
VERTEX
  5
D30
  8
MBA
 10
681846.94464710902
 20
5875695.6636108514
 30
2.3100000000000001
  0
VERTEX
  5
D31
  8
MBA
 10
681848.59829624847
 20
5875689.0490142899
 30
2.3100000000000001
  0
VERTEX
  5
D32
  8
MBA
 10
681843.63734882791
 20
5875682.4344177274
 30
2.3100000000000001
  0
VERTEX
  5
D33
  8
MBA
 10
681815.4088965375
 20
5875674.8673192617
 30
2.3100000000000001
  0
VERTEX
  5
D34
  8
MBA
 10
681792.59805800579
 20
5875667.797348462
 30
2.3100000000000001
  0
VERTEX
  5
D35
  8
MBA
 10
681788.29857024178
 20
5875668.7895379476
 30
2.3100000000000001
  0
VERTEX
  5
D36
  8
MBA
 10
681784.66054213047
 20
5875666.4744291548
 30
2.3100000000000001
  0
VERTEX
  5
D37
  8
MBA
 10
681751.90876953676
 20
5875670.8456445504
 30
2.3100000000000001
  0
VERTEX
  5
D38
  8
MBA
 10
681718.67703640659
 20
5875683.5456699524
 30
2.3100000000000001
  0
VERTEX
  5
D39
  8
MBA
 10
681731.85066692065
 20
5875716.4995900234
 30
2.3100000000000001
  0
VERTEX
  5
D3A
  8
MBA
 10
681746.61709228624
 20
5875732.3984343214
 30
2.3100000000000001
  0
VERTEX
  5
D3B
  8
MBA
 10
681739.78092282545
 20
5875734.4422375606
 30
2.3100000000000001
  0
SEQEND
  5
D3C
  8
MBA
  0
ENDSEC
  0
EOF
