  0
SECTION
  2
HEADER
  9
$ACADVER
  1
AC1009
  9
$INSBASE
 10
0.0
 20
0.0
 30
0.0
  9
$EXTMIN
 10
678579.47176877607
 20
5872157.4103422062
 30
0.0
  9
$EXTMAX
 10
684140.43473756325
 20
5876705.6868600165
 30
0.0
  9
$LIMMIN
 10
0.0
 20
0.0
  9
$LIMMAX
 10
12.0
 20
9.0
  9
$ORTHOMODE
 70
     0
  9
$REGENMODE
 70
     1
  9
$FILLMODE
 70
     1
  9
$QTEXTMODE
 70
     0
  9
$MIRRTEXT
 70
     1
  9
$DRAGMODE
 70
     2
  9
$LTSCALE
 40
1.0
  9
$OSMODE
 70
    45
  9
$ATTMODE
 70
     1
  9
$TEXTSIZE
 40
10.0
  9
$TRACEWID
 40
0.05
  9
$TEXTSTYLE
  7
STANDARD
  9
$CLAYER
  8
COLL_NUMBERS
  9
$CELTYPE
  6
BYLAYER
  9
$CECOLOR
 62
   256
  9
$DIMSCALE
 40
1.0
  9
$DIMASZ
 40
0.18
  9
$DIMEXO
 40
0.0625
  9
$DIMDLI
 40
0.38
  9
$DIMRND
 40
0.0
  9
$DIMDLE
 40
0.0
  9
$DIMEXE
 40
0.18
  9
$DIMTP
 40
0.0
  9
$DIMTM
 40
0.0
  9
$DIMTXT
 40
0.18
  9
$DIMCEN
 40
0.09
  9
$DIMTSZ
 40
0.0
  9
$DIMTOL
 70
     0
  9
$DIMLIM
 70
     0
  9
$DIMTIH
 70
     1
  9
$DIMTOH
 70
     1
  9
$DIMSE1
 70
     0
  9
$DIMSE2
 70
     0
  9
$DIMTAD
 70
     0
  9
$DIMZIN
 70
     0
  9
$DIMBLK
  1

  9
$DIMASO
 70
     1
  9
$DIMSHO
 70
     1
  9
$DIMPOST
  1

  9
$DIMAPOST
  1

  9
$DIMALT
 70
     0
  9
$DIMALTD
 70
     2
  9
$DIMALTF
 40
25.399999999999999
  9
$DIMLFAC
 40
1.0
  9
$DIMTOFL
 70
     0
  9
$DIMTVP
 40
0.0
  9
$DIMTIX
 70
     0
  9
$DIMSOXD
 70
     0
  9
$DIMSAH
 70
     0
  9
$DIMBLK1
  1

  9
$DIMBLK2
  1

  9
$DIMSTYLE
  2
STANDARD
  9
$DIMCLRD
 70
     0
  9
$DIMCLRE
 70
     0
  9
$DIMCLRT
 70
     0
  9
$DIMTFAC
 40
1.0
  9
$DIMGAP
 40
0.09
  9
$LUNITS
 70
     2
  9
$LUPREC
 70
     4
  9
$SKETCHINC
 40
0.1
  9
$FILLETRAD
 40
0.5
  9
$AUNITS
 70
     0
  9
$AUPREC
 70
     0
  9
$MENU
  1
.
  9
$ELEVATION
 40
0.0
  9
$PELEVATION
 40
0.0
  9
$THICKNESS
 40
0.0
  9
$LIMCHECK
 70
     0
  9
$BLIPMODE
 70
     0
  9
$CHAMFERA
 40
0.5
  9
$CHAMFERB
 40
0.5
  9
$SKPOLY
 70
     0
  9
$TDCREATE
 40
2457689.8942429749
  9
$TDUPDATE
 40
2458106.7967295139
  9
$TDINDWG
 40
1.3830759491
  9
$TDUSRTIMER
 40
1.3830726042000001
  9
$USRTIMER
 70
     1
  9
$ANGBASE
 50
0.0
  9
$ANGDIR
 70
     0
  9
$PDMODE
 70
     0
  9
$PDSIZE
 40
0.0
  9
$PLINEWID
 40
0.0
  9
$COORDS
 70
     2
  9
$SPLFRAME
 70
     0
  9
$SPLINETYPE
 70
     6
  9
$SPLINESEGS
 70
     8
  9
$ATTDIA
 70
     1
  9
$ATTREQ
 70
     1
  9
$HANDLING
 70
     1
  9
$HANDSEED
  5
1373
  9
$SURFTAB1
 70
     6
  9
$SURFTAB2
 70
     6
  9
$SURFTYPE
 70
     6
  9
$SURFU
 70
     6
  9
$SURFV
 70
     6
  9
$UCSNAME
  2

  9
$UCSORG
 10
0.0
 20
0.0
 30
0.0
  9
$UCSXDIR
 10
1.0
 20
0.0
 30
0.0
  9
$UCSYDIR
 10
0.0
 20
1.0
 30
0.0
  9
$PUCSNAME
  2

  9
$PUCSORG
 10
0.0
 20
0.0
 30
0.0
  9
$PUCSXDIR
 10
1.0
 20
0.0
 30
0.0
  9
$PUCSYDIR
 10
0.0
 20
1.0
 30
0.0
  9
$USERI1
 70
     0
  9
$USERI2
 70
     0
  9
$USERI3
 70
     0
  9
$USERI4
 70
     0
  9
$USERI5
 70
     0
  9
$USERR1
 40
0.0
  9
$USERR2
 40
0.0
  9
$USERR3
 40
0.0
  9
$USERR4
 40
0.0
  9
$USERR5
 40
0.0
  9
$WORLDVIEW
 70
     1
  9
$SHADEDGE
 70
     3
  9
$SHADEDIF
 70
    70
  9
$TILEMODE
 70
     1
  9
$MAXACTVP
 70
    64
  9
$PLIMCHECK
 70
     0
  9
$PEXTMIN
 10
1.0000000000000000E+020
 20
1.0000000000000000E+020
 30
1.0000000000000000E+020
  9
$PEXTMAX
 10
-1.0000000000000000E+020
 20
-1.0000000000000000E+020
 30
-1.0000000000000000E+020
  9
$PLIMMIN
 10
0.0
 20
0.0
  9
$PLIMMAX
 10
12.0
 20
9.0
  9
$UNITMODE
 70
     0
  9
$VISRETAIN
 70
     1
  9
$PLINEGEN
 70
     0
  9
$PSLTSCALE
 70
     1
  0
ENDSEC
  0
SECTION
  2
TABLES
  0
TABLE
  2
VPORT
 70
     1
  0
VPORT
  2
*ACTIVE
 70
     0
 10
0.0
 20
0.0
 11
1.0
 21
1.0
 12
681359.95325316954
 22
5874431.5486011114
 13
0.0
 23
0.0
 14
100.0
 24
100.0
 15
0.5
 25
0.5
 16
0.0
 26
0.0
 36
1.0
 17
0.0
 27
0.0
 37
0.0
 40
4599.0952498521647
 41
2.5
 42
50.0
 43
0.0
 44
0.0
 50
0.0
 51
0.0
 71
     0
 72
   100
 73
     1
 74
     3
 75
     0
 76
     0
 77
     0
 78
     0
  0
ENDTAB
  0
TABLE
  2
LTYPE
 70
     1
  0
LTYPE
  2
CONTINUOUS
 70
     0
  3
Solid line
 72
    65
 73
     0
 40
0.0
  0
ENDTAB
  0
TABLE
  2
LAYER
 70
     3
  0
LAYER
  2
0
 70
     0
 62
     7
  6
CONTINUOUS
  0
LAYER
  2
COLL_NUMBERS
 70
     2
 62
     7
  6
CONTINUOUS
  0
LAYER
  2
COLLECTIONS
 70
     2
 62
     1
  6
CONTINUOUS
  0
ENDTAB
  0
TABLE
  2
STYLE
 70
     3
  0
STYLE
  2
STANDARD
 70
     0
 40
0.0
 41
1.0
 50
0.0
 71
     0
 42
10.0
  3
txt
  4

  0
STYLE
  2
ANNOTATIVE
 70
     0
 40
0.0
 41
1.0
 50
0.0
 71
     0
 42
0.2
  3
txt
  4

  0
STYLE
  2
LEGEND
 70
     0
 40
0.0
 41
1.0
 50
0.0
 71
     0
 42
10.0
  3
txt
  4

  0
ENDTAB
  0
TABLE
  2
VIEW
 70
     0
  0
ENDTAB
  0
TABLE
  2
UCS
 70
     0
  0
ENDTAB
  0
TABLE
  2
APPID
 70
    14
  0
APPID
  2
ACAD
 70
     0
  0
APPID
  2
ACADANNOTATIVE
 70
     0
  0
APPID
  2
ACAD_NAV_VCDISPLAY
 70
     0
  0
APPID
  2
ACAECLAYERSTANDARD
 70
     0
  0
APPID
  2
ACCMTRANSPARENCY
 70
     0
  0
APPID
  2
ADE
 70
     0
  0
APPID
  2
ACAD_PSEXT
 70
     0
  0
APPID
  2
ADE_PROJECTION
 70
     0
  0
APPID
  2
ACMAPDMDISPLAYSTYLEREGAPP
 70
     0
  0
APPID
  2
DCO15
 70
     0
  0
APPID
  2
MAPGWS
 70
     0
  0
APPID
  2
ACAD_MLEADERVER
 70
     0
  0
APPID
  2
MAPMANAGEMENTAPPNAME
 70
     0
  0
APPID
  2
ACAD_EXEMPT_FROM_CAD_STANDARDS
 70
     0
  0
ENDTAB
  0
TABLE
  2
DIMSTYLE
 70
     2
  0
DIMSTYLE
  2
STANDARD
 70
     0
  3

  4

  5

  6

  7

 40
1.0
 41
0.18
 42
0.0625
 43
0.38
 44
0.18
 45
0.0
 46
0.0
 47
0.0
 48
0.0
140
0.18
141
0.09
142
0.0
143
25.399999999999999
144
1.0
145
0.0
146
1.0
147
0.09
 71
     0
 72
     0
 73
     1
 74
     1
 75
     0
 76
     0
 77
     0
 78
     0
170
     0
171
     2
172
     0
173
     0
174
     0
175
     0
176
     0
177
     0
178
     0
  0
DIMSTYLE
  2
ANNOTATIVE
 70
     0
  3

  4

  5

  6

  7

 40
1.0
 41
0.18
 42
0.0625
 43
0.38
 44
0.18
 45
0.0
 46
0.0
 47
0.0
 48
0.0
140
0.18
141
0.09
142
0.0
143
25.399999999999999
144
1.0
145
0.0
146
1.0
147
0.09
 71
     0
 72
     0
 73
     1
 74
     1
 75
     0
 76
     0
 77
     0
 78
     0
170
     0
171
     2
172
     0
173
     0
174
     0
175
     0
176
     0
177
     0
178
     0
  0
ENDTAB
  0
ENDSEC
  0
SECTION
  2
BLOCKS
  0
BLOCK
  8
0
  2
$MODEL_SPACE
 70
     0
 10
0.0
 20
0.0
 30
0.0
  3
$MODEL_SPACE
  1

  0
ENDBLK
  5
112D
  8
0
  0
BLOCK
 67
     1
  8
0
  2
$PAPER_SPACE
 70
     0
 10
0.0
 20
0.0
 30
0.0
  3
$PAPER_SPACE
  1

  0
ENDBLK
  5
1129
 67
     1
  8
0
  0
ENDSEC
  0
SECTION
  2
ENTITIES
  0
POLYLINE
  5
5B
  8
COLLECTIONS
 66
     1
 10
0.0
 20
0.0
 30
0.0
 70
     1
  0
VERTEX
  5
1173
  8
COLLECTIONS
 10
678904.42877377628
 20
5872261.0046322653
 30
0.0
  0
VERTEX
  5
1174
  8
COLLECTIONS
 10
678909.46620015567
 20
5872260.617886249
 30
0.0
  0
VERTEX
  5
1175
  8
COLLECTIONS
 10
678914.38555352995
 20
5872259.466713204
 30
0.0
  0
VERTEX
  5
1176
  8
COLLECTIONS
 10
678919.07152842591
 20
5872257.5780956428
 30
0.0
  0
VERTEX
  5
1177
  8
COLLECTIONS
 10
678923.41428956355
 20
5872254.9963011704
 30
0.0
  0
VERTEX
  5
1178
  8
COLLECTIONS
 10
678927.31204630237
 20
5872251.7818448553
 30
0.0
  0
VERTEX
  5
1179
  8
COLLECTIONS
 10
678930.67343852832
 20
5872248.010070825
 30
0.0
  0
VERTEX
  5
117A
  8
COLLECTIONS
 10
678933.41967805638
 20
5872243.7693862757
 30
0.0
  0
VERTEX
  5
117B
  8
COLLECTIONS
 10
678935.48639535962
 20
5872239.1591892531
 30
0.0
  0
VERTEX
  5
117C
  8
COLLECTIONS
 10
678936.82514833612
 20
5872234.2875388684
 30
0.0
  0
VERTEX
  5
117D
  8
COLLECTIONS
 10
678937.40455775091
 20
5872229.2686224766
 30
0.0
  0
VERTEX
  5
117E
  8
COLLECTIONS
 10
678937.21104273829
 20
5872224.2200792274
 30
0.0
  0
VERTEX
  5
117F
  8
COLLECTIONS
 10
678936.24913912627
 20
5872219.2602426922
 30
0.0
  0
VERTEX
  5
1180
  8
COLLECTIONS
 10
678934.54139311996
 20
5872214.5053672399
 30
0.0
  0
VERTEX
  5
1181
  8
COLLECTIONS
 10
678932.12783283857
 20
5872210.0669031153
 30
0.0
  0
VERTEX
  5
1182
  8
COLLECTIONS
 10
678929.06503008958
 20
5872206.0488841599
 30
0.0
  0
VERTEX
  5
1183
  8
COLLECTIONS
 10
678925.42477437295
 20
5872202.545489328
 30
0.0
  0
VERTEX
  5
1184
  8
COLLECTIONS
 10
678921.29239019786
 20
5872199.6388352346
 30
0.0
  0
VERTEX
  5
1185
  8
COLLECTIONS
 10
678916.76473714714
 20
5872197.3970513791
 30
0.0
  0
VERTEX
  5
1186
  8
COLLECTIONS
 10
678911.94793957006
 20
5872195.8726832783
 30
0.0
  0
VERTEX
  5
1187
  8
COLLECTIONS
 10
678906.95489911991
 20
5872195.1014608247
 30
0.0
  0
VERTEX
  5
1188
  8
COLLECTIONS
 10
678901.90264843288
 20
5872195.1014608247
 30
0.0
  0
VERTEX
  5
1189
  8
COLLECTIONS
 10
678896.90960798238
 20
5872195.8726832783
 30
0.0
  0
VERTEX
  5
118A
  8
COLLECTIONS
 10
678892.09281040553
 20
5872197.3970513791
 30
0.0
  0
VERTEX
  5
118B
  8
COLLECTIONS
 10
678887.56515735469
 20
5872199.6388352346
 30
0.0
  0
VERTEX
  5
118C
  8
COLLECTIONS
 10
678883.43277317949
 20
5872202.545489328
 30
0.0
  0
VERTEX
  5
118D
  8
COLLECTIONS
 10
678879.79251746309
 20
5872206.0488841599
 30
0.0
  0
VERTEX
  5
118E
  8
COLLECTIONS
 10
678876.72971471376
 20
5872210.0669031153
 30
0.0
  0
VERTEX
  5
118F
  8
COLLECTIONS
 10
678874.3161544326
 20
5872214.5053672399
 30
0.0
  0
VERTEX
  5
1190
  8
COLLECTIONS
 10
678872.60840842628
 20
5872219.2602426922
 30
0.0
  0
VERTEX
  5
1191
  8
COLLECTIONS
 10
678871.64650481427
 20
5872224.2200792274
 30
0.0
  0
VERTEX
  5
1192
  8
COLLECTIONS
 10
678871.45298980188
 20
5872229.2686224766
 30
0.0
  0
VERTEX
  5
1193
  8
COLLECTIONS
 10
678872.03239921655
 20
5872234.2875388684
 30
0.0
  0
VERTEX
  5
1194
  8
COLLECTIONS
 10
678873.37115219294
 20
5872239.1591892531
 30
0.0
  0
VERTEX
  5
1195
  8
COLLECTIONS
 10
678875.43786949618
 20
5872243.7693862757
 30
0.0
  0
VERTEX
  5
1196
  8
COLLECTIONS
 10
678878.18410902424
 20
5872248.010070825
 30
0.0
  0
VERTEX
  5
1197
  8
COLLECTIONS
 10
678881.54550125019
 20
5872251.7818448553
 30
0.0
  0
VERTEX
  5
1198
  8
COLLECTIONS
 10
678885.44325798901
 20
5872254.9963011704
 30
0.0
  0
VERTEX
  5
1199
  8
COLLECTIONS
 10
678889.78601912665
 20
5872257.5780956428
 30
0.0
  0
VERTEX
  5
119A
  8
COLLECTIONS
 10
678894.47199402272
 20
5872259.466713204
 30
0.0
  0
VERTEX
  5
119B
  8
COLLECTIONS
 10
678899.391347397
 20
5872260.617886249
 30
0.0
  0
SEQEND
  5
119C
  8
COLLECTIONS
  0
POLYLINE
  5
61
  8
COLLECTIONS
 66
     1
 10
0.0
 20
0.0
 30
0.0
 70
     1
  0
VERTEX
  5
119D
  8
COLLECTIONS
 10
678860.50785260112
 20
5872348.5547973672
 30
0.0
  0
VERTEX
  5
119E
  8
COLLECTIONS
 10
678865.9158164555
 20
5872348.1680121589
 30
0.0
  0
VERTEX
  5
119F
  8
COLLECTIONS
 10
678871.21368976112
 20
5872347.0155303637
 30
0.0
  0
VERTEX
  5
11A0
  8
COLLECTIONS
 10
678876.29362309515
 20
5872345.1208131909
 30
0.0
  0
VERTEX
  5
11A1
  8
COLLECTIONS
 10
678881.05220366456
 20
5872342.5224316148
 30
0.0
  0
VERTEX
  5
11A2
  8
COLLECTIONS
 10
678885.39256049099
 20
5872339.2732811933
 30
0.0
  0
VERTEX
  5
11A3
  8
COLLECTIONS
 10
678889.22633642657
 20
5872335.4395052558
 30
0.0
  0
VERTEX
  5
11A4
  8
COLLECTIONS
 10
678892.47548684885
 20
5872331.0991484309
 30
0.0
  0
VERTEX
  5
11A5
  8
COLLECTIONS
 10
678895.07386842463
 20
5872326.3405678617
 30
0.0
  0
VERTEX
  5
11A6
  8
COLLECTIONS
 10
678896.96858559875
 20
5872321.2606345275
 30
0.0
  0
VERTEX
  5
11A7
  8
COLLECTIONS
 10
678898.12106739276
 20
5872315.9627612224
 30
0.0
  0
VERTEX
  5
11A8
  8
COLLECTIONS
 10
678898.507852601
 20
5872310.5547973663
 30
0.0
  0
VERTEX
  5
11A9
  8
COLLECTIONS
 10
678898.12106739276
 20
5872305.1468335129
 30
0.0
  0
VERTEX
  5
11AA
  8
COLLECTIONS
 10
678896.96858559875
 20
5872299.848960205
 30
0.0
  0
VERTEX
  5
11AB
  8
COLLECTIONS
 10
678895.07386842463
 20
5872294.7690268727
 30
0.0
  0
VERTEX
  5
11AC
  8
COLLECTIONS
 10
678892.47548684885
 20
5872290.0104463054
 30
0.0
  0
VERTEX
  5
11AD
  8
COLLECTIONS
 10
678889.22633642657
 20
5872285.6700894777
 30
0.0
  0
VERTEX
  5
11AE
  8
COLLECTIONS
 10
678885.39256049099
 20
5872281.8363135438
 30
0.0
  0
VERTEX
  5
11AF
  8
COLLECTIONS
 10
678881.05220366456
 20
5872278.5871631159
 30
0.0
  0
VERTEX
  5
11B0
  8
COLLECTIONS
 10
678876.29362309515
 20
5872275.9887815434
 30
0.0
  0
VERTEX
  5
11B1
  8
COLLECTIONS
 10
678871.21368976112
 20
5872274.0940643698
 30
0.0
  0
VERTEX
  5
11B2
  8
COLLECTIONS
 10
678865.9158164555
 20
5872272.9415825764
 30
0.0
  0
VERTEX
  5
11B3
  8
COLLECTIONS
 10
678860.50785260112
 20
5872272.5547973672
 30
0.0
  0
VERTEX
  5
11B4
  8
COLLECTIONS
 10
678855.09988874674
 20
5872272.9415825764
 30
0.0
  0
VERTEX
  5
11B5
  8
COLLECTIONS
 10
678849.80201544112
 20
5872274.0940643698
 30
0.0
  0
VERTEX
  5
11B6
  8
COLLECTIONS
 10
678844.7220821071
 20
5872275.9887815434
 30
0.0
  0
VERTEX
  5
11B7
  8
COLLECTIONS
 10
678839.9635015378
 20
5872278.5871631159
 30
0.0
  0
VERTEX
  5
11B8
  8
COLLECTIONS
 10
678835.62314471137
 20
5872281.8363135438
 30
0.0
  0
VERTEX
  5
11B9
  8
COLLECTIONS
 10
678831.78936877567
 20
5872285.6700894777
 30
0.0
  0
VERTEX
  5
11BA
  8
COLLECTIONS
 10
678828.54021835385
 20
5872290.0104463054
 30
0.0
  0
VERTEX
  5
11BB
  8
COLLECTIONS
 10
678825.94183677761
 20
5872294.7690268727
 30
0.0
  0
VERTEX
  5
11BC
  8
COLLECTIONS
 10
678824.04711960373
 20
5872299.848960205
 30
0.0
  0
VERTEX
  5
11BD
  8
COLLECTIONS
 10
678822.8946378096
 20
5872305.1468335129
 30
0.0
  0
VERTEX
  5
11BE
  8
COLLECTIONS
 10
678822.50785260112
 20
5872310.5547973663
 30
0.0
  0
VERTEX
  5
11BF
  8
COLLECTIONS
 10
678822.8946378096
 20
5872315.9627612224
 30
0.0
  0
VERTEX
  5
11C0
  8
COLLECTIONS
 10
678824.04711960373
 20
5872321.2606345275
 30
0.0
  0
VERTEX
  5
11C1
  8
COLLECTIONS
 10
678825.94183677761
 20
5872326.3405678617
 30
0.0
  0
VERTEX
  5
11C2
  8
COLLECTIONS
 10
678828.54021835385
 20
5872331.0991484309
 30
0.0
  0
VERTEX
  5
11C3
  8
COLLECTIONS
 10
678831.78936877567
 20
5872335.4395052558
 30
0.0
  0
VERTEX
  5
11C4
  8
COLLECTIONS
 10
678835.62314471137
 20
5872339.2732811933
 30
0.0
  0
VERTEX
  5
11C5
  8
COLLECTIONS
 10
678839.9635015378
 20
5872342.5224316148
 30
0.0
  0
VERTEX
  5
11C6
  8
COLLECTIONS
 10
678844.7220821071
 20
5872345.1208131909
 30
0.0
  0
VERTEX
  5
11C7
  8
COLLECTIONS
 10
678849.80201544112
 20
5872347.0155303637
 30
0.0
  0
VERTEX
  5
11C8
  8
COLLECTIONS
 10
678855.09988874674
 20
5872348.1680121589
 30
0.0
  0
SEQEND
  5
11C9
  8
COLLECTIONS
  0
POLYLINE
  5
64
  8
COLLECTIONS
 66
     1
 10
0.0
 20
0.0
 30
0.0
 70
     1
  0
VERTEX
  5
11CA
  8
COLLECTIONS
 10
678777.95768750075
 20
5872237.3129042173
 30
0.0
  0
VERTEX
  5
11CB
  8
COLLECTIONS
 10
678783.52461153921
 20
5872236.9236269649
 30
0.0
  0
VERTEX
  5
11CC
  8
COLLECTIONS
 10
678788.98318173341
 20
5872235.7633720562
 30
0.0
  0
VERTEX
  5
11CD
  8
COLLECTIONS
 10
678794.22715322394
 20
5872233.8547225213
 30
0.0
  0
VERTEX
  5
11CE
  8
COLLECTIONS
 10
678799.15445807029
 20
5872231.2348280624
 30
0.0
  0
VERTEX
  5
11CF
  8
COLLECTIONS
 10
678803.66919188818
 20
5872227.9546819413
 30
0.0
  0
VERTEX
  5
11D0
  8
COLLECTIONS
 10
678807.68348052003
 20
5872224.0781284701
 30
0.0
  0
VERTEX
  5
11D1
  8
COLLECTIONS
 10
678811.11919040291
 20
5872219.6806203537
 30
0.0
  0
VERTEX
  5
11D2
  8
COLLECTIONS
 10
678813.90944935265
 20
5872214.8477500891
 30
0.0
  0
VERTEX
  5
11D3
  8
COLLECTIONS
 10
678815.99994815257
 20
5872209.6735839909
 30
0.0
  0
VERTEX
  5
11D4
  8
COLLECTIONS
 10
678817.34999762138
 20
5872204.2588313241
 30
0.0
  0
VERTEX
  5
11D5
  8
COLLECTIONS
 10
678817.93332058168
 20
5872198.7088840846
 30
0.0
  0
VERTEX
  5
11D6
  8
COLLECTIONS
 10
678817.73856331524
 20
5872193.131765686
 30
0.0
  0
VERTEX
  5
11D7
  8
COLLECTIONS
 10
678816.76951655175
 20
5872187.6360283913
 30
0.0
  0
VERTEX
  5
11D8
  8
COLLECTIONS
 10
678815.04504168325
 20
5872182.3286404759
 30
0.0
  0
VERTEX
  5
11D9
  8
COLLECTIONS
 10
678812.59870365215
 20
5872177.3129042163
 30
0.0
  0
VERTEX
  5
11DA
  8
COLLECTIONS
 10
678809.47811764502
 20
5872172.6864452027
 30
0.0
  0
VERTEX
  5
11DB
  8
COLLECTIONS
 10
678805.74402231909
 20
5872168.5393122043
 30
0.0
  0
VERTEX
  5
11DC
  8
COLLECTIONS
 10
678801.4690975924
 20
5872164.9522244409
 30
0.0
  0
VERTEX
  5
11DD
  8
COLLECTIONS
 10
678796.73655001214
 20
5872161.9950005021
 30
0.0
  0
VERTEX
  5
11DE
  8
COLLECTIONS
 10
678791.63849323394
 20
5872159.7251993846
 30
0.0
  0
VERTEX
  5
11DF
  8
COLLECTIONS
 10
678786.27415513352
 20
5872158.1870001871
 30
0.0
  0
VERTEX
  5
11E0
  8
COLLECTIONS
 10
678780.7479464506
 20
5872157.4103422062
 30
0.0
  0
VERTEX
  5
11E1
  8
COLLECTIONS
 10
678775.16742855124
 20
5872157.4103422062
 30
0.0
  0
VERTEX
  5
11E2
  8
COLLECTIONS
 10
678769.64121986809
 20
5872158.1870001871
 30
0.0
  0
VERTEX
  5
11E3
  8
COLLECTIONS
 10
678764.27688176767
 20
5872159.7251993846
 30
0.0
  0
VERTEX
  5
11E4
  8
COLLECTIONS
 10
678759.17882498936
 20
5872161.9950005021
 30
0.0
  0
VERTEX
  5
11E5
  8
COLLECTIONS
 10
678754.44627740921
 20
5872164.9522244409
 30
0.0
  0
VERTEX
  5
11E6
  8
COLLECTIONS
 10
678750.1713526824
 20
5872168.5393122043
 30
0.0
  0
VERTEX
  5
11E7
  8
COLLECTIONS
 10
678746.43725735648
 20
5872172.6864452027
 30
0.0
  0
VERTEX
  5
11E8
  8
COLLECTIONS
 10
678743.31667134969
 20
5872177.3129042163
 30
0.0
  0
VERTEX
  5
11E9
  8
COLLECTIONS
 10
678740.87033331825
 20
5872182.3286404759
 30
0.0
  0
VERTEX
  5
11EA
  8
COLLECTIONS
 10
678739.14585844974
 20
5872187.6360283913
 30
0.0
  0
VERTEX
  5
11EB
  8
COLLECTIONS
 10
678738.17681168602
 20
5872193.131765686
 30
0.0
  0
VERTEX
  5
11EC
  8
COLLECTIONS
 10
678737.98205442005
 20
5872198.7088840846
 30
0.0
  0
VERTEX
  5
11ED
  8
COLLECTIONS
 10
678738.56537738023
 20
5872204.2588313241
 30
0.0
  0
VERTEX
  5
11EE
  8
COLLECTIONS
 10
678739.91542684892
 20
5872209.6735839909
 30
0.0
  0
VERTEX
  5
11EF
  8
COLLECTIONS
 10
678742.00592564873
 20
5872214.8477500891
 30
0.0
  0
VERTEX
  5
11F0
  8
COLLECTIONS
 10
678744.79618459858
 20
5872219.6806203537
 30
0.0
  0
VERTEX
  5
11F1
  8
COLLECTIONS
 10
678748.23189448169
 20
5872224.0781284701
 30
0.0
  0
VERTEX
  5
11F2
  8
COLLECTIONS
 10
678752.24618311354
 20
5872227.9546819413
 30
0.0
  0
VERTEX
  5
11F3
  8
COLLECTIONS
 10
678756.76091693155
 20
5872231.2348280624
 30
0.0
  0
VERTEX
  5
11F4
  8
COLLECTIONS
 10
678761.68822177791
 20
5872233.8547225213
 30
0.0
  0
VERTEX
  5
11F5
  8
COLLECTIONS
 10
678766.93219326809
 20
5872235.7633720562
 30
0.0
  0
VERTEX
  5
11F6
  8
COLLECTIONS
 10
678772.39076346229
 20
5872236.9236269649
 30
0.0
  0
SEQEND
  5
11F7
  8
COLLECTIONS
  0
POLYLINE
  5
67
  8
COLLECTIONS
 66
     1
 10
0.0
 20
0.0
 30
0.0
 70
     1
  0
VERTEX
  5
11F8
  8
COLLECTIONS
 10
678874.15912043035
 20
5872368.2604143722
 30
0.0
  0
VERTEX
  5
11F9
  8
COLLECTIONS
 10
678871.72429796308
 20
5872374.8967739679
 30
0.0
  0
VERTEX
  5
11FA
  8
COLLECTIONS
 10
678874.17543633853
 20
5872386.2313470067
 30
0.0
  0
VERTEX
  5
11FB
  8
COLLECTIONS
 10
678876.20788142097
 20
5872395.3088225387
 30
0.0
  0
VERTEX
  5
11FC
  8
COLLECTIONS
 10
678879.64747163281
 20
5872400.3359159287
 30
0.0
  0
VERTEX
  5
11FD
  8
COLLECTIONS
 10
678901.34334835981
 20
5872406.156760904
 30
0.0
  0
VERTEX
  5
11FE
  8
COLLECTIONS
 10
678954.00722278585
 20
5872409.4193003355
 30
0.0
  0
VERTEX
  5
11FF
  8
COLLECTIONS
 10
678967.82170301117
 20
5872417.521809496
 30
0.0
  0
VERTEX
  5
1200
  8
COLLECTIONS
 10
678974.368494411
 20
5872413.3005251903
 30
0.0
  0
VERTEX
  5
1201
  8
COLLECTIONS
 10
678976.16844192613
 20
5872389.9627543828
 30
0.0
  0
VERTEX
  5
1202
  8
COLLECTIONS
 10
678978.70844700735
 20
5872374.8708908651
 30
0.0
  0
VERTEX
  5
1203
  8
COLLECTIONS
 10
678969.81842922803
 20
5872362.3401991408
 30
0.0
  0
VERTEX
  5
1204
  8
COLLECTIONS
 10
678952.68750607502
 20
5872351.0583432447
 30
0.0
  0
VERTEX
  5
1205
  8
COLLECTIONS
 10
678936.07163950976
 20
5872362.8482001564
 30
0.0
  0
VERTEX
  5
1206
  8
COLLECTIONS
 10
678913.33991696325
 20
5872359.0871405434
 30
0.0
  0
VERTEX
  5
1207
  8
COLLECTIONS
 10
678902.65072891861
 20
5872363.3204823397
 30
0.0
  0
VERTEX
  5
1208
  8
COLLECTIONS
 10
678874.15912043035
 20
5872368.2604143722
 30
0.0
  0
SEQEND
  5
1209
  8
COLLECTIONS
  0
POLYLINE
  5
68
  8
COLLECTIONS
 66
     1
 10
0.0
 20
0.0
 30
0.0
 70
     1
  0
VERTEX
  5
120A
  8
COLLECTIONS
 10
680002.9036434954
 20
5875065.556852269
 30
0.0
  0
VERTEX
  5
120B
  8
COLLECTIONS
 10
679960.57022549398
 20
5875027.1921922006
 30
0.0
  0
VERTEX
  5
120C
  8
COLLECTIONS
 10
679901.70031608758
 20
5875025.207813235
 30
0.0
  0
VERTEX
  5
120D
  8
COLLECTIONS
 10
679895.31723040156
 20
5875063.2417434659
 30
0.0
  0
VERTEX
  5
120E
  8
COLLECTIONS
 10
679932.45819010318
 20
5875126.0804108158
 30
0.0
  0
VERTEX
  5
120F
  8
COLLECTIONS
 10
680001.91145400982
 20
5875123.1038423609
 30
0.0
  0
SEQEND
  5
1210
  8
COLLECTIONS
  0
POLYLINE
  5
6B
  8
COLLECTIONS
 66
     1
 10
0.0
 20
0.0
 30
0.0
 70
     1
  0
VERTEX
  5
1211
  8
COLLECTIONS
 10
679218.29045742098
 20
5872948.7241842542
 30
0.0
  0
VERTEX
  5
1212
  8
COLLECTIONS
 10
679213.21044726111
 20
5872920.7841283772
 30
0.0
  0
VERTEX
  5
1213
  8
COLLECTIONS
 10
679219.04452142864
 20
5872899.6438777624
 30
0.0
  0
VERTEX
  5
1214
  8
COLLECTIONS
 10
679231.32650432654
 20
5872889.3092320925
 30
0.0
  0
VERTEX
  5
1215
  8
COLLECTIONS
 10
679243.55027877365
 20
5872872.1641978025
 30
0.0
  0
VERTEX
  5
1216
  8
COLLECTIONS
 10
679196.07864216249
 20
5872854.2095368952
 30
0.0
  0
VERTEX
  5
1217
  8
COLLECTIONS
 10
679170.36109072808
 20
5872868.6558157885
 30
0.0
  0
VERTEX
  5
1218
  8
COLLECTIONS
 10
679149.24729850143
 20
5872872.148322775
 30
0.0
  0
VERTEX
  5
1219
  8
COLLECTIONS
 10
679167.27868872986
 20
5872917.1857878473
 30
0.0
  0
VERTEX
  5
121A
  8
COLLECTIONS
 10
679145.05364428088
 20
5872936.4474930353
 30
0.0
  0
VERTEX
  5
121B
  8
COLLECTIONS
 10
679173.62870143075
 20
5872944.2791753672
 30
0.0
  0
VERTEX
  5
121C
  8
COLLECTIONS
 10
679188.86873191118
 20
5872947.2425146271
 30
0.0
  0
SEQEND
  5
121D
  8
COLLECTIONS
  0
POLYLINE
  5
6E
  8
COLLECTIONS
 66
     1
 10
0.0
 20
0.0
 30
0.0
 70
     1
  0
VERTEX
  5
121E
  8
COLLECTIONS
 10
679225.37442575302
 20
5873022.5889431192
 30
0.0
  0
VERTEX
  5
121F
  8
COLLECTIONS
 10
679258.11667874234
 20
5873007.9706847155
 30
0.0
  0
VERTEX
  5
1220
  8
COLLECTIONS
 10
679260.76251736935
 20
5872992.4925287561
 30
0.0
  0
VERTEX
  5
1221
  8
COLLECTIONS
 10
679246.21040492982
 20
5872988.854500642
 30
0.0
  0
VERTEX
  5
1222
  8
COLLECTIONS
 10
679239.26507853554
 20
5872987.531581331
 30
0.0
  0
VERTEX
  5
1223
  8
COLLECTIONS
 10
679231.98902231664
 20
5872992.1617989298
 30
0.0
  0
VERTEX
  5
1224
  8
COLLECTIONS
 10
679221.73639764253
 20
5873002.0836937726
 30
0.0
  0
SEQEND
  5
1225
  8
COLLECTIONS
  0
POLYLINE
  5
71
  8
COLLECTIONS
 66
     1
 10
0.0
 20
0.0
 30
0.0
 70
     1
  0
VERTEX
  5
1226
  8
COLLECTIONS
 10
678625.24477698654
 20
5872572.8546598917
 30
0.0
  0
VERTEX
  5
1227
  8
COLLECTIONS
 10
678617.30726111401
 20
5872571.2671567202
 30
0.0
  0
VERTEX
  5
1228
  8
COLLECTIONS
 10
678579.47176877607
 20
5872589.2588593671
 30
0.0
  0
VERTEX
  5
1229
  8
COLLECTIONS
 10
678579.47176877607
 20
5872632.1214450961
 30
0.0
  0
VERTEX
  5
122A
  8
COLLECTIONS
 10
678593.23012962565
 20
5872676.836117859
 30
0.0
  0
VERTEX
  5
122B
  8
COLLECTIONS
 10
678607.25307433784
 20
5872707.5278459033
 30
0.0
  0
VERTEX
  5
122C
  8
COLLECTIONS
 10
678625.24477698654
 20
5872732.9278967027
 30
0.0
  0
VERTEX
  5
122D
  8
COLLECTIONS
 10
678651.70316323824
 20
5872718.9049519943
 30
0.0
  0
VERTEX
  5
122E
  8
COLLECTIONS
 10
678655.14275345195
 20
5872704.3528395575
 30
0.0
  0
VERTEX
  5
122F
  8
COLLECTIONS
 10
678656.99484048877
 20
5872696.150739816
 30
0.0
  0
VERTEX
  5
1230
  8
COLLECTIONS
 10
678627.89061561215
 20
5872661.7548376983
 30
0.0
  0
VERTEX
  5
1231
  8
COLLECTIONS
 10
678625.77394471224
 20
5872625.5068485299
 30
0.0
  0
VERTEX
  5
1232
  8
COLLECTIONS
 10
678645.61773440253
 20
5872596.6672075242
 30
0.0
  0
SEQEND
  5
1233
  8
COLLECTIONS
  0
POLYLINE
  5
74
  8
COLLECTIONS
 66
     1
 10
0.0
 20
0.0
 30
0.0
 70
     1
  0
VERTEX
  5
1234
  8
COLLECTIONS
 10
681803.94976945128
 20
5875836.8852474634
 30
0.0
  0
VERTEX
  5
1235
  8
COLLECTIONS
 10
681815.55640724022
 20
5875826.814782327
 30
0.0
  0
VERTEX
  5
1236
  8
COLLECTIONS
 10
681723.55885143019
 20
5875809.9203695813
 30
0.0
  0
VERTEX
  5
1237
  8
COLLECTIONS
 10
681722.259501906
 20
5875820.4810479889
 30
0.0
  0
VERTEX
  5
1238
  8
COLLECTIONS
 10
681703.73863152973
 20
5875825.7727252403
 30
0.0
  0
VERTEX
  5
1239
  8
COLLECTIONS
 10
681689.18651909207
 20
5875850.5113163842
 30
0.0
  0
VERTEX
  5
123A
  8
COLLECTIONS
 10
681683.23338218487
 20
5875863.409779679
 30
0.0
  0
VERTEX
  5
123B
  8
COLLECTIONS
 10
681697.78549462371
 20
5875889.2067062734
 30
0.0
  0
VERTEX
  5
123C
  8
COLLECTIONS
 10
681707.04592981189
 20
5875901.1129800864
 30
0.0
  0
VERTEX
  5
123D
  8
COLLECTIONS
 10
681726.22825984377
 20
5875923.6026083976
 30
0.0
  0
VERTEX
  5
123E
  8
COLLECTIONS
 10
681762.60854093637
 20
5875904.7510081921
 30
0.0
  0
VERTEX
  5
123F
  8
COLLECTIONS
 10
681798.65809220262
 20
5875901.7744397447
 30
0.0
  0
VERTEX
  5
1240
  8
COLLECTIONS
 10
681786.4210885606
 20
5875867.6431214772
 30
0.0
  0
VERTEX
  5
1241
  8
COLLECTIONS
 10
681795.68152374856
 20
5875865.3280126816
 30
0.0
  0
SEQEND
  5
1242
  8
COLLECTIONS
  0
POLYLINE
  5
77
  8
COLLECTIONS
 66
     1
 10
0.0
 20
0.0
 30
0.0
 70
     1
  0
VERTEX
  5
1243
  8
COLLECTIONS
 10
681222.28419640288
 20
5875580.0360532114
 30
0.0
  0
VERTEX
  5
1244
  8
COLLECTIONS
 10
681220.77941446006
 20
5875569.4250683887
 30
0.0
  0
VERTEX
  5
1245
  8
COLLECTIONS
 10
681212.97419051453
 20
5875563.7100569587
 30
0.0
  0
VERTEX
  5
1246
  8
COLLECTIONS
 10
681208.05293067079
 20
5875561.4875525152
 30
0.0
  0
VERTEX
  5
1247
  8
COLLECTIONS
 10
681203.29042114422
 20
5875558.947547432
 30
0.0
  0
VERTEX
  5
1248
  8
COLLECTIONS
 10
681198.68666193634
 20
5875554.6612888612
 30
0.0
  0
VERTEX
  5
1249
  8
COLLECTIONS
 10
681193.7654020926
 20
5875549.4225283796
 30
0.0
  0
VERTEX
  5
124A
  8
COLLECTIONS
 10
681189.79664415494
 20
5875547.3587742532
 30
0.0
  0
VERTEX
  5
124B
  8
COLLECTIONS
 10
681185.03413462825
 20
5875547.6762748891
 30
0.0
  0
VERTEX
  5
124C
  8
COLLECTIONS
 10
681180.27162510261
 20
5875546.0887717167
 30
0.0
  0
VERTEX
  5
124D
  8
COLLECTIONS
 10
681175.93366071675
 20
5875541.7015516758
 30
0.0
  0
VERTEX
  5
124E
  8
COLLECTIONS
 10
681149.04738326475
 20
5875534.3159617698
 30
0.0
  0
VERTEX
  5
124F
  8
COLLECTIONS
 10
681106.13522681606
 20
5875531.1662418628
 30
0.0
  0
VERTEX
  5
1250
  8
COLLECTIONS
 10
681084.91225499287
 20
5875560.5626809299
 30
0.0
  0
VERTEX
  5
1251
  8
COLLECTIONS
 10
681089.5689309733
 20
5875588.7144039012
 30
0.0
  0
VERTEX
  5
1252
  8
COLLECTIONS
 10
681079.1972435629
 20
5875631.8944902606
 30
0.0
  0
VERTEX
  5
1253
  8
COLLECTIONS
 10
681083.43058536295
 20
5875637.8211687822
 30
0.0
  0
VERTEX
  5
1254
  8
COLLECTIONS
 10
681091.05060060427
 20
5875639.3028384112
 30
0.0
  0
VERTEX
  5
1255
  8
COLLECTIONS
 10
681111.79397542216
 20
5875646.4466026993
 30
0.0
  0
VERTEX
  5
1256
  8
COLLECTIONS
 10
681153.33364183572
 20
5875636.3924159249
 30
0.0
  0
VERTEX
  5
1257
  8
COLLECTIONS
 10
681207.57333364908
 20
5875613.3736198889
 30
0.0
  0
VERTEX
  5
1258
  8
COLLECTIONS
 10
681213.92334634904
 20
5875608.8756942237
 30
0.0
  0
SEQEND
  5
1259
  8
COLLECTIONS
  0
POLYLINE
  5
7A
  8
COLLECTIONS
 66
     1
 10
0.0
 20
0.0
 30
0.0
 70
     1
  0
VERTEX
  5
125A
  8
COLLECTIONS
 10
680405.63244563807
 20
5875451.6410453729
 30
0.0
  0
VERTEX
  5
125B
  8
COLLECTIONS
 10
680374.48479549959
 20
5875500.493765654
 30
0.0
  0
VERTEX
  5
125C
  8
COLLECTIONS
 10
680350.98974850494
 20
5875542.9594755927
 30
0.0
  0
VERTEX
  5
125D
  8
COLLECTIONS
 10
680328.18200284231
 20
5875590.2744166991
 30
0.0
  0
VERTEX
  5
125E
  8
COLLECTIONS
 10
680355.95069592807
 20
5875587.9387322273
 30
0.0
  0
VERTEX
  5
125F
  8
COLLECTIONS
 10
680384.07596051693
 20
5875572.7251601312
 30
0.0
  0
VERTEX
  5
1260
  8
COLLECTIONS
 10
680389.22893523215
 20
5875581.8741800468
 30
0.0
  0
VERTEX
  5
1261
  8
COLLECTIONS
 10
680420.96512185596
 20
5875450.2685683127
 30
0.0
  0
VERTEX
  5
1262
  8
COLLECTIONS
 10
680419.52309842233
 20
5875448.4660390224
 30
0.0
  0
SEQEND
  5
1263
  8
COLLECTIONS
  0
POLYLINE
  5
7D
  8
COLLECTIONS
 66
     1
 10
0.0
 20
0.0
 30
0.0
 70
     1
  0
VERTEX
  5
1264
  8
COLLECTIONS
 10
680500.01474264835
 20
5875574.8033793289
 30
0.0
  0
VERTEX
  5
1265
  8
COLLECTIONS
 10
680499.29513298185
 20
5875652.8570728451
 30
0.0
  0
VERTEX
  5
1266
  8
COLLECTIONS
 10
680506.83577306475
 20
5875641.7445506183
 30
0.0
  0
VERTEX
  5
1267
  8
COLLECTIONS
 10
680516.75766790926
 20
5875638.9664200563
 30
0.0
  0
VERTEX
  5
1268
  8
COLLECTIONS
 10
680525.48893537465
 20
5875650.8726938758
 30
0.0
  0
VERTEX
  5
1269
  8
COLLECTIONS
 10
680542.84563675895
 20
5875713.7113612248
 30
0.0
  0
VERTEX
  5
126A
  8
COLLECTIONS
 10
680554.8577441182
 20
5875720.405332949
 30
0.0
  0
VERTEX
  5
126B
  8
COLLECTIONS
 10
680562.29255065508
 20
5875709.7426032927
 30
0.0
  0
VERTEX
  5
126C
  8
COLLECTIONS
 10
680550.38608393259
 20
5875652.5251269061
 30
0.0
  0
VERTEX
  5
126D
  8
COLLECTIONS
 10
680548.3752465751
 20
5875647.656783836
 30
0.0
  0
VERTEX
  5
126E
  8
COLLECTIONS
 10
680546.78774340078
 20
5875642.2592730429
 30
0.0
  0
VERTEX
  5
126F
  8
COLLECTIONS
 10
680544.77690604609
 20
5875638.7667660573
 30
0.0
  0
VERTEX
  5
1270
  8
COLLECTIONS
 10
680540.54356424604
 20
5875633.3692552643
 30
0.0
  0
VERTEX
  5
1271
  8
COLLECTIONS
 10
680539.48522879567
 20
5875630.0884153647
 30
0.0
  0
VERTEX
  5
1272
  8
COLLECTIONS
 10
680533.82332704496
 20
5875624.2820156869
 30
0.0
  0
VERTEX
  5
1273
  8
COLLECTIONS
 10
680507.6295246511
 20
5875600.0725922622
 30
0.0
  0
VERTEX
  5
1274
  8
COLLECTIONS
 10
680503.66076671332
 20
5875578.6412993958
 30
0.0
  0
SEQEND
  5
1275
  8
COLLECTIONS
  0
POLYLINE
  5
80
  8
COLLECTIONS
 66
     1
 10
0.0
 20
0.0
 30
0.0
 70
     1
  0
VERTEX
  5
1276
  8
COLLECTIONS
 10
680448.75700818456
 20
5875474.1664075954
 30
0.0
  0
VERTEX
  5
1277
  8
COLLECTIONS
 10
680428.33169915073
 20
5875619.4985441519
 30
0.0
  0
VERTEX
  5
1278
  8
COLLECTIONS
 10
680430.04740663618
 20
5875618.0351465922
 30
0.0
  0
VERTEX
  5
1279
  8
COLLECTIONS
 10
680439.30784182355
 20
5875616.3814974502
 30
0.0
  0
VERTEX
  5
127A
  8
COLLECTIONS
 10
680453.52922443778
 20
5875633.5794485155
 30
0.0
  0
VERTEX
  5
127B
  8
COLLECTIONS
 10
680499.29513298185
 20
5875652.8570728451
 30
0.0
  0
VERTEX
  5
127C
  8
COLLECTIONS
 10
680500.01474264835
 20
5875574.8033793289
 30
0.0
  0
VERTEX
  5
127D
  8
COLLECTIONS
 10
680488.57948654902
 20
5875562.766267647
 30
0.0
  0
VERTEX
  5
127E
  8
COLLECTIONS
 10
680470.32320003305
 20
5875526.2536946116
 30
0.0
  0
VERTEX
  5
127F
  8
COLLECTIONS
 10
680469.52944844402
 20
5875492.1223763414
 30
0.0
  0
VERTEX
  5
1280
  8
COLLECTIONS
 10
680470.72007582535
 20
5875484.978612056
 30
0.0
  0
VERTEX
  5
1281
  8
COLLECTIONS
 10
680467.14819368161
 20
5875479.4223509431
 30
0.0
  0
VERTEX
  5
1282
  8
COLLECTIONS
 10
680459.21067780629
 20
5875478.2317235591
 30
0.0
  0
SEQEND
  5
1283
  8
COLLECTIONS
  0
POLYLINE
  5
83
  8
COLLECTIONS
 66
     1
 10
0.0
 20
0.0
 30
0.0
 70
     1
  0
VERTEX
  5
1284
  8
COLLECTIONS
 10
680420.96512185596
 20
5875450.2685683127
 30
0.0
  0
VERTEX
  5
1285
  8
COLLECTIONS
 10
680389.22893523215
 20
5875581.8741800468
 30
0.0
  0
VERTEX
  5
1286
  8
COLLECTIONS
 10
680391.35201673768
 20
5875585.6236234317
 30
0.0
  0
VERTEX
  5
1287
  8
COLLECTIONS
 10
680395.32077467535
 20
5875591.576760334
 30
0.0
  0
VERTEX
  5
1288
  8
COLLECTIONS
 10
680400.28172209859
 20
5875625.6419326412
 30
0.0
  0
VERTEX
  5
1289
  8
COLLECTIONS
 10
680404.25048003613
 20
5875631.2643397208
 30
0.0
  0
VERTEX
  5
128A
  8
COLLECTIONS
 10
680412.18799591437
 20
5875632.5872590337
 30
0.0
  0
VERTEX
  5
128B
  8
COLLECTIONS
 10
680418.80259247695
 20
5875627.6263116077
 30
0.0
  0
VERTEX
  5
128C
  8
COLLECTIONS
 10
680428.33169915073
 20
5875619.4985441519
 30
0.0
  0
VERTEX
  5
128D
  8
COLLECTIONS
 10
680448.75700818456
 20
5875474.1664075954
 30
0.0
  0
VERTEX
  5
128E
  8
COLLECTIONS
 10
680437.77938493795
 20
5875469.8973318879
 30
0.0
  0
VERTEX
  5
128F
  8
COLLECTIONS
 10
680424.2856079489
 20
5875454.4191759285
 30
0.0
  0
SEQEND
  5
1290
  8
COLLECTIONS
  0
POLYLINE
  5
86
  8
COLLECTIONS
 66
     1
 10
0.0
 20
0.0
 30
0.0
 70
     1
  0
VERTEX
  5
1291
  8
COLLECTIONS
 10
680291.33221701614
 20
5875594.9132069452
 30
0.0
  0
VERTEX
  5
1292
  8
COLLECTIONS
 10
680328.18200284231
 20
5875590.2744166991
 30
0.0
  0
VERTEX
  5
1293
  8
COLLECTIONS
 10
680350.98974850494
 20
5875542.9594755927
 30
0.0
  0
VERTEX
  5
1294
  8
COLLECTIONS
 10
680311.63289895095
 20
5875552.2199107828
 30
0.0
  0
VERTEX
  5
1295
  8
COLLECTIONS
 10
680303.69538307283
 20
5875564.1261845976
 30
0.0
  0
VERTEX
  5
1296
  8
COLLECTIONS
 10
680283.31228109822
 20
5875584.8266302636
 30
0.0
  0
SEQEND
  5
1297
  8
COLLECTIONS
  0
POLYLINE
  5
89
  8
COLLECTIONS
 66
     1
 10
0.0
 20
0.0
 30
0.0
 70
     1
  0
VERTEX
  5
1298
  8
COLLECTIONS
 10
680318.06708241906
 20
5875303.1728536561
 30
0.0
  0
VERTEX
  5
1299
  8
COLLECTIONS
 10
680247.2425117176
 20
5875397.4032396721
 30
0.0
  0
VERTEX
  5
129A
  8
COLLECTIONS
 10
680261.31384391058
 20
5875404.4026394514
 30
0.0
  0
VERTEX
  5
129B
  8
COLLECTIONS
 10
680270.24573470466
 20
5875415.8156110235
 30
0.0
  0
VERTEX
  5
129C
  8
COLLECTIONS
 10
680294.38682672475
 20
5875430.5964418361
 30
0.0
  0
VERTEX
  5
129D
  8
COLLECTIONS
 10
680296.45547435153
 20
5875431.2687523169
 30
0.0
  0
VERTEX
  5
129E
  8
COLLECTIONS
 10
680309.20352302503
 20
5875435.4118681364
 30
0.0
  0
VERTEX
  5
129F
  8
COLLECTIONS
 10
680316.34728731215
 20
5875436.4702035822
 30
0.0
  0
VERTEX
  5
12A0
  8
COLLECTIONS
 10
680324.28480318747
 20
5875424.5639297701
 30
0.0
  0
VERTEX
  5
12A1
  8
COLLECTIONS
 10
680330.10564816184
 20
5875401.0159660066
 30
0.0
  0
VERTEX
  5
12A2
  8
COLLECTIONS
 10
680299.48006607592
 20
5875383.0374925546
 30
0.0
  0
VERTEX
  5
12A3
  8
COLLECTIONS
 10
680336.58795279253
 20
5875340.2145944042
 30
0.0
  0
SEQEND
  5
12A4
  8
COLLECTIONS
  0
POLYLINE
  5
8C
  8
COLLECTIONS
 66
     1
 10
0.0
 20
0.0
 30
0.0
 70
     1
  0
VERTEX
  5
12A5
  8
COLLECTIONS
 10
680318.06708241906
 20
5875303.1728536561
 30
0.0
  0
VERTEX
  5
12A6
  8
COLLECTIONS
 10
680285.32482943218
 20
5875299.2040957138
 30
0.0
  0
VERTEX
  5
12A7
  8
COLLECTIONS
 10
680207.20644402783
 20
5875316.5607971009
 30
0.0
  0
VERTEX
  5
12A8
  8
COLLECTIONS
 10
680200.92257729475
 20
5875320.5295550404
 30
0.0
  0
VERTEX
  5
12A9
  8
COLLECTIONS
 10
680189.34703331068
 20
5875330.7821797123
 30
0.0
  0
VERTEX
  5
12AA
  8
COLLECTIONS
 10
680188.02411399793
 20
5875361.5400537243
 30
0.0
  0
VERTEX
  5
12AB
  8
COLLECTIONS
 10
680218.12052835815
 20
5875366.1702713203
 30
0.0
  0
VERTEX
  5
12AC
  8
COLLECTIONS
 10
680224.70018451847
 20
5875375.7255811635
 30
0.0
  0
VERTEX
  5
12AD
  8
COLLECTIONS
 10
680235.64920924802
 20
5875391.6364680827
 30
0.0
  0
VERTEX
  5
12AE
  8
COLLECTIONS
 10
680247.2425117176
 20
5875397.4032396721
 30
0.0
  0
SEQEND
  5
12AF
  8
COLLECTIONS
  0
POLYLINE
  5
8F
  8
COLLECTIONS
 66
     1
 10
0.0
 20
0.0
 30
0.0
 70
     1
  0
VERTEX
  5
12B0
  8
COLLECTIONS
 10
680118.67006906494
 20
5875302.0880598351
 30
0.0
  0
VERTEX
  5
12B1
  8
COLLECTIONS
 10
680100.25503223122
 20
5875265.4696532553
 30
0.0
  0
VERTEX
  5
12B2
  8
COLLECTIONS
 10
680081.62832830939
 20
5875254.8862987524
 30
0.0
  0
VERTEX
  5
12B3
  8
COLLECTIONS
 10
680054.32327369321
 20
5875261.447978544
 30
0.0
  0
VERTEX
  5
12B4
  8
COLLECTIONS
 10
680061.30828766432
 20
5875274.1480039461
 30
0.0
  0
VERTEX
  5
12B5
  8
COLLECTIONS
 10
680065.96496364381
 20
5875280.9213508237
 30
0.0
  0
VERTEX
  5
12B6
  8
COLLECTIONS
 10
680095.20262149535
 20
5875295.9763235208
 30
0.0
  0
VERTEX
  5
12B7
  8
COLLECTIONS
 10
680103.85168982227
 20
5875298.2288405374
 30
0.0
  0
VERTEX
  5
12B8
  8
COLLECTIONS
 10
680115.43700211414
 20
5875312.6915547941
 30
0.0
  0
SEQEND
  5
12B9
  8
COLLECTIONS
  0
POLYLINE
  5
92
  8
COLLECTIONS
 66
     1
 10
0.0
 20
0.0
 30
0.0
 70
     1
  0
VERTEX
  5
12BA
  8
COLLECTIONS
 10
679740.21060407907
 20
5874665.5523406249
 30
0.0
  0
VERTEX
  5
12BB
  8
COLLECTIONS
 10
679736.78056485299
 20
5874675.7510051541
 30
0.0
  0
VERTEX
  5
12BC
  8
COLLECTIONS
 10
679736.88084718771
 20
5874675.8537760042
 30
0.0
  0
VERTEX
  5
12BD
  8
COLLECTIONS
 10
679742.72285887413
 20
5874696.1844000015
 30
0.0
  0
VERTEX
  5
12BE
  8
COLLECTIONS
 10
679732.56283855159
 20
5874698.565654764
 30
0.0
  0
VERTEX
  5
12BF
  8
COLLECTIONS
 10
679721.21748252492
 20
5874691.3054735716
 30
0.0
  0
VERTEX
  5
12C0
  8
COLLECTIONS
 10
679718.88914453425
 20
5874680.9337861678
 30
0.0
  0
VERTEX
  5
12C1
  8
COLLECTIONS
 10
679697.93410262116
 20
5874684.9554608762
 30
0.0
  0
VERTEX
  5
12C2
  8
COLLECTIONS
 10
679674.0157214459
 20
5874712.6838496709
 30
0.0
  0
VERTEX
  5
12C3
  8
COLLECTIONS
 10
679688.62075065926
 20
5874729.8288839608
 30
0.0
  0
VERTEX
  5
12C4
  8
COLLECTIONS
 10
679701.06527071923
 20
5874737.7043736279
 30
0.0
  0
VERTEX
  5
12C5
  8
COLLECTIONS
 10
679710.59028977156
 20
5874737.4397897674
 30
0.0
  0
VERTEX
  5
12C6
  8
COLLECTIONS
 10
679722.52412440185
 20
5874741.7062045587
 30
0.0
  0
VERTEX
  5
12C7
  8
COLLECTIONS
 10
679733.87477210455
 20
5874749.5643452723
 30
0.0
  0
VERTEX
  5
12C8
  8
COLLECTIONS
 10
679755.10538363922
 20
5874756.192020027
 30
0.0
  0
VERTEX
  5
12C9
  8
COLLECTIONS
 10
679760.65719247435
 20
5874754.6293414328
 30
0.0
  0
VERTEX
  5
12CA
  8
COLLECTIONS
 10
679742.07576940872
 20
5874681.0834270511
 30
0.0
  0
SEQEND
  5
12CB
  8
COLLECTIONS
  0
POLYLINE
  5
95
  8
COLLECTIONS
 66
     1
 10
0.0
 20
0.0
 30
0.0
 70
     1
  0
VERTEX
  5
12CC
  8
COLLECTIONS
 10
679740.21060407907
 20
5874665.5523406249
 30
0.0
  0
VERTEX
  5
12CD
  8
COLLECTIONS
 10
679742.07576940872
 20
5874681.0834270511
 30
0.0
  0
VERTEX
  5
12CE
  8
COLLECTIONS
 10
679748.50350288022
 20
5874706.5246181749
 30
0.0
  0
VERTEX
  5
12CF
  8
COLLECTIONS
 10
679760.65719247435
 20
5874754.6293414328
 30
0.0
  0
VERTEX
  5
12D0
  8
COLLECTIONS
 10
679775.58417460229
 20
5874750.4770085979
 30
0.0
  0
VERTEX
  5
12D1
  8
COLLECTIONS
 10
679788.28420000349
 20
5874741.2694901768
 30
0.0
  0
VERTEX
  5
12D2
  8
COLLECTIONS
 10
679790.82420508505
 20
5874726.0294596953
 30
0.0
  0
VERTEX
  5
12D3
  8
COLLECTIONS
 10
679787.01419746305
 20
5874705.074417782
 30
0.0
  0
VERTEX
  5
12D4
  8
COLLECTIONS
 10
679781.61668666918
 20
5874686.9768815851
 30
0.0
  0
VERTEX
  5
12D5
  8
COLLECTIONS
 10
679777.94426265638
 20
5874666.3287569508
 30
0.0
  0
VERTEX
  5
12D6
  8
COLLECTIONS
 10
679763.12756635353
 20
5874650.4537251964
 30
0.0
  0
VERTEX
  5
12D7
  8
COLLECTIONS
 10
679759.31755873188
 20
5874644.1460459167
 30
0.0
  0
VERTEX
  5
12D8
  8
COLLECTIONS
 10
679751.48587640293
 20
5874642.664376284
 30
0.0
  0
VERTEX
  5
12D9
  8
COLLECTIONS
 10
679744.9241966093
 20
5874646.897718085
 30
0.0
  0
VERTEX
  5
12DA
  8
COLLECTIONS
 10
679743.65419406898
 20
5874654.8987340908
 30
0.0
  0
SEQEND
  5
12DB
  8
COLLECTIONS
  0
POLYLINE
  5
98
  8
COLLECTIONS
 66
     1
 10
0.0
 20
0.0
 30
0.0
 70
     1
  0
VERTEX
  5
12DC
  8
COLLECTIONS
 10
679390.35760590062
 20
5873701.18893422
 30
0.0
  0
VERTEX
  5
12DD
  8
COLLECTIONS
 10
679367.07422600035
 20
5873698.5430955961
 30
0.0
  0
VERTEX
  5
12DE
  8
COLLECTIONS
 10
679308.86577625026
 20
5873719.9743884606
 30
0.0
  0
VERTEX
  5
12DF
  8
COLLECTIONS
 10
679314.15745350055
 20
5873740.8765136003
 30
0.0
  0
VERTEX
  5
12E0
  8
COLLECTIONS
 10
679329.50331752468
 20
5873745.1098553929
 30
0.0
  0
VERTEX
  5
12E1
  8
COLLECTIONS
 10
679336.9116656736
 20
5873745.9036069838
 30
0.0
  0
VERTEX
  5
12E2
  8
COLLECTIONS
 10
679376.59924505092
 20
5873737.4369233828
 30
0.0
  0
VERTEX
  5
12E3
  8
COLLECTIONS
 10
679382.949257751
 20
5873732.1452461313
 30
0.0
  0
VERTEX
  5
12E4
  8
COLLECTIONS
 10
679393.7971961135
 20
5873722.884810945
 30
0.0
  0
SEQEND
  5
12E5
  8
COLLECTIONS
  0
POLYLINE
  5
9B
  8
COLLECTIONS
 66
     1
 10
0.0
 20
0.0
 30
0.0
 70
     1
  0
VERTEX
  5
12E6
  8
COLLECTIONS
 10
683652.02615657728
 20
5876333.0549550829
 30
0.0
  0
VERTEX
  5
12E7
  8
COLLECTIONS
 10
683639.59071503975
 20
5876315.8570040241
 30
0.0
  0
VERTEX
  5
12E8
  8
COLLECTIONS
 10
683635.3573732404
 20
5876266.1152378712
 30
0.0
  0
VERTEX
  5
12E9
  8
COLLECTIONS
 10
683605.08897936926
 20
5876259.9504338736
 30
0.0
  0
VERTEX
  5
12EA
  8
COLLECTIONS
 10
683584.82185550325
 20
5876265.5860701436
 30
0.0
  0
VERTEX
  5
12EB
  8
COLLECTIONS
 10
683572.25412203395
 20
5876261.4850202799
 30
0.0
  0
VERTEX
  5
12EC
  8
COLLECTIONS
 10
683564.31660615839
 20
5876260.691268689
 30
0.0
  0
VERTEX
  5
12ED
  8
COLLECTIONS
 10
683558.76034504548
 20
5876264.6600266248
 30
0.0
  0
VERTEX
  5
12EE
  8
COLLECTIONS
 10
683545.9280277146
 20
5876274.3173376061
 30
0.0
  0
VERTEX
  5
12EF
  8
COLLECTIONS
 10
683540.63635046419
 20
5876288.3402823219
 30
0.0
  0
VERTEX
  5
12F0
  8
COLLECTIONS
 10
683545.6634438521
 20
5876316.1215878827
 30
0.0
  0
VERTEX
  5
12F1
  8
COLLECTIONS
 10
683558.36346925155
 20
5876335.1716259811
 30
0.0
  0
VERTEX
  5
12F2
  8
COLLECTIONS
 10
683572.68388902326
 20
5876352.0864028139
 30
0.0
  0
VERTEX
  5
12F3
  8
COLLECTIONS
 10
683605.83624699526
 20
5876376.4387015179
 30
0.0
  0
VERTEX
  5
12F4
  8
COLLECTIONS
 10
683627.15527350258
 20
5876360.0425090594
 30
0.0
  0
VERTEX
  5
12F5
  8
COLLECTIONS
 10
683635.88654096425
 20
5876349.0622787653
 30
0.0
  0
SEQEND
  5
12F6
  8
COLLECTIONS
  0
POLYLINE
  5
9E
  8
COLLECTIONS
 66
     1
 10
0.0
 20
0.0
 30
0.0
 70
     1
  0
VERTEX
  5
12F7
  8
COLLECTIONS
 10
684081.16115597636
 20
5876659.1201002123
 30
0.0
  0
VERTEX
  5
12F8
  8
COLLECTIONS
 10
684068.99029830098
 20
5876652.7700875141
 30
0.0
  0
VERTEX
  5
12F9
  8
COLLECTIONS
 10
684053.64443427708
 20
5876637.1596396286
 30
0.0
  0
VERTEX
  5
12FA
  8
COLLECTIONS
 10
684043.06107977591
 20
5876639.0117266634
 30
0.0
  0
VERTEX
  5
12FB
  8
COLLECTIONS
 10
684029.56730278861
 20
5876662.0305227023
 30
0.0
  0
VERTEX
  5
12FC
  8
COLLECTIONS
 10
684022.15895463713
 20
5876672.8784610638
 30
0.0
  0
VERTEX
  5
12FD
  8
COLLECTIONS
 10
684010.51726468815
 20
5876694.0451700687
 30
0.0
  0
VERTEX
  5
12FE
  8
COLLECTIONS
 10
684010.78184855077
 20
5876705.6868600165
 30
0.0
  0
VERTEX
  5
12FF
  8
COLLECTIONS
 10
684018.98394828755
 20
5876700.9243504889
 30
0.0
  0
VERTEX
  5
1300
  8
COLLECTIONS
 10
684072.69447237626
 20
5876671.55554175
 30
0.0
  0
VERTEX
  5
1301
  8
COLLECTIONS
 10
684079.5736528011
 20
5876667.3221999528
 30
0.0
  0
SEQEND
  5
1302
  8
COLLECTIONS
  0
POLYLINE
  5
A1
  8
COLLECTIONS
 66
     1
 10
0.0
 20
0.0
 30
0.0
 70
     1
  0
VERTEX
  5
1303
  8
COLLECTIONS
 10
684140.43473756325
 20
5876313.475749258
 30
0.0
  0
VERTEX
  5
1304
  8
COLLECTIONS
 10
684134.15087082714
 20
5876309.5069913212
 30
0.0
  0
VERTEX
  5
1305
  8
COLLECTIONS
 10
684111.33051268652
 20
5876278.0876576491
 30
0.0
  0
VERTEX
  5
1306
  8
COLLECTIONS
 10
684113.31489165523
 20
5876248.6527029481
 30
0.0
  0
VERTEX
  5
1307
  8
COLLECTIONS
 10
684043.2001680918
 20
5876287.0173630072
 30
0.0
  0
VERTEX
  5
1308
  8
COLLECTIONS
 10
684023.34958202019
 20
5876320.4792146012
 30
0.0
  0
VERTEX
  5
1309
  8
COLLECTIONS
 10
684024.93708519475
 20
5876335.5604947638
 30
0.0
  0
VERTEX
  5
130A
  8
COLLECTIONS
 10
684103.12161656574
 20
5876331.9886126202
 30
0.0
  0
VERTEX
  5
130B
  8
COLLECTIONS
 10
684131.69667371281
 20
5876324.4479725398
 30
0.0
  0
SEQEND
  5
130C
  8
COLLECTIONS
  0
TEXT
  5
841
  8
COLL_NUMBERS
 10
680399.17693442106
 20
5875563.1196350139
 30
0.0
 40
10.0
  1
26
  0
TEXT
  5
842
  8
COLL_NUMBERS
 10
680440.10972924903
 20
5875575.5053016879
 30
0.0
 40
10.0
  1
25
  0
TEXT
  5
844
  8
COLL_NUMBERS
 10
681725.1579445079
 20
5875838.2385217277
 30
0.0
 40
10.0
  1
21
  0
TEXT
  5
845
  8
COLL_NUMBERS
 10
683568.28966420155
 20
5876289.106997679
 30
0.0
 40
10.0
  1
16
  0
TEXT
  5
846
  8
COLL_NUMBERS
 10
680265.02606142871
 20
5875391.744300737
 30
0.0
 40
10.0
  1
15
  0
TEXT
  5
847
  8
COLL_NUMBERS
 10
680232.46098229848
 20
5875329.4353346741
 30
0.0
 40
10.0
  1
14
  0
TEXT
  5
848
  8
COLL_NUMBERS
 10
679933.33671240893
 20
5875065.9831417911
 30
0.0
 40
10.0
  1
11
  0
TEXT
  5
849
  8
COLL_NUMBERS
 10
679710.81586044654
 20
5874714.7437602216
 30
0.0
 40
10.0
  1
9
  0
TEXT
  5
84A
  8
COLL_NUMBERS
 10
679756.99357397854
 20
5874695.2046158174
 30
0.0
 40
10.0
  1
8
  0
TEXT
  5
84B
  8
COLL_NUMBERS
 10
679180.11290201358
 20
5872909.7714928342
 30
0.0
 40
10.0
  1
5
  0
POLYLINE
  5
857
  8
COLLECTIONS
 66
     1
 10
0.0
 20
0.0
 30
0.0
 70
     1
  0
VERTEX
  5
130D
  8
COLLECTIONS
 10
681815.55640724022
 20
5875826.814782327
 30
0.0
  0
VERTEX
  5
130E
  8
COLLECTIONS
 10
681826.43939776439
 20
5875817.3721876033
 30
0.0
  0
VERTEX
  5
130F
  8
COLLECTIONS
 10
681808.24925721798
 20
5875792.5674504964
 30
0.0
  0
VERTEX
  5
1310
  8
COLLECTIONS
 10
681810.68985756044
 20
5875788.1376180472
 30
0.0
  0
VERTEX
  5
1311
  8
COLLECTIONS
 10
681739.78092282545
 20
5875734.4422375606
 30
0.0
  0
VERTEX
  5
1312
  8
COLLECTIONS
 10
681726.08538455598
 20
5875738.5367799317
 30
0.0
  0
VERTEX
  5
1313
  8
COLLECTIONS
 10
681696.8753261352
 20
5875736.6317761233
 30
0.0
  0
VERTEX
  5
1314
  8
COLLECTIONS
 10
681656.37812014227
 20
5875766.3736481089
 30
0.0
  0
VERTEX
  5
1315
  8
COLLECTIONS
 10
681648.04372847278
 20
5875765.1830207249
 30
0.0
  0
VERTEX
  5
1316
  8
COLLECTIONS
 10
681642.09059156571
 20
5875769.9455302553
 30
0.0
  0
VERTEX
  5
1317
  8
COLLECTIONS
 10
681640.50308839127
 20
5875777.4861703301
 30
0.0
  0
VERTEX
  5
1318
  8
COLLECTIONS
 10
681639.92100389581
 20
5875792.0911995424
 30
0.0
  0
VERTEX
  5
1319
  8
COLLECTIONS
 10
681688.8557892628
 20
5875808.8393580345
 30
0.0
  0
VERTEX
  5
131A
  8
COLLECTIONS
 10
681693.4860068569
 20
5875814.7924949462
 30
0.0
  0
VERTEX
  5
131B
  8
COLLECTIONS
 10
681701.42352273234
 20
5875815.5201005666
 30
0.0
  0
VERTEX
  5
131C
  8
COLLECTIONS
 10
681722.259501906
 20
5875820.4810479889
 30
0.0
  0
VERTEX
  5
131D
  8
COLLECTIONS
 10
681723.55885143019
 20
5875809.9203695813
 30
0.0
  0
VERTEX
  5
131E
  8
COLLECTIONS
 10
681796.46006290813
 20
5875823.3079334721
 30
0.0
  0
SEQEND
  5
131F
  8
COLLECTIONS
  0
POLYLINE
  5
858
  8
COLLECTIONS
 66
     1
 10
0.0
 20
0.0
 30
0.0
 70
     1
  0
VERTEX
  5
1320
  8
COLLECTIONS
 10
681810.68985756044
 20
5875788.1376180472
 30
0.0
  0
VERTEX
  5
1321
  8
COLLECTIONS
 10
681817.1789625762
 20
5875778.0153380558
 30
0.0
  0
VERTEX
  5
1322
  8
COLLECTIONS
 10
681834.04618381057
 20
5875754.5335202608
 30
0.0
  0
VERTEX
  5
1323
  8
COLLECTIONS
 10
681827.85492143035
 20
5875734.5574386427
 30
0.0
  0
VERTEX
  5
1324
  8
COLLECTIONS
 10
681833.35826576781
 20
5875721.8574132398
 30
0.0
  0
VERTEX
  5
1325
  8
COLLECTIONS
 10
681840.55494682956
 20
5875701.1140384246
 30
0.0
  0
VERTEX
  5
1326
  8
COLLECTIONS
 10
681846.94464710902
 20
5875695.6636108514
 30
0.0
  0
VERTEX
  5
1327
  8
COLLECTIONS
 10
681848.59829624847
 20
5875689.0490142899
 30
0.0
  0
VERTEX
  5
1328
  8
COLLECTIONS
 10
681843.63734882791
 20
5875682.4344177274
 30
0.0
  0
VERTEX
  5
1329
  8
COLLECTIONS
 10
681815.4088965375
 20
5875674.8673192617
 30
0.0
  0
VERTEX
  5
132A
  8
COLLECTIONS
 10
681792.59805800579
 20
5875667.797348462
 30
0.0
  0
VERTEX
  5
132B
  8
COLLECTIONS
 10
681788.29857024178
 20
5875668.7895379476
 30
0.0
  0
VERTEX
  5
132C
  8
COLLECTIONS
 10
681784.66054213047
 20
5875666.4744291548
 30
0.0
  0
VERTEX
  5
132D
  8
COLLECTIONS
 10
681751.90876953676
 20
5875670.8456445504
 30
0.0
  0
VERTEX
  5
132E
  8
COLLECTIONS
 10
681718.67703640659
 20
5875683.5456699524
 30
0.0
  0
VERTEX
  5
132F
  8
COLLECTIONS
 10
681731.85066692065
 20
5875716.4995900234
 30
0.0
  0
VERTEX
  5
1330
  8
COLLECTIONS
 10
681746.61709228624
 20
5875732.3984343214
 30
0.0
  0
VERTEX
  5
1331
  8
COLLECTIONS
 10
681739.78092282545
 20
5875734.4422375606
 30
0.0
  0
SEQEND
  5
1332
  8
COLLECTIONS
  0
TEXT
  5
85C
  8
COLL_NUMBERS
 10
678762.64960025297
 20
5872192.7891782029
 30
0.0
 40
10.0
  1
1
  0
TEXT
  5
85D
  8
COLL_NUMBERS
 10
678851.39105607942
 20
5872308.8688677587
 30
0.0
 40
10.0
  1
2
  0
TEXT
  5
85E
  8
COLL_NUMBERS
 10
678911.08985057101
 20
5872378.1942292852
 30
0.0
 40
10.0
  1
3
  0
TEXT
  5
85F
  8
COLL_NUMBERS
 10
678894.95503871865
 20
5872221.809105943
 30
0.0
 40
10.0
  1
4
  0
TEXT
  5
860
  8
COLL_NUMBERS
 10
679233.97961660498
 20
5872999.359815211
 30
0.0
 40
10.0
  1
6
  0
TEXT
  5
861
  8
COLL_NUMBERS
 10
679339.05029336957
 20
5873724.6731492877
 30
0.0
 40
10.0
  1
7
  0
TEXT
  5
862
  8
COLL_NUMBERS
 10
680069.37435200554
 20
5875268.6802056273
 30
0.0
 40
10.0
  1
13
  0
TEXT
  5
863
  8
COLL_NUMBERS
 10
684070.03827563138
 20
5876299.4710285356
 30
0.0
 40
10.0
  1
17
  0
TEXT
  5
864
  8
COLL_NUMBERS
 10
684037.55699657137
 20
5876660.0206006439
 30
0.0
 40
10.0
  1
18
  0
TEXT
  5
865
  8
COLL_NUMBERS
 10
681757.44956565846
 20
5875702.4205403021
 30
0.0
 40
10.0
  1
19
  0
TEXT
  5
866
  8
COLL_NUMBERS
 10
681720.35754050454
 20
5875770.9309121482
 30
0.0
 40
10.0
  1
20
  0
TEXT
  5
867
  8
COLL_NUMBERS
 10
681123.03721634764
 20
5875575.4673520997
 30
0.0
 40
10.0
  1
23
  0
TEXT
  5
868
  8
COLL_NUMBERS
 10
680506.68875182257
 20
5875619.2111055683
 30
0.0
 40
10.0
  1
24
  0
TEXT
  5
869
  8
COLL_NUMBERS
 10
680355.76977629901
 20
5875550.1420228342
 30
0.0
 40
10.0
  1
27
  0
TEXT
  5
86A
  8
COLL_NUMBERS
 10
680308.53559655068
 20
5875565.1069891537
 30
0.0
 40
10.0
  1
28
  0
TEXT
  5
86B
  8
COLL_NUMBERS
 10
678584.70886662637
 20
5872619.9896181449
 30
0.0
 40
10.0
  1
29
  0
ENDSEC
  0
EOF
