  0
SECTION
  2
HEADER
  9
$ACADVER
  1
AC1009
  9
$INSBASE
 10
0.0
 20
0.0
 30
0.0
  9
$EXTMIN
 10
1077680.823050397
 20
692640.83978830744
 30
0.0
  9
$EXTMAX
 10
1104855.215762913
 20
711778.8362953735
 30
0.0
  9
$LIMMIN
 10
0.0
 20
0.0
  9
$LIMMAX
 10
12.0
 20
9.0
  9
$ORTHOMODE
 70
     0
  9
$REGENMODE
 70
     1
  9
$FILLMODE
 70
     1
  9
$QTEXTMODE
 70
     0
  9
$MIRRTEXT
 70
     0
  9
$DRAGMODE
 70
     2
  9
$LTSCALE
 40
1.0
  9
$OSMODE
 70
   621
  9
$ATTMODE
 70
     1
  9
$TEXTSIZE
 40
0.2
  9
$TRACEWID
 40
0.05
  9
$TEXTSTYLE
  7
STANDARD
  9
$CLAYER
  8
MIRADOR
  9
$CELTYPE
  6
BYLAYER
  9
$CECOLOR
 62
   256
  9
$DIMSCALE
 40
1.0
  9
$DIMASZ
 40
0.18
  9
$DIMEXO
 40
0.0625
  9
$DIMDLI
 40
0.38
  9
$DIMRND
 40
0.0
  9
$DIMDLE
 40
0.0
  9
$DIMEXE
 40
0.18
  9
$DIMTP
 40
0.0
  9
$DIMTM
 40
0.0
  9
$DIMTXT
 40
0.18
  9
$DIMCEN
 40
0.09
  9
$DIMTSZ
 40
0.0
  9
$DIMTOL
 70
     0
  9
$DIMLIM
 70
     0
  9
$DIMTIH
 70
     1
  9
$DIMTOH
 70
     1
  9
$DIMSE1
 70
     0
  9
$DIMSE2
 70
     0
  9
$DIMTAD
 70
     0
  9
$DIMZIN
 70
     0
  9
$DIMBLK
  1

  9
$DIMASO
 70
     1
  9
$DIMSHO
 70
     1
  9
$DIMPOST
  1

  9
$DIMAPOST
  1

  9
$DIMALT
 70
     0
  9
$DIMALTD
 70
     2
  9
$DIMALTF
 40
25.399999999999999
  9
$DIMLFAC
 40
1.0
  9
$DIMTOFL
 70
     0
  9
$DIMTVP
 40
0.0
  9
$DIMTIX
 70
     0
  9
$DIMSOXD
 70
     0
  9
$DIMSAH
 70
     0
  9
$DIMBLK1
  1

  9
$DIMBLK2
  1

  9
$DIMSTYLE
  2
STANDARD
  9
$DIMCLRD
 70
     0
  9
$DIMCLRE
 70
     0
  9
$DIMCLRT
 70
     0
  9
$DIMTFAC
 40
1.0
  9
$DIMGAP
 40
0.09
  9
$LUNITS
 70
     2
  9
$LUPREC
 70
     4
  9
$SKETCHINC
 40
0.1
  9
$FILLETRAD
 40
0.0
  9
$AUNITS
 70
     0
  9
$AUPREC
 70
     0
  9
$MENU
  1
.
  9
$ELEVATION
 40
0.0
  9
$PELEVATION
 40
0.0
  9
$THICKNESS
 40
0.0
  9
$LIMCHECK
 70
     0
  9
$BLIPMODE
 70
     0
  9
$CHAMFERA
 40
0.0
  9
$CHAMFERB
 40
0.0
  9
$SKPOLY
 70
     0
  9
$TDCREATE
 40
2458369.0707280091
  9
$TDUPDATE
 40
2458369.6022214592
  9
$TDINDWG
 40
0.0365893287
  9
$TDUSRTIMER
 40
0.0365888889
  9
$USRTIMER
 70
     1
  9
$ANGBASE
 50
0.0
  9
$ANGDIR
 70
     0
  9
$PDMODE
 70
     0
  9
$PDSIZE
 40
0.0
  9
$PLINEWID
 40
0.0
  9
$COORDS
 70
     2
  9
$SPLFRAME
 70
     0
  9
$SPLINETYPE
 70
     6
  9
$SPLINESEGS
 70
     8
  9
$ATTDIA
 70
     1
  9
$ATTREQ
 70
     1
  9
$HANDLING
 70
     1
  9
$HANDSEED
  5
CC2
  9
$SURFTAB1
 70
     6
  9
$SURFTAB2
 70
     6
  9
$SURFTYPE
 70
     6
  9
$SURFU
 70
     6
  9
$SURFV
 70
     6
  9
$UCSNAME
  2

  9
$UCSORG
 10
0.0
 20
0.0
 30
0.0
  9
$UCSXDIR
 10
1.0
 20
0.0
 30
0.0
  9
$UCSYDIR
 10
0.0
 20
1.0
 30
0.0
  9
$PUCSNAME
  2

  9
$PUCSORG
 10
0.0
 20
0.0
 30
0.0
  9
$PUCSXDIR
 10
1.0
 20
0.0
 30
0.0
  9
$PUCSYDIR
 10
0.0
 20
1.0
 30
0.0
  9
$USERI1
 70
     0
  9
$USERI2
 70
     0
  9
$USERI3
 70
     0
  9
$USERI4
 70
     0
  9
$USERI5
 70
     0
  9
$USERR1
 40
0.0
  9
$USERR2
 40
0.0
  9
$USERR3
 40
0.0
  9
$USERR4
 40
0.0
  9
$USERR5
 40
0.0
  9
$WORLDVIEW
 70
     1
  9
$SHADEDGE
 70
     3
  9
$SHADEDIF
 70
    70
  9
$TILEMODE
 70
     1
  9
$MAXACTVP
 70
    64
  9
$PLIMCHECK
 70
     0
  9
$PEXTMIN
 10
0.0
 20
0.0
 30
0.0
  9
$PEXTMAX
 10
0.0
 20
0.0
 30
0.0
  9
$PLIMMIN
 10
0.0
 20
0.0
  9
$PLIMMAX
 10
12.0
 20
9.0
  9
$UNITMODE
 70
     0
  9
$VISRETAIN
 70
     1
  9
$PLINEGEN
 70
     0
  9
$PSLTSCALE
 70
     1
  0
ENDSEC
  0
SECTION
  2
TABLES
  0
TABLE
  2
VPORT
 70
     1
  0
VPORT
  2
*ACTIVE
 70
     0
 10
0.0
 20
0.0
 11
1.0
 21
1.0
 12
1088202.6996587899
 22
700140.67106950004
 13
0.0
 23
0.0
 14
0.5
 24
0.5
 15
0.5
 25
0.5
 16
0.0
 26
0.0
 36
1.0
 17
0.0
 27
0.0
 37
0.0
 40
34886.300092133519
 41
1.303763440860215
 42
50.0
 43
0.0
 44
0.0
 50
0.0
 51
0.0
 71
     0
 72
  1000
 73
     1
 74
     2
 75
     0
 76
     0
 77
     0
 78
     0
  0
ENDTAB
  0
TABLE
  2
LTYPE
 70
     1
  0
LTYPE
  2
CONTINUOUS
 70
     0
  3
Solid line
 72
    65
 73
     0
 40
0.0
  0
ENDTAB
  0
TABLE
  2
LAYER
 70
     3
  0
LAYER
  2
0
 70
     0
 62
     7
  6
CONTINUOUS
  0
LAYER
  2
MIRADOR
 70
     0
 62
     2
  6
CONTINUOUS
  0
LAYER
  2
BOUNDARY
 70
     0
 62
     1
  6
CONTINUOUS
  0
ENDTAB
  0
TABLE
  2
STYLE
 70
     3
  0
STYLE
  2
STANDARD
 70
     0
 40
0.0
 41
1.0
 50
0.0
 71
     0
 42
0.2
  3
txt
  4

  0
STYLE
  2
ANNOTATIVE
 70
     0
 40
0.0
 41
1.0
 50
0.0
 71
     0
 42
0.2
  3
txt
  4

  0
STYLE
  2
LEGEND
 70
     0
 40
0.0
 41
1.0
 50
0.0
 71
     0
 42
0.2
  3
txt
  4

  0
ENDTAB
  0
TABLE
  2
VIEW
 70
     0
  0
ENDTAB
  0
TABLE
  2
UCS
 70
     0
  0
ENDTAB
  0
TABLE
  2
APPID
 70
    12
  0
APPID
  2
ACAD
 70
     0
  0
APPID
  2
ACADANNOTATIVE
 70
     0
  0
APPID
  2
ACAD_DSTYLE_DIMJAG
 70
     0
  0
APPID
  2
ACAD_DSTYLE_DIMTALN
 70
     0
  0
APPID
  2
ACAD_NAV_VCDISPLAY
 70
     0
  0
APPID
  2
ADE
 70
     0
  0
APPID
  2
DCO15
 70
     0
  0
APPID
  2
ADE_PROJECTION
 70
     0
  0
APPID
  2
ACMAPDMDISPLAYSTYLEREGAPP
 70
     0
  0
APPID
  2
MAPGWS
 70
     0
  0
APPID
  2
ACAD_MLEADERVER
 70
     0
  0
APPID
  2
MapManagementAppName
 70
     0
  0
ENDTAB
  0
TABLE
  2
DIMSTYLE
 70
     2
  0
DIMSTYLE
  2
STANDARD
 70
     0
  3

  4

  5

  6

  7

 40
1.0
 41
0.18
 42
0.0625
 43
0.38
 44
0.18
 45
0.0
 46
0.0
 47
0.0
 48
0.0
140
0.18
141
0.09
142
0.0
143
25.399999999999999
144
1.0
145
0.0
146
1.0
147
0.09
 71
     0
 72
     0
 73
     1
 74
     1
 75
     0
 76
     0
 77
     0
 78
     0
170
     0
171
     2
172
     0
173
     0
174
     0
175
     0
176
     0
177
     0
178
     0
  0
DIMSTYLE
  2
ANNOTATIVE
 70
     0
  3

  4

  5

  6

  7

 40
0.0
 41
0.18
 42
0.0625
 43
0.38
 44
0.18
 45
0.0
 46
0.0
 47
0.0
 48
0.0
140
0.18
141
0.09
142
0.0
143
25.399999999999999
144
1.0
145
0.0
146
1.0
147
0.09
 71
     0
 72
     0
 73
     1
 74
     1
 75
     0
 76
     0
 77
     0
 78
     0
170
     0
171
     2
172
     0
173
     0
174
     0
175
     0
176
     0
177
     0
178
     0
  0
ENDTAB
  0
ENDSEC
  0
SECTION
  2
BLOCKS
  0
BLOCK
  8
0
  2
$MODEL_SPACE
 70
     0
 10
0.0
 20
0.0
 30
0.0
  3
$MODEL_SPACE
  1

  0
ENDBLK
  5
6CC
  8
0
  0
BLOCK
 67
     1
  8
0
  2
$PAPER_SPACE
 70
     0
 10
0.0
 20
0.0
 30
0.0
  3
$PAPER_SPACE
  1

  0
ENDBLK
  5
6C8
 67
     1
  8
0
  0
ENDSEC
  0
SECTION
  2
ENTITIES
  0
POLYLINE
  5
6C
  8
MIRADOR
 66
     1
 10
0.0
 20
0.0
 30
0.0
 70
     1
1001
DCO15
1071
        4
1071
        3
1000
lotenos--cerámica
1004
0756475F35383300
1071
        2
1000
lotes--períodos
1004
0756475F35383300
1071
        1
1000
lotes--cerámica
1004
0756475F35383300
  0
VERTEX
  5
70F
  8
MIRADOR
 10
1083584.106356543
 20
701287.78379455057
 30
0.0
  0
VERTEX
  5
710
  8
MIRADOR
 10
1083595.527307648
 20
701263.45719222189
 30
0.0
  0
VERTEX
  5
711
  8
MIRADOR
 10
1083577.003837585
 20
701221.97331841209
 30
0.0
  0
VERTEX
  5
712
  8
MIRADOR
 10
1083584.2915522759
 20
701198.09315994871
 30
0.0
  0
VERTEX
  5
713
  8
MIRADOR
 10
1083593.5249036311
 20
701192.06283447682
 30
0.0
  0
VERTEX
  5
714
  8
MIRADOR
 10
1083674.0656303971
 20
701203.41796855372
 30
0.0
  0
VERTEX
  5
715
  8
MIRADOR
 10
1083694.1411956369
 20
701242.18381689582
 30
0.0
  0
VERTEX
  5
716
  8
MIRADOR
 10
1083648.426516169
 20
701290.88198038505
 30
0.0
  0
SEQEND
  5
717
  8
MIRADOR
  0
POLYLINE
  5
6E
  8
MIRADOR
 66
     1
 10
0.0
 20
0.0
 30
0.0
 70
     1
1001
DCO15
1071
        4
1071
        3
1000
lotenos--cerámica
1004
0756475F36313400
1071
        2
1000
lotes--períodos
1004
0756475F36313400
1071
        1
1000
lotes--cerámica
1004
0756475F36313400
  0
VERTEX
  5
718
  8
MIRADOR
 10
1085055.8259182421
 20
701000.44654897775
 30
0.0
  0
VERTEX
  5
719
  8
MIRADOR
 10
1085100.3196804039
 20
700998.31125411543
 30
0.0
  0
VERTEX
  5
71A
  8
MIRADOR
 10
1085109.8223761651
 20
701008.50037177792
 30
0.0
  0
VERTEX
  5
71B
  8
MIRADOR
 10
1085127.216573247
 20
701022.82884769747
 30
0.0
  0
VERTEX
  5
71C
  8
MIRADOR
 10
1085128.6326853321
 20
701048.30581496027
 30
0.0
  0
VERTEX
  5
71D
  8
MIRADOR
 10
1085115.204243985
 20
701069.59383527213
 30
0.0
  0
VERTEX
  5
71E
  8
MIRADOR
 10
1085089.1415591449
 20
701080.65065586648
 30
0.0
  0
VERTEX
  5
71F
  8
MIRADOR
 10
1085058.7051731159
 20
701079.58768481598
 30
0.0
  0
VERTEX
  5
720
  8
MIRADOR
 10
1085044.4688281401
 20
701045.11968678399
 30
0.0
  0
VERTEX
  5
721
  8
MIRADOR
 10
1085053.860985118
 20
701026.82826626848
 30
0.0
  0
VERTEX
  5
722
  8
MIRADOR
 10
1085052.4062584499
 20
701014.66269464593
 30
0.0
  0
VERTEX
  5
723
  8
MIRADOR
 10
1085053.7951984941
 20
701003.49956527608
 30
0.0
  0
SEQEND
  5
724
  8
MIRADOR
  0
POLYLINE
  5
6F
  8
MIRADOR
 66
     1
 10
0.0
 20
0.0
 30
0.0
 70
     1
1001
DCO15
1071
        4
1071
        3
1000
lotenos--cerámica
1004
0756475F32313300
1071
        2
1000
lotes--períodos
1004
0756475F32313300
1071
        1
1000
lotes--cerámica
1004
0756475F32313300
  0
VERTEX
  5
725
  8
MIRADOR
 10
1084572.8819189831
 20
701629.46195224731
 30
0.0
  0
VERTEX
  5
726
  8
MIRADOR
 10
1084569.2837562319
 20
701659.02254296409
 30
0.0
  0
VERTEX
  5
727
  8
MIRADOR
 10
1084571.1477687671
 20
701678.02527718293
 30
0.0
  0
VERTEX
  5
728
  8
MIRADOR
 10
1084580.804430705
 20
701695.51965149597
 30
0.0
  0
VERTEX
  5
729
  8
MIRADOR
 10
1084598.8368114219
 20
701702.53637513216
 30
0.0
  0
VERTEX
  5
72A
  8
MIRADOR
 10
1084614.406864037
 20
701702.63182992942
 30
0.0
  0
VERTEX
  5
72B
  8
MIRADOR
 10
1084627.249006483
 20
701691.90579225135
 30
0.0
  0
VERTEX
  5
72C
  8
MIRADOR
 10
1084641.334979408
 20
701678.96452270704
 30
0.0
  0
VERTEX
  5
72D
  8
MIRADOR
 10
1084657.872472645
 20
701663.68316371727
 30
0.0
  0
VERTEX
  5
72E
  8
MIRADOR
 10
1084658.5954784299
 20
701645.42681141489
 30
0.0
  0
VERTEX
  5
72F
  8
MIRADOR
 10
1084650.396054693
 20
701629.76766251691
 30
0.0
  0
VERTEX
  5
730
  8
MIRADOR
 10
1084630.9374743591
 20
701618.91605440574
 30
0.0
  0
VERTEX
  5
731
  8
MIRADOR
 10
1084593.7549870019
 20
701622.29887868045
 30
0.0
  0
SEQEND
  5
732
  8
MIRADOR
  0
POLYLINE
  5
70
  8
MIRADOR
 66
     1
 10
0.0
 20
0.0
 30
0.0
 70
     1
1001
DCO15
1071
        4
1071
        3
1000
lotenos--cerámica
1004
0756475F37313600
1071
        2
1000
lotes--períodos
1004
0756475F37313600
1071
        1
1000
lotes--cerámica
1004
0756475F37313600
  0
VERTEX
  5
733
  8
MIRADOR
 10
1089234.3660783221
 20
700923.7262463175
 30
0.0
  0
VERTEX
  5
734
  8
MIRADOR
 10
1089246.0209950481
 20
700920.11089750426
 30
0.0
  0
VERTEX
  5
735
  8
MIRADOR
 10
1089274.5242789229
 20
700937.39712457522
 30
0.0
  0
VERTEX
  5
736
  8
MIRADOR
 10
1089296.220137652
 20
700961.37958400603
 30
0.0
  0
VERTEX
  5
737
  8
MIRADOR
 10
1089294.4057076301
 20
700976.67279094225
 30
0.0
  0
VERTEX
  5
738
  8
MIRADOR
 10
1089298.1160947131
 20
700987.41059092397
 30
0.0
  0
VERTEX
  5
739
  8
MIRADOR
 10
1089263.68141862
 20
701005.72152327758
 30
0.0
  0
VERTEX
  5
73A
  8
MIRADOR
 10
1089242.5762935879
 20
701006.27596350689
 30
0.0
  0
VERTEX
  5
73B
  8
MIRADOR
 10
1089223.137352861
 20
700997.95203318016
 30
0.0
  0
SEQEND
  5
73C
  8
MIRADOR
  0
POLYLINE
  5
71
  8
MIRADOR
 66
     1
 10
0.0
 20
0.0
 30
0.0
 70
     1
1001
DCO15
1071
        4
1071
        3
1000
lotenos--cerámica
1004
0756475F383300
1071
        2
1000
lotes--períodos
1004
0756475F383300
1071
        1
1000
lotes--cerámica
1004
0756475F383300
  0
VERTEX
  5
73D
  8
MIRADOR
 10
1087094.5040350549
 20
699330.34495239356
 30
0.0
  0
VERTEX
  5
73E
  8
MIRADOR
 10
1087119.4272431729
 20
699340.67026020132
 30
0.0
  0
VERTEX
  5
73F
  8
MIRADOR
 10
1087152.8608263929
 20
699340.67101274931
 30
0.0
  0
VERTEX
  5
740
  8
MIRADOR
 10
1087191.7653379489
 20
699323.66642971779
 30
0.0
  0
VERTEX
  5
741
  8
MIRADOR
 10
1087193.8681550501
 20
699316.83668759034
 30
0.0
  0
VERTEX
  5
742
  8
MIRADOR
 10
1087180.541194245
 20
699283.26830880425
 30
0.0
  0
VERTEX
  5
743
  8
MIRADOR
 10
1087149.4101776499
 20
699257.43166366732
 30
0.0
  0
VERTEX
  5
744
  8
MIRADOR
 10
1087122.223170009
 20
699251.85767679114
 30
0.0
  0
VERTEX
  5
745
  8
MIRADOR
 10
1087089.991865078
 20
699267.31083860132
 30
0.0
  0
VERTEX
  5
746
  8
MIRADOR
 10
1087076.8754173969
 20
699275.07681524788
 30
0.0
  0
SEQEND
  5
747
  8
MIRADOR
  0
POLYLINE
  5
72
  8
MIRADOR
 66
     1
 10
0.0
 20
0.0
 30
0.0
 70
     1
1001
DCO15
1071
        4
1071
        3
1000
lotenos--cerámica
1004
0756475F383200
1071
        2
1000
lotes--períodos
1004
0756475F383200
1071
        1
1000
lotes--cerámica
1004
0756475F383200
  0
VERTEX
  5
748
  8
MIRADOR
 10
1087190.1753212521
 20
699326.70063116145
 30
0.0
  0
VERTEX
  5
749
  8
MIRADOR
 10
1087153.5688444879
 20
699344.5641126429
 30
0.0
  0
VERTEX
  5
74A
  8
MIRADOR
 10
1087120.482738049
 20
699342.91807228175
 30
0.0
  0
VERTEX
  5
74B
  8
MIRADOR
 10
1087138.8795136299
 20
699414.15858428576
 30
0.0
  0
VERTEX
  5
74C
  8
MIRADOR
 10
1087187.5101657831
 20
699414.76701768965
 30
0.0
  0
VERTEX
  5
74D
  8
MIRADOR
 10
1087245.8669622401
 20
699453.03061168699
 30
0.0
  0
VERTEX
  5
74E
  8
MIRADOR
 10
1087249.838673376
 20
699446.10598629457
 30
0.0
  0
VERTEX
  5
74F
  8
MIRADOR
 10
1087251.3740267679
 20
699377.93212251039
 30
0.0
  0
VERTEX
  5
750
  8
MIRADOR
 10
1087238.32531119
 20
699346.22128856881
 30
0.0
  0
VERTEX
  5
751
  8
MIRADOR
 10
1087191.221920752
 20
699327.8378423173
 30
0.0
  0
SEQEND
  5
752
  8
MIRADOR
  0
POLYLINE
  5
73
  8
MIRADOR
 66
     1
 10
0.0
 20
0.0
 30
0.0
 70
     1
1001
DCO15
1071
        4
1071
        3
1000
lotenos--cerámica
1004
0756475F33383100
1071
        2
1000
lotes--períodos
1004
0756475F33383100
1071
        1
1000
lotes--cerámica
1004
0756475F33383100
  0
VERTEX
  5
753
  8
MIRADOR
 10
1085590.5523977261
 20
701354.22008773708
 30
0.0
  0
VERTEX
  5
754
  8
MIRADOR
 10
1085613.7186159501
 20
701342.09581965161
 30
0.0
  0
VERTEX
  5
755
  8
MIRADOR
 10
1085634.3031170219
 20
701328.67406426545
 30
0.0
  0
VERTEX
  5
756
  8
MIRADOR
 10
1085650.4639855749
 20
701304.88027604134
 30
0.0
  0
VERTEX
  5
757
  8
MIRADOR
 10
1085636.6634424371
 20
701257.18033232156
 30
0.0
  0
VERTEX
  5
758
  8
MIRADOR
 10
1085609.8422313221
 20
701256.59489846439
 30
0.0
  0
VERTEX
  5
759
  8
MIRADOR
 10
1085586.4272903081
 20
701283.1207075757
 30
0.0
  0
VERTEX
  5
75A
  8
MIRADOR
 10
1085573.086846289
 20
701305.42653195094
 30
0.0
  0
VERTEX
  5
75B
  8
MIRADOR
 10
1085571.396737355
 20
701318.39493978024
 30
0.0
  0
VERTEX
  5
75C
  8
MIRADOR
 10
1085567.1635659779
 20
701331.40604929824
 30
0.0
  0
SEQEND
  5
75D
  8
MIRADOR
  0
POLYLINE
  5
74
  8
MIRADOR
 66
     1
 10
0.0
 20
0.0
 30
0.0
 70
     1
1001
DCO15
1071
        4
1071
        3
1000
lotenos--cerámica
1004
0756475F383600
1071
        2
1000
lotes--períodos
1004
0756475F383600
1071
        1
1000
lotes--cerámica
1004
0756475F383600
  0
VERTEX
  5
75E
  8
MIRADOR
 10
1085731.274658419
 20
700293.82727397559
 30
0.0
  0
VERTEX
  5
75F
  8
MIRADOR
 10
1085714.6386398789
 20
700242.89126879582
 30
0.0
  0
VERTEX
  5
760
  8
MIRADOR
 10
1085787.085814378
 20
700209.11455801129
 30
0.0
  0
VERTEX
  5
761
  8
MIRADOR
 10
1085799.448252348
 20
700225.27317826974
 30
0.0
  0
VERTEX
  5
762
  8
MIRADOR
 10
1085811.12763294
 20
700249.6773100734
 30
0.0
  0
VERTEX
  5
763
  8
MIRADOR
 10
1085804.7951261741
 20
700297.04593764246
 30
0.0
  0
SEQEND
  5
764
  8
MIRADOR
  0
POLYLINE
  5
75
  8
MIRADOR
 66
     1
 10
0.0
 20
0.0
 30
0.0
 70
     1
1001
DCO15
1071
        4
1071
        3
1000
lotenos--cerámica
1004
0756475F353200
1071
        2
1000
lotes--períodos
1004
0756475F353200
1071
        1
1000
lotes--cerámica
1004
0756475F353200
  0
VERTEX
  5
765
  8
MIRADOR
 10
1085740.593297743
 20
699912.5448344961
 30
0.0
  0
VERTEX
  5
766
  8
MIRADOR
 10
1085766.8073167091
 20
699871.77076296834
 30
0.0
  0
VERTEX
  5
767
  8
MIRADOR
 10
1085788.6120729069
 20
699866.98655999615
 30
0.0
  0
VERTEX
  5
768
  8
MIRADOR
 10
1085843.16306936
 20
699872.82582034555
 30
0.0
  0
VERTEX
  5
769
  8
MIRADOR
 10
1085854.2368088199
 20
699881.58876659954
 30
0.0
  0
VERTEX
  5
76A
  8
MIRADOR
 10
1085857.045517273
 20
699896.02164575749
 30
0.0
  0
VERTEX
  5
76B
  8
MIRADOR
 10
1085848.861580438
 20
699925.04785047192
 30
0.0
  0
VERTEX
  5
76C
  8
MIRADOR
 10
1085839.967916395
 20
699944.08370022359
 30
0.0
  0
VERTEX
  5
76D
  8
MIRADOR
 10
1085828.421316355
 20
699947.50211884535
 30
0.0
  0
SEQEND
  5
76E
  8
MIRADOR
  0
POLYLINE
  5
76
  8
MIRADOR
 66
     1
 10
0.0
 20
0.0
 30
0.0
 70
     1
1001
DCO15
1071
        4
1071
        3
1000
lotenos--cerámica
1004
0756475F343600
1071
        2
1000
lotes--períodos
1004
0756475F343600
1071
        1
1000
lotes--cerámica
1004
0756475F343600
  0
VERTEX
  5
76F
  8
MIRADOR
 10
1085527.2140730601
 20
699882.47007144452
 30
0.0
  0
VERTEX
  5
770
  8
MIRADOR
 10
1085575.626379072
 20
699880.18962553167
 30
0.0
  0
VERTEX
  5
771
  8
MIRADOR
 10
1085615.817714052
 20
699858.28765498218
 30
0.0
  0
VERTEX
  5
772
  8
MIRADOR
 10
1085594.351869711
 20
699770.21929414279
 30
0.0
  0
VERTEX
  5
773
  8
MIRADOR
 10
1085525.3871800359
 20
699769.30509687285
 30
0.0
  0
VERTEX
  5
774
  8
MIRADOR
 10
1085521.8185811681
 20
699831.87874995836
 30
0.0
  0
SEQEND
  5
775
  8
MIRADOR
  0
POLYLINE
  5
77
  8
MIRADOR
 66
     1
 10
0.0
 20
0.0
 30
0.0
 70
     1
1001
DCO15
1071
        4
1071
        3
1000
lotenos--cerámica
1004
0756475F343000
1071
        2
1000
lotes--períodos
1004
0756475F343000
1071
        1
1000
lotes--cerámica
1004
0756475F343000
  0
VERTEX
  5
776
  8
MIRADOR
 10
1085745.7808003221
 20
699756.40931461134
 30
0.0
  0
VERTEX
  5
777
  8
MIRADOR
 10
1085779.482031425
 20
699741.15474108199
 30
0.0
  0
VERTEX
  5
778
  8
MIRADOR
 10
1085746.305860417
 20
699712.18745335285
 30
0.0
  0
VERTEX
  5
779
  8
MIRADOR
 10
1085737.5290993301
 20
699655.37904083019
 30
0.0
  0
VERTEX
  5
77A
  8
MIRADOR
 10
1085712.0799137901
 20
699633.39685921138
 30
0.0
  0
VERTEX
  5
77B
  8
MIRADOR
 10
1085701.584941515
 20
699633.62806555023
 30
0.0
  0
VERTEX
  5
77C
  8
MIRADOR
 10
1085684.0403673081
 20
699641.89981952589
 30
0.0
  0
VERTEX
  5
77D
  8
MIRADOR
 10
1085675.771941117
 20
699661.23504893039
 30
0.0
  0
VERTEX
  5
77E
  8
MIRADOR
 10
1085666.1986843559
 20
699727.10893911205
 30
0.0
  0
VERTEX
  5
77F
  8
MIRADOR
 10
1085745.796017467
 20
699755.30808290944
 30
0.0
  0
SEQEND
  5
780
  8
MIRADOR
  0
POLYLINE
  5
78
  8
MIRADOR
 66
     1
 10
0.0
 20
0.0
 30
0.0
 70
     1
1001
DCO15
1071
        4
1071
        3
1000
lotenos--cerámica
1004
0756475F363800
1071
        2
1000
lotes--períodos
1004
0756475F363800
1071
        1
1000
lotes--cerámica
1004
0756475F363800
  0
VERTEX
  5
781
  8
MIRADOR
 10
1087041.883200947
 20
699793.2905039785
 30
0.0
  0
VERTEX
  5
782
  8
MIRADOR
 10
1087089.8451754691
 20
699770.13075475849
 30
0.0
  0
VERTEX
  5
783
  8
MIRADOR
 10
1087147.399580552
 20
699848.39968965854
 30
0.0
  0
VERTEX
  5
784
  8
MIRADOR
 10
1087129.014160004
 20
699913.08987070189
 30
0.0
  0
VERTEX
  5
785
  8
MIRADOR
 10
1087102.9289323629
 20
699904.77050590073
 30
0.0
  0
VERTEX
  5
786
  8
MIRADOR
 10
1087102.9289323629
 20
699904.77050590073
 30
0.0
  0
VERTEX
  5
787
  8
MIRADOR
 10
1087093.0426742339
 20
699901.10932276025
 30
0.0
  0
SEQEND
  5
788
  8
MIRADOR
  0
POLYLINE
  5
79
  8
MIRADOR
 66
     1
 10
0.0
 20
0.0
 30
0.0
 70
     1
1001
DCO15
1071
        4
1071
        3
1000
lotenos--cerámica
1004
0756475F363700
1071
        2
1000
lotes--períodos
1004
0756475F363700
1071
        1
1000
lotes--cerámica
1004
0756475F363700
  0
VERTEX
  5
789
  8
MIRADOR
 10
1087089.8774206131
 20
699900.32563764043
 30
0.0
  0
VERTEX
  5
78A
  8
MIRADOR
 10
1087074.8158346489
 20
699895.83477063058
 30
0.0
  0
VERTEX
  5
78B
  8
MIRADOR
 10
1087050.6211368151
 20
699906.69285500038
 30
0.0
  0
VERTEX
  5
78C
  8
MIRADOR
 10
1087022.533857838
 20
699894.67828820483
 30
0.0
  0
VERTEX
  5
78D
  8
MIRADOR
 10
1087008.415214818
 20
699900.60848427145
 30
0.0
  0
VERTEX
  5
78E
  8
MIRADOR
 10
1086998.491606764
 20
699880.67902679264
 30
0.0
  0
VERTEX
  5
78F
  8
MIRADOR
 10
1087010.83624687
 20
699812.47920601314
 30
0.0
  0
VERTEX
  5
790
  8
MIRADOR
 10
1087037.9475282209
 20
699795.48678701895
 30
0.0
  0
SEQEND
  5
791
  8
MIRADOR
  0
POLYLINE
  5
7A
  8
MIRADOR
 66
     1
 10
0.0
 20
0.0
 30
0.0
 70
     1
1001
DCO15
1071
        4
1071
        3
1000
lotenos--cerámica
1004
0756475F353700
1071
        2
1000
lotes--períodos
1004
0756475F353700
1071
        1
1000
lotes--cerámica
1004
0756475F353700
  0
VERTEX
  5
792
  8
MIRADOR
 10
1087031.558141314
 20
700223.03508659732
 30
0.0
  0
VERTEX
  5
793
  8
MIRADOR
 10
1087051.5606807331
 20
700247.06157839193
 30
0.0
  0
VERTEX
  5
794
  8
MIRADOR
 10
1087100.8793395599
 20
700289.64032790367
 30
0.0
  0
VERTEX
  5
795
  8
MIRADOR
 10
1087147.2493047479
 20
700222.20782779926
 30
0.0
  0
VERTEX
  5
796
  8
MIRADOR
 10
1087109.12286259
 20
700177.42285289103
 30
0.0
  0
VERTEX
  5
797
  8
MIRADOR
 10
1087065.6557238321
 20
700177.67014981876
 30
0.0
  0
SEQEND
  5
798
  8
MIRADOR
  0
POLYLINE
  5
7B
  8
MIRADOR
 66
     1
 10
0.0
 20
0.0
 30
0.0
 70
     1
1001
DCO15
1071
        4
1071
        3
1000
lotenos--cerámica
1004
0756475F38393100
1071
        2
1000
lotes--períodos
1004
0756475F38393100
1071
        1
1000
lotes--cerámica
1004
0756475F38393100
  0
VERTEX
  5
799
  8
MIRADOR
 10
1086559.172967012
 20
699265.035108699
 30
0.0
  0
VERTEX
  5
79A
  8
MIRADOR
 10
1086516.0865663679
 20
699245.58031775977
 30
0.0
  0
VERTEX
  5
79B
  8
MIRADOR
 10
1086481.3210843999
 20
699278.85351741838
 30
0.0
  0
VERTEX
  5
79C
  8
MIRADOR
 10
1086470.5982625231
 20
699301.86925870331
 30
0.0
  0
VERTEX
  5
79D
  8
MIRADOR
 10
1086481.0012956851
 20
699337.62897518277
 30
0.0
  0
VERTEX
  5
79E
  8
MIRADOR
 10
1086505.9355441739
 20
699363.32926606224
 30
0.0
  0
VERTEX
  5
79F
  8
MIRADOR
 10
1086510.8490983639
 20
699366.81225720001
 30
0.0
  0
VERTEX
  5
7A0
  8
MIRADOR
 10
1086566.306039656
 20
699308.55024403846
 30
0.0
  0
SEQEND
  5
7A1
  8
MIRADOR
  0
POLYLINE
  5
7C
  8
MIRADOR
 66
     1
 10
0.0
 20
0.0
 30
0.0
 70
     1
1001
DCO15
1071
        4
1071
        3
1000
lotenos--cerámica
1004
0756475F38373800
1071
        2
1000
lotes--períodos
1004
0756475F38373800
1071
        1
1000
lotes--cerámica
1004
0756475F38373800
  0
VERTEX
  5
7A2
  8
MIRADOR
 10
1086742.368434126
 20
699341.22501360998
 30
0.0
  0
VERTEX
  5
7A3
  8
MIRADOR
 10
1086773.2013198871
 20
699379.53141025803
 30
0.0
  0
VERTEX
  5
7A4
  8
MIRADOR
 10
1086767.426971609
 20
699399.40764400293
 30
0.0
  0
VERTEX
  5
7A5
  8
MIRADOR
 10
1086745.7942366069
 20
699418.29607255431
 30
0.0
  0
VERTEX
  5
7A6
  8
MIRADOR
 10
1086731.9873631401
 20
699428.76884230785
 30
0.0
  0
VERTEX
  5
7A7
  8
MIRADOR
 10
1086680.4437373269
 20
699420.71138258616
 30
0.0
  0
VERTEX
  5
7A8
  8
MIRADOR
 10
1086665.5483019261
 20
699402.14165903977
 30
0.0
  0
VERTEX
  5
7A9
  8
MIRADOR
 10
1086666.4848151631
 20
699370.01050161698
 30
0.0
  0
VERTEX
  5
7AA
  8
MIRADOR
 10
1086686.13639347
 20
699329.36697452236
 30
0.0
  0
VERTEX
  5
7AB
  8
MIRADOR
 10
1086696.9384609261
 20
699317.82042906224
 30
0.0
  0
SEQEND
  5
7AC
  8
MIRADOR
  0
POLYLINE
  5
7D
  8
MIRADOR
 66
     1
 10
0.0
 20
0.0
 30
0.0
 70
     1
1001
DCO15
1071
        4
1071
        3
1000
lotenos--cerámica
1004
0756475F34303000
1071
        2
1000
lotes--períodos
1004
0756475F34303000
1071
        1
1000
lotes--cerámica
1004
0756475F34303000
  0
VERTEX
  5
7AD
  8
MIRADOR
 10
1086300.485754617
 20
700469.28003954806
 30
0.0
  0
VERTEX
  5
7AE
  8
MIRADOR
 10
1086301.0212899591
 20
700444.70235721185
 30
0.0
  0
VERTEX
  5
7AF
  8
MIRADOR
 10
1086350.274429572
 20
700386.12080639077
 30
0.0
  0
VERTEX
  5
7B0
  8
MIRADOR
 10
1086416.2771382851
 20
700408.76245294302
 30
0.0
  0
VERTEX
  5
7B1
  8
MIRADOR
 10
1086398.270735339
 20
700487.68364973785
 30
0.0
  0
SEQEND
  5
7B2
  8
MIRADOR
  0
POLYLINE
  5
7E
  8
MIRADOR
 66
     1
 10
0.0
 20
0.0
 30
0.0
 70
     1
1001
DCO15
1071
        4
1071
        3
1000
lotenos--cerámica
1004
0756475F33393900
1071
        2
1000
lotes--períodos
1004
0756475F33393900
1071
        1
1000
lotes--cerámica
1004
0756475F33393900
  0
VERTEX
  5
7B3
  8
MIRADOR
 10
1086301.307250564
 20
700441.30001597933
 30
0.0
  0
VERTEX
  5
7B4
  8
MIRADOR
 10
1086287.8908105041
 20
700424.36714937782
 30
0.0
  0
VERTEX
  5
7B5
  8
MIRADOR
 10
1086263.726347388
 20
700378.27638567216
 30
0.0
  0
VERTEX
  5
7B6
  8
MIRADOR
 10
1086266.2518678559
 20
700351.59569676011
 30
0.0
  0
VERTEX
  5
7B7
  8
MIRADOR
 10
1086278.415301336
 20
700335.70211407822
 30
0.0
  0
VERTEX
  5
7B8
  8
MIRADOR
 10
1086309.8132111139
 20
700342.66238598095
 30
0.0
  0
VERTEX
  5
7B9
  8
MIRADOR
 10
1086346.5786700409
 20
700386.63357316039
 30
0.0
  0
SEQEND
  5
7BA
  8
MIRADOR
  0
POLYLINE
  5
7F
  8
MIRADOR
 66
     1
 10
0.0
 20
0.0
 30
0.0
 70
     1
1001
DCO15
1071
        4
1071
        3
1000
lotenos--cerámica
1004
0756475F33363500
1071
        2
1000
lotes--períodos
1004
0756475F33363500
1071
        1
1000
lotes--cerámica
1004
0756475F33363500
  0
VERTEX
  5
7BB
  8
MIRADOR
 10
1086826.5745931219
 20
701915.36552609503
 30
0.0
  0
VERTEX
  5
7BC
  8
MIRADOR
 10
1086757.878582326
 20
702019.07415455685
 30
0.0
  0
VERTEX
  5
7BD
  8
MIRADOR
 10
1086752.2126366231
 20
701971.39729171351
 30
0.0
  0
VERTEX
  5
7BE
  8
MIRADOR
 10
1086763.6766189409
 20
701910.74744769407
 30
0.0
  0
VERTEX
  5
7BF
  8
MIRADOR
 10
1086774.825961184
 20
701880.52879693964
 30
0.0
  0
VERTEX
  5
7C0
  8
MIRADOR
 10
1086774.825961184
 20
701880.52879693964
 30
0.0
  0
SEQEND
  5
7C1
  8
MIRADOR
  0
POLYLINE
  5
80
  8
MIRADOR
 66
     1
 10
0.0
 20
0.0
 30
0.0
 70
     1
1001
DCO15
1071
        4
1071
        3
1000
lotenos--cerámica
1004
0756475F33363000
1071
        2
1000
lotes--períodos
1004
0756475F33363000
1071
        1
1000
lotes--cerámica
1004
0756475F33363000
  0
VERTEX
  5
7C2
  8
MIRADOR
 10
1086907.0076202441
 20
701734.36001608975
 30
0.0
  0
VERTEX
  5
7C3
  8
MIRADOR
 10
1086956.6277461881
 20
701734.90634237626
 30
0.0
  0
VERTEX
  5
7C4
  8
MIRADOR
 10
1086967.264636223
 20
701704.85188459978
 30
0.0
  0
VERTEX
  5
7C5
  8
MIRADOR
 10
1086968.167813428
 20
701676.6025709653
 30
0.0
  0
VERTEX
  5
7C6
  8
MIRADOR
 10
1086962.771322673
 20
701648.00979486411
 30
0.0
  0
VERTEX
  5
7C7
  8
MIRADOR
 10
1086901.4259347641
 20
701628.43670676206
 30
0.0
  0
VERTEX
  5
7C8
  8
MIRADOR
 10
1086902.2517797621
 20
701641.88424578938
 30
0.0
  0
VERTEX
  5
7C9
  8
MIRADOR
 10
1086906.530260934
 20
701692.84247789637
 30
0.0
  0
SEQEND
  5
7CA
  8
MIRADOR
  0
POLYLINE
  5
81
  8
MIRADOR
 66
     1
 10
0.0
 20
0.0
 30
0.0
 70
     1
1001
DCO15
1071
        4
1071
        3
1000
lotenos--cerámica
1004
0756475F323100
1071
        2
1000
lotes--períodos
1004
0756475F323100
1071
        1
1000
lotes--cerámica
1004
0756475F323100
  0
VERTEX
  5
7CB
  8
MIRADOR
 10
1086389.66527255
 20
700017.11241682747
 30
0.0
  0
VERTEX
  5
7CC
  8
MIRADOR
 10
1086393.181350257
 20
700002.7859221024
 30
0.0
  0
VERTEX
  5
7CD
  8
MIRADOR
 10
1086375.4924993101
 20
699950.66872392723
 30
0.0
  0
VERTEX
  5
7CE
  8
MIRADOR
 10
1086346.601847155
 20
699934.32954075804
 30
0.0
  0
VERTEX
  5
7CF
  8
MIRADOR
 10
1086337.431571214
 20
699948.97292197566
 30
0.0
  0
VERTEX
  5
7D0
  8
MIRADOR
 10
1086317.6420388841
 20
699955.67352912039
 30
0.0
  0
VERTEX
  5
7D1
  8
MIRADOR
 10
1086294.422663304
 20
699957.73051219236
 30
0.0
  0
VERTEX
  5
7D2
  8
MIRADOR
 10
1086283.733511782
 20
699971.43325241853
 30
0.0
  0
VERTEX
  5
7D3
  8
MIRADOR
 10
1086293.584296338
 20
700006.07955016999
 30
0.0
  0
VERTEX
  5
7D4
  8
MIRADOR
 10
1086304.0835429451
 20
700035.08286347566
 30
0.0
  0
VERTEX
  5
7D5
  8
MIRADOR
 10
1086363.500160774
 20
700014.38873330259
 30
0.0
  0
SEQEND
  5
7D6
  8
MIRADOR
  0
POLYLINE
  5
82
  8
MIRADOR
 66
     1
 10
0.0
 20
0.0
 30
0.0
 70
     1
1001
DCO15
1071
        4
1071
        3
1000
lotenos--cerámica
1004
0756475F33363700
1071
        2
1000
lotes--períodos
1004
0756475F33363700
1071
        1
1000
lotes--cerámica
1004
0756475F33363700
  0
VERTEX
  5
7D7
  8
MIRADOR
 10
1086965.1916867059
 20
701835.02467968198
 30
0.0
  0
VERTEX
  5
7D8
  8
MIRADOR
 10
1086984.141131982
 20
701838.98826235835
 30
0.0
  0
VERTEX
  5
7D9
  8
MIRADOR
 10
1087004.7902210341
 20
701880.83387873927
 30
0.0
  0
VERTEX
  5
7DA
  8
MIRADOR
 10
1087014.5276244299
 20
701879.02343318576
 30
0.0
  0
VERTEX
  5
7DB
  8
MIRADOR
 10
1087046.283564481
 20
701823.84766235214
 30
0.0
  0
VERTEX
  5
7DC
  8
MIRADOR
 10
1087002.4654175199
 20
701785.21829952707
 30
0.0
  0
VERTEX
  5
7DD
  8
MIRADOR
 10
1086989.7131295169
 20
701805.00384922966
 30
0.0
  0
VERTEX
  5
7DE
  8
MIRADOR
 10
1086973.081504418
 20
701809.9398071703
 30
0.0
  0
SEQEND
  5
7DF
  8
MIRADOR
  0
POLYLINE
  5
83
  8
MIRADOR
 66
     1
 10
0.0
 20
0.0
 30
0.0
 70
     1
1001
DCO15
1071
        4
1071
        3
1000
lotenos--cerámica
1004
0756475F37303700
1071
        2
1000
lotes--períodos
1004
0756475F37303700
1071
        1
1000
lotes--cerámica
1004
0756475F37303700
  0
VERTEX
  5
7E0
  8
MIRADOR
 10
1087886.7499694449
 20
699261.80280416645
 30
0.0
  0
VERTEX
  5
7E1
  8
MIRADOR
 10
1087904.469072276
 20
699277.96472707205
 30
0.0
  0
VERTEX
  5
7E2
  8
MIRADOR
 10
1087904.469072276
 20
699277.96472707205
 30
0.0
  0
VERTEX
  5
7E3
  8
MIRADOR
 10
1087904.469072276
 20
699277.96472707205
 30
0.0
  0
VERTEX
  5
7E4
  8
MIRADOR
 10
1087973.0851053109
 20
699300.69463619031
 30
0.0
  0
VERTEX
  5
7E5
  8
MIRADOR
 10
1088024.0034363321
 20
699290.26359468384
 30
0.0
  0
VERTEX
  5
7E6
  8
MIRADOR
 10
1088015.6109665909
 20
699233.5592208798
 30
0.0
  0
VERTEX
  5
7E7
  8
MIRADOR
 10
1087903.5771341349
 20
699220.6104523933
 30
0.0
  0
SEQEND
  5
7E8
  8
MIRADOR
  0
POLYLINE
  5
84
  8
MIRADOR
 66
     1
 10
0.0
 20
0.0
 30
0.0
 70
     1
1001
DCO15
1071
        4
1071
        3
1000
lotenos--cerámica
1004
0756475F37303600
1071
        2
1000
lotes--períodos
1004
0756475F37303600
1071
        1
1000
lotes--cerámica
1004
0756475F37303600
  0
VERTEX
  5
7E9
  8
MIRADOR
 10
1087803.690593136
 20
699219.11665282247
 30
0.0
  0
VERTEX
  5
7EA
  8
MIRADOR
 10
1087861.927629407
 20
699269.6719419834
 30
0.0
  0
VERTEX
  5
7EB
  8
MIRADOR
 10
1087853.335261571
 20
699138.04061087605
 30
0.0
  0
VERTEX
  5
7EC
  8
MIRADOR
 10
1087831.6903224229
 20
699139.73693729495
 30
0.0
  0
VERTEX
  5
7ED
  8
MIRADOR
 10
1087813.450827769
 20
699164.27084285161
 30
0.0
  0
VERTEX
  5
7EE
  8
MIRADOR
 10
1087799.871777537
 20
699175.71644793707
 30
0.0
  0
VERTEX
  5
7EF
  8
MIRADOR
 10
1087803.690593136
 20
699219.11665282247
 30
0.0
  0
SEQEND
  5
7F0
  8
MIRADOR
  0
POLYLINE
  5
85
  8
MIRADOR
 66
     1
 10
0.0
 20
0.0
 30
0.0
 70
     1
1001
DCO15
1071
        4
1071
        3
1000
lotenos--cerámica
1004
0756475F37303400
1071
        2
1000
lotes--períodos
1004
0756475F37303400
1071
        1
1000
lotes--cerámica
1004
0756475F37303400
  0
VERTEX
  5
7F1
  8
MIRADOR
 10
1087800.6997243389
 20
699218.87416973279
 30
0.0
  0
VERTEX
  5
7F2
  8
MIRADOR
 10
1087739.0286658551
 20
699283.70242165762
 30
0.0
  0
VERTEX
  5
7F3
  8
MIRADOR
 10
1087750.4378192411
 20
699315.72638831742
 30
0.0
  0
VERTEX
  5
7F4
  8
MIRADOR
 10
1087773.4931873269
 20
699334.45291078405
 30
0.0
  0
VERTEX
  5
7F5
  8
MIRADOR
 10
1087793.571295215
 20
699349.47440232465
 30
0.0
  0
VERTEX
  5
7F6
  8
MIRADOR
 10
1087806.8149193211
 20
699354.1113535387
 30
0.0
  0
VERTEX
  5
7F7
  8
MIRADOR
 10
1087822.678070337
 20
699344.09824883286
 30
0.0
  0
VERTEX
  5
7F8
  8
MIRADOR
 10
1087865.413261449
 20
699275.25616549165
 30
0.0
  0
VERTEX
  5
7F9
  8
MIRADOR
 10
1087802.7131577739
 20
699221.14345361385
 30
0.0
  0
SEQEND
  5
7FA
  8
MIRADOR
  0
POLYLINE
  5
86
  8
MIRADOR
 66
     1
 10
0.0
 20
0.0
 30
0.0
 70
     1
1001
DCO15
1071
        4
1071
        3
1000
lotenos--cerámica
1004
0756475F36383300
1071
        2
1000
lotes--períodos
1004
0756475F36383300
1071
        1
1000
lotes--cerámica
1004
0756475F36383300
  0
VERTEX
  5
7FB
  8
MIRADOR
 10
1087604.943381031
 20
698761.77141103556
 30
0.0
  0
VERTEX
  5
7FC
  8
MIRADOR
 10
1087599.894262786
 20
698724.50741634995
 30
0.0
  0
VERTEX
  5
7FD
  8
MIRADOR
 10
1087717.72871005
 20
698686.62981366715
 30
0.0
  0
VERTEX
  5
7FE
  8
MIRADOR
 10
1087715.33947715
 20
698726.60670606454
 30
0.0
  0
SEQEND
  5
7FF
  8
MIRADOR
  0
POLYLINE
  5
87
  8
MIRADOR
 66
     1
 10
0.0
 20
0.0
 30
0.0
 70
     1
1001
DCO15
1071
        4
1071
        3
1000
lotenos--cerámica
1004
0756475F34313000
1071
        2
1000
lotes--períodos
1004
0756475F34313000
1071
        1
1000
lotes--cerámica
1004
0756475F34313000
  0
VERTEX
  5
800
  8
MIRADOR
 10
1087747.7653032299
 20
701169.3401436545
 30
0.0
  0
VERTEX
  5
801
  8
MIRADOR
 10
1087777.3666713899
 20
701160.73722491355
 30
0.0
  0
VERTEX
  5
802
  8
MIRADOR
 10
1087781.7766850779
 20
701153.4062361957
 30
0.0
  0
VERTEX
  5
803
  8
MIRADOR
 10
1087767.743780178
 20
701119.88669730851
 30
0.0
  0
VERTEX
  5
804
  8
MIRADOR
 10
1087770.9210473101
 20
701103.03162457515
 30
0.0
  0
VERTEX
  5
805
  8
MIRADOR
 10
1087722.0582242359
 20
701069.86225803953
 30
0.0
  0
VERTEX
  5
806
  8
MIRADOR
 10
1087690.2001792321
 20
701102.83129320247
 30
0.0
  0
VERTEX
  5
807
  8
MIRADOR
 10
1087690.177196308
 20
701154.28259190184
 30
0.0
  0
SEQEND
  5
808
  8
MIRADOR
  0
POLYLINE
  5
88
  8
MIRADOR
 66
     1
 10
0.0
 20
0.0
 30
0.0
 70
     1
1001
DCO15
1071
        4
1071
        3
1000
lotenos--cerámica
1004
0756475F32333800
1071
        2
1000
lotes--períodos
1004
0756475F32333800
1071
        1
1000
lotes--cerámica
1004
0756475F32333800
  0
VERTEX
  5
809
  8
MIRADOR
 10
1087472.966861154
 20
701056.3263744195
 30
0.0
  0
VERTEX
  5
80A
  8
MIRADOR
 10
1087496.0347276661
 20
701061.79172698292
 30
0.0
  0
VERTEX
  5
80B
  8
MIRADOR
 10
1087513.5551084471
 20
701045.35917293222
 30
0.0
  0
VERTEX
  5
80C
  8
MIRADOR
 10
1087575.0552328851
 20
701037.85854395456
 30
0.0
  0
VERTEX
  5
80D
  8
MIRADOR
 10
1087580.3843933209
 20
701020.39578349621
 30
0.0
  0
VERTEX
  5
80E
  8
MIRADOR
 10
1087567.5207527489
 20
700998.57566110475
 30
0.0
  0
VERTEX
  5
80F
  8
MIRADOR
 10
1087568.545844937
 20
700981.33573602082
 30
0.0
  0
VERTEX
  5
810
  8
MIRADOR
 10
1087553.653523671
 20
700972.01002846949
 30
0.0
  0
VERTEX
  5
811
  8
MIRADOR
 10
1087495.9301819431
 20
700981.65276073618
 30
0.0
  0
VERTEX
  5
812
  8
MIRADOR
 10
1087478.9860878871
 20
700999.1258083228
 30
0.0
  0
SEQEND
  5
813
  8
MIRADOR
  0
POLYLINE
  5
89
  8
MIRADOR
 66
     1
 10
0.0
 20
0.0
 30
0.0
 70
     1
1001
DCO15
1071
        4
1071
        3
1000
lotenos--cerámica
1004
0756475F31373800
1071
        2
1000
lotes--períodos
1004
0756475F31373800
1071
        1
1000
lotes--cerámica
1004
0756475F31373800
  0
VERTEX
  5
814
  8
MIRADOR
 10
1087651.7637376799
 20
700108.14037945354
 30
0.0
  0
VERTEX
  5
815
  8
MIRADOR
 10
1087595.9971829951
 20
700105.76821250352
 30
0.0
  0
VERTEX
  5
816
  8
MIRADOR
 10
1087563.0477533201
 20
700061.8766719104
 30
0.0
  0
VERTEX
  5
817
  8
MIRADOR
 10
1087613.7043504091
 20
700020.56421932857
 30
0.0
  0
VERTEX
  5
818
  8
MIRADOR
 10
1087649.983932138
 20
700042.94016319793
 30
0.0
  0
SEQEND
  5
819
  8
MIRADOR
  0
POLYLINE
  5
8A
  8
MIRADOR
 66
     1
 10
0.0
 20
0.0
 30
0.0
 70
     1
1001
DCO15
1071
        4
1071
        3
1000
lotenos--cerámica
1004
0756475F31343100
1071
        2
1000
lotes--períodos
1004
0756475F31343100
1071
        1
1000
lotes--cerámica
1004
0756475F31343100
  0
VERTEX
  5
81A
  8
MIRADOR
 10
1087363.640655553
 20
700108.43513147614
 30
0.0
  0
VERTEX
  5
81B
  8
MIRADOR
 10
1087418.8163364229
 20
700128.64658741339
 30
0.0
  0
VERTEX
  5
81C
  8
MIRADOR
 10
1087427.437568801
 20
700107.08019483462
 30
0.0
  0
VERTEX
  5
81D
  8
MIRADOR
 10
1087449.9362784531
 20
700093.79036703217
 30
0.0
  0
VERTEX
  5
81E
  8
MIRADOR
 10
1087465.62696913
 20
700093.99475829792
 30
0.0
  0
VERTEX
  5
81F
  8
MIRADOR
 10
1087465.5928005171
 20
700089.18434025533
 30
0.0
  0
VERTEX
  5
820
  8
MIRADOR
 10
1087445.511145615
 20
700031.20262630295
 30
0.0
  0
VERTEX
  5
821
  8
MIRADOR
 10
1087392.7057231951
 20
700014.43139129155
 30
0.0
  0
VERTEX
  5
822
  8
MIRADOR
 10
1087383.050005116
 20
700029.68885710835
 30
0.0
  0
VERTEX
  5
823
  8
MIRADOR
 10
1087387.081645892
 20
700055.02355901105
 30
0.0
  0
VERTEX
  5
824
  8
MIRADOR
 10
1087375.417519307
 20
700090.91836243065
 30
0.0
  0
VERTEX
  5
825
  8
MIRADOR
 10
1087363.640655553
 20
700108.43513147614
 30
0.0
  0
SEQEND
  5
826
  8
MIRADOR
  0
POLYLINE
  5
8B
  8
MIRADOR
 66
     1
 10
0.0
 20
0.0
 30
0.0
 70
     1
1001
DCO15
1071
        4
1071
        3
1000
lotenos--cerámica
1004
0756475F373600
1071
        2
1000
lotes--períodos
1004
0756475F373600
1071
        1
1000
lotes--cerámica
1004
0756475F373600
  0
VERTEX
  5
827
  8
MIRADOR
 10
1087464.5765407931
 20
699720.38785303512
 30
0.0
  0
VERTEX
  5
828
  8
MIRADOR
 10
1087471.4279807741
 20
699747.21368835808
 30
0.0
  0
VERTEX
  5
829
  8
MIRADOR
 10
1087528.996163483
 20
699793.83227909077
 30
0.0
  0
VERTEX
  5
82A
  8
MIRADOR
 10
1087543.0381855359
 20
699784.95675903838
 30
0.0
  0
VERTEX
  5
82B
  8
MIRADOR
 10
1087551.565489691
 20
699784.87174028018
 30
0.0
  0
VERTEX
  5
82C
  8
MIRADOR
 10
1087571.115508927
 20
699767.29220068501
 30
0.0
  0
VERTEX
  5
82D
  8
MIRADOR
 10
1087571.7468707459
 20
699741.23252244585
 30
0.0
  0
VERTEX
  5
82E
  8
MIRADOR
 10
1087558.7755368501
 20
699683.63362269709
 30
0.0
  0
VERTEX
  5
82F
  8
MIRADOR
 10
1087502.566488127
 20
699686.0323102175
 30
0.0
  0
VERTEX
  5
830
  8
MIRADOR
 10
1087502.566488127
 20
699686.0323102175
 30
0.0
  0
VERTEX
  5
831
  8
MIRADOR
 10
1087463.6265611509
 20
699720.28253739316
 30
0.0
  0
SEQEND
  5
832
  8
MIRADOR
  0
POLYLINE
  5
8C
  8
MIRADOR
 66
     1
 10
0.0
 20
0.0
 30
0.0
 70
     1
1001
DCO15
1071
        4
1071
        3
1000
lotenos--cerámica
1004
0756475F373500
1071
        2
1000
lotes--períodos
1004
0756475F373500
1071
        1
1000
lotes--cerámica
1004
0756475F373500
  0
VERTEX
  5
833
  8
MIRADOR
 10
1087526.1070433769
 20
699796.91016317334
 30
0.0
  0
VERTEX
  5
834
  8
MIRADOR
 10
1087514.2707067779
 20
699815.7702341259
 30
0.0
  0
VERTEX
  5
835
  8
MIRADOR
 10
1087501.1860372941
 20
699826.76111222513
 30
0.0
  0
VERTEX
  5
836
  8
MIRADOR
 10
1087476.4576228659
 20
699829.37878620601
 30
0.0
  0
VERTEX
  5
837
  8
MIRADOR
 10
1087443.955534403
 20
699826.75802769046
 30
0.0
  0
VERTEX
  5
838
  8
MIRADOR
 10
1087419.8183330121
 20
699809.5615821497
 30
0.0
  0
VERTEX
  5
839
  8
MIRADOR
 10
1087403.266680839
 20
699783.1699710245
 30
0.0
  0
VERTEX
  5
83A
  8
MIRADOR
 10
1087408.809638141
 20
699764.27567642846
 30
0.0
  0
VERTEX
  5
83B
  8
MIRADOR
 10
1087419.0153666241
 20
699729.23467490217
 30
0.0
  0
VERTEX
  5
83C
  8
MIRADOR
 10
1087427.140640374
 20
699718.6698269468
 30
0.0
  0
VERTEX
  5
83D
  8
MIRADOR
 10
1087461.2504269469
 20
699723.47047882469
 30
0.0
  0
VERTEX
  5
83E
  8
MIRADOR
 10
1087467.4958750659
 20
699749.38998689223
 30
0.0
  0
SEQEND
  5
83F
  8
MIRADOR
  0
POLYLINE
  5
8D
  8
MIRADOR
 66
     1
 10
0.0
 20
0.0
 30
0.0
 70
     1
1001
DCO15
1071
        4
1071
        3
1000
lotenos--cerámica
1004
0756475F363200
1071
        2
1000
lotes--períodos
1004
0756475F363200
1071
        1
1000
lotes--cerámica
1004
0756475F363200
  0
VERTEX
  5
840
  8
MIRADOR
 10
1087247.3203783571
 20
699865.97221503826
 30
0.0
  0
VERTEX
  5
841
  8
MIRADOR
 10
1087313.6677755951
 20
699897.12102982332
 30
0.0
  0
VERTEX
  5
842
  8
MIRADOR
 10
1087330.269866646
 20
699883.26921460382
 30
0.0
  0
VERTEX
  5
843
  8
MIRADOR
 10
1087341.58773357
 20
699850.76299588545
 30
0.0
  0
VERTEX
  5
844
  8
MIRADOR
 10
1087337.4228024511
 20
699813.48309896956
 30
0.0
  0
VERTEX
  5
845
  8
MIRADOR
 10
1087322.78539269
 20
699786.11323296966
 30
0.0
  0
VERTEX
  5
846
  8
MIRADOR
 10
1087305.430421835
 20
699781.08302478364
 30
0.0
  0
VERTEX
  5
847
  8
MIRADOR
 10
1087265.7057780011
 20
699782.11444821698
 30
0.0
  0
VERTEX
  5
848
  8
MIRADOR
 10
1087244.122894027
 20
699822.04643165146
 30
0.0
  0
VERTEX
  5
849
  8
MIRADOR
 10
1087247.3203783571
 20
699865.97221503826
 30
0.0
  0
SEQEND
  5
84A
  8
MIRADOR
  0
POLYLINE
  5
8E
  8
MIRADOR
 66
     1
 10
0.0
 20
0.0
 30
0.0
 70
     1
1001
DCO15
1071
        4
1071
        3
1000
lotenos--cerámica
1004
0756475F34373900
1071
        2
1000
lotes--períodos
1004
0756475F34373900
1071
        1
1000
lotes--cerámica
1004
0756475F34373900
  0
VERTEX
  5
84B
  8
MIRADOR
 10
1088589.0115909551
 20
701496.96203340543
 30
0.0
  0
VERTEX
  5
84C
  8
MIRADOR
 10
1088566.812598214
 20
701500.76005442545
 30
0.0
  0
VERTEX
  5
84D
  8
MIRADOR
 10
1088557.7830648781
 20
701523.84179492621
 30
0.0
  0
VERTEX
  5
84E
  8
MIRADOR
 10
1088562.107021264
 20
701619.84347687964
 30
0.0
  0
VERTEX
  5
84F
  8
MIRADOR
 10
1088594.77687761
 20
701619.36419827747
 30
0.0
  0
VERTEX
  5
850
  8
MIRADOR
 10
1088638.0163738439
 20
701579.52449276624
 30
0.0
  0
VERTEX
  5
851
  8
MIRADOR
 10
1088634.6532973929
 20
701559.84409252566
 30
0.0
  0
VERTEX
  5
852
  8
MIRADOR
 10
1088645.2229570909
 20
701544.00406180427
 30
0.0
  0
VERTEX
  5
853
  8
MIRADOR
 10
1088628.8880352159
 20
701514.24320981221
 30
0.0
  0
VERTEX
  5
854
  8
MIRADOR
 10
1088587.0898450599
 20
701507.04216458369
 30
0.0
  0
SEQEND
  5
855
  8
MIRADOR
  0
POLYLINE
  5
8F
  8
MIRADOR
 66
     1
 10
0.0
 20
0.0
 30
0.0
 70
     1
1001
DCO15
1071
        4
1071
        3
1000
lotenos--cerámica
1004
0756475F34313500
1071
        2
1000
lotes--períodos
1004
0756475F34313500
1071
        1
1000
lotes--cerámica
1004
0756475F34313500
  0
VERTEX
  5
856
  8
MIRADOR
 10
1088537.8117219049
 20
700855.68927480653
 30
0.0
  0
VERTEX
  5
857
  8
MIRADOR
 10
1088590.3290474201
 20
700849.77649362793
 30
0.0
  0
VERTEX
  5
858
  8
MIRADOR
 10
1088641.44430195
 20
700852.37356048427
 30
0.0
  0
VERTEX
  5
859
  8
MIRADOR
 10
1088667.971349855
 20
700813.17635511525
 30
0.0
  0
VERTEX
  5
85A
  8
MIRADOR
 10
1088673.467197611
 20
700796.98105259216
 30
0.0
  0
VERTEX
  5
85B
  8
MIRADOR
 10
1088652.090385322
 20
700775.99724971608
 30
0.0
  0
VERTEX
  5
85C
  8
MIRADOR
 10
1088620.116240466
 20
700769.01864001097
 30
0.0
  0
VERTEX
  5
85D
  8
MIRADOR
 10
1088595.1912594549
 20
700798.30359334475
 30
0.0
  0
VERTEX
  5
85E
  8
MIRADOR
 10
1088568.036402202
 20
700811.75013776356
 30
0.0
  0
VERTEX
  5
85F
  8
MIRADOR
 10
1088555.2004135221
 20
700813.54640825919
 30
0.0
  0
SEQEND
  5
860
  8
MIRADOR
  0
POLYLINE
  5
90
  8
MIRADOR
 66
     1
 10
0.0
 20
0.0
 30
0.0
 70
     1
1001
DCO15
1071
        4
1071
        3
1000
lotenos--cerámica
1004
0756475F32333300
1071
        2
1000
lotes--períodos
1004
0756475F32333300
1071
        1
1000
lotes--cerámica
1004
0756475F32333300
  0
VERTEX
  5
861
  8
MIRADOR
 10
1088417.9754111851
 20
700787.70951237157
 30
0.0
  0
VERTEX
  5
862
  8
MIRADOR
 10
1088455.105575813
 20
700772.37697127031
 30
0.0
  0
VERTEX
  5
863
  8
MIRADOR
 10
1088456.09569762
 20
700726.87152166886
 30
0.0
  0
VERTEX
  5
864
  8
MIRADOR
 10
1088430.8166758399
 20
700692.96879226959
 30
0.0
  0
VERTEX
  5
865
  8
MIRADOR
 10
1088393.2219552239
 20
700686.31089276145
 30
0.0
  0
VERTEX
  5
866
  8
MIRADOR
 10
1088366.9833194539
 20
700754.07389483065
 30
0.0
  0
SEQEND
  5
867
  8
MIRADOR
  0
POLYLINE
  5
91
  8
MIRADOR
 66
     1
 10
0.0
 20
0.0
 30
0.0
 70
     1
1001
DCO15
1071
        4
1071
        3
1000
lotenos--cerámica
1004
0756475F32323900
1071
        2
1000
lotes--períodos
1004
0756475F32323900
1071
        1
1000
lotes--cerámica
1004
0756475F32323900
  0
VERTEX
  5
868
  8
MIRADOR
 10
1088305.4466893841
 20
700629.62557518401
 30
0.0
  0
VERTEX
  5
869
  8
MIRADOR
 10
1088268.316520117
 20
700603.90425656794
 30
0.0
  0
VERTEX
  5
86A
  8
MIRADOR
 10
1088279.096991512
 20
700576.20265798725
 30
0.0
  0
VERTEX
  5
86B
  8
MIRADOR
 10
1088298.4263707949
 20
700563.24451045645
 30
0.0
  0
VERTEX
  5
86C
  8
MIRADOR
 10
1088339.730270246
 20
700556.53441587323
 30
0.0
  0
VERTEX
  5
86D
  8
MIRADOR
 10
1088370.7311856539
 20
700558.71796845994
 30
0.0
  0
VERTEX
  5
86E
  8
MIRADOR
 10
1088386.097581526
 20
700599.30933865777
 30
0.0
  0
VERTEX
  5
86F
  8
MIRADOR
 10
1088364.0986123499
 20
700631.87419924024
 30
0.0
  0
VERTEX
  5
870
  8
MIRADOR
 10
1088335.7728877319
 20
700622.25297230505
 30
0.0
  0
SEQEND
  5
871
  8
MIRADOR
  0
POLYLINE
  5
92
  8
MIRADOR
 66
     1
 10
0.0
 20
0.0
 30
0.0
 70
     1
1001
DCO15
1071
        4
1071
        3
1000
lotenos--cerámica
1004
0756475F36323600
1071
        2
1000
lotes--períodos
1004
0756475F36323600
1071
        1
1000
lotes--cerámica
1004
0756475F36323600
  0
VERTEX
  5
872
  8
MIRADOR
 10
1088701.541237572
 20
700007.50031443662
 30
0.0
  0
VERTEX
  5
873
  8
MIRADOR
 10
1088712.019925226
 20
700009.25115802966
 30
0.0
  0
VERTEX
  5
874
  8
MIRADOR
 10
1088755.3135422219
 20
700012.42816408037
 30
0.0
  0
VERTEX
  5
875
  8
MIRADOR
 10
1088771.0852843439
 20
700039.23661422695
 30
0.0
  0
VERTEX
  5
876
  8
MIRADOR
 10
1088784.234291543
 20
700063.78359254892
 30
0.0
  0
VERTEX
  5
877
  8
MIRADOR
 10
1088778.9001321639
 20
700094.56241813279
 30
0.0
  0
VERTEX
  5
878
  8
MIRADOR
 10
1088713.1017722031
 20
700093.17503413535
 30
0.0
  0
VERTEX
  5
879
  8
MIRADOR
 10
1088682.9607068649
 20
700084.23402864113
 30
0.0
  0
SEQEND
  5
87A
  8
MIRADOR
  0
POLYLINE
  5
93
  8
MIRADOR
 66
     1
 10
0.0
 20
0.0
 30
0.0
 70
     1
1001
DCO15
1071
        4
1071
        3
1000
lotenos--cerámica
1004
0756475F37383500
1071
        2
1000
lotes--períodos
1004
0756475F37383500
1071
        1
1000
lotes--cerámica
1004
0756475F37383500
  0
VERTEX
  5
87B
  8
MIRADOR
 10
1089458.5980508409
 20
701041.76225079526
 30
0.0
  0
VERTEX
  5
87C
  8
MIRADOR
 10
1089440.7603864649
 20
700968.17570449703
 30
0.0
  0
VERTEX
  5
87D
  8
MIRADOR
 10
1089365.150789588
 20
700962.94678146765
 30
0.0
  0
VERTEX
  5
87E
  8
MIRADOR
 10
1089346.3607017079
 20
701003.98485790403
 30
0.0
  0
VERTEX
  5
87F
  8
MIRADOR
 10
1089365.957352364
 20
701059.00695808965
 30
0.0
  0
SEQEND
  5
880
  8
MIRADOR
  0
POLYLINE
  5
94
  8
MIRADOR
 66
     1
 10
0.0
 20
0.0
 30
0.0
 70
   129
1001
DCO15
1071
        4
1071
        3
1000
lotenos--cerámica
1004
07545A5F32323200
1071
        2
1000
lotes--períodos
1004
07545A5F32323200
1071
        1
1000
lotes--cerámica
1004
07545A5F32323200
  0
VERTEX
  5
881
  8
MIRADOR
 10
1090650.0406079639
 20
695953.40552699415
 30
0.0
  0
VERTEX
  5
882
  8
MIRADOR
 10
1090627.0115466029
 20
695937.28444112325
 30
0.0
  0
VERTEX
  5
883
  8
MIRADOR
 10
1090622.21686371
 20
695906.89531151962
 30
0.0
  0
VERTEX
  5
884
  8
MIRADOR
 10
1090632.259491052
 20
695872.24257780565
 30
0.0
  0
VERTEX
  5
885
  8
MIRADOR
 10
1090638.0481381861
 20
695856.24024737184
 30
0.0
  0
VERTEX
  5
886
  8
MIRADOR
 10
1090663.8502710089
 20
695871.77614074561
 30
0.0
  0
VERTEX
  5
887
  8
MIRADOR
 10
1090681.2287307531
 20
695929.08671068505
 30
0.0
  0
VERTEX
  5
888
  8
MIRADOR
 10
1090671.064013049
 20
695948.42841102777
 30
0.0
  0
SEQEND
  5
889
  8
MIRADOR
  0
POLYLINE
  5
95
  8
MIRADOR
 66
     1
 10
0.0
 20
0.0
 30
0.0
 70
     1
1001
DCO15
1071
        4
1071
        3
1000
lotenos--cerámica
1004
0743415F3237353000
1071
        2
1000
lotes--períodos
1004
0743415F3237353000
1071
        1
1000
lotes--cerámica
1004
0743415F3237353000
  0
VERTEX
  5
88A
  8
MIRADOR
 10
1089603.4713988069
 20
707333.09827567171
 30
0.0
  0
VERTEX
  5
88B
  8
MIRADOR
 10
1089637.3624267981
 20
707338.98580358946
 30
0.0
  0
VERTEX
  5
88C
  8
MIRADOR
 10
1089678.7049188351
 20
707325.46301674249
 30
0.0
  0
VERTEX
  5
88D
  8
MIRADOR
 10
1089686.3057305501
 20
707303.29464460071
 30
0.0
  0
VERTEX
  5
88E
  8
MIRADOR
 10
1089658.4348130811
 20
707280.90364286467
 30
0.0
  0
VERTEX
  5
88F
  8
MIRADOR
 10
1089615.192869382
 20
707278.93291146308
 30
0.0
  0
VERTEX
  5
890
  8
MIRADOR
 10
1089583.691741542
 20
707288.71509156609
 30
0.0
  0
VERTEX
  5
891
  8
MIRADOR
 10
1089586.3541061541
 20
707318.69735203404
 30
0.0
  0
VERTEX
  5
892
  8
MIRADOR
 10
1089595.6519412871
 20
707330.69321572396
 30
0.0
  0
SEQEND
  5
893
  8
MIRADOR
  0
POLYLINE
  5
96
  8
MIRADOR
 66
     1
 10
0.0
 20
0.0
 30
0.0
 70
     1
1001
DCO15
1071
        4
1071
        3
1000
lotenos--cerámica
1004
0743415F31343900
1071
        2
1000
lotes--períodos
1004
0743415F31343900
1071
        1
1000
lotes--cerámica
1004
0743415F31343900
  0
VERTEX
  5
894
  8
MIRADOR
 10
1092052.092561679
 20
702690.4571329474
 30
0.0
  0
VERTEX
  5
895
  8
MIRADOR
 10
1092029.990114352
 20
702685.55057638383
 30
0.0
  0
VERTEX
  5
896
  8
MIRADOR
 10
1092010.1295397121
 20
702678.95734345331
 30
0.0
  0
VERTEX
  5
897
  8
MIRADOR
 10
1092000.605568279
 20
702669.95279955282
 30
0.0
  0
VERTEX
  5
898
  8
MIRADOR
 10
1092000.202598758
 20
702650.09453563602
 30
0.0
  0
VERTEX
  5
899
  8
MIRADOR
 10
1092007.972446559
 20
702628.15560847032
 30
0.0
  0
VERTEX
  5
89A
  8
MIRADOR
 10
1092041.101126136
 20
702620.58848862746
 30
0.0
  0
VERTEX
  5
89B
  8
MIRADOR
 10
1092055.561269138
 20
702629.04985181079
 30
0.0
  0
VERTEX
  5
89C
  8
MIRADOR
 10
1092065.269574892
 20
702639.67624368705
 30
0.0
  0
VERTEX
  5
89D
  8
MIRADOR
 10
1092068.242614341
 20
702642.97651941667
 30
0.0
  0
VERTEX
  5
89E
  8
MIRADOR
 10
1092074.706789322
 20
702644.69310781872
 30
0.0
  0
SEQEND
  5
89F
  8
MIRADOR
  0
POLYLINE
  5
97
  8
MIRADOR
 66
     1
 10
0.0
 20
0.0
 30
0.0
 70
     1
1001
DCO15
1071
        4
1071
        3
1000
lotenos--cerámica
1004
07545A5F31373900
1071
        2
1000
lotes--períodos
1004
07545A5F31373900
1071
        1
1000
lotes--cerámica
1004
07545A5F31373900
  0
VERTEX
  5
8A0
  8
MIRADOR
 10
1093103.4957296071
 20
696976.15199682163
 30
0.0
  0
VERTEX
  5
8A1
  8
MIRADOR
 10
1093127.048988315
 20
696968.19161971589
 30
0.0
  0
VERTEX
  5
8A2
  8
MIRADOR
 10
1093139.505803484
 20
696942.395826853
 30
0.0
  0
VERTEX
  5
8A3
  8
MIRADOR
 10
1093159.6035118231
 20
696928.47687527491
 30
0.0
  0
VERTEX
  5
8A4
  8
MIRADOR
 10
1093171.55458216
 20
696918.93458584137
 30
0.0
  0
VERTEX
  5
8A5
  8
MIRADOR
 10
1093186.490149311
 20
696907.18468904379
 30
0.0
  0
VERTEX
  5
8A6
  8
MIRADOR
 10
1093173.2846061031
 20
696861.11520851892
 30
0.0
  0
VERTEX
  5
8A7
  8
MIRADOR
 10
1093134.7929142511
 20
696883.11730713327
 30
0.0
  0
VERTEX
  5
8A8
  8
MIRADOR
 10
1093097.824363698
 20
696927.30610067875
 30
0.0
  0
SEQEND
  5
8A9
  8
MIRADOR
  0
POLYLINE
  5
98
  8
MIRADOR
 66
     1
 10
0.0
 20
0.0
 30
0.0
 70
     1
1001
DCO15
1071
        4
1071
        3
1000
lotenos--cerámica
1004
0743415F3232313100
1071
        2
1000
lotes--períodos
1004
0743415F3232313100
1071
        1
1000
lotes--cerámica
1004
0743415F3232313100
  0
VERTEX
  5
8AA
  8
MIRADOR
 10
1093120.079978392
 20
700314.09684645745
 30
0.0
  0
VERTEX
  5
8AB
  8
MIRADOR
 10
1093123.729996043
 20
700339.13726754719
 30
0.0
  0
VERTEX
  5
8AC
  8
MIRADOR
 10
1093177.9955329581
 20
700353.94315576658
 30
0.0
  0
VERTEX
  5
8AD
  8
MIRADOR
 10
1093200.789699862
 20
700319.14678932726
 30
0.0
  0
VERTEX
  5
8AE
  8
MIRADOR
 10
1093194.637586263
 20
700304.8602281271
 30
0.0
  0
SEQEND
  5
8AF
  8
MIRADOR
  0
POLYLINE
  5
99
  8
MIRADOR
 66
     1
 10
0.0
 20
0.0
 30
0.0
 70
     1
1001
DCO15
1071
        4
1071
        3
1000
lotenos--cerámica
1004
0743415F3232313000
1071
        2
1000
lotes--períodos
1004
0743415F3232313000
1071
        1
1000
lotes--cerámica
1004
0743415F3232313000
  0
VERTEX
  5
8B0
  8
MIRADOR
 10
1093119.549613938
 20
700312.93225634727
 30
0.0
  0
VERTEX
  5
8B1
  8
MIRADOR
 10
1093119.549613938
 20
700312.93225634727
 30
0.0
  0
VERTEX
  5
8B2
  8
MIRADOR
 10
1093194.436004861
 20
700304.17374367465
 30
0.0
  0
VERTEX
  5
8B3
  8
MIRADOR
 10
1093184.424718058
 20
700267.74253039388
 30
0.0
  0
VERTEX
  5
8B4
  8
MIRADOR
 10
1093170.9474704179
 20
700244.76580490824
 30
0.0
  0
VERTEX
  5
8B5
  8
MIRADOR
 10
1093153.4330117379
 20
700240.86912422022
 30
0.0
  0
VERTEX
  5
8B6
  8
MIRADOR
 10
1093118.5155699661
 20
700252.36317149247
 30
0.0
  0
VERTEX
  5
8B7
  8
MIRADOR
 10
1093109.9515200539
 20
700265.79323876975
 30
0.0
  0
VERTEX
  5
8B8
  8
MIRADOR
 10
1093110.5376245179
 20
700283.54169751017
 30
0.0
  0
SEQEND
  5
8B9
  8
MIRADOR
  0
POLYLINE
  5
9A
  8
MIRADOR
 66
     1
 10
0.0
 20
0.0
 30
0.0
 70
     1
1001
DCO15
1071
        4
1071
        3
1000
lotenos--cerámica
1004
0743415F363400
1071
        2
1000
lotes--períodos
1004
0743415F363400
1071
        1
1000
lotes--cerámica
1004
0743415F363400
  0
VERTEX
  5
8BA
  8
MIRADOR
 10
1093066.3839218169
 20
704005.63885259128
 30
0.0
  0
VERTEX
  5
8BB
  8
MIRADOR
 10
1093047.091361728
 20
704048.01945955073
 30
0.0
  0
VERTEX
  5
8BC
  8
MIRADOR
 10
1093041.948235264
 20
704068.35590650875
 30
0.0
  0
VERTEX
  5
8BD
  8
MIRADOR
 10
1093045.2377002421
 20
704088.69285657024
 30
0.0
  0
VERTEX
  5
8BE
  8
MIRADOR
 10
1093055.2868512019
 20
704097.02904223965
 30
0.0
  0
VERTEX
  5
8BF
  8
MIRADOR
 10
1093070.137062398
 20
704095.13907206815
 30
0.0
  0
VERTEX
  5
8C0
  8
MIRADOR
 10
1093093.5985872659
 20
704085.91065132699
 30
0.0
  0
VERTEX
  5
8C1
  8
MIRADOR
 10
1093121.281277016
 20
704081.24425559363
 30
0.0
  0
VERTEX
  5
8C2
  8
MIRADOR
 10
1093131.6105989099
 20
704074.85097398655
 30
0.0
  0
SEQEND
  5
8C3
  8
MIRADOR
  0
POLYLINE
  5
9B
  8
MIRADOR
 66
     1
 10
0.0
 20
0.0
 30
0.0
 70
     1
1001
DCO15
1071
        4
1071
        3
1000
lotenos--cerámica
1004
0743415F353700
1071
        2
1000
lotes--períodos
1004
0743415F353700
1071
        1
1000
lotes--cerámica
1004
0743415F353700
  0
VERTEX
  5
8C4
  8
MIRADOR
 10
1093104.3508041259
 20
703891.56863182399
 30
0.0
  0
VERTEX
  5
8C5
  8
MIRADOR
 10
1093114.929768726
 20
703912.09029927454
 30
0.0
  0
VERTEX
  5
8C6
  8
MIRADOR
 10
1093128.9919731091
 20
703926.09216643311
 30
0.0
  0
VERTEX
  5
8C7
  8
MIRADOR
 10
1093154.8018735601
 20
703936.66784153611
 30
0.0
  0
VERTEX
  5
8C8
  8
MIRADOR
 10
1093131.4255072339
 20
703975.79777318018
 30
0.0
  0
VERTEX
  5
8C9
  8
MIRADOR
 10
1093075.0196134211
 20
703990.5323099955
 30
0.0
  0
VERTEX
  5
8CA
  8
MIRADOR
 10
1093062.357343338
 20
703966.41066916659
 30
0.0
  0
SEQEND
  5
8CB
  8
MIRADOR
  0
POLYLINE
  5
9C
  8
MIRADOR
 66
     1
 10
0.0
 20
0.0
 30
0.0
 70
     1
1001
DCO15
1071
        4
1071
        3
1000
lotenos--cerámica
1004
0743415F3231393200
1071
        2
1000
lotes--períodos
1004
0743415F3231393200
1071
        1
1000
lotes--cerámica
1004
0743415F3231393200
  0
VERTEX
  5
8CC
  8
MIRADOR
 10
1094303.2469788331
 20
700060.17396943155
 30
0.0
  0
VERTEX
  5
8CD
  8
MIRADOR
 10
1094343.7634227739
 20
700069.67543570255
 30
0.0
  0
VERTEX
  5
8CE
  8
MIRADOR
 10
1094354.926103215
 20
700003.58456370665
 30
0.0
  0
VERTEX
  5
8CF
  8
MIRADOR
 10
1094330.5335869631
 20
699989.53968129575
 30
0.0
  0
SEQEND
  5
8D0
  8
MIRADOR
  0
POLYLINE
  5
9D
  8
MIRADOR
 66
     1
 10
0.0
 20
0.0
 30
0.0
 70
     1
1001
DCO15
1071
        4
1071
        3
1000
lotenos--cerámica
1004
0743415F3231393100
1071
        2
1000
lotes--períodos
1004
0743415F3231393100
1071
        1
1000
lotes--cerámica
1004
0743415F3231393100
  0
VERTEX
  5
8D1
  8
MIRADOR
 10
1094345.6944432389
 20
700069.31815241952
 30
0.0
  0
VERTEX
  5
8D2
  8
MIRADOR
 10
1094362.07917852
 20
700074.48161015427
 30
0.0
  0
VERTEX
  5
8D3
  8
MIRADOR
 10
1094378.6496463921
 20
700083.28333953512
 30
0.0
  0
VERTEX
  5
8D4
  8
MIRADOR
 10
1094387.8948977769
 20
700024.93656588637
 30
0.0
  0
VERTEX
  5
8D5
  8
MIRADOR
 10
1094382.3466101461
 20
700015.51119392994
 30
0.0
  0
VERTEX
  5
8D6
  8
MIRADOR
 10
1094357.049878757
 20
700002.35427683964
 30
0.0
  0
SEQEND
  5
8D7
  8
MIRADOR
  0
POLYLINE
  5
9E
  8
MIRADOR
 66
     1
 10
0.0
 20
0.0
 30
0.0
 70
     1
1001
DCO15
1071
        4
1071
        3
1000
lotenos--cerámica
1004
07545A5F31353100
1071
        2
1000
lotes--períodos
1004
07545A5F31353100
1071
        1
1000
lotes--cerámica
1004
07545A5F31353100
  0
VERTEX
  5
8D8
  8
MIRADOR
 10
1093559.996577064
 20
697196.16925106931
 30
0.0
  0
VERTEX
  5
8D9
  8
MIRADOR
 10
1093518.4655423041
 20
697172.02542222594
 30
0.0
  0
VERTEX
  5
8DA
  8
MIRADOR
 10
1093488.4006103829
 20
697149.32584819559
 30
0.0
  0
VERTEX
  5
8DB
  8
MIRADOR
 10
1093478.497933496
 20
697117.32939416997
 30
0.0
  0
VERTEX
  5
8DC
  8
MIRADOR
 10
1093483.163417096
 20
697086.8828273426
 30
0.0
  0
VERTEX
  5
8DD
  8
MIRADOR
 10
1093525.1895152021
 20
697082.35226602585
 30
0.0
  0
VERTEX
  5
8DE
  8
MIRADOR
 10
1093555.9213217469
 20
697083.18367484794
 30
0.0
  0
VERTEX
  5
8DF
  8
MIRADOR
 10
1093576.5745787669
 20
697081.21768752055
 30
0.0
  0
SEQEND
  5
8E0
  8
MIRADOR
  0
POLYLINE
  5
9F
  8
MIRADOR
 66
     1
 10
0.0
 20
0.0
 30
0.0
 70
     1
1001
DCO15
1071
        4
1071
        3
1000
lotenos--cerámica
1004
0743415F3231393600
1071
        2
1000
lotes--períodos
1004
0743415F3231393600
1071
        1
1000
lotes--cerámica
1004
0743415F3231393600
  0
VERTEX
  5
8E1
  8
MIRADOR
 10
1094214.3654910389
 20
699944.33014259359
 30
0.0
  0
VERTEX
  5
8E2
  8
MIRADOR
 10
1094227.0662602191
 20
699914.75882762577
 30
0.0
  0
VERTEX
  5
8E3
  8
MIRADOR
 10
1094200.8957098729
 20
699920.85420289368
 30
0.0
  0
VERTEX
  5
8E4
  8
MIRADOR
 10
1094182.6311135481
 20
699931.72224449995
 30
0.0
  0
VERTEX
  5
8E5
  8
MIRADOR
 10
1094175.167847533
 20
699955.25987076527
 30
0.0
  0
VERTEX
  5
8E6
  8
MIRADOR
 10
1094177.640924447
 20
699971.09986865823
 30
0.0
  0
VERTEX
  5
8E7
  8
MIRADOR
 10
1094186.0784502691
 20
699982.18488489441
 30
0.0
  0
SEQEND
  5
8E8
  8
MIRADOR
  0
POLYLINE
  5
A0
  8
MIRADOR
 66
     1
 10
0.0
 20
0.0
 30
0.0
 70
     1
1001
DCO15
1071
        4
1071
        3
1000
lotenos--cerámica
1004
0743415F3231393500
1071
        2
1000
lotes--períodos
1004
0743415F3231393500
1071
        1
1000
lotes--cerámica
1004
0743415F3231393500
  0
VERTEX
  5
8E9
  8
MIRADOR
 10
1094187.899084894
 20
699982.92756352562
 30
0.0
  0
VERTEX
  5
8EA
  8
MIRADOR
 10
1094253.22155406
 20
700032.49727523071
 30
0.0
  0
VERTEX
  5
8EB
  8
MIRADOR
 10
1094271.826068887
 20
699992.42991321348
 30
0.0
  0
VERTEX
  5
8EC
  8
MIRADOR
 10
1094213.531925251
 20
699948.64332922106
 30
0.0
  0
SEQEND
  5
8ED
  8
MIRADOR
  0
POLYLINE
  5
A1
  8
MIRADOR
 66
     1
 10
0.0
 20
0.0
 30
0.0
 70
     1
1001
DCO15
1071
        4
1071
        3
1000
lotenos--cerámica
1004
0743415F3231393400
1071
        2
1000
lotes--períodos
1004
0743415F3231393400
1071
        1
1000
lotes--cerámica
1004
0743415F3231393400
  0
VERTEX
  5
8EE
  8
MIRADOR
 10
1094214.789688345
 20
699947.33505247952
 30
0.0
  0
VERTEX
  5
8EF
  8
MIRADOR
 10
1094229.2424086621
 20
699914.77198251802
 30
0.0
  0
VERTEX
  5
8F0
  8
MIRADOR
 10
1094239.7297983509
 20
699920.46337621973
 30
0.0
  0
VERTEX
  5
8F1
  8
MIRADOR
 10
1094251.176064278
 20
699930.17923289421
 30
0.0
  0
VERTEX
  5
8F2
  8
MIRADOR
 10
1094268.709118377
 20
699949.14918824215
 30
0.0
  0
VERTEX
  5
8F3
  8
MIRADOR
 10
1094283.018820449
 20
699960.57441545255
 30
0.0
  0
VERTEX
  5
8F4
  8
MIRADOR
 10
1094288.3633722209
 20
699962.27621565189
 30
0.0
  0
VERTEX
  5
8F5
  8
MIRADOR
 10
1094273.066330761
 20
699990.3645922984
 30
0.0
  0
SEQEND
  5
8F6
  8
MIRADOR
  0
POLYLINE
  5
A2
  8
MIRADOR
 66
     1
 10
0.0
 20
0.0
 30
0.0
 70
     1
1001
DCO15
1071
        5
1071
        3
1000
lotenos--cerámica
1004
0743415F3232313700
1071
        2
1000
lotes--períodos
1004
0743415F3232313700
1071
        1
1000
lotes--cerámica
1004
0743415F3232313700
  0
VERTEX
  5
8F7
  8
MIRADOR
 10
1093441.7546259561
 20
700072.65741051442
 30
0.0
  0
VERTEX
  5
8F8
  8
MIRADOR
 10
1093419.072657801
 20
700110.81826518592
 30
0.0
  0
VERTEX
  5
8F9
  8
MIRADOR
 10
1093402.011380292
 20
700115.15861249925
 30
0.0
  0
VERTEX
  5
8FA
  8
MIRADOR
 10
1093387.786857578
 20
700108.69733099488
 30
0.0
  0
VERTEX
  5
8FB
  8
MIRADOR
 10
1093372.8690581371
 20
700086.62096404622
 30
0.0
  0
VERTEX
  5
8FC
  8
MIRADOR
 10
1093345.717937853
 20
700047.15810376848
 30
0.0
  0
VERTEX
  5
8FD
  8
MIRADOR
 10
1093338.814382975
 20
700024.84986920818
 30
0.0
  0
VERTEX
  5
8FE
  8
MIRADOR
 10
1093370.2752900701
 20
700017.39351765276
 30
0.0
  0
VERTEX
  5
8FF
  8
MIRADOR
 10
1093391.6218682069
 20
700024.59630265494
 30
0.0
  0
VERTEX
  5
900
  8
MIRADOR
 10
1093406.679516163
 20
700022.94121074828
 30
0.0
  0
SEQEND
  5
901
  8
MIRADOR
  0
POLYLINE
  5
A3
  8
MIRADOR
 66
     1
 10
0.0
 20
0.0
 30
0.0
 70
     1
1001
DCO15
1071
        4
1071
        3
1000
lotenos--cerámica
1004
0743415F3231393900
1071
        2
1000
lotes--períodos
1004
0743415F3231393900
1071
        1
1000
lotes--cerámica
1004
0743415F3231393900
  0
VERTEX
  5
902
  8
MIRADOR
 10
1093629.5236716659
 20
700198.73352089361
 30
0.0
  0
VERTEX
  5
903
  8
MIRADOR
 10
1093688.1755401669
 20
700165.41884998465
 30
0.0
  0
VERTEX
  5
904
  8
MIRADOR
 10
1093694.6863416361
 20
700188.89145212073
 30
0.0
  0
VERTEX
  5
905
  8
MIRADOR
 10
1093689.9437687639
 20
700206.95037592808
 30
0.0
  0
VERTEX
  5
906
  8
MIRADOR
 10
1093683.2908559979
 20
700240.85786476952
 30
0.0
  0
VERTEX
  5
907
  8
MIRADOR
 10
1093670.8014403831
 20
700251.45944822975
 30
0.0
  0
VERTEX
  5
908
  8
MIRADOR
 10
1093659.1657461701
 20
700256.38998843252
 30
0.0
  0
VERTEX
  5
909
  8
MIRADOR
 10
1093643.383646081
 20
700256.42515995842
 30
0.0
  0
VERTEX
  5
90A
  8
MIRADOR
 10
1093620.8413387239
 20
700249.71496664826
 30
0.0
  0
VERTEX
  5
90B
  8
MIRADOR
 10
1093606.8965041309
 20
700240.37788367609
 30
0.0
  0
VERTEX
  5
90C
  8
MIRADOR
 10
1093629.5236716659
 20
700198.73352089361
 30
0.0
  0
SEQEND
  5
90D
  8
MIRADOR
  0
POLYLINE
  5
A4
  8
MIRADOR
 66
     1
 10
0.0
 20
0.0
 30
0.0
 70
     1
1001
DCO15
1071
        4
1071
        3
1000
lotenos--cerámica
1004
0743415F3231393800
1071
        2
1000
lotes--períodos
1004
0743415F3231393800
1071
        1
1000
lotes--cerámica
1004
0743415F3231393800
  0
VERTEX
  5
90E
  8
MIRADOR
 10
1093631.310021817
 20
700194.86652843072
 30
0.0
  0
VERTEX
  5
90F
  8
MIRADOR
 10
1093688.11016307
 20
700163.48284362524
 30
0.0
  0
VERTEX
  5
910
  8
MIRADOR
 10
1093679.164415899
 20
700141.90526314802
 30
0.0
  0
VERTEX
  5
911
  8
MIRADOR
 10
1093663.599331094
 20
700126.78054575203
 30
0.0
  0
VERTEX
  5
912
  8
MIRADOR
 10
1093634.349574998
 20
700112.93661846896
 30
0.0
  0
VERTEX
  5
913
  8
MIRADOR
 10
1093605.263338476
 20
700107.28014031146
 30
0.0
  0
VERTEX
  5
914
  8
MIRADOR
 10
1093587.4865707329
 20
700106.34099824179
 30
0.0
  0
VERTEX
  5
915
  8
MIRADOR
 10
1093569.5980185701
 20
700113.57107509614
 30
0.0
  0
VERTEX
  5
916
  8
MIRADOR
 10
1093556.283235871
 20
700126.15087731357
 30
0.0
  0
SEQEND
  5
917
  8
MIRADOR
  0
POLYLINE
  5
A5
  8
MIRADOR
 66
     1
 10
0.0
 20
0.0
 30
0.0
 70
     1
1001
DCO15
1071
        4
1071
        3
1000
lotenos--cerámica
1004
0743415F3231393700
1071
        2
1000
lotes--períodos
1004
0743415F3231393700
1071
        1
1000
lotes--cerámica
1004
0743415F3231393700
  0
VERTEX
  5
918
  8
MIRADOR
 10
1093605.3110848051
 20
700239.26785940025
 30
0.0
  0
VERTEX
  5
919
  8
MIRADOR
 10
1093566.106101098
 20
700206.21748408291
 30
0.0
  0
VERTEX
  5
91A
  8
MIRADOR
 10
1093543.0374106539
 20
700190.73783293809
 30
0.0
  0
VERTEX
  5
91B
  8
MIRADOR
 10
1093531.7447295741
 20
700161.46609050711
 30
0.0
  0
VERTEX
  5
91C
  8
MIRADOR
 10
1093536.09048119
 20
700151.39730588533
 30
0.0
  0
VERTEX
  5
91D
  8
MIRADOR
 10
1093547.2494962469
 20
700138.66577063967
 30
0.0
  0
VERTEX
  5
91E
  8
MIRADOR
 10
1093553.060664396
 20
700128.583452438
 30
0.0
  0
VERTEX
  5
91F
  8
MIRADOR
 10
1093554.8099347169
 20
700126.71003537194
 30
0.0
  0
VERTEX
  5
920
  8
MIRADOR
 10
1093629.6165361409
 20
700195.75074630859
 30
0.0
  0
SEQEND
  5
921
  8
MIRADOR
  0
POLYLINE
  5
A6
  8
MIRADOR
 66
     1
 10
0.0
 20
0.0
 30
0.0
 70
     1
1001
DCO15
1071
        4
1071
        3
1000
lotenos--cerámica
1004
0743415F3231383500
1071
        2
1000
lotes--períodos
1004
0743415F3231383500
1071
        1
1000
lotes--cerámica
1004
0743415F3231383500
  0
VERTEX
  5
922
  8
MIRADOR
 10
1093408.220297483
 20
700020.37533274246
 30
0.0
  0
VERTEX
  5
923
  8
MIRADOR
 10
1093411.181585443
 20
700006.17490580794
 30
0.0
  0
VERTEX
  5
924
  8
MIRADOR
 10
1093432.220531736
 20
699967.00293902459
 30
0.0
  0
VERTEX
  5
925
  8
MIRADOR
 10
1093435.5898670121
 20
699958.07241751347
 30
0.0
  0
VERTEX
  5
926
  8
MIRADOR
 10
1093507.9467615851
 20
700019.70875935396
 30
0.0
  0
VERTEX
  5
927
  8
MIRADOR
 10
1093518.320988857
 20
700050.46990338888
 30
0.0
  0
VERTEX
  5
928
  8
MIRADOR
 10
1093500.249754101
 20
700086.24581935478
 30
0.0
  0
VERTEX
  5
929
  8
MIRADOR
 10
1093500.249754101
 20
700086.24581935478
 30
0.0
  0
VERTEX
  5
92A
  8
MIRADOR
 10
1093484.0067093831
 20
700075.13484517683
 30
0.0
  0
VERTEX
  5
92B
  8
MIRADOR
 10
1093461.204185653
 20
700072.79732482135
 30
0.0
  0
VERTEX
  5
92C
  8
MIRADOR
 10
1093452.406063057
 20
700072.90049742383
 30
0.0
  0
VERTEX
  5
92D
  8
MIRADOR
 10
1093445.3667221621
 20
700072.87034758565
 30
0.0
  0
SEQEND
  5
92E
  8
MIRADOR
  0
POLYLINE
  5
A7
  8
MIRADOR
 66
     1
 10
0.0
 20
0.0
 30
0.0
 70
     1
1001
DCO15
1071
        4
1071
        3
1000
lotenos--cerámica
1004
0743415F3231393000
1071
        2
1000
lotes--períodos
1004
0743415F3231393000
1071
        1
1000
lotes--cerámica
1004
0743415F3231393000
  0
VERTEX
  5
92F
  8
MIRADOR
 10
1094389.654549815
 20
700023.82567047887
 30
0.0
  0
VERTEX
  5
930
  8
MIRADOR
 10
1094404.260264887
 20
700028.56093228795
 30
0.0
  0
VERTEX
  5
931
  8
MIRADOR
 10
1094414.937223658
 20
700036.2176617746
 30
0.0
  0
VERTEX
  5
932
  8
MIRADOR
 10
1094423.8252091419
 20
700042.15544887504
 30
0.0
  0
VERTEX
  5
933
  8
MIRADOR
 10
1094428.692955941
 20
700051.03686225938
 30
0.0
  0
VERTEX
  5
934
  8
MIRADOR
 10
1094425.771492702
 20
700063.63945130806
 30
0.0
  0
VERTEX
  5
935
  8
MIRADOR
 10
1094419.91052165
 20
700071.98916694324
 30
0.0
  0
VERTEX
  5
936
  8
MIRADOR
 10
1094404.5684633481
 20
700084.43559717224
 30
0.0
  0
VERTEX
  5
937
  8
MIRADOR
 10
1094395.4479676569
 20
700088.8778549562
 30
0.0
  0
VERTEX
  5
938
  8
MIRADOR
 10
1094380.145573291
 20
700082.48134877137
 30
0.0
  0
SEQEND
  5
939
  8
MIRADOR
  0
POLYLINE
  5
A8
  8
MIRADOR
 66
     1
 10
0.0
 20
0.0
 30
0.0
 70
     1
1001
DCO15
1071
        4
1071
        3
1000
lotenos--cerámica
1004
0743415F3231383600
1071
        2
1000
lotes--períodos
1004
0743415F3231383600
1071
        1
1000
lotes--cerámica
1004
0743415F3231383600
  0
VERTEX
  5
93A
  8
MIRADOR
 10
1094619.2578641539
 20
699969.77905229456
 30
0.0
  0
VERTEX
  5
93B
  8
MIRADOR
 10
1094612.089176191
 20
699909.37603492138
 30
0.0
  0
VERTEX
  5
93C
  8
MIRADOR
 10
1094633.401916418
 20
699907.4331454226
 30
0.0
  0
VERTEX
  5
93D
  8
MIRADOR
 10
1094663.9274066919
 20
699915.71868261707
 30
0.0
  0
VERTEX
  5
93E
  8
MIRADOR
 10
1094663.9478601259
 20
699938.4535631293
 30
0.0
  0
VERTEX
  5
93F
  8
MIRADOR
 10
1094648.457351242
 20
699964.58038388356
 30
0.0
  0
VERTEX
  5
940
  8
MIRADOR
 10
1094630.703530855
 20
699974.4984101787
 30
0.0
  0
SEQEND
  5
941
  8
MIRADOR
  0
POLYLINE
  5
A9
  8
MIRADOR
 66
     1
 10
0.0
 20
0.0
 30
0.0
 70
     1
1001
DCO15
1071
        4
1071
        3
1000
lotenos--cerámica
1004
0743415F3130343100
1071
        2
1000
lotes--períodos
1004
0743415F3130343100
1071
        1
1000
lotes--cerámica
1004
0743415F3130343100
  0
VERTEX
  5
942
  8
MIRADOR
 10
1094561.72835238
 20
702520.42678320745
 30
0.0
  0
VERTEX
  5
943
  8
MIRADOR
 10
1094525.106775546
 20
702483.50091612549
 30
0.0
  0
VERTEX
  5
944
  8
MIRADOR
 10
1094514.0527746
 20
702477.41283898964
 30
0.0
  0
VERTEX
  5
945
  8
MIRADOR
 10
1094501.3606133091
 20
702472.99691202072
 30
0.0
  0
VERTEX
  5
946
  8
MIRADOR
 10
1094487.929367255
 20
702477.20773069293
 30
0.0
  0
VERTEX
  5
947
  8
MIRADOR
 10
1094472.5598268991
 20
702484.69008020381
 30
0.0
  0
VERTEX
  5
948
  8
MIRADOR
 10
1094459.953560289
 20
702494.8358488346
 30
0.0
  0
VERTEX
  5
949
  8
MIRADOR
 10
1094535.538744601
 20
702560.18900627177
 30
0.0
  0
SEQEND
  5
94A
  8
MIRADOR
  0
POLYLINE
  5
AA
  8
MIRADOR
 66
     1
 10
0.0
 20
0.0
 30
0.0
 70
     1
1001
DCO15
1071
        4
1071
        3
1000
lotenos--cerámica
1004
0743415F31393100
1071
        2
1000
lotes--períodos
1004
0743415F31393100
1071
        1
1000
lotes--cerámica
1004
0743415F31393100
  0
VERTEX
  5
94B
  8
MIRADOR
 10
1093426.1405547771
 20
705248.09773047315
 30
0.0
  0
VERTEX
  5
94C
  8
MIRADOR
 10
1093477.0440337211
 20
705240.9066025269
 30
0.0
  0
VERTEX
  5
94D
  8
MIRADOR
 10
1093501.4381372
 20
705243.89762477495
 30
0.0
  0
VERTEX
  5
94E
  8
MIRADOR
 10
1093528.532673836
 20
705243.62854862015
 30
0.0
  0
VERTEX
  5
94F
  8
MIRADOR
 10
1093535.2740599669
 20
705195.96337240573
 30
0.0
  0
VERTEX
  5
950
  8
MIRADOR
 10
1093509.345770739
 20
705160.21382736787
 30
0.0
  0
VERTEX
  5
951
  8
MIRADOR
 10
1093484.9828848371
 20
705171.73473815154
 30
0.0
  0
VERTEX
  5
952
  8
MIRADOR
 10
1093460.7295185861
 20
705178.80799178046
 30
0.0
  0
VERTEX
  5
953
  8
MIRADOR
 10
1093438.5676762669
 20
705188.23396460933
 30
0.0
  0
VERTEX
  5
954
  8
MIRADOR
 10
1093420.288664483
 20
705200.68586972076
 30
0.0
  0
VERTEX
  5
955
  8
MIRADOR
 10
1093406.2346742291
 20
705213.74905294657
 30
0.0
  0
SEQEND
  5
956
  8
MIRADOR
  0
POLYLINE
  5
AB
  8
MIRADOR
 66
     1
 10
0.0
 20
0.0
 30
0.0
 70
     1
1001
DCO15
1071
        4
1071
        3
1000
lotenos--cerámica
1004
0743415F31383700
1071
        2
1000
lotes--períodos
1004
0743415F31383700
1071
        1
1000
lotes--cerámica
1004
0743415F31383700
  0
VERTEX
  5
957
  8
MIRADOR
 10
1093644.8644951
 20
705080.39253613795
 30
0.0
  0
VERTEX
  5
958
  8
MIRADOR
 10
1093653.4195843651
 20
705116.74797818915
 30
0.0
  0
VERTEX
  5
959
  8
MIRADOR
 10
1093672.9021322059
 20
705137.58811795455
 30
0.0
  0
VERTEX
  5
95A
  8
MIRADOR
 10
1093705.947548538
 20
705155.79437863908
 30
0.0
  0
VERTEX
  5
95B
  8
MIRADOR
 10
1093712.063716863
 20
705145.55933797464
 30
0.0
  0
VERTEX
  5
95C
  8
MIRADOR
 10
1093712.459596622
 20
705119.01804863964
 30
0.0
  0
VERTEX
  5
95D
  8
MIRADOR
 10
1093700.2944814649
 20
705089.59107921959
 30
0.0
  0
VERTEX
  5
95E
  8
MIRADOR
 10
1093688.1790471501
 20
705076.24710052705
 30
0.0
  0
VERTEX
  5
95F
  8
MIRADOR
 10
1093676.337734791
 20
705063.96913647
 30
0.0
  0
SEQEND
  5
960
  8
MIRADOR
  0
POLYLINE
  5
AC
  8
MIRADOR
 66
     1
 10
0.0
 20
0.0
 30
0.0
 70
     1
1001
DCO15
1071
        4
1071
        3
1000
lotenos--cerámica
1004
0743415F31363000
1071
        2
1000
lotes--períodos
1004
0743415F31363000
1071
        1
1000
lotes--cerámica
1004
0743415F31363000
  0
VERTEX
  5
961
  8
MIRADOR
 10
1093829.6368496451
 20
705198.90817824367
 30
0.0
  0
VERTEX
  5
962
  8
MIRADOR
 10
1093841.2989568859
 20
705211.44719423936
 30
0.0
  0
VERTEX
  5
963
  8
MIRADOR
 10
1093855.2005733671
 20
705227.78903895302
 30
0.0
  0
VERTEX
  5
964
  8
MIRADOR
 10
1093867.9616026119
 20
705230.16379006719
 30
0.0
  0
VERTEX
  5
965
  8
MIRADOR
 10
1093885.5299404529
 20
705227.28559300548
 30
0.0
  0
VERTEX
  5
966
  8
MIRADOR
 10
1093897.1285338311
 20
705215.70299024356
 30
0.0
  0
VERTEX
  5
967
  8
MIRADOR
 10
1093902.7608250889
 20
705211.13895864435
 30
0.0
  0
SEQEND
  5
968
  8
MIRADOR
  0
POLYLINE
  5
AD
  8
MIRADOR
 66
     1
 10
0.0
 20
0.0
 30
0.0
 70
     1
1001
DCO15
1071
        4
1071
        3
1000
lotenos--cerámica
1004
0743415F31353800
1071
        2
1000
lotes--períodos
1004
0743415F31353800
1071
        1
1000
lotes--cerámica
1004
0743415F31353800
  0
VERTEX
  5
969
  8
MIRADOR
 10
1093830.5365593771
 20
705128.30867426842
 30
0.0
  0
VERTEX
  5
96A
  8
MIRADOR
 10
1093879.930257953
 20
705126.60661920579
 30
0.0
  0
VERTEX
  5
96B
  8
MIRADOR
 10
1093927.1339869809
 20
705177.5100994003
 30
0.0
  0
VERTEX
  5
96C
  8
MIRADOR
 10
1093916.8339965071
 20
705189.7699551119
 30
0.0
  0
VERTEX
  5
96D
  8
MIRADOR
 10
1093840.7218997469
 20
705160.04688311706
 30
0.0
  0
VERTEX
  5
96E
  8
MIRADOR
 10
1093838.8561656829
 20
705155.51527813077
 30
0.0
  0
VERTEX
  5
96F
  8
MIRADOR
 10
1093836.4225926751
 20
705145.39322903822
 30
0.0
  0
SEQEND
  5
970
  8
MIRADOR
  0
POLYLINE
  5
AE
  8
MIRADOR
 66
     1
 10
0.0
 20
0.0
 30
0.0
 70
     1
1001
DCO15
1071
        4
1071
        3
1000
lotenos--cerámica
1004
0743415F3130323100
1071
        2
1000
lotes--períodos
1004
0743415F3130323100
1071
        1
1000
lotes--cerámica
1004
0743415F3130323100
  0
VERTEX
  5
971
  8
MIRADOR
 10
1094931.3958720849
 20
704615.14942658716
 30
0.0
  0
VERTEX
  5
972
  8
MIRADOR
 10
1094920.7910534041
 20
704670.19845379435
 30
0.0
  0
VERTEX
  5
973
  8
MIRADOR
 10
1094933.1196167441
 20
704687.34319652698
 30
0.0
  0
VERTEX
  5
974
  8
MIRADOR
 10
1094952.3677623661
 20
704693.71897276561
 30
0.0
  0
VERTEX
  5
975
  8
MIRADOR
 10
1094970.946567738
 20
704686.91796046984
 30
0.0
  0
VERTEX
  5
976
  8
MIRADOR
 10
1094985.011881558
 20
704666.79864023766
 30
0.0
  0
VERTEX
  5
977
  8
MIRADOR
 10
1094994.8775972601
 20
704641.33888991014
 30
0.0
  0
VERTEX
  5
978
  8
MIRADOR
 10
1095001.242915719
 20
704614.32125266013
 30
0.0
  0
VERTEX
  5
979
  8
MIRADOR
 10
1095000.2045184721
 20
704609.4219686914
 30
0.0
  0
SEQEND
  5
97A
  8
MIRADOR
  0
POLYLINE
  5
AF
  8
MIRADOR
 66
     1
 10
0.0
 20
0.0
 30
0.0
 70
     1
1001
DCO15
1071
        4
1071
        3
1000
lotenos--cerámica
1004
0743415F36313200
1071
        2
1000
lotes--períodos
1004
0743415F36313200
1071
        1
1000
lotes--cerámica
1004
0743415F36313200
  0
VERTEX
  5
97B
  8
MIRADOR
 10
1094566.7749676141
 20
704434.83578468405
 30
0.0
  0
VERTEX
  5
97C
  8
MIRADOR
 10
1094559.5852634141
 20
704406.53950819105
 30
0.0
  0
VERTEX
  5
97D
  8
MIRADOR
 10
1094546.437746715
 20
704380.68529270892
 30
0.0
  0
VERTEX
  5
97E
  8
MIRADOR
 10
1094522.7972927999
 20
704356.87714858318
 30
0.0
  0
VERTEX
  5
97F
  8
MIRADOR
 10
1094481.0600891181
 20
704354.76858793327
 30
0.0
  0
VERTEX
  5
980
  8
MIRADOR
 10
1094469.7170203109
 20
704379.07516920345
 30
0.0
  0
VERTEX
  5
981
  8
MIRADOR
 10
1094472.032071549
 20
704387.52070092049
 30
0.0
  0
VERTEX
  5
982
  8
MIRADOR
 10
1094467.9306568371
 20
704412.79008871294
 30
0.0
  0
VERTEX
  5
983
  8
MIRADOR
 10
1094548.3177951991
 20
704463.04835932283
 30
0.0
  0
SEQEND
  5
984
  8
MIRADOR
  0
POLYLINE
  5
B0
  8
MIRADOR
 66
     1
 10
0.0
 20
0.0
 30
0.0
 70
     1
1001
DCO15
1071
        4
1071
        3
1000
lotenos--cerámica
1004
0743415F35383300
1071
        2
1000
lotes--períodos
1004
0743415F35383300
1071
        1
1000
lotes--cerámica
1004
0743415F35383300
  0
VERTEX
  5
985
  8
MIRADOR
 10
1094721.5512319021
 20
704947.14942271204
 30
0.0
  0
VERTEX
  5
986
  8
MIRADOR
 10
1094747.536585303
 20
704949.86167847202
 30
0.0
  0
VERTEX
  5
987
  8
MIRADOR
 10
1094767.0999560051
 20
704951.82290442125
 30
0.0
  0
VERTEX
  5
988
  8
MIRADOR
 10
1094792.660525912
 20
704925.49110414577
 30
0.0
  0
VERTEX
  5
989
  8
MIRADOR
 10
1094792.9647884921
 20
704895.38566951605
 30
0.0
  0
VERTEX
  5
98A
  8
MIRADOR
 10
1094781.9274267161
 20
704867.52007141395
 30
0.0
  0
VERTEX
  5
98B
  8
MIRADOR
 10
1094771.640953789
 20
704855.35359469219
 30
0.0
  0
VERTEX
  5
98C
  8
MIRADOR
 10
1094749.0929950201
 20
704854.86142973776
 30
0.0
  0
VERTEX
  5
98D
  8
MIRADOR
 10
1094723.2602921431
 20
704873.74129457015
 30
0.0
  0
VERTEX
  5
98E
  8
MIRADOR
 10
1094715.5967301079
 20
704874.39538298862
 30
0.0
  0
SEQEND
  5
98F
  8
MIRADOR
  0
POLYLINE
  5
B1
  8
MIRADOR
 66
     1
 10
0.0
 20
0.0
 30
0.0
 70
     1
1001
DCO15
1071
        4
1071
        3
1000
lotenos--cerámica
1004
0743415F35383100
1071
        2
1000
lotes--períodos
1004
0743415F35383100
1071
        1
1000
lotes--cerámica
1004
0743415F35383100
  0
VERTEX
  5
990
  8
MIRADOR
 10
1094889.597707913
 20
705086.09931203781
 30
0.0
  0
VERTEX
  5
991
  8
MIRADOR
 10
1094867.5602022661
 20
705128.66654102516
 30
0.0
  0
VERTEX
  5
992
  8
MIRADOR
 10
1094834.8063350981
 20
705122.24624882452
 30
0.0
  0
VERTEX
  5
993
  8
MIRADOR
 10
1094818.421819109
 20
705115.04655822809
 30
0.0
  0
VERTEX
  5
994
  8
MIRADOR
 10
1094808.625404502
 20
705108.18860422564
 30
0.0
  0
VERTEX
  5
995
  8
MIRADOR
 10
1094798.7519043621
 20
705085.51268856693
 30
0.0
  0
VERTEX
  5
996
  8
MIRADOR
 10
1094792.632521831
 20
705069.21699010942
 30
0.0
  0
VERTEX
  5
997
  8
MIRADOR
 10
1094830.8309553
 20
705050.86965696281
 30
0.0
  0
SEQEND
  5
998
  8
MIRADOR
  0
POLYLINE
  5
B2
  8
MIRADOR
 66
     1
 10
0.0
 20
0.0
 30
0.0
 70
     1
1001
DCO15
1071
        4
1071
        3
1000
lotenos--cerámica
1004
0743415F3234313200
1071
        2
1000
lotes--períodos
1004
0743415F3234313200
1071
        1
1000
lotes--cerámica
1004
0743415F3234313200
  0
VERTEX
  5
999
  8
MIRADOR
 10
1096008.44333682
 20
701373.87360241578
 30
0.0
  0
VERTEX
  5
99A
  8
MIRADOR
 10
1096011.006742469
 20
701364.18746238621
 30
0.0
  0
VERTEX
  5
99B
  8
MIRADOR
 10
1096023.5272665611
 20
701348.73573293048
 30
0.0
  0
VERTEX
  5
99C
  8
MIRADOR
 10
1096032.39106813
 20
701333.78132769116
 30
0.0
  0
VERTEX
  5
99D
  8
MIRADOR
 10
1096042.61537752
 20
701324.02329078037
 30
0.0
  0
VERTEX
  5
99E
  8
MIRADOR
 10
1096041.476649062
 20
701303.63094759826
 30
0.0
  0
VERTEX
  5
99F
  8
MIRADOR
 10
1096024.4649702271
 20
701289.38010480255
 30
0.0
  0
VERTEX
  5
9A0
  8
MIRADOR
 10
1095995.885170259
 20
701279.0920989461
 30
0.0
  0
VERTEX
  5
9A1
  8
MIRADOR
 10
1095984.9742658711
 20
701286.24850261293
 30
0.0
  0
VERTEX
  5
9A2
  8
MIRADOR
 10
1095961.4648602109
 20
701298.64210647438
 30
0.0
  0
VERTEX
  5
9A3
  8
MIRADOR
 10
1095949.2597299551
 20
701307.56307126395
 30
0.0
  0
VERTEX
  5
9A4
  8
MIRADOR
 10
1095949.2597299551
 20
701307.56307126395
 30
0.0
  0
VERTEX
  5
9A5
  8
MIRADOR
 10
1096008.44333682
 20
701373.87360241578
 30
0.0
  0
SEQEND
  5
9A6
  8
MIRADOR
  0
POLYLINE
  5
B3
  8
BOUNDARY
 66
     1
 10
0.0
 20
0.0
 30
0.0
 70
     1
  0
VERTEX
  5
9A7
  8
BOUNDARY
 10
1085315.2540117961
 20
708154.8409669057
 30
0.0
  0
VERTEX
  5
9A8
  8
BOUNDARY
 10
1085240.778645697
 20
708099.23284047109
 30
0.0
  0
VERTEX
  5
9A9
  8
BOUNDARY
 10
1085065.064286428
 20
708032.51734674466
 30
0.0
  0
VERTEX
  5
9AA
  8
BOUNDARY
 10
1084977.181323644
 20
707955.3541403081
 30
0.0
  0
VERTEX
  5
9AB
  8
BOUNDARY
 10
1084873.6748368051
 20
707859.89501677721
 30
0.0
  0
VERTEX
  5
9AC
  8
BOUNDARY
 10
1084795.3432333381
 20
707845.05616679555
 30
0.0
  0
VERTEX
  5
9AD
  8
BOUNDARY
 10
1084742.403810391
 20
707838.61315225926
 30
0.0
  0
VERTEX
  5
9AE
  8
BOUNDARY
 10
1084606.2893782819
 20
707808.6172540352
 30
0.0
  0
VERTEX
  5
9AF
  8
BOUNDARY
 10
1084393.183565255
 20
707693.80437094101
 30
0.0
  0
VERTEX
  5
9B0
  8
BOUNDARY
 10
1084179.5382681959
 20
707626.32071036205
 30
0.0
  0
VERTEX
  5
9B1
  8
BOUNDARY
 10
1083928.103596753
 20
707676.09276956762
 30
0.0
  0
VERTEX
  5
9B2
  8
BOUNDARY
 10
1083592.8170792509
 20
707663.43767744279
 30
0.0
  0
VERTEX
  5
9B3
  8
BOUNDARY
 10
1083400.593682522
 20
707531.27820653562
 30
0.0
  0
VERTEX
  5
9B4
  8
BOUNDARY
 10
1083192.284885512
 20
707407.92812325212
 30
0.0
  0
VERTEX
  5
9B5
  8
BOUNDARY
 10
1082906.1231563671
 20
707409.93540745543
 30
0.0
  0
VERTEX
  5
9B6
  8
BOUNDARY
 10
1082710.486144407
 20
707433.14287103305
 30
0.0
  0
VERTEX
  5
9B7
  8
BOUNDARY
 10
1082545.914945662
 20
707406.159792903
 30
0.0
  0
VERTEX
  5
9B8
  8
BOUNDARY
 10
1082434.1362293309
 20
707238.39888793416
 30
0.0
  0
VERTEX
  5
9B9
  8
BOUNDARY
 10
1082477.537504799
 20
707057.17653595062
 30
0.0
  0
VERTEX
  5
9BA
  8
BOUNDARY
 10
1082463.737546152
 20
706877.93340638652
 30
0.0
  0
VERTEX
  5
9BB
  8
BOUNDARY
 10
1082474.281365806
 20
706689.73439566605
 30
0.0
  0
VERTEX
  5
9BC
  8
BOUNDARY
 10
1082613.261732497
 20
706415.59857916762
 30
0.0
  0
VERTEX
  5
9BD
  8
BOUNDARY
 10
1082670.3830050479
 20
706136.25886464096
 30
0.0
  0
VERTEX
  5
9BE
  8
BOUNDARY
 10
1082717.450690791
 20
705784.25811829313
 30
0.0
  0
VERTEX
  5
9BF
  8
BOUNDARY
 10
1082711.998325282
 20
705589.24809293938
 30
0.0
  0
VERTEX
  5
9C0
  8
BOUNDARY
 10
1082714.0651281071
 20
705314.66795616376
 30
0.0
  0
VERTEX
  5
9C1
  8
BOUNDARY
 10
1082732.503029468
 20
705070.94617108267
 30
0.0
  0
VERTEX
  5
9C2
  8
BOUNDARY
 10
1082605.7035899931
 20
704870.00380237529
 30
0.0
  0
VERTEX
  5
9C3
  8
BOUNDARY
 10
1082184.6384840379
 20
704743.93652215076
 30
0.0
  0
VERTEX
  5
9C4
  8
BOUNDARY
 10
1081850.3707283649
 20
704696.06015213951
 30
0.0
  0
VERTEX
  5
9C5
  8
BOUNDARY
 10
1081330.3644071971
 20
704553.88821328804
 30
0.0
  0
VERTEX
  5
9C6
  8
BOUNDARY
 10
1081017.3577462679
 20
704584.5067395987
 30
0.0
  0
VERTEX
  5
9C7
  8
BOUNDARY
 10
1080603.6890933721
 20
704567.80977110949
 30
0.0
  0
VERTEX
  5
9C8
  8
BOUNDARY
 10
1080153.542330663
 20
704447.31915130978
 30
0.0
  0
VERTEX
  5
9C9
  8
BOUNDARY
 10
1080006.543503196
 20
704180.0307302766
 30
0.0
  0
VERTEX
  5
9CA
  8
BOUNDARY
 10
1079976.6786218421
 20
703889.65124749835
 30
0.0
  0
VERTEX
  5
9CB
  8
BOUNDARY
 10
1079801.2188675799
 20
703673.65978771367
 30
0.0
  0
VERTEX
  5
9CC
  8
BOUNDARY
 10
1079489.333349451
 20
703515.45790839067
 30
0.0
  0
VERTEX
  5
9CD
  8
BOUNDARY
 10
1079060.7655786041
 20
703291.81984428328
 30
0.0
  0
VERTEX
  5
9CE
  8
BOUNDARY
 10
1078804.0630666751
 20
703103.64288738393
 30
0.0
  0
VERTEX
  5
9CF
  8
BOUNDARY
 10
1078542.5280370819
 20
702834.71620735643
 30
0.0
  0
VERTEX
  5
9D0
  8
BOUNDARY
 10
1078387.4361840291
 20
702546.54352088727
 30
0.0
  0
VERTEX
  5
9D1
  8
BOUNDARY
 10
1078288.344962317
 20
702274.89729678514
 30
0.0
  0
VERTEX
  5
9D2
  8
BOUNDARY
 10
1078283.9617211949
 20
702123.26115667541
 30
0.0
  0
VERTEX
  5
9D3
  8
BOUNDARY
 10
1078220.360800196
 20
701984.32430870784
 30
0.0
  0
VERTEX
  5
9D4
  8
BOUNDARY
 10
1078075.8841642591
 20
701903.66332485818
 30
0.0
  0
VERTEX
  5
9D5
  8
BOUNDARY
 10
1077936.573643656
 20
701723.59629248292
 30
0.0
  0
VERTEX
  5
9D6
  8
BOUNDARY
 10
1077935.1543782491
 20
701420.45008760423
 30
0.0
  0
VERTEX
  5
9D7
  8
BOUNDARY
 10
1077867.908135056
 20
701175.24458908895
 30
0.0
  0
VERTEX
  5
9D8
  8
BOUNDARY
 10
1077764.723394762
 20
700871.99329571321
 30
0.0
  0
VERTEX
  5
9D9
  8
BOUNDARY
 10
1077680.823050397
 20
700641.94715880929
 30
0.0
  0
VERTEX
  5
9DA
  8
BOUNDARY
 10
1077821.5678287181
 20
700371.17118082906
 30
0.0
  0
VERTEX
  5
9DB
  8
BOUNDARY
 10
1078090.051157421
 20
700163.1153818462
 30
0.0
  0
VERTEX
  5
9DC
  8
BOUNDARY
 10
1078247.1709951379
 20
699899.73957128543
 30
0.0
  0
VERTEX
  5
9DD
  8
BOUNDARY
 10
1078277.7016725391
 20
699614.45394033391
 30
0.0
  0
VERTEX
  5
9DE
  8
BOUNDARY
 10
1078278.3044454211
 20
699203.54155927233
 30
0.0
  0
VERTEX
  5
9DF
  8
BOUNDARY
 10
1078302.9162767511
 20
698748.46658829565
 30
0.0
  0
VERTEX
  5
9E0
  8
BOUNDARY
 10
1078344.8513994419
 20
698519.30515503907
 30
0.0
  0
VERTEX
  5
9E1
  8
BOUNDARY
 10
1078493.54374783
 20
698193.97102813912
 30
0.0
  0
VERTEX
  5
9E2
  8
BOUNDARY
 10
1078644.447242823
 20
697916.48423587065
 30
0.0
  0
VERTEX
  5
9E3
  8
BOUNDARY
 10
1078689.62549835
 20
697650.63459574245
 30
0.0
  0
VERTEX
  5
9E4
  8
BOUNDARY
 10
1078636.677633645
 20
697347.60348549474
 30
0.0
  0
VERTEX
  5
9E5
  8
BOUNDARY
 10
1078485.019011782
 20
697039.86691858817
 30
0.0
  0
VERTEX
  5
9E6
  8
BOUNDARY
 10
1078469.1316312619
 20
696685.98593807733
 30
0.0
  0
VERTEX
  5
9E7
  8
BOUNDARY
 10
1078540.4090033099
 20
696417.96647982649
 30
0.0
  0
VERTEX
  5
9E8
  8
BOUNDARY
 10
1078759.4470525761
 20
696067.96589750075
 30
0.0
  0
VERTEX
  5
9E9
  8
BOUNDARY
 10
1079051.589754899
 20
695847.56253201177
 30
0.0
  0
VERTEX
  5
9EA
  8
BOUNDARY
 10
1079522.2348839701
 20
695675.90892802936
 30
0.0
  0
VERTEX
  5
9EB
  8
BOUNDARY
 10
1079839.6880841581
 20
695698.86041252362
 30
0.0
  0
VERTEX
  5
9EC
  8
BOUNDARY
 10
1080118.081529198
 20
696006.49869912292
 30
0.0
  0
VERTEX
  5
9ED
  8
BOUNDARY
 10
1080459.0382335701
 20
696278.73366296373
 30
0.0
  0
VERTEX
  5
9EE
  8
BOUNDARY
 10
1080587.373526114
 20
696345.84939271118
 30
0.0
  0
VERTEX
  5
9EF
  8
BOUNDARY
 10
1080995.5119687249
 20
696426.80320528976
 30
0.0
  0
VERTEX
  5
9F0
  8
BOUNDARY
 10
1081140.621674282
 20
696428.0826946724
 30
0.0
  0
VERTEX
  5
9F1
  8
BOUNDARY
 10
1081348.438475928
 20
696508.89055136265
 30
0.0
  0
VERTEX
  5
9F2
  8
BOUNDARY
 10
1081619.8831317569
 20
696729.16946337256
 30
0.0
  0
VERTEX
  5
9F3
  8
BOUNDARY
 10
1081896.3730681329
 20
696826.94655954093
 30
0.0
  0
VERTEX
  5
9F4
  8
BOUNDARY
 10
1082294.966342028
 20
696726.15119381598
 30
0.0
  0
VERTEX
  5
9F5
  8
BOUNDARY
 10
1082467.52960492
 20
696505.99713223812
 30
0.0
  0
VERTEX
  5
9F6
  8
BOUNDARY
 10
1082610.8611388691
 20
696307.54312199715
 30
0.0
  0
VERTEX
  5
9F7
  8
BOUNDARY
 10
1082734.6972512039
 20
696174.67707083526
 30
0.0
  0
VERTEX
  5
9F8
  8
BOUNDARY
 10
1082914.0196211319
 20
696062.96676906513
 30
0.0
  0
VERTEX
  5
9F9
  8
BOUNDARY
 10
1083100.038110092
 20
696005.40491907136
 30
0.0
  0
VERTEX
  5
9FA
  8
BOUNDARY
 10
1083352.3370465219
 20
695916.09057166637
 30
0.0
  0
VERTEX
  5
9FB
  8
BOUNDARY
 10
1083593.828870222
 20
695886.87845651095
 30
0.0
  0
VERTEX
  5
9FC
  8
BOUNDARY
 10
1083851.116293807
 20
695889.58291606465
 30
0.0
  0
VERTEX
  5
9FD
  8
BOUNDARY
 10
1084066.924385522
 20
695828.70439160871
 30
0.0
  0
VERTEX
  5
9FE
  8
BOUNDARY
 10
1084132.4923000811
 20
695751.36252858664
 30
0.0
  0
VERTEX
  5
9FF
  8
BOUNDARY
 10
1084196.447380326
 20
695627.61197262816
 30
0.0
  0
VERTEX
  5
A00
  8
BOUNDARY
 10
1084321.6776853341
 20
695589.22313536925
 30
0.0
  0
VERTEX
  5
A01
  8
BOUNDARY
 10
1084459.91019503
 20
695556.65961796069
 30
0.0
  0
VERTEX
  5
A02
  8
BOUNDARY
 10
1084480.220911382
 20
695441.65049883618
 30
0.0
  0
VERTEX
  5
A03
  8
BOUNDARY
 10
1084520.842344091
 20
695218.39746257779
 30
0.0
  0
VERTEX
  5
A04
  8
BOUNDARY
 10
1084561.4637767989
 20
695035.73591237678
 30
0.0
  0
VERTEX
  5
A05
  8
BOUNDARY
 10
1084595.3149707229
 20
694826.01337147097
 30
0.0
  0
VERTEX
  5
A06
  8
BOUNDARY
 10
1084602.085209507
 20
694704.23900467029
 30
0.0
  0
VERTEX
  5
A07
  8
BOUNDARY
 10
1084629.1661646459
 20
694575.69934450788
 30
0.0
  0
VERTEX
  5
A08
  8
BOUNDARY
 10
1084703.6387912771
 20
694453.92497770721
 30
0.0
  0
VERTEX
  5
A09
  8
BOUNDARY
 10
1084771.3411791241
 20
694318.62011555419
 30
0.0
  0
VERTEX
  5
A0A
  8
BOUNDARY
 10
1084886.4352384631
 20
694142.72381302924
 30
0.0
  0
VERTEX
  5
A0B
  8
BOUNDARY
 10
1084920.2864323871
 20
694007.41895087599
 30
0.0
  0
VERTEX
  5
A0C
  8
BOUNDARY
 10
1084920.2864323871
 20
693851.81834569457
 30
0.0
  0
VERTEX
  5
A0D
  8
BOUNDARY
 10
1084899.9757160321
 20
693763.87017158943
 30
0.0
  0
VERTEX
  5
A0E
  8
BOUNDARY
 10
1084920.2864323871
 20
693669.156749808
 30
0.0
  0
VERTEX
  5
A0F
  8
BOUNDARY
 10
1085015.069775372
 20
693506.79094263539
 30
0.0
  0
VERTEX
  5
A10
  8
BOUNDARY
 10
1085164.0150286341
 20
693432.37326388271
 30
0.0
  0
VERTEX
  5
A11
  8
BOUNDARY
 10
1085455.1352963741
 20
693310.59889708203
 30
0.0
  0
VERTEX
  5
A12
  8
BOUNDARY
 10
1085597.310310852
 20
693168.52878725273
 30
0.0
  0
VERTEX
  5
A13
  8
BOUNDARY
 10
1085644.701982345
 20
693067.05011779536
 30
0.0
  0
VERTEX
  5
A14
  8
BOUNDARY
 10
1085719.1746089761
 20
692843.79708153696
 30
0.0
  0
VERTEX
  5
A15
  8
BOUNDARY
 10
1085820.7281907459
 20
692681.43127436435
 30
0.0
  0
VERTEX
  5
A16
  8
BOUNDARY
 10
1086017.0651155009
 20
692654.37028365978
 30
0.0
  0
VERTEX
  5
A17
  8
BOUNDARY
 10
1086247.253154627
 20
692640.83978830744
 30
0.0
  0
VERTEX
  5
A18
  8
BOUNDARY
 10
1086585.76509386
 20
692667.90077901236
 30
0.0
  0
VERTEX
  5
A19
  8
BOUNDARY
 10
1086863.344884031
 20
692769.3794027844
 30
0.0
  0
VERTEX
  5
A1A
  8
BOUNDARY
 10
1086998.7496597241
 20
692843.79708153696
 30
0.0
  0
VERTEX
  5
A1B
  8
BOUNDARY
 10
1087181.5461069101
 20
692945.27575099457
 30
0.0
  0
VERTEX
  5
A1C
  8
BOUNDARY
 10
1087350.802076526
 20
693012.92818207107
 30
0.0
  0
VERTEX
  5
A1D
  8
BOUNDARY
 10
1087368.4610595871
 20
693015.7924193996
 30
0.0
  0
VERTEX
  5
A1E
  8
BOUNDARY
 10
1087393.1013411949
 20
693018.95740134304
 30
0.0
  0
VERTEX
  5
A1F
  8
BOUNDARY
 10
1087407.3454016999
 20
693022.19066201663
 30
0.0
  0
VERTEX
  5
A20
  8
BOUNDARY
 10
1087473.826358065
 20
693096.59292029869
 30
0.0
  0
VERTEX
  5
A21
  8
BOUNDARY
 10
1087528.5415130849
 20
693243.08242598479
 30
0.0
  0
VERTEX
  5
A22
  8
BOUNDARY
 10
1087530.252237787
 20
693257.14471360145
 30
0.0
  0
VERTEX
  5
A23
  8
BOUNDARY
 10
1087593.8486928579
 20
693355.0437788124
 30
0.0
  0
VERTEX
  5
A24
  8
BOUNDARY
 10
1087614.2657446349
 20
693362.65367534
 30
0.0
  0
VERTEX
  5
A25
  8
BOUNDARY
 10
1087675.061307634
 20
693341.68340429943
 30
0.0
  0
VERTEX
  5
A26
  8
BOUNDARY
 10
1087709.4267489449
 20
693336.63258597045
 30
0.0
  0
VERTEX
  5
A27
  8
BOUNDARY
 10
1087726.698960952
 20
693342.7107404992
 30
0.0
  0
VERTEX
  5
A28
  8
BOUNDARY
 10
1087731.44062734
 20
693347.35477995919
 30
0.0
  0
VERTEX
  5
A29
  8
BOUNDARY
 10
1087734.7969921229
 20
693369.22221796075
 30
0.0
  0
VERTEX
  5
A2A
  8
BOUNDARY
 10
1087727.577603311
 20
693427.18209313066
 30
0.0
  0
VERTEX
  5
A2B
  8
BOUNDARY
 10
1087731.0315950231
 20
693458.43523697997
 30
0.0
  0
VERTEX
  5
A2C
  8
BOUNDARY
 10
1087763.7003293389
 20
693591.07398006134
 30
0.0
  0
VERTEX
  5
A2D
  8
BOUNDARY
 10
1087793.6007138931
 20
693607.97195550846
 30
0.0
  0
VERTEX
  5
A2E
  8
BOUNDARY
 10
1087849.768508587
 20
693593.307635164
 30
0.0
  0
VERTEX
  5
A2F
  8
BOUNDARY
 10
1087856.0419169739
 20
693594.80683485291
 30
0.0
  0
VERTEX
  5
A30
  8
BOUNDARY
 10
1087920.5029966959
 20
693625.4254036661
 30
0.0
  0
VERTEX
  5
A31
  8
BOUNDARY
 10
1087949.4248585149
 20
693698.65388535452
 30
0.0
  0
VERTEX
  5
A32
  8
BOUNDARY
 10
1087969.858181447
 20
693707.82806618966
 30
0.0
  0
VERTEX
  5
A33
  8
BOUNDARY
 10
1088041.489836518
 20
693675.79390691034
 30
0.0
  0
VERTEX
  5
A34
  8
BOUNDARY
 10
1088081.494111178
 20
693611.23520025902
 30
0.0
  0
VERTEX
  5
A35
  8
BOUNDARY
 10
1088095.4750430221
 20
693601.70305401785
 30
0.0
  0
VERTEX
  5
A36
  8
BOUNDARY
 10
1088108.00558864
 20
693603.13716908765
 30
0.0
  0
VERTEX
  5
A37
  8
BOUNDARY
 10
1088186.87065023
 20
693664.89498366718
 30
0.0
  0
VERTEX
  5
A38
  8
BOUNDARY
 10
1088212.208351098
 20
693694.35604704206
 30
0.0
  0
VERTEX
  5
A39
  8
BOUNDARY
 10
1088225.080590969
 20
693728.64013257925
 30
0.0
  0
VERTEX
  5
A3A
  8
BOUNDARY
 10
1088200.163686676
 20
693890.03802593122
 30
0.0
  0
VERTEX
  5
A3B
  8
BOUNDARY
 10
1088217.5497967671
 20
693907.06617061654
 30
0.0
  0
VERTEX
  5
A3C
  8
BOUNDARY
 10
1088241.0303325411
 20
693908.38638760278
 30
0.0
  0
VERTEX
  5
A3D
  8
BOUNDARY
 10
1088256.705717931
 20
693911.35224467097
 30
0.0
  0
VERTEX
  5
A3E
  8
BOUNDARY
 10
1088270.7680055471
 20
693909.64151996979
 30
0.0
  0
VERTEX
  5
A3F
  8
BOUNDARY
 10
1088295.78028332
 20
693907.81689718505
 30
0.0
  0
VERTEX
  5
A40
  8
BOUNDARY
 10
1088327.37512142
 20
693937.21287594049
 30
0.0
  0
VERTEX
  5
A41
  8
BOUNDARY
 10
1088330.6013169659
 20
693946.56603947887
 30
0.0
  0
VERTEX
  5
A42
  8
BOUNDARY
 10
1088326.00609097
 20
693956.00055879075
 30
0.0
  0
VERTEX
  5
A43
  8
BOUNDARY
 10
1088330.9755535261
 20
693982.54457856261
 30
0.0
  0
VERTEX
  5
A44
  8
BOUNDARY
 10
1088323.788707023
 20
694043.63302234688
 30
0.0
  0
VERTEX
  5
A45
  8
BOUNDARY
 10
1088380.363280586
 20
694068.07580970228
 30
0.0
  0
VERTEX
  5
A46
  8
BOUNDARY
 10
1088439.9850669911
 20
694084.66463320795
 30
0.0
  0
VERTEX
  5
A47
  8
BOUNDARY
 10
1088532.7497046511
 20
694129.06888000679
 30
0.0
  0
VERTEX
  5
A48
  8
BOUNDARY
 10
1088548.3600054211
 20
694125.77759984229
 30
0.0
  0
VERTEX
  5
A49
  8
BOUNDARY
 10
1088557.794524733
 20
694130.37282583816
 30
0.0
  0
VERTEX
  5
A4A
  8
BOUNDARY
 10
1088578.016322654
 20
694119.21131066978
 30
0.0
  0
VERTEX
  5
A4B
  8
BOUNDARY
 10
1088588.6897031779
 20
694092.50457935105
 30
0.0
  0
VERTEX
  5
A4C
  8
BOUNDARY
 10
1088630.8277525641
 20
694082.67955232365
 30
0.0
  0
VERTEX
  5
A4D
  8
BOUNDARY
 10
1088701.7249522209
 20
694130.44016390527
 30
0.0
  0
VERTEX
  5
A4E
  8
BOUNDARY
 10
1088712.8213827701
 20
694144.40482459345
 30
0.0
  0
VERTEX
  5
A4F
  8
BOUNDARY
 10
1088708.1773433101
 20
694149.14649098134
 30
0.0
  0
VERTEX
  5
A50
  8
BOUNDARY
 10
1088717.8722011
 20
694178.77026590402
 30
0.0
  0
VERTEX
  5
A51
  8
BOUNDARY
 10
1088784.3856997739
 20
694256.30109280196
 30
0.0
  0
VERTEX
  5
A52
  8
BOUNDARY
 10
1088798.561885474
 20
694265.54035825655
 30
0.0
  0
VERTEX
  5
A53
  8
BOUNDARY
 10
1088878.7634352059
 20
694305.38192136958
 30
0.0
  0
VERTEX
  5
A54
  8
BOUNDARY
 10
1088892.8582651319
 20
694306.79976528429
 30
0.0
  0
VERTEX
  5
A55
  8
BOUNDARY
 10
1088973.1899841011
 20
694359.15560286108
 30
0.0
  0
VERTEX
  5
A56
  8
BOUNDARY
 10
1088988.9467252649
 20
694369.94288146892
 30
0.0
  0
VERTEX
  5
A57
  8
BOUNDARY
 10
1088993.704662808
 20
694376.15120523633
 30
0.0
  0
VERTEX
  5
A58
  8
BOUNDARY
 10
1088996.8820448881
 20
694380.81151585095
 30
0.0
  0
VERTEX
  5
A59
  8
BOUNDARY
 10
1089022.6427957821
 20
694450.94397123298
 30
0.0
  0
VERTEX
  5
A5A
  8
BOUNDARY
 10
1089047.931683186
 20
694475.7121816841
 30
0.0
  0
VERTEX
  5
A5B
  8
BOUNDARY
 10
1089089.253921384
 20
694537.8605039781
 30
0.0
  0
VERTEX
  5
A5C
  8
BOUNDARY
 10
1089084.8702204011
 20
694567.63071929431
 30
0.0
  0
VERTEX
  5
A5D
  8
BOUNDARY
 10
1089153.1920707049
 20
694668.60953965585
 30
0.0
  0
VERTEX
  5
A5E
  8
BOUNDARY
 10
1089208.6904946051
 20
694739.99712740525
 30
0.0
  0
VERTEX
  5
A5F
  8
BOUNDARY
 10
1089181.314392491
 20
694815.37565497425
 30
0.0
  0
VERTEX
  5
A60
  8
BOUNDARY
 10
1089173.541784416
 20
694820.14986367244
 30
0.0
  0
VERTEX
  5
A61
  8
BOUNDARY
 10
1089150.6470102139
 20
694875.14388177241
 30
0.0
  0
VERTEX
  5
A62
  8
BOUNDARY
 10
1089294.379930397
 20
695006.62737286487
 30
0.0
  0
VERTEX
  5
A63
  8
BOUNDARY
 10
1089311.9612943439
 20
695042.42692924535
 30
0.0
  0
VERTEX
  5
A64
  8
BOUNDARY
 10
1089387.87677002
 20
695121.42441352224
 30
0.0
  0
VERTEX
  5
A65
  8
BOUNDARY
 10
1089438.649798688
 20
695189.73224611906
 30
0.0
  0
VERTEX
  5
A66
  8
BOUNDARY
 10
1089486.2454452729
 20
695253.3797681029
 30
0.0
  0
VERTEX
  5
A67
  8
BOUNDARY
 10
1089533.466855298
 20
695281.04875100253
 30
0.0
  0
VERTEX
  5
A68
  8
BOUNDARY
 10
1089600.029167437
 20
695363.27243082388
 30
0.0
  0
VERTEX
  5
A69
  8
BOUNDARY
 10
1089655.1696259319
 20
695400.24576379778
 30
0.0
  0
VERTEX
  5
A6A
  8
BOUNDARY
 10
1089722.970799282
 20
695451.16748630488
 30
0.0
  0
VERTEX
  5
A6B
  8
BOUNDARY
 10
1089751.502153385
 20
695486.85314460215
 30
0.0
  0
VERTEX
  5
A6C
  8
BOUNDARY
 10
1089753.1477934669
 20
695494.65829498717
 30
0.0
  0
VERTEX
  5
A6D
  8
BOUNDARY
 10
1089767.5843176451
 20
695528.92610936926
 30
0.0
  0
VERTEX
  5
A6E
  8
BOUNDARY
 10
1089761.7665015929
 20
695571.22687030328
 30
0.0
  0
VERTEX
  5
A6F
  8
BOUNDARY
 10
1089770.010973156
 20
695611.8169065367
 30
0.0
  0
VERTEX
  5
A70
  8
BOUNDARY
 10
1089785.7677143191
 20
695622.60418514512
 30
0.0
  0
VERTEX
  5
A71
  8
BOUNDARY
 10
1089803.0399263271
 20
695628.68233967386
 30
0.0
  0
VERTEX
  5
A72
  8
BOUNDARY
 10
1089826.3902928629
 20
695617.48828219646
 30
0.0
  0
VERTEX
  5
A73
  8
BOUNDARY
 10
1089871.429114698
 20
695585.73073254817
 30
0.0
  0
VERTEX
  5
A74
  8
BOUNDARY
 10
1089925.281898516
 20
695649.31316991255
 30
0.0
  0
VERTEX
  5
A75
  8
BOUNDARY
 10
1089939.4580842161
 20
695658.5524353669
 30
0.0
  0
VERTEX
  5
A76
  8
BOUNDARY
 10
1089958.3922074591
 20
695674.00002458924
 30
0.0
  0
VERTEX
  5
A77
  8
BOUNDARY
 10
1090042.01897604
 20
695724.52566893678
 30
0.0
  0
VERTEX
  5
A78
  8
BOUNDARY
 10
1090057.306745677
 20
695723.41457316687
 30
0.0
  0
VERTEX
  5
A79
  8
BOUNDARY
 10
1090074.2949652779
 20
695717.6084270326
 30
0.0
  0
VERTEX
  5
A7A
  8
BOUNDARY
 10
1090088.1537042891
 20
695710.01575863524
 30
0.0
  0
VERTEX
  5
A7B
  8
BOUNDARY
 10
1090097.988984009
 20
695701.08319854073
 30
0.0
  0
VERTEX
  5
A7C
  8
BOUNDARY
 10
1090106.4520263651
 20
695685.50605426414
 30
0.0
  0
VERTEX
  5
A7D
  8
BOUNDARY
 10
1090145.648746205
 20
695623.11217286834
 30
0.0
  0
VERTEX
  5
A7E
  8
BOUNDARY
 10
1090181.0594709651
 20
695620.81431355013
 30
0.0
  0
VERTEX
  5
A7F
  8
BOUNDARY
 10
1090201.872692385
 20
695596.30981415138
 30
0.0
  0
VERTEX
  5
A80
  8
BOUNDARY
 10
1090194.5729194831
 20
695562.53028051776
 30
0.0
  0
VERTEX
  5
A81
  8
BOUNDARY
 10
1090225.102148032
 20
695522.62072583241
 30
0.0
  0
VERTEX
  5
A82
  8
BOUNDARY
 10
1090282.197042888
 20
695504.31478508573
 30
0.0
  0
VERTEX
  5
A83
  8
BOUNDARY
 10
1090283.706324717
 20
695504.89380604331
 30
0.0
  0
VERTEX
  5
A84
  8
BOUNDARY
 10
1090334.633639812
 20
695507.70617996319
 30
0.0
  0
VERTEX
  5
A85
  8
BOUNDARY
 10
1090405.6366799499
 20
695487.41648219526
 30
0.0
  0
VERTEX
  5
A86
  8
BOUNDARY
 10
1090458.1343368599
 20
695448.89593834127
 30
0.0
  0
VERTEX
  5
A87
  8
BOUNDARY
 10
1090496.4755905319
 20
695392.21152309456
 30
0.0
  0
VERTEX
  5
A88
  8
BOUNDARY
 10
1090529.2852058811
 20
695342.9928939041
 30
0.0
  0
VERTEX
  5
A89
  8
BOUNDARY
 10
1090567.6490631311
 20
695283.96921035158
 30
0.0
  0
VERTEX
  5
A8A
  8
BOUNDARY
 10
1090587.6649915639
 20
695207.10773936473
 30
0.0
  0
VERTEX
  5
A8B
  8
BOUNDARY
 10
1090609.4583334629
 20
695131.63588860095
 30
0.0
  0
VERTEX
  5
A8C
  8
BOUNDARY
 10
1090637.383680895
 20
695039.08887331525
 30
0.0
  0
VERTEX
  5
A8D
  8
BOUNDARY
 10
1090659.779044878
 20
694970.72551207535
 30
0.0
  0
VERTEX
  5
A8E
  8
BOUNDARY
 10
1090673.693072781
 20
694904.11526355566
 30
0.0
  0
VERTEX
  5
A8F
  8
BOUNDARY
 10
1090673.0494780999
 20
694836.83243425121
 30
0.0
  0
VERTEX
  5
A90
  8
BOUNDARY
 10
1090684.394325549
 20
694772.65371859679
 30
0.0
  0
VERTEX
  5
A91
  8
BOUNDARY
 10
1090691.4050054341
 20
694703.4160568458
 30
0.0
  0
VERTEX
  5
A92
  8
BOUNDARY
 10
1090698.901600502
 20
694668.16526706354
 30
0.0
  0
VERTEX
  5
A93
  8
BOUNDARY
 10
1090711.202282642
 20
694670.88625118055
 30
0.0
  0
VERTEX
  5
A94
  8
BOUNDARY
 10
1090716.2750161539
 20
694625.26555173856
 30
0.0
  0
VERTEX
  5
A95
  8
BOUNDARY
 10
1090808.2837258871
 20
694540.9864933826
 30
0.0
  0
VERTEX
  5
A96
  8
BOUNDARY
 10
1090969.2990076949
 20
694456.70738934155
 30
0.0
  0
VERTEX
  5
A97
  8
BOUNDARY
 10
1091199.320782026
 20
694395.41351625975
 30
0.0
  0
VERTEX
  5
A98
  8
BOUNDARY
 10
1091383.3382014921
 20
694410.73697310872
 30
0.0
  0
VERTEX
  5
A99
  8
BOUNDARY
 10
1091460.0121262691
 20
694456.70738934155
 30
0.0
  0
VERTEX
  5
A9A
  8
BOUNDARY
 10
1091498.3490488811
 20
694563.97167865653
 30
0.0
  0
VERTEX
  5
A9B
  8
BOUNDARY
 10
1091460.0121262691
 20
694663.57423954678
 30
0.0
  0
VERTEX
  5
A9C
  8
BOUNDARY
 10
1091360.335984282
 20
694717.2063842041
 30
0.0
  0
VERTEX
  5
A9D
  8
BOUNDARY
 10
1091237.657704639
 20
694763.17680043669
 30
0.0
  0
VERTEX
  5
A9E
  8
BOUNDARY
 10
1091159.4786931239
 20
694828.27792736178
 30
0.0
  0
VERTEX
  5
A9F
  8
BOUNDARY
 10
1091150.1748636621
 20
694857.73020055599
 30
0.0
  0
VERTEX
  5
AA0
  8
BOUNDARY
 10
1091138.9402831141
 20
694892.85669080506
 30
0.0
  0
VERTEX
  5
AA1
  8
BOUNDARY
 10
1091126.7583588101
 20
694926.95105774561
 30
0.0
  0
VERTEX
  5
AA2
  8
BOUNDARY
 10
1091123.3258755091
 20
694972.35350087006
 30
0.0
  0
VERTEX
  5
AA3
  8
BOUNDARY
 10
1091132.2487964481
 20
695008.63143768813
 30
0.0
  0
VERTEX
  5
AA4
  8
BOUNDARY
 10
1091151.427613958
 20
695045.50624691136
 30
0.0
  0
VERTEX
  5
AA5
  8
BOUNDARY
 10
1091174.7818399819
 20
695084.39907588728
 30
0.0
  0
VERTEX
  5
AA6
  8
BOUNDARY
 10
1091202.33025347
 20
695120.31997813447
 30
0.0
  0
VERTEX
  5
AA7
  8
BOUNDARY
 10
1091238.6030954779
 20
695162.1856618179
 30
0.0
  0
VERTEX
  5
AA8
  8
BOUNDARY
 10
1091291.50718439
 20
695220.22662276309
 30
0.0
  0
VERTEX
  5
AA9
  8
BOUNDARY
 10
1091341.1522085341
 20
695263.49430442753
 30
0.0
  0
VERTEX
  5
AAA
  8
BOUNDARY
 10
1091382.70009023
 20
695283.89820579858
 30
0.0
  0
VERTEX
  5
AAB
  8
BOUNDARY
 10
1091449.0011712071
 20
695284.73443788255
 30
0.0
  0
VERTEX
  5
AAC
  8
BOUNDARY
 10
1091478.505161701
 20
695275.85588641965
 30
0.0
  0
VERTEX
  5
AAD
  8
BOUNDARY
 10
1091507.8112937449
 20
695265.24936366105
 30
0.0
  0
VERTEX
  5
AAE
  8
BOUNDARY
 10
1091532.0591988941
 20
695270.28793572215
 30
0.0
  0
VERTEX
  5
AAF
  8
BOUNDARY
 10
1091581.3580124839
 20
695326.41408812464
 30
0.0
  0
VERTEX
  5
AB0
  8
BOUNDARY
 10
1091613.515849968
 20
695371.33066626254
 30
0.0
  0
VERTEX
  5
AB1
  8
BOUNDARY
 10
1091654.403520104
 20
695400.49246021116
 30
0.0
  0
VERTEX
  5
AB2
  8
BOUNDARY
 10
1091714.6627498809
 20
695426.01786489924
 30
0.0
  0
VERTEX
  5
AB3
  8
BOUNDARY
 10
1091793.3182698879
 20
695470.75489403191
 30
0.0
  0
VERTEX
  5
AB4
  8
BOUNDARY
 10
1091863.1406531869
 20
695512.60439842311
 30
0.0
  0
VERTEX
  5
AB5
  8
BOUNDARY
 10
1091945.557196954
 20
695552.92983495095
 30
0.0
  0
VERTEX
  5
AB6
  8
BOUNDARY
 10
1092036.166768339
 20
695603.7413845486
 30
0.0
  0
VERTEX
  5
AB7
  8
BOUNDARY
 10
1092107.2928892369
 20
695635.57057981088
 30
0.0
  0
VERTEX
  5
AB8
  8
BOUNDARY
 10
1092200.1998916131
 20
695661.25940925744
 30
0.0
  0
VERTEX
  5
AB9
  8
BOUNDARY
 10
1092283.5231397511
 20
695698.10282690974
 30
0.0
  0
VERTEX
  5
ABA
  8
BOUNDARY
 10
1092318.2315148669
 20
695712.46819532686
 30
0.0
  0
VERTEX
  5
ABB
  8
BOUNDARY
 10
1092391.1664674471
 20
695736.99699377886
 30
0.0
  0
VERTEX
  5
ABC
  8
BOUNDARY
 10
1092421.0887520779
 20
695726.15120588045
 30
0.0
  0
VERTEX
  5
ABD
  8
BOUNDARY
 10
1092489.895986425
 20
695707.37649923703
 30
0.0
  0
VERTEX
  5
ABE
  8
BOUNDARY
 10
1092551.2362435421
 20
695717.90451365698
 30
0.0
  0
VERTEX
  5
ABF
  8
BOUNDARY
 10
1092616.723384863
 20
695749.64462859544
 30
0.0
  0
VERTEX
  5
AC0
  8
BOUNDARY
 10
1092648.654165237
 20
695754.23895696027
 30
0.0
  0
VERTEX
  5
AC1
  8
BOUNDARY
 10
1092685.972165918
 20
695771.58340863825
 30
0.0
  0
VERTEX
  5
AC2
  8
BOUNDARY
 10
1092715.033753512
 20
695778.56441928633
 30
0.0
  0
VERTEX
  5
AC3
  8
BOUNDARY
 10
1092745.0114807871
 20
695794.62919494091
 30
0.0
  0
VERTEX
  5
AC4
  8
BOUNDARY
 10
1092778.601838076
 20
695812.74664581008
 30
0.0
  0
VERTEX
  5
AC5
  8
BOUNDARY
 10
1092807.197368325
 20
695836.35319597251
 30
0.0
  0
VERTEX
  5
AC6
  8
BOUNDARY
 10
1092818.829031314
 20
695841.08277650271
 30
0.0
  0
VERTEX
  5
AC7
  8
BOUNDARY
 10
1092836.8434945641
 20
695838.71569868282
 30
0.0
  0
VERTEX
  5
AC8
  8
BOUNDARY
 10
1092861.295449846
 20
695830.79893497215
 30
0.0
  0
VERTEX
  5
AC9
  8
BOUNDARY
 10
1092890.442669885
 20
695845.31101835158
 30
0.0
  0
VERTEX
  5
ACA
  8
BOUNDARY
 10
1092924.1401126429
 20
695877.63932293525
 30
0.0
  0
VERTEX
  5
ACB
  8
BOUNDARY
 10
1092983.651875603
 20
695890.83814868832
 30
0.0
  0
VERTEX
  5
ACC
  8
BOUNDARY
 10
1093019.172791427
 20
695890.88804056356
 30
0.0
  0
VERTEX
  5
ACD
  8
BOUNDARY
 10
1093055.058575606
 20
695933.54985577427
 30
0.0
  0
VERTEX
  5
ACE
  8
BOUNDARY
 10
1093095.888019264
 20
695964.03786793305
 30
0.0
  0
VERTEX
  5
ACF
  8
BOUNDARY
 10
1093149.7417716039
 20
695988.83311488689
 30
0.0
  0
VERTEX
  5
AD0
  8
BOUNDARY
 10
1093186.137725977
 20
696005.37122597545
 30
0.0
  0
VERTEX
  5
AD1
  8
BOUNDARY
 10
1093215.928062191
 20
696002.07659317029
 30
0.0
  0
VERTEX
  5
AD2
  8
BOUNDARY
 10
1093231.879174778
 20
695988.12188000197
 30
0.0
  0
VERTEX
  5
AD3
  8
BOUNDARY
 10
1093239.0497639959
 20
695958.84304511047
 30
0.0
  0
VERTEX
  5
AD4
  8
BOUNDARY
 10
1093255.630784736
 20
695914.33475481626
 30
0.0
  0
VERTEX
  5
AD5
  8
BOUNDARY
 10
1093269.326307788
 20
695875.12836998946
 30
0.0
  0
VERTEX
  5
AD6
  8
BOUNDARY
 10
1093298.307697108
 20
695822.74367327499
 30
0.0
  0
VERTEX
  5
AD7
  8
BOUNDARY
 10
1093324.463220102
 20
695785.37559517345
 30
0.0
  0
VERTEX
  5
AD8
  8
BOUNDARY
 10
1093367.6132892959
 20
695792.20301844925
 30
0.0
  0
VERTEX
  5
AD9
  8
BOUNDARY
 10
1093409.3315625431
 20
695808.75316066097
 30
0.0
  0
VERTEX
  5
ADA
  8
BOUNDARY
 10
1093438.631495012
 20
695836.10071501485
 30
0.0
  0
VERTEX
  5
ADB
  8
BOUNDARY
 10
1093493.6650822631
 20
695866.32731309754
 30
0.0
  0
VERTEX
  5
ADC
  8
BOUNDARY
 10
1093550.592477252
 20
695904.25092032563
 30
0.0
  0
VERTEX
  5
ADD
  8
BOUNDARY
 10
1093598.7598094291
 20
695949.02344263205
 30
0.0
  0
VERTEX
  5
ADE
  8
BOUNDARY
 10
1093701.630268865
 20
696041.92165981675
 30
0.0
  0
VERTEX
  5
ADF
  8
BOUNDARY
 10
1093813.3402366231
 20
696139.09068482777
 30
0.0
  0
VERTEX
  5
AE0
  8
BOUNDARY
 10
1093900.155991131
 20
696184.7137529098
 30
0.0
  0
VERTEX
  5
AE1
  8
BOUNDARY
 10
1093993.1104366351
 20
696190.30509184976
 30
0.0
  0
VERTEX
  5
AE2
  8
BOUNDARY
 10
1094041.037454644
 20
696186.60416190582
 30
0.0
  0
VERTEX
  5
AE3
  8
BOUNDARY
 10
1094063.962176244
 20
696172.71902552457
 30
0.0
  0
VERTEX
  5
AE4
  8
BOUNDARY
 10
1094070.2976916919
 20
696101.7549604259
 30
0.0
  0
VERTEX
  5
AE5
  8
BOUNDARY
 10
1094072.713005753
 20
695993.54768214375
 30
0.0
  0
VERTEX
  5
AE6
  8
BOUNDARY
 10
1094085.111044941
 20
695932.67699985974
 30
0.0
  0
VERTEX
  5
AE7
  8
BOUNDARY
 10
1094111.911882845
 20
695907.94411079329
 30
0.0
  0
VERTEX
  5
AE8
  8
BOUNDARY
 10
1094179.9565921889
 20
695872.64790668816
 30
0.0
  0
VERTEX
  5
AE9
  8
BOUNDARY
 10
1094259.3998155431
 20
695854.75716676714
 30
0.0
  0
VERTEX
  5
AEA
  8
BOUNDARY
 10
1094338.4855734471
 20
695840.98322083615
 30
0.0
  0
VERTEX
  5
AEB
  8
BOUNDARY
 10
1094402.130637937
 20
695836.51047864347
 30
0.0
  0
VERTEX
  5
AEC
  8
BOUNDARY
 10
1094462.2136186911
 20
695813.72168885369
 30
0.0
  0
VERTEX
  5
AED
  8
BOUNDARY
 10
1094505.392840883
 20
695783.36967247399
 30
0.0
  0
VERTEX
  5
AEE
  8
BOUNDARY
 10
1094540.600484787
 20
695760.96631937125
 30
0.0
  0
VERTEX
  5
AEF
  8
BOUNDARY
 10
1094597.5418443109
 20
695753.18860167987
 30
0.0
  0
VERTEX
  5
AF0
  8
BOUNDARY
 10
1094646.2427755999
 20
695731.45549597451
 30
0.0
  0
VERTEX
  5
AF1
  8
BOUNDARY
 10
1094689.651712998
 20
695825.94357195043
 30
0.0
  0
VERTEX
  5
AF2
  8
BOUNDARY
 10
1094671.2017007931
 20
695884.00764169451
 30
0.0
  0
VERTEX
  5
AF3
  8
BOUNDARY
 10
1094661.7054052099
 20
695953.20656114526
 30
0.0
  0
VERTEX
  5
AF4
  8
BOUNDARY
 10
1094686.5773405379
 20
696083.31251274538
 30
0.0
  0
VERTEX
  5
AF5
  8
BOUNDARY
 10
1094731.2043138461
 20
696082.45690158976
 30
0.0
  0
VERTEX
  5
AF6
  8
BOUNDARY
 10
1094799.7264976799
 20
696118.73236241657
 30
0.0
  0
VERTEX
  5
AF7
  8
BOUNDARY
 10
1094816.955332021
 20
696167.03741312912
 30
0.0
  0
VERTEX
  5
AF8
  8
BOUNDARY
 10
1094881.0276752049
 20
696208.53075127956
 30
0.0
  0
VERTEX
  5
AF9
  8
BOUNDARY
 10
1094893.0404955079
 20
696253.12977528386
 30
0.0
  0
VERTEX
  5
AFA
  8
BOUNDARY
 10
1094999.5251397509
 20
696300.46741762885
 30
0.0
  0
VERTEX
  5
AFB
  8
BOUNDARY
 10
1095179.589602482
 20
696324.56236233329
 30
0.0
  0
VERTEX
  5
AFC
  8
BOUNDARY
 10
1095311.1608225261
 20
696290.760933112
 30
0.0
  0
VERTEX
  5
AFD
  8
BOUNDARY
 10
1095381.161317812
 20
696323.31359764887
 30
0.0
  0
VERTEX
  5
AFE
  8
BOUNDARY
 10
1095616.8851227791
 20
696296.68944769772
 30
0.0
  0
VERTEX
  5
AFF
  8
BOUNDARY
 10
1095764.0578027619
 20
696255.41075001925
 30
0.0
  0
VERTEX
  5
B00
  8
BOUNDARY
 10
1095951.400162254
 20
696215.519062737
 30
0.0
  0
VERTEX
  5
B01
  8
BOUNDARY
 10
1096149.841969002
 20
696152.54119391099
 30
0.0
  0
VERTEX
  5
B02
  8
BOUNDARY
 10
1096201.9219880369
 20
696157.61746143247
 30
0.0
  0
VERTEX
  5
B03
  8
BOUNDARY
 10
1096265.3175956041
 20
696225.88996482664
 30
0.0
  0
VERTEX
  5
B04
  8
BOUNDARY
 10
1096327.755111238
 20
696208.62572803535
 30
0.0
  0
VERTEX
  5
B05
  8
BOUNDARY
 10
1096450.5477636261
 20
696233.60795977199
 30
0.0
  0
VERTEX
  5
B06
  8
BOUNDARY
 10
1096597.942174746
 20
696280.8431213391
 30
0.0
  0
VERTEX
  5
B07
  8
BOUNDARY
 10
1096668.675304255
 20
696308.93103892962
 30
0.0
  0
VERTEX
  5
B08
  8
BOUNDARY
 10
1096738.5416428871
 20
696287.92909955338
 30
0.0
  0
VERTEX
  5
B09
  8
BOUNDARY
 10
1096844.3048326289
 20
696344.19437250402
 30
0.0
  0
VERTEX
  5
B0A
  8
BOUNDARY
 10
1096968.5403940191
 20
696351.32134302892
 30
0.0
  0
VERTEX
  5
B0B
  8
BOUNDARY
 10
1097057.160460616
 20
696393.49700665625
 30
0.0
  0
VERTEX
  5
B0C
  8
BOUNDARY
 10
1097113.2036399459
 20
696496.00358430808
 30
0.0
  0
VERTEX
  5
B0D
  8
BOUNDARY
 10
1097158.7812520401
 20
696577.7094575651
 30
0.0
  0
VERTEX
  5
B0E
  8
BOUNDARY
 10
1097268.794910738
 20
696549.16876126535
 30
0.0
  0
VERTEX
  5
B0F
  8
BOUNDARY
 10
1097346.3751552589
 20
696638.23265261971
 30
0.0
  0
VERTEX
  5
B10
  8
BOUNDARY
 10
1097389.033410185
 20
696742.26039732154
 30
0.0
  0
VERTEX
  5
B11
  8
BOUNDARY
 10
1097440.4255138829
 20
696769.65294642758
 30
0.0
  0
VERTEX
  5
B12
  8
BOUNDARY
 10
1097487.391999658
 20
696811.93295411905
 30
0.0
  0
VERTEX
  5
B13
  8
BOUNDARY
 10
1097494.966159032
 20
696866.2127391072
 30
0.0
  0
VERTEX
  5
B14
  8
BOUNDARY
 10
1097524.808154532
 20
696901.84127690783
 30
0.0
  0
VERTEX
  5
B15
  8
BOUNDARY
 10
1097453.7262278961
 20
697031.44377857074
 30
0.0
  0
VERTEX
  5
B16
  8
BOUNDARY
 10
1097479.815614515
 20
697053.69298182731
 30
0.0
  0
VERTEX
  5
B17
  8
BOUNDARY
 10
1097539.3356362691
 20
697059.49443042348
 30
0.0
  0
VERTEX
  5
B18
  8
BOUNDARY
 10
1097584.1675711321
 20
697140.45835302456
 30
0.0
  0
VERTEX
  5
B19
  8
BOUNDARY
 10
1097667.5436743889
 20
697167.77078079502
 30
0.0
  0
VERTEX
  5
B1A
  8
BOUNDARY
 10
1097712.330890368
 20
697230.88316875813
 30
0.0
  0
VERTEX
  5
B1B
  8
BOUNDARY
 10
1097766.737378862
 20
697273.88835752453
 30
0.0
  0
VERTEX
  5
B1C
  8
BOUNDARY
 10
1097800.820526883
 20
697220.99185635848
 30
0.0
  0
VERTEX
  5
B1D
  8
BOUNDARY
 10
1097857.9991728819
 20
697182.91387216467
 30
0.0
  0
VERTEX
  5
B1E
  8
BOUNDARY
 10
1097918.3841222271
 20
697237.0613637846
 30
0.0
  0
VERTEX
  5
B1F
  8
BOUNDARY
 10
1097917.1424482069
 20
697335.24853086565
 30
0.0
  0
VERTEX
  5
B20
  8
BOUNDARY
 10
1097882.4011974379
 20
697422.36233670753
 30
0.0
  0
VERTEX
  5
B21
  8
BOUNDARY
 10
1097905.5824066121
 20
697471.39629506855
 30
0.0
  0
VERTEX
  5
B22
  8
BOUNDARY
 10
1098009.8113862961
 20
697509.06994601176
 30
0.0
  0
VERTEX
  5
B23
  8
BOUNDARY
 10
1098094.833496823
 20
697599.60283238371
 30
0.0
  0
VERTEX
  5
B24
  8
BOUNDARY
 10
1098129.952994826
 20
697663.48325701943
 30
0.0
  0
VERTEX
  5
B25
  8
BOUNDARY
 10
1098208.0609120131
 20
697666.2628676712
 30
0.0
  0
VERTEX
  5
B26
  8
BOUNDARY
 10
1098316.6670641601
 20
697669.70989750419
 30
0.0
  0
VERTEX
  5
B27
  8
BOUNDARY
 10
1098429.9485146699
 20
697757.94053714594
 30
0.0
  0
VERTEX
  5
B28
  8
BOUNDARY
 10
1098605.020557788
 20
697867.58712833049
 30
0.0
  0
VERTEX
  5
B29
  8
BOUNDARY
 10
1098817.8165605939
 20
697893.08771629934
 30
0.0
  0
VERTEX
  5
B2A
  8
BOUNDARY
 10
1099108.8322778009
 20
697965.99675151426
 30
0.0
  0
VERTEX
  5
B2B
  8
BOUNDARY
 10
1099347.706487505
 20
698009.28365908028
 30
0.0
  0
VERTEX
  5
B2C
  8
BOUNDARY
 10
1099603.664195176
 20
698042.85812978621
 30
0.0
  0
VERTEX
  5
B2D
  8
BOUNDARY
 10
1100056.945012507
 20
698160.73361900134
 30
0.0
  0
VERTEX
  5
B2E
  8
BOUNDARY
 10
1100220.0675870739
 20
698251.07086025178
 30
0.0
  0
VERTEX
  5
B2F
  8
BOUNDARY
 10
1100186.364549574
 20
698455.70540583855
 30
0.0
  0
VERTEX
  5
B30
  8
BOUNDARY
 10
1100205.83973204
 20
698509.95537823625
 30
0.0
  0
VERTEX
  5
B31
  8
BOUNDARY
 10
1100260.199638363
 20
698534.36521842144
 30
0.0
  0
VERTEX
  5
B32
  8
BOUNDARY
 10
1100329.318436478
 20
698511.87751444569
 30
0.0
  0
VERTEX
  5
B33
  8
BOUNDARY
 10
1100454.0835338209
 20
698433.46401821182
 30
0.0
  0
VERTEX
  5
B34
  8
BOUNDARY
 10
1100608.1704071439
 20
698479.93859625387
 30
0.0
  0
VERTEX
  5
B35
  8
BOUNDARY
 10
1100884.1086105041
 20
698472.55299133621
 30
0.0
  0
VERTEX
  5
B36
  8
BOUNDARY
 10
1100923.974574252
 20
698352.69832898339
 30
0.0
  0
VERTEX
  5
B37
  8
BOUNDARY
 10
1101056.066013816
 20
698229.63736328646
 30
0.0
  0
VERTEX
  5
B38
  8
BOUNDARY
 10
1101214.304601891
 20
698151.88383308682
 30
0.0
  0
VERTEX
  5
B39
  8
BOUNDARY
 10
1101293.2550872259
 20
698194.08371944295
 30
0.0
  0
VERTEX
  5
B3A
  8
BOUNDARY
 10
1101405.917564013
 20
698332.15175656835
 30
0.0
  0
VERTEX
  5
B3B
  8
BOUNDARY
 10
1101515.114378097
 20
698571.38780640811
 30
0.0
  0
VERTEX
  5
B3C
  8
BOUNDARY
 10
1101567.911762577
 20
698862.83244207688
 30
0.0
  0
VERTEX
  5
B3D
  8
BOUNDARY
 10
1101568.181939173
 20
698970.6854638462
 30
0.0
  0
VERTEX
  5
B3E
  8
BOUNDARY
 10
1101585.584059193
 20
699088.16521127964
 30
0.0
  0
VERTEX
  5
B3F
  8
BOUNDARY
 10
1101716.2676297219
 20
699293.87559835496
 30
0.0
  0
VERTEX
  5
B40
  8
BOUNDARY
 10
1101797.5445845169
 20
699374.00440595613
 30
0.0
  0
VERTEX
  5
B41
  8
BOUNDARY
 10
1101819.7907628431
 20
699387.07188671967
 30
0.0
  0
VERTEX
  5
B42
  8
BOUNDARY
 10
1101829.1210662229
 20
699395.98790304409
 30
0.0
  0
VERTEX
  5
B43
  8
BOUNDARY
 10
1101840.073895019
 20
699407.74079174735
 30
0.0
  0
VERTEX
  5
B44
  8
BOUNDARY
 10
1101840.038870198
 20
699412.57652365277
 30
0.0
  0
VERTEX
  5
B45
  8
BOUNDARY
 10
1101839.4459824921
 20
699472.82731634192
 30
0.0
  0
VERTEX
  5
B46
  8
BOUNDARY
 10
1101826.920395816
 20
699520.46308458608
 30
0.0
  0
VERTEX
  5
B47
  8
BOUNDARY
 10
1101636.893453303
 20
699676.39720016124
 30
0.0
  0
VERTEX
  5
B48
  8
BOUNDARY
 10
1101593.1183645769
 20
699720.39215673786
 30
0.0
  0
VERTEX
  5
B49
  8
BOUNDARY
 10
1101641.6157629129
 20
699957.10762187105
 30
0.0
  0
VERTEX
  5
B4A
  8
BOUNDARY
 10
1101638.495762913
 20
699966.4676218708
 30
0.0
  0
VERTEX
  5
B4B
  8
BOUNDARY
 10
1101644.735762913
 20
700013.26762187039
 30
0.0
  0
VERTEX
  5
B4C
  8
BOUNDARY
 10
1101641.6157629129
 20
700069.42762187053
 30
0.0
  0
VERTEX
  5
B4D
  8
BOUNDARY
 10
1101638.495762913
 20
700109.98762187036
 30
0.0
  0
VERTEX
  5
B4E
  8
BOUNDARY
 10
1101644.735762913
 20
700138.06762187066
 30
0.0
  0
VERTEX
  5
B4F
  8
BOUNDARY
 10
1101647.8557629129
 20
700166.14762187062
 30
0.0
  0
VERTEX
  5
B50
  8
BOUNDARY
 10
1101644.735762913
 20
700172.38762187108
 30
0.0
  0
VERTEX
  5
B51
  8
BOUNDARY
 10
1101654.0957629131
 20
700197.34762187046
 30
0.0
  0
VERTEX
  5
B52
  8
BOUNDARY
 10
1101675.935762913
 20
700237.90762187075
 30
0.0
  0
VERTEX
  5
B53
  8
BOUNDARY
 10
1101666.5757629131
 20
700262.86762187048
 30
0.0
  0
VERTEX
  5
B54
  8
BOUNDARY
 10
1101660.3357629131
 20
700272.22762187058
 30
0.0
  0
VERTEX
  5
B55
  8
BOUNDARY
 10
1101644.735762913
 20
700275.34762187034
 30
0.0
  0
VERTEX
  5
B56
  8
BOUNDARY
 10
1101588.5757629131
 20
700256.62762187107
 30
0.0
  0
VERTEX
  5
B57
  8
BOUNDARY
 10
1101535.5357629131
 20
700256.62762187107
 30
0.0
  0
VERTEX
  5
B58
  8
BOUNDARY
 10
1101460.655762912
 20
700297.18762187078
 30
0.0
  0
VERTEX
  5
B59
  8
BOUNDARY
 10
1101426.3357629131
 20
700328.38762187085
 30
0.0
  0
VERTEX
  5
B5A
  8
BOUNDARY
 10
1101420.0957629131
 20
700350.22762187035
 30
0.0
  0
VERTEX
  5
B5B
  8
BOUNDARY
 10
1101416.975762913
 20
700378.30762187066
 30
0.0
  0
VERTEX
  5
B5C
  8
BOUNDARY
 10
1101420.0957629131
 20
700381.42762187077
 30
0.0
  0
VERTEX
  5
B5D
  8
BOUNDARY
 10
1101426.3357629131
 20
700390.7876218704
 30
0.0
  0
VERTEX
  5
B5E
  8
BOUNDARY
 10
1101463.7757629131
 20
700406.38762187073
 30
0.0
  0
VERTEX
  5
B5F
  8
BOUNDARY
 10
1101519.935762913
 20
700434.46762187104
 30
0.0
  0
VERTEX
  5
B60
  8
BOUNDARY
 10
1101638.495762913
 20
700481.26762187085
 30
0.0
  0
VERTEX
  5
B61
  8
BOUNDARY
 10
1101650.975762913
 20
700493.7476218706
 30
0.0
  0
VERTEX
  5
B62
  8
BOUNDARY
 10
1101657.215762913
 20
700493.7476218706
 30
0.0
  0
VERTEX
  5
B63
  8
BOUNDARY
 10
1101704.015762913
 20
700549.90762187063
 30
0.0
  0
VERTEX
  5
B64
  8
BOUNDARY
 10
1101728.975762913
 20
700587.34762187058
 30
0.0
  0
VERTEX
  5
B65
  8
BOUNDARY
 10
1101757.0557629131
 20
700652.86762187071
 30
0.0
  0
VERTEX
  5
B66
  8
BOUNDARY
 10
1101794.495762913
 20
700749.58762187092
 30
0.0
  0
VERTEX
  5
B67
  8
BOUNDARY
 10
1101816.3357629131
 20
700793.26762187073
 30
0.0
  0
VERTEX
  5
B68
  8
BOUNDARY
 10
1101835.0557629131
 20
700836.94762187079
 30
0.0
  0
VERTEX
  5
B69
  8
BOUNDARY
 10
1101835.0557629131
 20
700899.34762187046
 30
0.0
  0
VERTEX
  5
B6A
  8
BOUNDARY
 10
1101838.175762913
 20
700908.70762187056
 30
0.0
  0
VERTEX
  5
B6B
  8
BOUNDARY
 10
1101841.2957629131
 20
700949.26762187073
 30
0.0
  0
VERTEX
  5
B6C
  8
BOUNDARY
 10
1101847.5357629131
 20
700971.10762187059
 30
0.0
  0
VERTEX
  5
B6D
  8
BOUNDARY
 10
1101863.1357629129
 20
700989.82762187079
 30
0.0
  0
VERTEX
  5
B6E
  8
BOUNDARY
 10
1101869.3757629129
 20
700992.94762187079
 30
0.0
  0
VERTEX
  5
B6F
  8
BOUNDARY
 10
1101994.175762913
 20
701039.74762187025
 30
0.0
  0
VERTEX
  5
B70
  8
BOUNDARY
 10
1102053.455762913
 20
701045.98762187082
 30
0.0
  0
VERTEX
  5
B71
  8
BOUNDARY
 10
1102134.5757629131
 20
701033.50762187096
 30
0.0
  0
VERTEX
  5
B72
  8
BOUNDARY
 10
1102150.175762913
 20
701036.62762187072
 30
0.0
  0
VERTEX
  5
B73
  8
BOUNDARY
 10
1102165.7757629131
 20
701030.38762187096
 30
0.0
  0
VERTEX
  5
B74
  8
BOUNDARY
 10
1102200.0957629131
 20
701011.66762187122
 30
0.0
  0
VERTEX
  5
B75
  8
BOUNDARY
 10
1102246.8957629129
 20
701017.90762187052
 30
0.0
  0
VERTEX
  5
B76
  8
BOUNDARY
 10
1102293.695762913
 20
701033.50762187096
 30
0.0
  0
VERTEX
  5
B77
  8
BOUNDARY
 10
1102328.015762913
 20
701030.38762187096
 30
0.0
  0
VERTEX
  5
B78
  8
BOUNDARY
 10
1102368.5757629131
 20
701042.86762187071
 30
0.0
  0
VERTEX
  5
B79
  8
BOUNDARY
 10
1102427.8557629129
 20
701077.18762187031
 30
0.0
  0
VERTEX
  5
B7A
  8
BOUNDARY
 10
1102480.8957629129
 20
701130.22762187058
 30
0.0
  0
VERTEX
  5
B7B
  8
BOUNDARY
 10
1102502.735762913
 20
701161.42762187077
 30
0.0
  0
VERTEX
  5
B7C
  8
BOUNDARY
 10
1102552.6557629129
 20
701205.10762187105
 30
0.0
  0
VERTEX
  5
B7D
  8
BOUNDARY
 10
1102596.3357629131
 20
701208.22762187058
 30
0.0
  0
VERTEX
  5
B7E
  8
BOUNDARY
 10
1102636.895762912
 20
701205.10762187105
 30
0.0
  0
VERTEX
  5
B7F
  8
BOUNDARY
 10
1102671.215762913
 20
701211.34762187046
 30
0.0
  0
VERTEX
  5
B80
  8
BOUNDARY
 10
1102686.8157629131
 20
701205.10762187105
 30
0.0
  0
VERTEX
  5
B81
  8
BOUNDARY
 10
1102702.4157629129
 20
701214.46762187057
 30
0.0
  0
VERTEX
  5
B82
  8
BOUNDARY
 10
1102733.6157629129
 20
701230.06762187043
 30
0.0
  0
VERTEX
  5
B83
  8
BOUNDARY
 10
1102761.695762913
 20
701236.30762187066
 30
0.0
  0
VERTEX
  5
B84
  8
BOUNDARY
 10
1102777.2957629131
 20
701233.18762187066
 30
0.0
  0
VERTEX
  5
B85
  8
BOUNDARY
 10
1102789.7757629131
 20
701236.30762187066
 30
0.0
  0
VERTEX
  5
B86
  8
BOUNDARY
 10
1102799.1357629129
 20
701242.54762187053
 30
0.0
  0
VERTEX
  5
B87
  8
BOUNDARY
 10
1102845.935762913
 20
701283.10762187093
 30
0.0
  0
VERTEX
  5
B88
  8
BOUNDARY
 10
1102895.8557629129
 20
701317.42762187053
 30
0.0
  0
VERTEX
  5
B89
  8
BOUNDARY
 10
1102920.8157629131
 20
701351.7476218706
 30
0.0
  0
VERTEX
  5
B8A
  8
BOUNDARY
 10
1102936.4157629129
 20
701395.42762187065
 30
0.0
  0
VERTEX
  5
B8B
  8
BOUNDARY
 10
1102939.5357629131
 20
701411.02762187074
 30
0.0
  0
VERTEX
  5
B8C
  8
BOUNDARY
 10
1102927.0557629131
 20
701479.66762187041
 30
0.0
  0
VERTEX
  5
B8D
  8
BOUNDARY
 10
1102936.4157629129
 20
701567.02762187063
 30
0.0
  0
VERTEX
  5
B8E
  8
BOUNDARY
 10
1102917.695762913
 20
701651.26762187085
 30
0.0
  0
VERTEX
  5
B8F
  8
BOUNDARY
 10
1102917.695762913
 20
701651.26762187085
 30
0.0
  0
VERTEX
  5
B90
  8
BOUNDARY
 10
1102917.695762913
 20
701651.26762187085
 30
0.0
  0
VERTEX
  5
B91
  8
BOUNDARY
 10
1102867.7757629131
 20
701732.38762187096
 30
0.0
  0
VERTEX
  5
B92
  8
BOUNDARY
 10
1102830.3357629131
 20
701763.58762187045
 30
0.0
  0
VERTEX
  5
B93
  8
BOUNDARY
 10
1102805.3757629129
 20
701788.54762187076
 30
0.0
  0
VERTEX
  5
B94
  8
BOUNDARY
 10
1102799.1357629129
 20
701807.26762187062
 30
0.0
  0
VERTEX
  5
B95
  8
BOUNDARY
 10
1102849.0557629131
 20
701872.7876218711
 30
0.0
  0
VERTEX
  5
B96
  8
BOUNDARY
 10
1102849.0557629131
 20
701872.7876218711
 30
0.0
  0
VERTEX
  5
B97
  8
BOUNDARY
 10
1102849.0557629131
 20
701872.7876218711
 30
0.0
  0
VERTEX
  5
B98
  8
BOUNDARY
 10
1102952.015762913
 20
701928.94762187055
 30
0.0
  0
VERTEX
  5
B99
  8
BOUNDARY
 10
1102958.255762913
 20
701935.18762187054
 30
0.0
  0
VERTEX
  5
B9A
  8
BOUNDARY
 10
1102983.215762913
 20
701963.26762187073
 30
0.0
  0
VERTEX
  5
B9B
  8
BOUNDARY
 10
1103023.7757629131
 20
702041.26762187062
 30
0.0
  0
VERTEX
  5
B9C
  8
BOUNDARY
 10
1103026.8957629129
 20
702050.62762187072
 30
0.0
  0
VERTEX
  5
B9D
  8
BOUNDARY
 10
1103036.255762913
 20
702094.30762187042
 30
0.0
  0
VERTEX
  5
B9E
  8
BOUNDARY
 10
1103036.255762913
 20
702169.18762187066
 30
0.0
  0
VERTEX
  5
B9F
  8
BOUNDARY
 10
1103017.5357629131
 20
702240.94762187079
 30
0.0
  0
VERTEX
  5
BA0
  8
BOUNDARY
 10
1102930.175762913
 20
702409.42762187077
 30
0.0
  0
VERTEX
  5
BA1
  8
BOUNDARY
 10
1102877.1357629129
 20
702490.54762187041
 30
0.0
  0
VERTEX
  5
BA2
  8
BOUNDARY
 10
1102836.5757629131
 20
702559.18762187054
 30
0.0
  0
VERTEX
  5
BA3
  8
BOUNDARY
 10
1102771.0557629131
 20
702637.18762187066
 30
0.0
  0
VERTEX
  5
BA4
  8
BOUNDARY
 10
1102755.455762913
 20
702665.26762187085
 30
0.0
  0
VERTEX
  5
BA5
  8
BOUNDARY
 10
1102746.0957629131
 20
702755.74762187025
 30
0.0
  0
VERTEX
  5
BA6
  8
BOUNDARY
 10
1102739.8557629129
 20
702786.94762187079
 30
0.0
  0
VERTEX
  5
BA7
  8
BOUNDARY
 10
1102736.735762913
 20
702796.30762187066
 30
0.0
  0
VERTEX
  5
BA8
  8
BOUNDARY
 10
1102742.975762913
 20
702815.02762187098
 30
0.0
  0
VERTEX
  5
BA9
  8
BOUNDARY
 10
1102761.695762913
 20
702849.34762187046
 30
0.0
  0
VERTEX
  5
BAA
  8
BOUNDARY
 10
1102777.2957629131
 20
702908.62762187095
 30
0.0
  0
VERTEX
  5
BAB
  8
BOUNDARY
 10
1102783.5357629131
 20
702955.4276218703
 30
0.0
  0
VERTEX
  5
BAC
  8
BOUNDARY
 10
1102802.255762913
 20
703002.22762187058
 30
0.0
  0
VERTEX
  5
BAD
  8
BOUNDARY
 10
1102820.975762913
 20
703039.66762187076
 30
0.0
  0
VERTEX
  5
BAE
  8
BOUNDARY
 10
1102820.975762913
 20
703052.14762187051
 30
0.0
  0
VERTEX
  5
BAF
  8
BOUNDARY
 10
1102814.735762913
 20
703080.2276218707
 30
0.0
  0
VERTEX
  5
BB0
  8
BOUNDARY
 10
1102817.8557629129
 20
703120.7876218704
 30
0.0
  0
VERTEX
  5
BB1
  8
BOUNDARY
 10
1102811.6157629129
 20
703148.8676218706
 30
0.0
  0
VERTEX
  5
BB2
  8
BOUNDARY
 10
1102808.495762913
 20
703173.82762187067
 30
0.0
  0
VERTEX
  5
BB3
  8
BOUNDARY
 10
1102833.455762913
 20
703220.62762187072
 30
0.0
  0
VERTEX
  5
BB4
  8
BOUNDARY
 10
1102839.695762913
 20
703245.58762187045
 30
0.0
  0
VERTEX
  5
BB5
  8
BOUNDARY
 10
1102864.655762912
 20
703323.58762187045
 30
0.0
  0
VERTEX
  5
BB6
  8
BOUNDARY
 10
1102877.1357629129
 20
703370.3876218705
 30
0.0
  0
VERTEX
  5
BB7
  8
BOUNDARY
 10
1102877.1357629129
 20
703376.62762187095
 30
0.0
  0
VERTEX
  5
BB8
  8
BOUNDARY
 10
1102880.255762913
 20
703404.7076218708
 30
0.0
  0
VERTEX
  5
BB9
  8
BOUNDARY
 10
1102908.3357629131
 20
703485.82762187056
 30
0.0
  0
VERTEX
  5
BBA
  8
BOUNDARY
 10
1102914.5757629131
 20
703498.30762187042
 30
0.0
  0
VERTEX
  5
BBB
  8
BOUNDARY
 10
1102917.695762913
 20
703513.90762187075
 30
0.0
  0
VERTEX
  5
BBC
  8
BOUNDARY
 10
1102927.0557629131
 20
703526.38762187061
 30
0.0
  0
VERTEX
  5
BBD
  8
BOUNDARY
 10
1102986.3357629131
 20
703613.74762187072
 30
0.0
  0
VERTEX
  5
BBE
  8
BOUNDARY
 10
1103005.0557629131
 20
703632.46762187057
 30
0.0
  0
VERTEX
  5
BBF
  8
BOUNDARY
 10
1103023.7757629131
 20
703663.66762187099
 30
0.0
  0
VERTEX
  5
BC0
  8
BOUNDARY
 10
1103045.6157629129
 20
703679.26762187062
 30
0.0
  0
VERTEX
  5
BC1
  8
BOUNDARY
 10
1103070.5757629131
 20
703691.7476218706
 30
0.0
  0
VERTEX
  5
BC2
  8
BOUNDARY
 10
1103176.6557629129
 20
703691.7476218706
 30
0.0
  0
VERTEX
  5
BC3
  8
BOUNDARY
 10
1103229.695762913
 20
703685.50762187096
 30
0.0
  0
VERTEX
  5
BC4
  8
BOUNDARY
 10
1103273.3757629129
 20
703673.02762187039
 30
0.0
  0
VERTEX
  5
BC5
  8
BOUNDARY
 10
1103313.935762913
 20
703638.7076218708
 30
0.0
  0
VERTEX
  5
BC6
  8
BOUNDARY
 10
1103351.3757629129
 20
703616.86762187071
 30
0.0
  0
VERTEX
  5
BC7
  8
BOUNDARY
 10
1103413.7757629131
 20
703616.86762187071
 30
0.0
  0
VERTEX
  5
BC8
  8
BOUNDARY
 10
1103435.6157629129
 20
703610.62762187037
 30
0.0
  0
VERTEX
  5
BC9
  8
BOUNDARY
 10
1103473.0557629131
 20
703616.86762187071
 30
0.0
  0
VERTEX
  5
BCA
  8
BOUNDARY
 10
1103529.215762913
 20
703607.50762187084
 30
0.0
  0
VERTEX
  5
BCB
  8
BOUNDARY
 10
1103619.695762913
 20
703638.7076218708
 30
0.0
  0
VERTEX
  5
BCC
  8
BOUNDARY
 10
1103644.6557629129
 20
703651.18762187066
 30
0.0
  0
VERTEX
  5
BCD
  8
BOUNDARY
 10
1103697.695762913
 20
703673.02762187039
 30
0.0
  0
VERTEX
  5
BCE
  8
BOUNDARY
 10
1103756.975762913
 20
703701.10762187047
 30
0.0
  0
VERTEX
  5
BCF
  8
BOUNDARY
 10
1103819.3757629129
 20
703757.26762187073
 30
0.0
  0
VERTEX
  5
BD0
  8
BOUNDARY
 10
1103875.5357629131
 20
703785.34762187058
 30
0.0
  0
VERTEX
  5
BD1
  8
BOUNDARY
 10
1103894.255762913
 20
703800.94762187079
 30
0.0
  0
VERTEX
  5
BD2
  8
BOUNDARY
 10
1103950.415762912
 20
703813.42762187065
 30
0.0
  0
VERTEX
  5
BD3
  8
BOUNDARY
 10
1103994.0957629131
 20
703810.30762187066
 30
0.0
  0
VERTEX
  5
BD4
  8
BOUNDARY
 10
1104028.415762912
 20
703813.42762187065
 30
0.0
  0
VERTEX
  5
BD5
  8
BOUNDARY
 10
1104243.695762913
 20
703779.10762187059
 30
0.0
  0
VERTEX
  5
BD6
  8
BOUNDARY
 10
1104253.0557629131
 20
703782.22762187081
 30
0.0
  0
VERTEX
  5
BD7
  8
BOUNDARY
 10
1104262.4157629129
 20
703779.10762187059
 30
0.0
  0
VERTEX
  5
BD8
  8
BOUNDARY
 10
1104374.735762913
 20
703816.54762187041
 30
0.0
  0
VERTEX
  5
BD9
  8
BOUNDARY
 10
1104437.1357629129
 20
703825.90762187052
 30
0.0
  0
VERTEX
  5
BDA
  8
BOUNDARY
 10
1104468.3357629131
 20
703853.98762187059
 30
0.0
  0
VERTEX
  5
BDB
  8
BOUNDARY
 10
1104483.935762913
 20
703878.9476218709
 30
0.0
  0
VERTEX
  5
BDC
  8
BOUNDARY
 10
1104502.655762912
 20
703900.78762187075
 30
0.0
  0
VERTEX
  5
BDD
  8
BOUNDARY
 10
1104518.255762913
 20
703969.42762187077
 30
0.0
  0
VERTEX
  5
BDE
  8
BOUNDARY
 10
1104543.215762913
 20
704028.70762187068
 30
0.0
  0
VERTEX
  5
BDF
  8
BOUNDARY
 10
1104643.0557629131
 20
704100.4676218708
 30
0.0
  0
VERTEX
  5
BE0
  8
BOUNDARY
 10
1104655.5357629131
 20
704112.94762187079
 30
0.0
  0
VERTEX
  5
BE1
  8
BOUNDARY
 10
1104692.975762913
 20
704119.18762187101
 30
0.0
  0
VERTEX
  5
BE2
  8
BOUNDARY
 10
1104733.5357629131
 20
704147.26762187062
 30
0.0
  0
VERTEX
  5
BE3
  8
BOUNDARY
 10
1104830.255762914
 20
704259.58762187045
 30
0.0
  0
VERTEX
  5
BE4
  8
BOUNDARY
 10
1104855.215762913
 20
704278.30762187066
 30
0.0
  0
VERTEX
  5
BE5
  8
BOUNDARY
 10
1104808.9739725529
 20
704869.9490376066
 30
0.0
  0
VERTEX
  5
BE6
  8
BOUNDARY
 10
1104729.809337514
 20
705357.77070665546
 30
0.0
  0
VERTEX
  5
BE7
  8
BOUNDARY
 10
1104611.062464508
 20
705964.25165121874
 30
0.0
  0
VERTEX
  5
BE8
  8
BOUNDARY
 10
1104518.7037236299
 20
706531.17948871572
 30
0.0
  0
VERTEX
  5
BE9
  8
BOUNDARY
 10
1104399.956771072
 20
707084.92298764735
 30
0.0
  0
VERTEX
  5
BEA
  8
BOUNDARY
 10
1104175.6570513479
 20
707704.58831646154
 30
0.0
  0
VERTEX
  5
BEB
  8
BOUNDARY
 10
1103951.35725207
 20
708166.04121700907
 30
0.0
  0
VERTEX
  5
BEC
  8
BOUNDARY
 10
1103384.010780511
 20
708627.49411755707
 30
0.0
  0
VERTEX
  5
BED
  8
BOUNDARY
 10
1102895.829023544
 20
708904.36582133768
 30
0.0
  0
VERTEX
  5
BEE
  8
BOUNDARY
 10
1102328.482551985
 20
709115.31574092084
 30
0.0
  0
VERTEX
  5
BEF
  8
BOUNDARY
 10
1101602.8068103481
 20
709260.34378493659
 30
0.0
  0
VERTEX
  5
BF0
  8
BOUNDARY
 10
1101141.01326506
 20
709286.71255343745
 30
0.0
  0
VERTEX
  5
BF1
  8
BOUNDARY
 10
1100718.8018781859
 20
709299.89689200313
 30
0.0
  0
VERTEX
  5
BF2
  8
BOUNDARY
 10
1100671.3498177801
 20
709310.43401909526
 30
0.0
  0
VERTEX
  5
BF3
  8
BOUNDARY
 10
1100600.1494036589
 20
709355.46748052305
 30
0.0
  0
VERTEX
  5
BF4
  8
BOUNDARY
 10
1100487.9845229939
 20
709485.78992729133
 30
0.0
  0
VERTEX
  5
BF5
  8
BOUNDARY
 10
1100375.8376150329
 20
709617.20080891415
 30
0.0
  0
VERTEX
  5
BF6
  8
BOUNDARY
 10
1100310.958655535
 20
709695.9046493019
 30
0.0
  0
VERTEX
  5
BF7
  8
BOUNDARY
 10
1100344.802110764
 20
709769.17799785687
 30
0.0
  0
VERTEX
  5
BF8
  8
BOUNDARY
 10
1100402.99749358
 20
709876.53644437634
 30
0.0
  0
VERTEX
  5
BF9
  8
BOUNDARY
 10
1100510.4351784671
 20
710055.4671581178
 30
0.0
  0
VERTEX
  5
BFA
  8
BOUNDARY
 10
1100568.630640835
 20
710162.82555895206
 30
0.0
  0
VERTEX
  5
BFB
  8
BOUNDARY
 10
1100631.3026037971
 20
710323.86320588877
 30
0.0
  0
VERTEX
  5
BFC
  8
BOUNDARY
 10
1100653.6855045359
 20
710475.9543194219
 30
0.0
  0
VERTEX
  5
BFD
  8
BOUNDARY
 10
1100644.73234424
 20
710592.25929934415
 30
0.0
  0
VERTEX
  5
BFE
  8
BOUNDARY
 10
1100626.8260236499
 20
710681.72467905749
 30
0.0
  0
VERTEX
  5
BFF
  8
BOUNDARY
 10
1100559.6774805391
 20
710721.98407937028
 30
0.0
  0
VERTEX
  5
C00
  8
BOUNDARY
 10
1100434.333475061
 20
710748.82367957872
 30
0.0
  0
VERTEX
  5
C01
  8
BOUNDARY
 10
1100268.7004073591
 20
710668.30483326828
 30
0.0
  0
VERTEX
  5
C02
  8
BOUNDARY
 10
1100161.262722471
 20
710534.10683222569
 30
0.0
  0
VERTEX
  5
C03
  8
BOUNDARY
 10
1100094.114099808
 20
710449.1147192131
 30
0.0
  0
VERTEX
  5
C04
  8
BOUNDARY
 10
1100004.5827355119
 20
710341.75627269421
 30
0.0
  0
VERTEX
  5
C05
  8
BOUNDARY
 10
1099892.668470477
 20
710252.29093866574
 30
0.0
  0
VERTEX
  5
C06
  8
BOUNDARY
 10
1099864.5566066131
 20
710235.43628497422
 30
0.0
  0
VERTEX
  5
C07
  8
BOUNDARY
 10
1099680.6021432681
 20
710249.96407939983
 30
0.0
  0
VERTEX
  5
C08
  8
BOUNDARY
 10
1099533.9775961849
 20
710293.83595312783
 30
0.0
  0
VERTEX
  5
C09
  8
BOUNDARY
 10
1099448.5913757291
 20
710379.27375299158
 30
0.0
  0
VERTEX
  5
C0A
  8
BOUNDARY
 10
1099363.843777471
 20
710487.87138143985
 30
0.0
  0
VERTEX
  5
C0B
  8
BOUNDARY
 10
1099287.0611646851
 20
710592.43579399155
 30
0.0
  0
VERTEX
  5
C0C
  8
BOUNDARY
 10
1099211.3729864359
 20
710698.0835742075
 30
0.0
  0
VERTEX
  5
C0D
  8
BOUNDARY
 10
1099157.1072410771
 20
710805.07439832191
 30
0.0
  0
VERTEX
  5
C0E
  8
BOUNDARY
 10
1099027.228545846
 20
710961.08830094733
 30
0.0
  0
VERTEX
  5
C0F
  8
BOUNDARY
 10
1098874.059092677
 20
711105.24233809602
 30
0.0
  0
VERTEX
  5
C10
  8
BOUNDARY
 10
1098776.5744476321
 20
711207.37111669173
 30
0.0
  0
VERTEX
  5
C11
  8
BOUNDARY
 10
1098615.966739371
 20
711316.35424116184
 30
0.0
  0
VERTEX
  5
C12
  8
BOUNDARY
 10
1098426.813353719
 20
711379.38442170597
 30
0.0
  0
VERTEX
  5
C13
  8
BOUNDARY
 10
1098268.7390367789
 20
711486.90276669245
 30
0.0
  0
VERTEX
  5
C14
  8
BOUNDARY
 10
1098139.1712679351
 20
711561.2453978227
 30
0.0
  0
VERTEX
  5
C15
  8
BOUNDARY
 10
1097940.238061642
 20
711628.31801665656
 30
0.0
  0
VERTEX
  5
C16
  8
BOUNDARY
 10
1097822.086034185
 20
711663.4011848541
 30
0.0
  0
VERTEX
  5
C17
  8
BOUNDARY
 10
1097674.883732697
 20
711696.09114210308
 30
0.0
  0
VERTEX
  5
C18
  8
BOUNDARY
 10
1097592.8701786781
 20
711771.28104764083
 30
0.0
  0
VERTEX
  5
C19
  8
BOUNDARY
 10
1097391.8196427319
 20
711778.8362953735
 30
0.0
  0
VERTEX
  5
C1A
  8
BOUNDARY
 10
1097307.7086530779
 20
711726.99511709926
 30
0.0
  0
VERTEX
  5
C1B
  8
BOUNDARY
 10
1097225.0827321729
 20
711681.67996751424
 30
0.0
  0
VERTEX
  5
C1C
  8
BOUNDARY
 10
1097024.336139946
 20
711677.61842569592
 30
0.0
  0
VERTEX
  5
C1D
  8
BOUNDARY
 10
1096893.369597601
 20
711690.98812863359
 30
0.0
  0
VERTEX
  5
C1E
  8
BOUNDARY
 10
1096760.0906061199
 20
711677.87230499671
 30
0.0
  0
VERTEX
  5
C1F
  8
BOUNDARY
 10
1096615.9980877619
 20
711563.65381357935
 30
0.0
  0
VERTEX
  5
C20
  8
BOUNDARY
 10
1096552.704925694
 20
711553.45277305436
 30
0.0
  0
VERTEX
  5
C21
  8
BOUNDARY
 10
1096405.508157559
 20
711539.03237562266
 30
0.0
  0
VERTEX
  5
C22
  8
BOUNDARY
 10
1096252.539057615
 20
711547.68460494454
 30
0.0
  0
VERTEX
  5
C23
  8
BOUNDARY
 10
1096122.6596031149
 20
711567.87317048584
 30
0.0
  0
VERTEX
  5
C24
  8
BOUNDARY
 10
1095995.6663145181
 20
711590.94579723908
 30
0.0
  0
VERTEX
  5
C25
  8
BOUNDARY
 10
1095848.4696259359
 20
711596.71396534878
 30
0.0
  0
VERTEX
  5
C26
  8
BOUNDARY
 10
1095689.7280350779
 20
711524.61193250609
 30
0.0
  0
VERTEX
  5
C27
  8
BOUNDARY
 10
1095617.572773739
 20
711466.93034278019
 30
0.0
  0
VERTEX
  5
C28
  8
BOUNDARY
 10
1095502.124387417
 20
711391.94424872543
 30
0.0
  0
VERTEX
  5
C29
  8
BOUNDARY
 10
1095363.5862760991
 20
711351.56711764354
 30
0.0
  0
VERTEX
  5
C2A
  8
BOUNDARY
 10
1095256.7964670421
 20
711328.49444520473
 30
0.0
  0
VERTEX
  5
C2B
  8
BOUNDARY
 10
1095103.8273670981
 20
711273.69691669091
 30
0.0
  0
VERTEX
  5
C2C
  8
BOUNDARY
 10
1094988.3789807761
 20
711192.94265452656
 30
0.0
  0
VERTEX
  5
C2D
  8
BOUNDARY
 10
1094907.565062619
 20
711117.95656047191
 30
0.0
  0
VERTEX
  5
C2E
  8
BOUNDARY
 10
1094806.5476649229
 20
711031.43417588295
 30
0.0
  0
VERTEX
  5
C2F
  8
BOUNDARY
 10
1094788.821870185
 20
711018.14962527738
 30
0.0
  0
VERTEX
  5
C30
  8
BOUNDARY
 10
1094663.729248526
 20
711001.04800699558
 30
0.0
  0
VERTEX
  5
C31
  8
BOUNDARY
 10
1094478.0133121919
 20
710954.80482119089
 30
0.0
  0
VERTEX
  5
C32
  8
BOUNDARY
 10
1094295.8624894421
 20
710895.83934442815
 30
0.0
  0
VERTEX
  5
C33
  8
BOUNDARY
 10
1094153.140426409
 20
710810.17622605537
 30
0.0
  0
VERTEX
  5
C34
  8
BOUNDARY
 10
1093979.9881558761
 20
710736.28298895445
 30
0.0
  0
VERTEX
  5
C35
  8
BOUNDARY
 10
1093935.1481945431
 20
710715.31375025376
 30
0.0
  0
VERTEX
  5
C36
  8
BOUNDARY
 10
1093763.68804129
 20
710687.2914365863
 30
0.0
  0
VERTEX
  5
C37
  8
BOUNDARY
 10
1093535.231543327
 20
710646.84981161752
 30
0.0
  0
VERTEX
  5
C38
  8
BOUNDARY
 10
1093265.9776774431
 20
710572.64330073423
 30
0.0
  0
VERTEX
  5
C39
  8
BOUNDARY
 10
1093143.8041089871
 20
710555.73685299815
 30
0.0
  0
VERTEX
  5
C3A
  8
BOUNDARY
 10
1092943.304521003
 20
710525.24409391498
 30
0.0
  0
VERTEX
  5
C3B
  8
BOUNDARY
 10
1092717.2710628009
 20
710468.48735204816
 30
0.0
  0
VERTEX
  5
C3C
  8
BOUNDARY
 10
1092514.2911121701
 20
710445.97978923121
 30
0.0
  0
VERTEX
  5
C3D
  8
BOUNDARY
 10
1092346.7415593539
 20
710414.17371951137
 30
0.0
  0
VERTEX
  5
C3E
  8
BOUNDARY
 10
1092210.5961601781
 20
710366.93966032425
 30
0.0
  0
VERTEX
  5
C3F
  8
BOUNDARY
 10
1092038.15815875
 20
710361.60692654201
 30
0.0
  0
VERTEX
  5
C40
  8
BOUNDARY
 10
1091784.4220051139
 20
710331.84270594025
 30
0.0
  0
VERTEX
  5
C41
  8
BOUNDARY
 10
1091739.544751799
 20
710319.52898322302
 30
0.0
  0
VERTEX
  5
C42
  8
BOUNDARY
 10
1091670.671768652
 20
710340.47484842094
 30
0.0
  0
VERTEX
  5
C43
  8
BOUNDARY
 10
1091454.5658007411
 20
710355.89963505161
 30
0.0
  0
VERTEX
  5
C44
  8
BOUNDARY
 10
1091269.3320230439
 20
710417.59864451829
 30
0.0
  0
VERTEX
  5
C45
  8
BOUNDARY
 10
1091150.988242724
 20
710530.71351804992
 30
0.0
  0
VERTEX
  5
C46
  8
BOUNDARY
 10
1091006.917570933
 20
710664.39472807012
 30
0.0
  0
VERTEX
  5
C47
  8
BOUNDARY
 10
1090867.992277436
 20
710705.52740104799
 30
0.0
  0
VERTEX
  5
C48
  8
BOUNDARY
 10
1090569.560177264
 20
710720.95214199345
 30
0.0
  0
VERTEX
  5
C49
  8
BOUNDARY
 10
1090384.326479119
 20
710659.25313252665
 30
0.0
  0
VERTEX
  5
C4A
  8
BOUNDARY
 10
1090214.528915857
 20
710525.57192250621
 30
0.0
  0
VERTEX
  5
C4B
  8
BOUNDARY
 10
1090091.0397572429
 20
710386.74911694229
 30
0.0
  0
VERTEX
  5
C4C
  8
BOUNDARY
 10
1090085.894378948
 20
710242.78476151987
 30
0.0
  0
VERTEX
  5
C4D
  8
BOUNDARY
 10
1090188.8020243859
 20
710073.11242837994
 30
0.0
  0
VERTEX
  5
C4E
  8
BOUNDARY
 10
1090379.1811008251
 20
709939.43126404472
 30
0.0
  0
VERTEX
  5
C4F
  8
BOUNDARY
 10
1090425.4895054731
 20
709785.18371753546
 30
0.0
  0
VERTEX
  5
C50
  8
BOUNDARY
 10
1090404.9079922971
 20
709630.93617102597
 30
0.0
  0
VERTEX
  5
C51
  8
BOUNDARY
 10
1090354.773863347
 20
709530.74181856157
 30
0.0
  0
VERTEX
  5
C52
  8
BOUNDARY
 10
1090249.7280990649
 20
709484.37454107695
 30
0.0
  0
VERTEX
  5
C53
  8
BOUNDARY
 10
1090169.654103783
 20
709443.86582350801
 30
0.0
  0
VERTEX
  5
C54
  8
BOUNDARY
 10
1090086.7146411729
 20
709420.08558949782
 30
0.0
  0
VERTEX
  5
C55
  8
BOUNDARY
 10
1090016.515507482
 20
709413.79972253297
 30
0.0
  0
VERTEX
  5
C56
  8
BOUNDARY
 10
1089927.1601118769
 20
709425.71483074233
 30
0.0
  0
VERTEX
  5
C57
  8
BOUNDARY
 10
1089784.1914789081
 20
709437.62993895146
 30
0.0
  0
VERTEX
  5
C58
  8
BOUNDARY
 10
1089639.165137121
 20
709424.98247214861
 30
0.0
  0
VERTEX
  5
C59
  8
BOUNDARY
 10
1089511.6107707431
 20
709404.14375554933
 30
0.0
  0
VERTEX
  5
C5A
  8
BOUNDARY
 10
1089382.918132189
 20
709394.47852044669
 30
0.0
  0
VERTEX
  5
C5B
  8
BOUNDARY
 10
1089250.4773752049
 20
709412.92274309439
 30
0.0
  0
VERTEX
  5
C5C
  8
BOUNDARY
 10
1089110.0594798969
 20
709439.98157809849
 30
0.0
  0
VERTEX
  5
C5D
  8
BOUNDARY
 10
1088949.756998339
 20
709477.03738958715
 30
0.0
  0
VERTEX
  5
C5E
  8
BOUNDARY
 10
1088791.8093474151
 20
709476.23996185057
 30
0.0
  0
VERTEX
  5
C5F
  8
BOUNDARY
 10
1088660.57240461
 20
709470.52870429598
 30
0.0
  0
VERTEX
  5
C60
  8
BOUNDARY
 10
1088505.2892182821
 20
709441.97696805047
 30
0.0
  0
VERTEX
  5
C61
  8
BOUNDARY
 10
1088408.585239921
 20
709381.98639621621
 30
0.0
  0
VERTEX
  5
C62
  8
BOUNDARY
 10
1088312.84111383
 20
709346.16222825146
 30
0.0
  0
VERTEX
  5
C63
  8
BOUNDARY
 10
1088204.3918519909
 20
709326.86244835053
 30
0.0
  0
VERTEX
  5
C64
  8
BOUNDARY
 10
1088161.5233347409
 20
709307.58331088827
 30
0.0
  0
VERTEX
  5
C65
  8
BOUNDARY
 10
1088120.3769743431
 20
709305.16471576411
 30
0.0
  0
VERTEX
  5
C66
  8
BOUNDARY
 10
1087973.5926065401
 20
709315.6416121138
 30
0.0
  0
VERTEX
  5
C67
  8
BOUNDARY
 10
1087842.5350585759
 20
709362.78750863275
 30
0.0
  0
VERTEX
  5
C68
  8
BOUNDARY
 10
1087748.1736622259
 20
709483.27145117533
 30
0.0
  0
VERTEX
  5
C69
  8
BOUNDARY
 10
1087596.1469415911
 20
709593.27849736798
 30
0.0
  0
VERTEX
  5
C6A
  8
BOUNDARY
 10
1087465.0894731791
 20
709713.76243991032
 30
0.0
  0
VERTEX
  5
C6B
  8
BOUNDARY
 10
1087370.72807683
 20
709760.90833642939
 30
0.0
  0
VERTEX
  5
C6C
  8
BOUNDARY
 10
1087197.732183523
 20
709755.66988825449
 30
0.0
  0
VERTEX
  5
C6D
  8
BOUNDARY
 10
1087050.94781572
 20
709661.37814090156
 30
0.0
  0
VERTEX
  5
C6E
  8
BOUNDARY
 10
1086804.5596987349
 20
709493.74830184015
 30
0.0
  0
VERTEX
  5
C6F
  8
BOUNDARY
 10
1086647.2907048189
 20
709320.88001460361
 30
0.0
  0
VERTEX
  5
C70
  8
BOUNDARY
 10
1086542.4446823581
 20
709179.44237073173
 30
0.0
  0
VERTEX
  5
C71
  8
BOUNDARY
 10
1086442.84101273
 20
709022.28938233457
 30
0.0
  0
VERTEX
  5
C72
  8
BOUNDARY
 10
1086428.2471379039
 20
708997.28981945605
 30
0.0
  0
VERTEX
  5
C73
  8
BOUNDARY
 10
1086395.48412122
 20
708976.94369312841
 30
0.0
  0
VERTEX
  5
C74
  8
BOUNDARY
 10
1086320.2910551489
 20
708870.54170866217
 30
0.0
  0
VERTEX
  5
C75
  8
BOUNDARY
 10
1086247.624087214
 20
708763.79185739974
 30
0.0
  0
VERTEX
  5
C76
  8
BOUNDARY
 10
1086195.1877517139
 20
708649.93173886486
 30
0.0
  0
VERTEX
  5
C77
  8
BOUNDARY
 10
1086098.72409404
 20
708542.340505108
 30
0.0
  0
VERTEX
  5
C78
  8
BOUNDARY
 10
1086016.94535683
 20
708454.65752554801
 30
0.0
  0
VERTEX
  5
C79
  8
BOUNDARY
 10
1085922.6564193191
 20
708416.31636250205
 30
0.0
  0
VERTEX
  5
C7A
  8
BOUNDARY
 10
1085777.686995836
 20
708344.90288542723
 30
0.0
  0
VERTEX
  5
C7B
  8
BOUNDARY
 10
1085641.630895
 20
708293.72914384352
 30
0.0
  0
VERTEX
  5
C7C
  8
BOUNDARY
 10
1085515.6391332659
 20
708249.09737872845
 30
0.0
  0
VERTEX
  5
C7D
  8
BOUNDARY
 10
1085366.968927244
 20
708196.41747144959
 30
0.0
  0
VERTEX
  5
C7E
  8
BOUNDARY
 10
1085315.2540117961
 20
708154.8409669057
 30
0.0
  0
SEQEND
  5
C7F
  8
BOUNDARY
  0
ENDSEC
  0
EOF
