  0
SECTION
  2
HEADER
  9
$ACADVER
  1
AC1009
  9
$INSBASE
 10
0.0
 20
0.0
 30
0.0
  9
$EXTMIN
 10
77.726081966126188
 20
692.64034999957721
 30
0.0
  9
$EXTMAX
 10
104.8673514200334
 20
711.77834650664306
 30
0.0
  9
$LIMMIN
 10
0.0
 20
0.0
  9
$LIMMAX
 10
12.0
 20
9.0
  9
$ORTHOMODE
 70
     0
  9
$REGENMODE
 70
     1
  9
$FILLMODE
 70
     1
  9
$QTEXTMODE
 70
     0
  9
$MIRRTEXT
 70
     1
  9
$DRAGMODE
 70
     2
  9
$LTSCALE
 40
1.0
  9
$OSMODE
 70
   621
  9
$ATTMODE
 70
     1
  9
$TEXTSIZE
 40
0.2
  9
$TRACEWID
 40
0.05
  9
$TEXTSTYLE
  7
STANDARD
  9
$CLAYER
  8
0
  9
$CELTYPE
  6
BYLAYER
  9
$CECOLOR
 62
   256
  9
$DIMSCALE
 40
1.0
  9
$DIMASZ
 40
0.18
  9
$DIMEXO
 40
0.0625
  9
$DIMDLI
 40
0.38
  9
$DIMRND
 40
0.0
  9
$DIMDLE
 40
0.0
  9
$DIMEXE
 40
0.18
  9
$DIMTP
 40
0.0
  9
$DIMTM
 40
0.0
  9
$DIMTXT
 40
0.18
  9
$DIMCEN
 40
0.09
  9
$DIMTSZ
 40
0.0
  9
$DIMTOL
 70
     0
  9
$DIMLIM
 70
     0
  9
$DIMTIH
 70
     1
  9
$DIMTOH
 70
     1
  9
$DIMSE1
 70
     0
  9
$DIMSE2
 70
     0
  9
$DIMTAD
 70
     0
  9
$DIMZIN
 70
     0
  9
$DIMBLK
  1

  9
$DIMASO
 70
     1
  9
$DIMSHO
 70
     1
  9
$DIMPOST
  1

  9
$DIMAPOST
  1

  9
$DIMALT
 70
     0
  9
$DIMALTD
 70
     2
  9
$DIMALTF
 40
25.399999999999999
  9
$DIMLFAC
 40
1.0
  9
$DIMTOFL
 70
     0
  9
$DIMTVP
 40
0.0
  9
$DIMTIX
 70
     0
  9
$DIMSOXD
 70
     0
  9
$DIMSAH
 70
     0
  9
$DIMBLK1
  1

  9
$DIMBLK2
  1

  9
$DIMSTYLE
  2
STANDARD
  9
$DIMCLRD
 70
     0
  9
$DIMCLRE
 70
     0
  9
$DIMCLRT
 70
     0
  9
$DIMTFAC
 40
1.0
  9
$DIMGAP
 40
0.09
  9
$LUNITS
 70
     2
  9
$LUPREC
 70
     4
  9
$SKETCHINC
 40
0.1
  9
$FILLETRAD
 40
0.5
  9
$AUNITS
 70
     0
  9
$AUPREC
 70
     0
  9
$MENU
  1
.
  9
$ELEVATION
 40
0.0
  9
$PELEVATION
 40
0.0
  9
$THICKNESS
 40
0.0
  9
$LIMCHECK
 70
     0
  9
$BLIPMODE
 70
     0
  9
$CHAMFERA
 40
0.5
  9
$CHAMFERB
 40
0.5
  9
$SKPOLY
 70
     0
  9
$TDCREATE
 40
2453584.5102847461
  9
$TDUPDATE
 40
2458369.6174717359
  9
$TDINDWG
 40
0.0824614583
  9
$TDUSRTIMER
 40
0.0824614468
  9
$USRTIMER
 70
     1
  9
$ANGBASE
 50
0.0
  9
$ANGDIR
 70
     0
  9
$PDMODE
 70
     0
  9
$PDSIZE
 40
0.0
  9
$PLINEWID
 40
0.0
  9
$COORDS
 70
     2
  9
$SPLFRAME
 70
     0
  9
$SPLINETYPE
 70
     6
  9
$SPLINESEGS
 70
     8
  9
$ATTDIA
 70
     1
  9
$ATTREQ
 70
     1
  9
$HANDLING
 70
     1
  9
$HANDSEED
  5
C99
  9
$SURFTAB1
 70
     6
  9
$SURFTAB2
 70
     6
  9
$SURFTYPE
 70
     6
  9
$SURFU
 70
     6
  9
$SURFV
 70
     6
  9
$UCSNAME
  2

  9
$UCSORG
 10
0.0
 20
0.0
 30
0.0
  9
$UCSXDIR
 10
1.0
 20
0.0
 30
0.0
  9
$UCSYDIR
 10
0.0
 20
1.0
 30
0.0
  9
$PUCSNAME
  2

  9
$PUCSORG
 10
0.0
 20
0.0
 30
0.0
  9
$PUCSXDIR
 10
1.0
 20
0.0
 30
0.0
  9
$PUCSYDIR
 10
0.0
 20
1.0
 30
0.0
  9
$USERI1
 70
     0
  9
$USERI2
 70
     0
  9
$USERI3
 70
     0
  9
$USERI4
 70
     0
  9
$USERI5
 70
     0
  9
$USERR1
 40
0.0
  9
$USERR2
 40
0.0
  9
$USERR3
 40
0.0
  9
$USERR4
 40
0.0
  9
$USERR5
 40
0.0
  9
$WORLDVIEW
 70
     1
  9
$SHADEDGE
 70
     3
  9
$SHADEDIF
 70
    70
  9
$TILEMODE
 70
     1
  9
$MAXACTVP
 70
    64
  9
$PLIMCHECK
 70
     0
  9
$PEXTMIN
 10
0.0
 20
0.0
 30
0.0
  9
$PEXTMAX
 10
0.0
 20
0.0
 30
0.0
  9
$PLIMMIN
 10
0.0
 20
0.0
  9
$PLIMMAX
 10
12.0
 20
9.0
  9
$UNITMODE
 70
     0
  9
$VISRETAIN
 70
     1
  9
$PLINEGEN
 70
     0
  9
$PSLTSCALE
 70
     1
  0
ENDSEC
  0
SECTION
  2
TABLES
  0
TABLE
  2
VPORT
 70
     1
  0
VPORT
  2
*ACTIVE
 70
     0
 10
0.0
 20
0.0
 11
1.0
 21
1.0
 12
91.297684431002097
 22
702.91093940337305
 13
0.0
 23
0.0
 14
0.5
 24
0.5
 15
0.5
 25
0.5
 16
0.0
 26
0.0
 36
1.0
 17
0.0
 27
0.0
 37
0.0
 40
20.420020711892789
 41
1.303763440860215
 42
50.0
 43
0.0
 44
0.0
 50
0.0
 51
0.0
 71
     0
 72
   100
 73
     1
 74
     2
 75
     0
 76
     0
 77
     0
 78
     0
  0
ENDTAB
  0
TABLE
  2
LTYPE
 70
     1
  0
LTYPE
  2
CONTINUOUS
 70
     0
  3
Solid line
 72
    65
 73
     0
 40
0.0
  0
ENDTAB
  0
TABLE
  2
LAYER
 70
     3
  0
LAYER
  2
0
 70
     0
 62
     7
  6
CONTINUOUS
  0
LAYER
  2
BOUNDARY
 70
     0
 62
     1
  6
CONTINUOUS
  0
LAYER
  2
MIRADOR
 70
     0
 62
     2
  6
CONTINUOUS
  0
ENDTAB
  0
TABLE
  2
STYLE
 70
     3
  0
STYLE
  2
STANDARD
 70
     0
 40
0.0
 41
1.0
 50
0.0
 71
     0
 42
0.2
  3
txt
  4

  0
STYLE
  2
ANNOTATIVE
 70
     0
 40
0.0
 41
1.0
 50
0.0
 71
     0
 42
0.2
  3
txt
  4

  0
STYLE
  2
LEGEND
 70
     0
 40
0.0
 41
1.0
 50
0.0
 71
     0
 42
0.2
  3
txt
  4

  0
ENDTAB
  0
TABLE
  2
VIEW
 70
     0
  0
ENDTAB
  0
TABLE
  2
UCS
 70
     0
  0
ENDTAB
  0
TABLE
  2
APPID
 70
    10
  0
APPID
  2
ACAD
 70
     0
  0
APPID
  2
ACADANNOTATIVE
 70
     0
  0
APPID
  2
DCO15
 70
     0
  0
APPID
  2
ADE
 70
     0
  0
APPID
  2
ACAD_NAV_VCDISPLAY
 70
     0
  0
APPID
  2
ADE_PROJECTION
 70
     0
  0
APPID
  2
ACMAPDMDISPLAYSTYLEREGAPP
 70
     0
  0
APPID
  2
MAPGWS
 70
     0
  0
APPID
  2
ACAD_MLEADERVER
 70
     0
  0
APPID
  2
MapManagementAppName
 70
     0
  0
ENDTAB
  0
TABLE
  2
DIMSTYLE
 70
     2
  0
DIMSTYLE
  2
STANDARD
 70
     0
  3

  4

  5

  6

  7

 40
1.0
 41
0.18
 42
0.0625
 43
0.38
 44
0.18
 45
0.0
 46
0.0
 47
0.0
 48
0.0
140
0.18
141
0.09
142
0.0
143
25.399999999999999
144
1.0
145
0.0
146
1.0
147
0.09
 71
     0
 72
     0
 73
     1
 74
     1
 75
     0
 76
     0
 77
     0
 78
     0
170
     0
171
     2
172
     0
173
     0
174
     0
175
     0
176
     0
177
     0
178
     0
  0
DIMSTYLE
  2
ANNOTATIVE
 70
     0
  3

  4

  5

  6

  7

 40
1.0
 41
0.18
 42
0.0625
 43
0.38
 44
0.18
 45
0.0
 46
0.0
 47
0.0
 48
0.0
140
0.18
141
0.09
142
0.0
143
25.399999999999999
144
1.0
145
0.0
146
1.0
147
0.09
 71
     0
 72
     0
 73
     1
 74
     1
 75
     0
 76
     0
 77
     0
 78
     0
170
     0
171
     2
172
     0
173
     0
174
     0
175
     0
176
     0
177
     0
178
     0
  0
ENDTAB
  0
ENDSEC
  0
SECTION
  2
BLOCKS
  0
BLOCK
  8
0
  2
$MODEL_SPACE
 70
     0
 10
0.0
 20
0.0
 30
0.0
  3
$MODEL_SPACE
  1

  0
ENDBLK
  5
6A8
  8
0
  0
BLOCK
 67
     1
  8
0
  2
$PAPER_SPACE
 70
     0
 10
0.0
 20
0.0
 30
0.0
  3
$PAPER_SPACE
  1

  0
ENDBLK
  5
6A4
 67
     1
  8
0
  0
ENDSEC
  0
SECTION
  2
ENTITIES
  0
POLYLINE
  5
5B
  8
MIRADOR
 66
     1
 10
0.0
 20
0.0
 30
0.0
 70
     1
1001
DCO15
1071
        4
1071
        3
1000
lotenos--cerámica
1004
0756475F35383300
1071
        2
1000
lotes--períodos
1004
0756475F35383300
1071
        1
1000
lotes--cerámica
1004
0756475F35383300
  0
VERTEX
  5
6E9
  8
MIRADOR
 10
83.596088587945715
 20
701.20689315802088
 30
0.0
  0
VERTEX
  5
6EA
  8
MIRADOR
 10
83.608220895158382
 20
701.18315324703281
 30
0.0
  0
VERTEX
  5
6EB
  8
MIRADOR
 10
83.590954220433929
 20
701.14147830795798
 30
0.0
  0
VERTEX
  5
6EC
  8
MIRADOR
 10
83.599065826186063
 20
701.11811484593352
 30
0.0
  0
VERTEX
  5
6ED
  8
MIRADOR
 10
83.608528865397773
 20
701.11245815456925
 30
0.0
  0
VERTEX
  5
6EE
  8
MIRADOR
 10
83.688897191651549
 20
701.12622134054925
 30
0.0
  0
VERTEX
  5
6EF
  8
MIRADOR
 10
83.707768547997404
 20
701.16522368540814
 30
0.0
  0
VERTEX
  5
6F0
  8
MIRADOR
 10
83.660502118160693
 20
701.21206744623998
 30
0.0
  0
SEQEND
  5
6F1
  8
MIRADOR
  0
POLYLINE
  5
5E
  8
MIRADOR
 66
     1
 10
0.0
 20
0.0
 30
0.0
 70
     1
1001
DCO15
1071
        4
1071
        3
1000
lotenos--cerámica
1004
0756475F36313400
1071
        2
1000
lotes--períodos
1004
0756475F36313400
1071
        1
1000
lotes--cerámica
1004
0756475F36313400
  0
VERTEX
  5
6F2
  8
MIRADOR
 10
85.064299859105603
 20
700.99489181766614
 30
0.0
  0
VERTEX
  5
6F3
  8
MIRADOR
 10
85.108793417311944
 20
700.99275548995342
 30
0.0
  0
VERTEX
  5
6F4
  8
MIRADOR
 10
85.118296067845193
 20
701.00294446823716
 30
0.0
  0
VERTEX
  5
6F5
  8
MIRADOR
 10
85.135690182807949
 20
701.01727265613374
 30
0.0
  0
VERTEX
  5
6F6
  8
MIRADOR
 10
85.137106284470136
 20
701.04274978531873
 30
0.0
  0
VERTEX
  5
6F7
  8
MIRADOR
 10
85.123677901542337
 20
701.06403827462145
 30
0.0
  0
VERTEX
  5
6F8
  8
MIRADOR
 10
85.097615334684733
 20
701.07509577480926
 30
0.0
  0
VERTEX
  5
6F9
  8
MIRADOR
 10
85.067179088519524
 20
701.074033491004
 30
0.0
  0
VERTEX
  5
6FA
  8
MIRADOR
 10
85.052942814181264
 20
701.0395655555385
 30
0.0
  0
VERTEX
  5
6FB
  8
MIRADOR
 10
85.062334930892149
 20
701.02127378096407
 30
0.0
  0
VERTEX
  5
6FC
  8
MIRADOR
 10
85.060880212792782
 20
701.00910814984786
 30
0.0
  0
VERTEX
  5
6FD
  8
MIRADOR
 10
85.062269148200585
 20
700.99794490364275
 30
0.0
  0
SEQEND
  5
6FE
  8
MIRADOR
  0
POLYLINE
  5
5F
  8
MIRADOR
 66
     1
 10
0.0
 20
0.0
 30
0.0
 70
     1
1001
DCO15
1071
        4
1071
        3
1000
lotenos--cerámica
1004
0756475F32313300
1071
        2
1000
lotes--períodos
1004
0756475F32313300
1071
        1
1000
lotes--cerámica
1004
0756475F32313300
  0
VERTEX
  5
6FF
  8
MIRADOR
 10
84.579872721891817
 20
701.57484152240818
 30
0.0
  0
VERTEX
  5
700
  8
MIRADOR
 10
84.573610915338847
 20
701.6056345033046
 30
0.0
  0
VERTEX
  5
701
  8
MIRADOR
 10
84.573821476274404
 20
701.62545504506284
 30
0.0
  0
VERTEX
  5
702
  8
MIRADOR
 10
84.581943243443163
 20
701.64379445063753
 30
0.0
  0
VERTEX
  5
703
  8
MIRADOR
 10
84.599173273061098
 20
701.65139244589193
 30
0.0
  0
VERTEX
  5
704
  8
MIRADOR
 10
84.614467223986736
 20
701.65179569799159
 30
0.0
  0
VERTEX
  5
705
  8
MIRADOR
 10
84.62782271946881
 20
701.64099468567076
 30
0.0
  0
VERTEX
  5
706
  8
MIRADOR
 10
84.642498749026515
 20
701.62797540309361
 30
0.0
  0
VERTEX
  5
707
  8
MIRADOR
 10
84.659645140682713
 20
701.61266240193481
 30
0.0
  0
VERTEX
  5
708
  8
MIRADOR
 10
84.661608738704942
 20
701.59387699150545
 30
0.0
  0
VERTEX
  5
709
  8
MIRADOR
 10
84.654813968358084
 20
701.57747098043365
 30
0.0
  0
VERTEX
  5
70A
  8
MIRADOR
 10
84.636929372735452
 20
701.56560437397775
 30
0.0
  0
VERTEX
  5
70B
  8
MIRADOR
 10
84.600825702139502
 20
701.5679296781683
 30
0.0
  0
SEQEND
  5
70C
  8
MIRADOR
  0
POLYLINE
  5
60
  8
MIRADOR
 66
     1
 10
0.0
 20
0.0
 30
0.0
 70
     1
1001
DCO15
1071
        4
1071
        3
1000
lotenos--cerámica
1004
0756475F37313600
1071
        2
1000
lotes--períodos
1004
0756475F37313600
1071
        1
1000
lotes--cerámica
1004
0756475F37313600
  0
VERTEX
  5
70D
  8
MIRADOR
 10
89.242820325408346
 20
700.91807707813678
 30
0.0
  0
VERTEX
  5
70E
  8
MIRADOR
 10
89.254475186108053
 20
700.91446144416523
 30
0.0
  0
VERTEX
  5
70F
  8
MIRADOR
 10
89.282978330390847
 20
700.9317471763535
 30
0.0
  0
VERTEX
  5
710
  8
MIRADOR
 10
89.304674081816714
 20
700.95572934307938
 30
0.0
  0
VERTEX
  5
711
  8
MIRADOR
 10
89.302859659117146
 20
700.97102270850814
 30
0.0
  0
VERTEX
  5
712
  8
MIRADOR
 10
89.306570027221312
 20
700.98176050985842
 30
0.0
  0
VERTEX
  5
713
  8
MIRADOR
 10
89.27213551601038
 20
701.00007234349096
 30
0.0
  0
VERTEX
  5
714
  8
MIRADOR
 10
89.251030493010134
 20
701.00062725357543
 30
0.0
  0
VERTEX
  5
715
  8
MIRADOR
 10
89.231591647079213
 20
700.99230368766052
 30
0.0
  0
SEQEND
  5
716
  8
MIRADOR
  0
POLYLINE
  5
61
  8
MIRADOR
 66
     1
 10
0.0
 20
0.0
 30
0.0
 70
     1
1001
DCO15
1071
        4
1071
        3
1000
lotenos--cerámica
1004
0756475F383300
1071
        2
1000
lotes--períodos
1004
0756475F383300
1071
        1
1000
lotes--cerámica
1004
0756475F383300
  0
VERTEX
  5
717
  8
MIRADOR
 10
87.102968749151231
 20
699.32473119449082
 30
0.0
  0
VERTEX
  5
718
  8
MIRADOR
 10
87.12789183731384
 20
699.3350560204849
 30
0.0
  0
VERTEX
  5
719
  8
MIRADOR
 10
87.16132526207781
 20
699.3350560204849
 30
0.0
  0
VERTEX
  5
71A
  8
MIRADOR
 10
87.200229592229277
 20
699.31805043134432
 30
0.0
  0
VERTEX
  5
71B
  8
MIRADOR
 10
87.202332400590407
 20
699.31122058942083
 30
0.0
  0
VERTEX
  5
71C
  8
MIRADOR
 10
87.189005509085135
 20
699.2776522525387
 30
0.0
  0
VERTEX
  5
71D
  8
MIRADOR
 10
87.157874644841627
 20
699.25181610949437
 30
0.0
  0
VERTEX
  5
71E
  8
MIRADOR
 10
87.130687767109805
 20
699.24624269181322
 30
0.0
  0
VERTEX
  5
71F
  8
MIRADOR
 10
87.098456612078195
 20
699.26169669808803
 30
0.0
  0
VERTEX
  5
720
  8
MIRADOR
 10
87.085340225104446
 20
699.26946302978331
 30
0.0
  0
SEQEND
  5
721
  8
MIRADOR
  0
POLYLINE
  5
62
  8
MIRADOR
 66
     1
 10
0.0
 20
0.0
 30
0.0
 70
     1
1001
DCO15
1071
        4
1071
        3
1000
lotenos--cerámica
1004
0756475F383200
1071
        2
1000
lotes--períodos
1004
0756475F383200
1071
        1
1000
lotes--cerámica
1004
0756475F383200
  0
VERTEX
  5
722
  8
MIRADOR
 10
87.198639582526937
 20
699.3210846918787
 30
0.0
  0
VERTEX
  5
723
  8
MIRADOR
 10
87.162033276111359
 20
699.33894913435688
 30
0.0
  0
VERTEX
  5
724
  8
MIRADOR
 10
87.128947326780676
 20
699.33730382607314
 30
0.0
  0
VERTEX
  5
725
  8
MIRADOR
 10
87.147344002389559
 20
699.40854447131915
 30
0.0
  0
VERTEX
  5
726
  8
MIRADOR
 10
87.195974423928575
 20
699.4091518151273
 30
0.0
  0
VERTEX
  5
727
  8
MIRADOR
 10
87.254330936855183
 20
699.44741439069378
 30
0.0
  0
VERTEX
  5
728
  8
MIRADOR
 10
87.25830263036346
 20
699.44048962277293
 30
0.0
  0
VERTEX
  5
729
  8
MIRADOR
 10
87.259837988520445
 20
699.37231520045043
 30
0.0
  0
VERTEX
  5
72A
  8
MIRADOR
 10
87.246789340525467
 20
699.34060441620795
 30
0.0
  0
VERTEX
  5
72B
  8
MIRADOR
 10
87.199686176856645
 20
699.32222188822607
 30
0.0
  0
SEQEND
  5
72C
  8
MIRADOR
  0
POLYLINE
  5
63
  8
MIRADOR
 66
     1
 10
0.0
 20
0.0
 30
0.0
 70
     1
1001
DCO15
1071
        4
1071
        3
1000
lotenos--cerámica
1004
0756475F33383100
1071
        2
1000
lotes--períodos
1004
0756475F33383100
1071
        1
1000
lotes--cerámica
1004
0756475F33383100
  0
VERTEX
  5
72D
  8
MIRADOR
 10
85.599023825128569
 20
701.34865586609044
 30
0.0
  0
VERTEX
  5
72E
  8
MIRADOR
 10
85.622189938019631
 20
701.33653097861156
 30
0.0
  0
VERTEX
  5
72F
  8
MIRADOR
 10
85.642774345825615
 20
701.32310865269562
 30
0.0
  0
VERTEX
  5
730
  8
MIRADOR
 10
85.65893514295179
 20
701.29931431531361
 30
0.0
  0
VERTEX
  5
731
  8
MIRADOR
 10
85.645134670171899
 20
701.25161432090385
 30
0.0
  0
VERTEX
  5
732
  8
MIRADOR
 10
85.618313583077679
 20
701.25102949243012
 30
0.0
  0
VERTEX
  5
733
  8
MIRADOR
 10
85.594898746537126
 20
701.27755603666685
 30
0.0
  0
VERTEX
  5
734
  8
MIRADOR
 10
85.581558361032094
 20
701.29986233484203
 30
0.0
  0
VERTEX
  5
735
  8
MIRADOR
 10
85.579868258112228
 20
701.31283088016414
 30
0.0
  0
VERTEX
  5
736
  8
MIRADOR
 10
85.575635104489066
 20
701.32584218534544
 30
0.0
  0
SEQEND
  5
737
  8
MIRADOR
  0
POLYLINE
  5
64
  8
MIRADOR
 66
     1
 10
0.0
 20
0.0
 30
0.0
 70
     1
1001
DCO15
1071
        4
1071
        3
1000
lotenos--cerámica
1004
0756475F383600
1071
        2
1000
lotes--períodos
1004
0756475F383600
1071
        1
1000
lotes--cerámica
1004
0756475F383600
  0
VERTEX
  5
738
  8
MIRADOR
 10
85.739745596484056
 20
700.28825175002839
 30
0.0
  0
VERTEX
  5
739
  8
MIRADOR
 10
85.723109663851687
 20
700.23731573401585
 30
0.0
  0
VERTEX
  5
73A
  8
MIRADOR
 10
85.795556507700297
 20
700.20353711736311
 30
0.0
  0
VERTEX
  5
73B
  8
MIRADOR
 10
85.807918885460154
 20
700.21969558006992
 30
0.0
  0
VERTEX
  5
73C
  8
MIRADOR
 10
85.819598207618284
 20
700.24409963292385
 30
0.0
  0
VERTEX
  5
73D
  8
MIRADOR
 10
85.813265722264006
 20
700.29146876655727
 30
0.0
  0
SEQEND
  5
73E
  8
MIRADOR
  0
POLYLINE
  5
65
  8
MIRADOR
 66
     1
 10
0.0
 20
0.0
 30
0.0
 70
     1
1001
DCO15
1071
        4
1071
        3
1000
lotenos--cerámica
1004
0756475F353200
1071
        2
1000
lotes--períodos
1004
0756475F353200
1071
        1
1000
lotes--cerámica
1004
0756475F353200
  0
VERTEX
  5
73F
  8
MIRADOR
 10
85.749064259596182
 20
699.90696618457173
 30
0.0
  0
VERTEX
  5
740
  8
MIRADOR
 10
85.775278164139991
 20
699.86619120496334
 30
0.0
  0
VERTEX
  5
741
  8
MIRADOR
 10
85.797082819800437
 20
699.86140646938748
 30
0.0
  0
VERTEX
  5
742
  8
MIRADOR
 10
85.851633561350184
 20
699.86724453379384
 30
0.0
  0
VERTEX
  5
743
  8
MIRADOR
 10
85.862707247666265
 20
699.87600729528185
 30
0.0
  0
VERTEX
  5
744
  8
MIRADOR
 10
85.865515940425794
 20
699.89044022094197
 30
0.0
  0
VERTEX
  5
745
  8
MIRADOR
 10
85.857332036445925
 20
699.91946683363915
 30
0.0
  0
VERTEX
  5
746
  8
MIRADOR
 10
85.848438410367521
 20
699.93850303112674
 30
0.0
  0
VERTEX
  5
747
  8
MIRADOR
 10
85.836891863439902
 20
699.94192173840815
 30
0.0
  0
SEQEND
  5
748
  8
MIRADOR
  0
POLYLINE
  5
66
  8
MIRADOR
 66
     1
 10
0.0
 20
0.0
 30
0.0
 70
     1
1001
DCO15
1071
        4
1071
        3
1000
lotenos--cerámica
1004
0756475F343600
1071
        2
1000
lotes--períodos
1004
0756475F343600
1071
        1
1000
lotes--cerámica
1004
0756475F343600
  0
VERTEX
  5
749
  8
MIRADOR
 10
85.535686030928574
 20
699.8768960514825
 30
0.0
  0
VERTEX
  5
74A
  8
MIRADOR
 10
85.584098112871061
 20
699.87461448478962
 30
0.0
  0
VERTEX
  5
74B
  8
MIRADOR
 10
85.624289265436715
 20
699.85271143126113
 30
0.0
  0
VERTEX
  5
74C
  8
MIRADOR
 10
85.602823537243353
 20
699.76464288673753
 30
0.0
  0
VERTEX
  5
74D
  8
MIRADOR
 10
85.533859167685605
 20
699.76373025437022
 30
0.0
  0
VERTEX
  5
74E
  8
MIRADOR
 10
85.530290573524212
 20
699.82630446665587
 30
0.0
  0
SEQEND
  5
74F
  8
MIRADOR
  0
POLYLINE
  5
67
  8
MIRADOR
 66
     1
 10
0.0
 20
0.0
 30
0.0
 70
     1
1001
DCO15
1071
        4
1071
        3
1000
lotenos--cerámica
1004
0756475F343000
1071
        2
1000
lotes--períodos
1004
0756475F343000
1071
        1
1000
lotes--cerámica
1004
0756475F343000
  0
VERTEX
  5
750
  8
MIRADOR
 10
85.754251766912859
 20
699.75082935332807
 30
0.0
  0
VERTEX
  5
751
  8
MIRADOR
 10
85.787952844100786
 20
699.73557389632447
 30
0.0
  0
VERTEX
  5
752
  8
MIRADOR
 10
85.754776832885454
 20
699.70660714213841
 30
0.0
  0
VERTEX
  5
753
  8
MIRADOR
 10
85.746000123410269
 20
699.64979849521069
 30
0.0
  0
VERTEX
  5
754
  8
MIRADOR
 10
85.720551060445786
 20
699.6278167249568
 30
0.0
  0
VERTEX
  5
755
  8
MIRADOR
 10
85.710056136929992
 20
699.62804817202243
 30
0.0
  0
VERTEX
  5
756
  8
MIRADOR
 10
85.692511642704517
 20
699.63632038872095
 30
0.0
  0
VERTEX
  5
757
  8
MIRADOR
 10
85.684243251235856
 20
699.65565595416626
 30
0.0
  0
VERTEX
  5
758
  8
MIRADOR
 10
85.674670026407384
 20
699.72153056569243
 30
0.0
  0
VERTEX
  5
759
  8
MIRADOR
 10
85.754266984190181
 20
699.74972811286341
 30
0.0
  0
SEQEND
  5
75A
  8
MIRADOR
  0
POLYLINE
  5
68
  8
MIRADOR
 66
     1
 10
0.0
 20
0.0
 30
0.0
 70
     1
1001
DCO15
1071
        4
1071
        3
1000
lotenos--cerámica
1004
0756475F363800
1071
        2
1000
lotes--períodos
1004
0756475F363800
1071
        1
1000
lotes--cerámica
1004
0756475F363800
  0
VERTEX
  5
75B
  8
MIRADOR
 10
87.050348083323044
 20
699.78768148680729
 30
0.0
  0
VERTEX
  5
75C
  8
MIRADOR
 10
87.098309834907553
 20
699.76452048010356
 30
0.0
  0
VERTEX
  5
75D
  8
MIRADOR
 10
87.155863954722932
 20
699.84278872142659
 30
0.0
  0
VERTEX
  5
75E
  8
MIRADOR
 10
87.137478610644209
 20
699.90747981304025
 30
0.0
  0
VERTEX
  5
75F
  8
MIRADOR
 10
87.111393507736452
 20
699.89916097114155
 30
0.0
  0
VERTEX
  5
760
  8
MIRADOR
 10
87.111393507736452
 20
699.89916097114155
 30
0.0
  0
VERTEX
  5
761
  8
MIRADOR
 10
87.101507296955816
 20
699.89549998231371
 30
0.0
  0
SEQEND
  5
762
  8
MIRADOR
  0
POLYLINE
  5
69
  8
MIRADOR
 66
     1
 10
0.0
 20
0.0
 30
0.0
 70
     1
1001
DCO15
1071
        4
1071
        3
1000
lotenos--cerámica
1004
0756475F363700
1071
        2
1000
lotes--períodos
1004
0756475F363700
1071
        1
1000
lotes--cerámica
1004
0756475F363700
  0
VERTEX
  5
763
  8
MIRADOR
 10
87.098342058428557
 20
699.89471636239512
 30
0.0
  0
VERTEX
  5
764
  8
MIRADOR
 10
87.083280544408055
 20
699.89022579981588
 30
0.0
  0
VERTEX
  5
765
  8
MIRADOR
 10
87.059085959171355
 20
699.90108451212279
 30
0.0
  0
VERTEX
  5
766
  8
MIRADOR
 10
87.030998814885905
 20
699.88907048533474
 30
0.0
  0
VERTEX
  5
767
  8
MIRADOR
 10
87.016880237591479
 20
699.89500104483045
 30
0.0
  0
VERTEX
  5
768
  8
MIRADOR
 10
87.006956679688486
 20
699.87507165776515
 30
0.0
  0
VERTEX
  5
769
  8
MIRADOR
 10
87.019301272782187
 20
699.80687103526759
 30
0.0
  0
VERTEX
  5
76A
  8
MIRADOR
 10
87.046412428836504
 20
699.78987787532299
 30
0.0
  0
SEQEND
  5
76B
  8
MIRADOR
  0
POLYLINE
  5
6A
  8
MIRADOR
 66
     1
 10
0.0
 20
0.0
 30
0.0
 70
     1
1001
DCO15
1071
        4
1071
        3
1000
lotenos--cerámica
1004
0756475F353700
1071
        2
1000
lotes--períodos
1004
0756475F353700
1071
        1
1000
lotes--cerámica
1004
0756475F353700
  0
VERTEX
  5
76C
  8
MIRADOR
 10
87.040023003751443
 20
700.21742960239305
 30
0.0
  0
VERTEX
  5
76D
  8
MIRADOR
 10
87.060025445083966
 20
700.24145582865208
 30
0.0
  0
VERTEX
  5
76E
  8
MIRADOR
 10
87.109343864594265
 20
700.28403379590054
 30
0.0
  0
VERTEX
  5
76F
  8
MIRADOR
 10
87.155713620802217
 20
700.21659973511476
 30
0.0
  0
VERTEX
  5
770
  8
MIRADOR
 10
87.117587365662558
 20
700.17181527341017
 30
0.0
  0
VERTEX
  5
771
  8
MIRADOR
 10
87.074120432220425
 20
700.17206354997404
 30
0.0
  0
SEQEND
  5
772
  8
MIRADOR
  0
POLYLINE
  5
6B
  8
MIRADOR
 66
     1
 10
0.0
 20
0.0
 30
0.0
 70
     1
1001
DCO15
1071
        4
1071
        3
1000
lotenos--cerámica
1004
0756475F38393100
1071
        2
1000
lotes--períodos
1004
0756475F38393100
1071
        1
1000
lotes--cerámica
1004
0756475F38393100
  0
VERTEX
  5
773
  8
MIRADOR
 10
86.567640221103176
 20
699.25943293115552
 30
0.0
  0
VERTEX
  5
774
  8
MIRADOR
 10
86.524554026946092
 20
699.23997896586775
 30
0.0
  0
VERTEX
  5
775
  8
MIRADOR
 10
86.489788702067514
 20
699.27325320733269
 30
0.0
  0
VERTEX
  5
776
  8
MIRADOR
 10
86.479065926179089
 20
699.29626936771535
 30
0.0
  0
VERTEX
  5
777
  8
MIRADOR
 10
86.489468903599644
 20
699.33202912279523
 30
0.0
  0
VERTEX
  5
778
  8
MIRADOR
 10
86.514403029981295
 20
699.35772904640237
 30
0.0
  0
VERTEX
  5
779
  8
MIRADOR
 10
86.519316560407177
 20
699.36121195306157
 30
0.0
  0
VERTEX
  5
77A
  8
MIRADOR
 10
86.574773251863633
 20
699.30294823876318
 30
0.0
  0
SEQEND
  5
77B
  8
MIRADOR
  0
POLYLINE
  5
6C
  8
MIRADOR
 66
     1
 10
0.0
 20
0.0
 30
0.0
 70
     1
1001
DCO15
1071
        4
1071
        3
1000
lotenos--cerámica
1004
0756475F38373800
1071
        2
1000
lotes--períodos
1004
0756475F38373800
1071
        1
1000
lotes--cerámica
1004
0756475F38373800
  0
VERTEX
  5
77C
  8
MIRADOR
 10
86.750834810681894
 20
699.33561927990411
 30
0.0
  0
VERTEX
  5
77D
  8
MIRADOR
 10
86.781667543892794
 20
699.37392527424993
 30
0.0
  0
VERTEX
  5
77E
  8
MIRADOR
 10
86.775893219183956
 20
699.39380179085845
 30
0.0
  0
VERTEX
  5
77F
  8
MIRADOR
 10
86.754260582729145
 20
699.41269085275485
 30
0.0
  0
VERTEX
  5
780
  8
MIRADOR
 10
86.740453772436737
 20
699.42316401462813
 30
0.0
  0
VERTEX
  5
781
  8
MIRADOR
 10
86.688910391031925
 20
699.41510765733665
 30
0.0
  0
VERTEX
  5
782
  8
MIRADOR
 10
86.674015029244018
 20
699.3965381279146
 30
0.0
  0
VERTEX
  5
783
  8
MIRADOR
 10
86.674951544050586
 20
699.36440670290222
 30
0.0
  0
VERTEX
  5
784
  8
MIRADOR
 10
86.694603037366079
 20
699.32376242005068
 30
0.0
  0
VERTEX
  5
785
  8
MIRADOR
 10
86.705405056075378
 20
699.31221554197475
 30
0.0
  0
SEQEND
  5
786
  8
MIRADOR
  0
POLYLINE
  5
6D
  8
MIRADOR
 66
     1
 10
0.0
 20
0.0
 30
0.0
 70
     1
1001
DCO15
1071
        4
1071
        3
1000
lotenos--cerámica
1004
0756475F34303000
1071
        2
1000
lotes--períodos
1004
0756475F34303000
1071
        1
1000
lotes--cerámica
1004
0756475F34303000
  0
VERTEX
  5
787
  8
MIRADOR
 10
86.308954012986206
 20
700.46369294287865
 30
0.0
  0
VERTEX
  5
788
  8
MIRADOR
 10
86.309489549651147
 20
700.43911506018264
 30
0.0
  0
VERTEX
  5
789
  8
MIRADOR
 10
86.358742468149089
 20
700.38053194604004
 30
0.0
  0
VERTEX
  5
78A
  8
MIRADOR
 10
86.424744864461886
 20
700.40317227308356
 30
0.0
  0
VERTEX
  5
78B
  8
MIRADOR
 10
86.406738533601185
 20
700.48209448176851
 30
0.0
  0
SEQEND
  5
78C
  8
MIRADOR
  0
POLYLINE
  5
6E
  8
MIRADOR
 66
     1
 10
0.0
 20
0.0
 30
0.0
 70
     1
1001
DCO15
1071
        4
1071
        3
1000
lotenos--cerámica
1004
0756475F33393900
1071
        2
1000
lotes--períodos
1004
0756475F33393900
1071
        1
1000
lotes--cerámica
1004
0756475F33393900
  0
VERTEX
  5
78D
  8
MIRADOR
 10
86.309775509452336
 20
700.43571268641983
 30
0.0
  0
VERTEX
  5
78E
  8
MIRADOR
 10
86.296359134746183
 20
700.41877999382223
 30
0.0
  0
VERTEX
  5
78F
  8
MIRADOR
 10
86.272194791828511
 20
700.37268942422725
 30
0.0
  0
VERTEX
  5
790
  8
MIRADOR
 10
86.274720304745259
 20
700.34600847381205
 30
0.0
  0
VERTEX
  5
791
  8
MIRADOR
 10
86.286883683918035
 20
700.3301144940076
 30
0.0
  0
VERTEX
  5
792
  8
MIRADOR
 10
86.318281445800991
 20
700.33707410842055
 30
0.0
  0
VERTEX
  5
793
  8
MIRADOR
 10
86.355046725823485
 20
700.38104480036054
 30
0.0
  0
SEQEND
  5
794
  8
MIRADOR
  0
POLYLINE
  5
6F
  8
MIRADOR
 66
     1
 10
0.0
 20
0.0
 30
0.0
 70
     1
1001
DCO15
1071
        4
1071
        3
1000
lotenos--cerámica
1004
0756475F33363500
1071
        2
1000
lotes--períodos
1004
0756475F33363500
1071
        1
1000
lotes--cerámica
1004
0756475F33363500
  0
VERTEX
  5
795
  8
MIRADOR
 10
86.835040206128284
 20
701.90977764601257
 30
0.0
  0
VERTEX
  5
796
  8
MIRADOR
 10
86.766344506711349
 20
702.01348861572444
 30
0.0
  0
VERTEX
  5
797
  8
MIRADOR
 10
86.760678592171544
 20
701.96581151459156
 30
0.0
  0
VERTEX
  5
798
  8
MIRADOR
 10
86.772142526881311
 20
701.90516094725558
 30
0.0
  0
VERTEX
  5
799
  8
MIRADOR
 10
86.783291819987525
 20
701.87494181374393
 30
0.0
  0
VERTEX
  5
79A
  8
MIRADOR
 10
86.783291819987525
 20
701.87494181374393
 30
0.0
  0
SEQEND
  5
79B
  8
MIRADOR
  0
POLYLINE
  5
70
  8
MIRADOR
 66
     1
 10
0.0
 20
0.0
 30
0.0
 70
     1
1001
DCO15
1071
        4
1071
        3
1000
lotenos--cerámica
1004
0756475F33363000
1071
        2
1000
lotes--períodos
1004
0756475F33363000
1071
        1
1000
lotes--cerámica
1004
0756475F33363000
  0
VERTEX
  5
79C
  8
MIRADOR
 10
86.91547287465059
 20
701.72876893798468
 30
0.0
  0
VERTEX
  5
79D
  8
MIRADOR
 10
86.965092767694514
 20
701.72931415313121
 30
0.0
  0
VERTEX
  5
79E
  8
MIRADOR
 10
86.975729610918179
 20
701.69925922555251
 30
0.0
  0
VERTEX
  5
79F
  8
MIRADOR
 10
86.976632786841165
 20
701.67100967470958
 30
0.0
  0
VERTEX
  5
7A0
  8
MIRADOR
 10
86.971236324448228
 20
701.64241680033695
 30
0.0
  0
VERTEX
  5
7A1
  8
MIRADOR
 10
86.909891226581806
 20
701.62284494102187
 30
0.0
  0
VERTEX
  5
7A2
  8
MIRADOR
 10
86.910717066259551
 20
701.63629256471006
 30
0.0
  0
VERTEX
  5
7A3
  8
MIRADOR
 10
86.914995521935026
 20
701.68725109180525
 30
0.0
  0
SEQEND
  5
7A4
  8
MIRADOR
  0
POLYLINE
  5
71
  8
MIRADOR
 66
     1
 10
0.0
 20
0.0
 30
0.0
 70
     1
1001
DCO15
1071
        4
1071
        3
1000
lotenos--cerámica
1004
0756475F323100
1071
        2
1000
lotes--períodos
1004
0756475F323100
1071
        1
1000
lotes--cerámica
1004
0756475F323100
  0
VERTEX
  5
7A5
  8
MIRADOR
 10
86.398133186942843
 20
700.01151983819545
 30
0.0
  0
VERTEX
  5
7A6
  8
MIRADOR
 10
86.401649250600926
 20
699.99719315414006
 30
0.0
  0
VERTEX
  5
7A7
  8
MIRADOR
 10
86.383960491426606
 20
699.94507595701054
 30
0.0
  0
VERTEX
  5
7A8
  8
MIRADOR
 10
86.355069977429054
 20
699.92873730267786
 30
0.0
  0
VERTEX
  5
7A9
  8
MIRADOR
 10
86.345899741917094
 20
699.94338100368805
 30
0.0
  0
VERTEX
  5
7AA
  8
MIRADOR
 10
86.326110301100428
 20
699.95008211025697
 30
0.0
  0
VERTEX
  5
7AB
  8
MIRADOR
 10
86.302891033865876
 20
699.95213963493734
 30
0.0
  0
VERTEX
  5
7AC
  8
MIRADOR
 10
86.292201930010762
 20
699.96584272221753
 30
0.0
  0
VERTEX
  5
7AD
  8
MIRADOR
 10
86.302052662521646
 20
700.00048906219365
 30
0.0
  0
VERTEX
  5
7AE
  8
MIRADOR
 10
86.312551855053428
 20
700.02949235985795
 30
0.0
  0
VERTEX
  5
7AF
  8
MIRADOR
 10
86.371968198203561
 20
700.00879672597875
 30
0.0
  0
SEQEND
  5
7B0
  8
MIRADOR
  0
POLYLINE
  5
72
  8
MIRADOR
 66
     1
 10
0.0
 20
0.0
 30
0.0
 70
     1
1001
DCO15
1071
        4
1071
        3
1000
lotenos--cerámica
1004
0756475F33363700
1071
        2
1000
lotes--períodos
1004
0756475F33363700
1071
        1
1000
lotes--cerámica
1004
0756475F33363700
  0
VERTEX
  5
7B1
  8
MIRADOR
 10
86.973656657839371
 20
701.82943306674167
 30
0.0
  0
VERTEX
  5
7B2
  8
MIRADOR
 10
86.992606013779479
 20
701.83339625412839
 30
0.0
  0
VERTEX
  5
7B3
  8
MIRADOR
 10
87.013255001764776
 20
701.87524172803614
 30
0.0
  0
VERTEX
  5
7B4
  8
MIRADOR
 10
87.022992359621739
 20
701.87343104989179
 30
0.0
  0
VERTEX
  5
7B5
  8
MIRADOR
 10
87.054748155962713
 20
701.8182541421952
 30
0.0
  0
VERTEX
  5
7B6
  8
MIRADOR
 10
87.010930218679064
 20
701.77962546675406
 30
0.0
  0
VERTEX
  5
7B7
  8
MIRADOR
 10
86.998177988556535
 20
701.7994114548585
 30
0.0
  0
VERTEX
  5
7B8
  8
MIRADOR
 10
86.981546441036983
 20
701.80434782434725
 30
0.0
  0
SEQEND
  5
7B9
  8
MIRADOR
  0
POLYLINE
  5
73
  8
MIRADOR
 66
     1
 10
0.0
 20
0.0
 30
0.0
 70
     1
1001
DCO15
1071
        4
1071
        3
1000
lotenos--cerámica
1004
0756475F37303700
1071
        2
1000
lotes--períodos
1004
0756475F37303700
1071
        1
1000
lotes--cerámica
1004
0756475F37303700
  0
VERTEX
  5
7BA
  8
MIRADOR
 10
87.895210924016425
 20
699.25617073824139
 30
0.0
  0
VERTEX
  5
7BB
  8
MIRADOR
 10
87.912929939288617
 20
699.27233238934298
 30
0.0
  0
VERTEX
  5
7BC
  8
MIRADOR
 10
87.912929939288617
 20
699.27233238934298
 30
0.0
  0
VERTEX
  5
7BD
  8
MIRADOR
 10
87.912929939288617
 20
699.27233238934298
 30
0.0
  0
VERTEX
  5
7BE
  8
MIRADOR
 10
87.981545639993229
 20
699.29506093944121
 30
0.0
  0
VERTEX
  5
7BF
  8
MIRADOR
 10
88.032463728882348
 20
699.28462867962719
 30
0.0
  0
VERTEX
  5
7C0
  8
MIRADOR
 10
88.024071309032024
 20
699.22792405621874
 30
0.0
  0
VERTEX
  5
7C1
  8
MIRADOR
 10
87.912038015321556
 20
699.21497769266784
 30
0.0
  0
SEQEND
  5
7C2
  8
MIRADOR
  0
POLYLINE
  5
74
  8
MIRADOR
 66
     1
 10
0.0
 20
0.0
 30
0.0
 70
     1
1001
DCO15
1071
        4
1071
        3
1000
lotenos--cerámica
1004
0756475F37303600
1071
        2
1000
lotes--períodos
1004
0756475F37303600
1071
        1
1000
lotes--cerámica
1004
0756475F37303600
  0
VERTEX
  5
7C3
  8
MIRADOR
 10
87.812151952324015
 20
699.21348611676603
 30
0.0
  0
VERTEX
  5
7C4
  8
MIRADOR
 10
87.870388701355665
 20
699.26404049201085
 30
0.0
  0
VERTEX
  5
7C5
  8
MIRADOR
 10
87.861796397645534
 20
699.13240833906343
 30
0.0
  0
VERTEX
  5
7C6
  8
MIRADOR
 10
87.840151561730593
 20
699.13410516299962
 30
0.0
  0
VERTEX
  5
7C7
  8
MIRADOR
 10
87.821912149950165
 20
699.15863966583538
 30
0.0
  0
VERTEX
  5
7C8
  8
MIRADOR
 10
87.808333162617686
 20
699.17008566308346
 30
0.0
  0
VERTEX
  5
7C9
  8
MIRADOR
 10
87.812151952324015
 20
699.21348611676603
 30
0.0
  0
SEQEND
  5
7CA
  8
MIRADOR
  0
POLYLINE
  5
75
  8
MIRADOR
 66
     1
 10
0.0
 20
0.0
 30
0.0
 70
     1
1001
DCO15
1071
        4
1071
        3
1000
lotenos--cerámica
1004
0756475F37303400
1071
        2
1000
lotes--períodos
1004
0756475F37303400
1071
        1
1000
lotes--cerámica
1004
0756475F37303400
  0
VERTEX
  5
7CB
  8
MIRADOR
 10
87.809161097865498
 20
699.21324369876493
 30
0.0
  0
VERTEX
  5
7CC
  8
MIRADOR
 10
87.747490322700145
 20
699.2780738309134
 30
0.0
  0
VERTEX
  5
7CD
  8
MIRADOR
 10
87.758899416052188
 20
699.31009778867372
 30
0.0
  0
VERTEX
  5
7CE
  8
MIRADOR
 10
87.781954670799479
 20
699.32882393911905
 30
0.0
  0
VERTEX
  5
7CF
  8
MIRADOR
 10
87.802032680198096
 20
699.34384509687072
 30
0.0
  0
VERTEX
  5
7D0
  8
MIRADOR
 10
87.815276240234226
 20
699.34848178736365
 30
0.0
  0
VERTEX
  5
7D1
  8
MIRADOR
 10
87.831139317154964
 20
699.33846825049909
 30
0.0
  0
VERTEX
  5
7D2
  8
MIRADOR
 10
87.873874315762365
 20
699.26962468055524
 30
0.0
  0
VERTEX
  5
7D3
  8
MIRADOR
 10
87.811174521278787
 20
699.21551295505083
 30
0.0
  0
SEQEND
  5
7D4
  8
MIRADOR
  0
POLYLINE
  5
76
  8
MIRADOR
 66
     1
 10
0.0
 20
0.0
 30
0.0
 70
     1
1001
DCO15
1071
        4
1071
        3
1000
lotenos--cerámica
1004
0756475F36383300
1071
        2
1000
lotes--períodos
1004
0756475F36383300
1071
        1
1000
lotes--cerámica
1004
0756475F36383300
  0
VERTEX
  5
7D5
  8
MIRADOR
 10
87.613405774039364
 20
698.75614180792013
 30
0.0
  0
VERTEX
  5
7D6
  8
MIRADOR
 10
87.608356687137515
 20
698.71887763972245
 30
0.0
  0
VERTEX
  5
7D7
  8
MIRADOR
 10
87.726190578631929
 20
698.6809971025441
 30
0.0
  0
VERTEX
  5
7D8
  8
MIRADOR
 10
87.723801349415382
 20
698.72097435632293
 30
0.0
  0
SEQEND
  5
7D9
  8
MIRADOR
  0
POLYLINE
  5
77
  8
MIRADOR
 66
     1
 10
0.0
 20
0.0
 30
0.0
 70
     1
1001
DCO15
1071
        4
1071
        3
1000
lotenos--cerámica
1004
0756475F34313000
1071
        2
1000
lotes--períodos
1004
0756475F34313000
1071
        1
1000
lotes--cerámica
1004
0756475F34313000
  0
VERTEX
  5
7DA
  8
MIRADOR
 10
87.756226650066495
 20
701.16372587885326
 30
0.0
  0
VERTEX
  5
7DB
  8
MIRADOR
 10
87.785827878586716
 20
701.15512223264318
 30
0.0
  0
VERTEX
  5
7DC
  8
MIRADOR
 10
87.790237872136444
 20
701.14779108896585
 30
0.0
  0
VERTEX
  5
7DD
  8
MIRADOR
 10
87.776205037638093
 20
701.11427160534072
 30
0.0
  0
VERTEX
  5
7DE
  8
MIRADOR
 10
87.779382291570414
 20
701.0974163318175
 30
0.0
  0
VERTEX
  5
7DF
  8
MIRADOR
 10
87.730519704347046
 20
701.06424780155385
 30
0.0
  0
VERTEX
  5
7E0
  8
MIRADOR
 10
87.698661806821875
 20
701.09721780261498
 30
0.0
  0
VERTEX
  5
7E1
  8
MIRADOR
 10
87.698638818192975
 20
701.14866949798568
 30
0.0
  0
SEQEND
  5
7E2
  8
MIRADOR
  0
POLYLINE
  5
78
  8
MIRADOR
 66
     1
 10
0.0
 20
0.0
 30
0.0
 70
     1
1001
DCO15
1071
        4
1071
        3
1000
lotenos--cerámica
1004
0756475F32333800
1071
        2
1000
lotes--períodos
1004
0756475F32333800
1071
        1
1000
lotes--cerámica
1004
0756475F32333800
  0
VERTEX
  5
7E3
  8
MIRADOR
 10
87.481429523877424
 20
701.0507173862718
 30
0.0
  0
VERTEX
  5
7E4
  8
MIRADOR
 10
87.504497280518734
 20
701.05618226432716
 30
0.0
  0
VERTEX
  5
7E5
  8
MIRADOR
 10
87.522017580265612
 20
701.03974919157395
 30
0.0
  0
VERTEX
  5
7E6
  8
MIRADOR
 10
87.583517414163467
 20
701.03224712837505
 30
0.0
  0
VERTEX
  5
7E7
  8
MIRADOR
 10
87.588846551394354
 20
701.01478411427115
 30
0.0
  0
VERTEX
  5
7E8
  8
MIRADOR
 10
87.575982974394833
 20
700.99296411180239
 30
0.0
  0
VERTEX
  5
7E9
  8
MIRADOR
 10
87.577008063781122
 20
700.97572403109916
 30
0.0
  0
VERTEX
  5
7EA
  8
MIRADOR
 10
87.562115814229202
 20
700.96639858508138
 30
0.0
  0
VERTEX
  5
7EB
  8
MIRADOR
 10
87.5043927448571
 20
700.9760426838385
 30
0.0
  0
VERTEX
  5
7EC
  8
MIRADOR
 10
87.487448728943519
 20
700.99351624530902
 30
0.0
  0
SEQEND
  5
7ED
  8
MIRADOR
  0
POLYLINE
  5
79
  8
MIRADOR
 66
     1
 10
0.0
 20
0.0
 30
0.0
 70
     1
1001
DCO15
1071
        4
1071
        3
1000
lotenos--cerámica
1004
0756475F31373800
1071
        2
1000
lotes--períodos
1004
0756475F31373800
1071
        1
1000
lotes--cerámica
1004
0756475F31373800
  0
VERTEX
  5
7EE
  8
MIRADOR
 10
87.660225677949455
 20
700.10252009061435
 30
0.0
  0
VERTEX
  5
7EF
  8
MIRADOR
 10
87.604459388880244
 20
700.1001491542703
 30
0.0
  0
VERTEX
  5
7F0
  8
MIRADOR
 10
87.571510122422566
 20
700.05625801406461
 30
0.0
  0
VERTEX
  5
7F1
  8
MIRADOR
 10
87.622166484837024
 20
700.01494410865575
 30
0.0
  0
VERTEX
  5
7F2
  8
MIRADOR
 10
87.658445890569709
 20
700.03731941227932
 30
0.0
  0
SEQEND
  5
7F3
  8
MIRADOR
  0
POLYLINE
  5
7A
  8
MIRADOR
 66
     1
 10
0.0
 20
0.0
 30
0.0
 70
     1
1001
DCO15
1071
        4
1071
        3
1000
lotenos--cerámica
1004
0756475F31343100
1071
        2
1000
lotes--períodos
1004
0756475F31343100
1071
        1
1000
lotes--cerámica
1004
0756475F31343100
  0
VERTEX
  5
7F4
  8
MIRADOR
 10
87.372103964351325
 20
700.10282130359371
 30
0.0
  0
VERTEX
  5
7F5
  8
MIRADOR
 10
87.427279380467169
 20
700.12303167693267
 30
0.0
  0
VERTEX
  5
7F6
  8
MIRADOR
 10
87.435900575189123
 20
700.10146492508113
 30
0.0
  0
VERTEX
  5
7F7
  8
MIRADOR
 10
87.458399180064944
 20
700.08817449041385
 30
0.0
  0
VERTEX
  5
7F8
  8
MIRADOR
 10
87.474089796221548
 20
700.08837853136811
 30
0.0
  0
VERTEX
  5
7F9
  8
MIRADOR
 10
87.474055628497453
 20
700.08356807708583
 30
0.0
  0
VERTEX
  5
7FA
  8
MIRADOR
 10
87.453974077751994
 20
700.02558636749052
 30
0.0
  0
VERTEX
  5
7FB
  8
MIRADOR
 10
87.401168908531005
 20
700.00881618820745
 30
0.0
  0
VERTEX
  5
7FC
  8
MIRADOR
 10
87.391513233905215
 20
700.02407398805201
 30
0.0
  0
VERTEX
  5
7FD
  8
MIRADOR
 10
87.395544851663672
 20
700.04940879431535
 30
0.0
  0
VERTEX
  5
7FE
  8
MIRADOR
 10
87.383880774921337
 20
700.08530413553831
 30
0.0
  0
VERTEX
  5
7FF
  8
MIRADOR
 10
87.372103964351325
 20
700.10282130359371
 30
0.0
  0
SEQEND
  5
800
  8
MIRADOR
  0
POLYLINE
  5
7B
  8
MIRADOR
 66
     1
 10
0.0
 20
0.0
 30
0.0
 70
     1
1001
DCO15
1071
        4
1071
        3
1000
lotenos--cerámica
1004
0756475F373600
1071
        2
1000
lotes--períodos
1004
0756475F373600
1071
        1
1000
lotes--cerámica
1004
0756475F373600
  0
VERTEX
  5
801
  8
MIRADOR
 10
87.473039431547122
 20
699.7147687755795
 30
0.0
  0
VERTEX
  5
802
  8
MIRADOR
 10
87.479890834595665
 20
699.741594663559
 30
0.0
  0
VERTEX
  5
803
  8
MIRADOR
 10
87.537458736089206
 20
699.78821232184225
 30
0.0
  0
VERTEX
  5
804
  8
MIRADOR
 10
87.551500692776386
 20
699.77933641866605
 30
0.0
  0
VERTEX
  5
805
  8
MIRADOR
 10
87.560027956378804
 20
699.7792512080847
 30
0.0
  0
VERTEX
  5
806
  8
MIRADOR
 10
87.57957788541151
 20
699.76167109497055
 30
0.0
  0
VERTEX
  5
807
  8
MIRADOR
 10
87.580209248411848
 20
699.73561120202703
 30
0.0
  0
VERTEX
  5
808
  8
MIRADOR
 10
87.567237985583972
 20
699.67801214979431
 30
0.0
  0
VERTEX
  5
809
  8
MIRADOR
 10
87.511029203881805
 20
699.68041211623154
 30
0.0
  0
VERTEX
  5
80A
  8
MIRADOR
 10
87.511029203881805
 20
699.68041211623154
 30
0.0
  0
VERTEX
  5
80B
  8
MIRADOR
 10
87.472089456439036
 20
699.71466348044146
 30
0.0
  0
SEQEND
  5
80C
  8
MIRADOR
  0
POLYLINE
  5
7C
  8
MIRADOR
 66
     1
 10
0.0
 20
0.0
 30
0.0
 70
     1
1001
DCO15
1071
        4
1071
        3
1000
lotenos--cerámica
1004
0756475F373500
1071
        2
1000
lotes--períodos
1004
0756475F373500
1071
        1
1000
lotes--cerámica
1004
0756475F373500
  0
VERTEX
  5
80D
  8
MIRADOR
 10
87.534569629232095
 20
699.79129029438752
 30
0.0
  0
VERTEX
  5
80E
  8
MIRADOR
 10
87.52273334590555
 20
699.81015077586244
 30
0.0
  0
VERTEX
  5
80F
  8
MIRADOR
 10
87.509648736877025
 20
699.82114203194715
 30
0.0
  0
VERTEX
  5
810
  8
MIRADOR
 10
87.484920439563211
 20
699.8237602806812
 30
0.0
  0
VERTEX
  5
811
  8
MIRADOR
 10
87.452418505944166
 20
699.82114023114366
 30
0.0
  0
VERTEX
  5
812
  8
MIRADOR
 10
87.428281421959213
 20
699.80394419495133
 30
0.0
  0
VERTEX
  5
813
  8
MIRADOR
 10
87.411729852651774
 20
699.77755275232255
 30
0.0
  0
VERTEX
  5
814
  8
MIRADOR
 10
87.417272786699826
 20
699.75865818799548
 30
0.0
  0
VERTEX
  5
815
  8
MIRADOR
 10
87.427478472423616
 20
699.72361668789449
 30
0.0
  0
VERTEX
  5
816
  8
MIRADOR
 10
87.435603709305994
 20
699.71305157631798
 30
0.0
  0
VERTEX
  5
817
  8
MIRADOR
 10
87.469713333006695
 20
699.71785149970844
 30
0.0
  0
VERTEX
  5
818
  8
MIRADOR
 10
87.475958747224524
 20
699.74377106704878
 30
0.0
  0
SEQEND
  5
819
  8
MIRADOR
  0
POLYLINE
  5
7D
  8
MIRADOR
 66
     1
 10
0.0
 20
0.0
 30
0.0
 70
     1
1001
DCO15
1071
        4
1071
        3
1000
lotenos--cerámica
1004
0756475F363200
1071
        2
1000
lotes--períodos
1004
0756475F363200
1071
        1
1000
lotes--cerámica
1004
0756475F363200
  0
VERTEX
  5
81A
  8
MIRADOR
 10
87.255784276495319
 20
699.86035913539968
 30
0.0
  0
VERTEX
  5
81B
  8
MIRADOR
 10
87.322131354244618
 20
699.89150669908213
 30
0.0
  0
VERTEX
  5
81C
  8
MIRADOR
 10
87.338733368773021
 20
699.87765440451415
 30
0.0
  0
VERTEX
  5
81D
  8
MIRADOR
 10
87.350051187221055
 20
699.84514768170175
 30
0.0
  0
VERTEX
  5
81E
  8
MIRADOR
 10
87.345886281877313
 20
699.80786759166506
 30
0.0
  0
VERTEX
  5
81F
  8
MIRADOR
 10
87.331248946008344
 20
699.78049784396364
 30
0.0
  0
VERTEX
  5
820
  8
MIRADOR
 10
87.313894058297464
 20
699.77546798693845
 30
0.0
  0
VERTEX
  5
821
  8
MIRADOR
 10
87.274169602660095
 20
699.77650031083033
 30
0.0
  0
VERTEX
  5
822
  8
MIRADOR
 10
87.252586814447056
 20
699.81643308624132
 30
0.0
  0
VERTEX
  5
823
  8
MIRADOR
 10
87.255784276495319
 20
699.86035913539968
 30
0.0
  0
SEQEND
  5
824
  8
MIRADOR
  0
POLYLINE
  5
7E
  8
MIRADOR
 66
     1
 10
0.0
 20
0.0
 30
0.0
 70
     1
1001
DCO15
1071
        4
1071
        3
1000
lotenos--cerámica
1004
0756475F34373900
1071
        2
1000
lotes--períodos
1004
0756475F34373900
1071
        1
1000
lotes--cerámica
1004
0756475F34373900
  0
VERTEX
  5
825
  8
MIRADOR
 10
88.597468892064114
 20
701.49133157362235
 30
0.0
  0
VERTEX
  5
826
  8
MIRADOR
 10
88.575270005360565
 20
701.49513011619899
 30
0.0
  0
VERTEX
  5
827
  8
MIRADOR
 10
88.566240513256304
 20
701.51821223525235
 30
0.0
  0
VERTEX
  5
828
  8
MIRADOR
 10
88.570564440700494
 20
701.61421456299013
 30
0.0
  0
VERTEX
  5
829
  8
MIRADOR
 10
88.603234140599056
 20
701.61373455642536
 30
0.0
  0
VERTEX
  5
82A
  8
MIRADOR
 10
88.646473432955005
 20
701.57389358477133
 30
0.0
  0
VERTEX
  5
82B
  8
MIRADOR
 10
88.643110374295333
 20
701.55421310696852
 30
0.0
  0
VERTEX
  5
82C
  8
MIRADOR
 10
88.653679984666695
 20
701.53837271961993
 30
0.0
  0
VERTEX
  5
82D
  8
MIRADOR
 10
88.637345143674381
 20
701.50861199963344
 30
0.0
  0
VERTEX
  5
82E
  8
MIRADOR
 10
88.595547154495165
 20
701.50141182529012
 30
0.0
  0
SEQEND
  5
82F
  8
MIRADOR
  0
POLYLINE
  5
7F
  8
MIRADOR
 66
     1
 10
0.0
 20
0.0
 30
0.0
 70
     1
1001
DCO15
1071
        4
1071
        3
1000
lotenos--cerámica
1004
0756475F34313500
1071
        2
1000
lotes--períodos
1004
0756475F34313500
1071
        1
1000
lotes--cerámica
1004
0756475F34313500
  0
VERTEX
  5
830
  8
MIRADOR
 10
88.546269331945481
 20
700.85005499673537
 30
0.0
  0
VERTEX
  5
831
  8
MIRADOR
 10
88.598786406016501
 20
700.84414100427921
 30
0.0
  0
VERTEX
  5
832
  8
MIRADOR
 10
88.649901414755817
 20
700.84673695722165
 30
0.0
  0
VERTEX
  5
833
  8
MIRADOR
 10
88.676428339455853
 20
700.80753886061621
 30
0.0
  0
VERTEX
  5
834
  8
MIRADOR
 10
88.681924162570638
 20
700.79134331105161
 30
0.0
  0
VERTEX
  5
835
  8
MIRADOR
 10
88.660547455349928
 20
700.77035982009613
 30
0.0
  0
VERTEX
  5
836
  8
MIRADOR
 10
88.628573464918844
 20
700.76338186575515
 30
0.0
  0
VERTEX
  5
837
  8
MIRADOR
 10
88.603648600374257
 20
700.79266759840948
 30
0.0
  0
VERTEX
  5
838
  8
MIRADOR
 10
88.576493872021786
 20
700.80611484935378
 30
0.0
  0
VERTEX
  5
839
  8
MIRADOR
 10
88.563657944761175
 20
700.80791141863688
 30
0.0
  0
SEQEND
  5
83A
  8
MIRADOR
  0
POLYLINE
  5
80
  8
MIRADOR
 66
     1
 10
0.0
 20
0.0
 30
0.0
 70
     1
1001
DCO15
1071
        4
1071
        3
1000
lotenos--cerámica
1004
0756475F32333300
1071
        2
1000
lotes--períodos
1004
0756475F32333300
1071
        1
1000
lotes--cerámica
1004
0756475F32333300
  0
VERTEX
  5
83B
  8
MIRADOR
 10
88.426433603520906
 20
700.78207737108551
 30
0.0
  0
VERTEX
  5
83C
  8
MIRADOR
 10
88.463563591898534
 20
700.76674388652646
 30
0.0
  0
VERTEX
  5
83D
  8
MIRADOR
 10
88.464553714173562
 20
700.72123806352442
 30
0.0
  0
VERTEX
  5
83E
  8
MIRADOR
 10
88.439274817550086
 20
700.68733563407659
 30
0.0
  0
VERTEX
  5
83F
  8
MIRADOR
 10
88.401680277935867
 20
700.68067851882779
 30
0.0
  0
VERTEX
  5
840
  8
MIRADOR
 10
88.375441759981214
 20
700.74844262739703
 30
0.0
  0
SEQEND
  5
841
  8
MIRADOR
  0
POLYLINE
  5
81
  8
MIRADOR
 66
     1
 10
0.0
 20
0.0
 30
0.0
 70
     1
1001
DCO15
1071
        4
1071
        3
1000
lotenos--cerámica
1004
0756475F32323900
1071
        2
1000
lotes--períodos
1004
0756475F32323900
1071
        1
1000
lotes--cerámica
1004
0756475F32323900
  0
VERTEX
  5
842
  8
MIRADOR
 10
88.313905439350776
 20
700.62399471590948
 30
0.0
  0
VERTEX
  5
843
  8
MIRADOR
 10
88.276775450973133
 20
700.59827402509643
 30
0.0
  0
VERTEX
  5
844
  8
MIRADOR
 10
88.28755587415516
 20
700.57057197280415
 30
0.0
  0
VERTEX
  5
845
  8
MIRADOR
 10
88.306885162474543
 20
700.55761329509505
 30
0.0
  0
VERTEX
  5
846
  8
MIRADOR
 10
88.348188864892563
 20
700.55090222972365
 30
0.0
  0
VERTEX
  5
847
  8
MIRADOR
 10
88.379189631465422
 20
700.55308510961527
 30
0.0
  0
VERTEX
  5
848
  8
MIRADOR
 10
88.394555948749598
 20
700.59367645145664
 30
0.0
  0
VERTEX
  5
849
  8
MIRADOR
 10
88.37255708109106
 20
700.62624205263239
 30
0.0
  0
VERTEX
  5
84A
  8
MIRADOR
 10
88.344231493341809
 20
700.61662138144743
 30
0.0
  0
SEQEND
  5
84B
  8
MIRADOR
  0
POLYLINE
  5
82
  8
MIRADOR
 66
     1
 10
0.0
 20
0.0
 30
0.0
 70
     1
1001
DCO15
1071
        4
1071
        3
1000
lotenos--cerámica
1004
0756475F36323600
1071
        2
1000
lotes--períodos
1004
0756475F36323600
1071
        1
1000
lotes--cerámica
1004
0756475F36323600
  0
VERTEX
  5
84C
  8
MIRADOR
 10
88.709998164443945
 20
700.00185584822316
 30
0.0
  0
VERTEX
  5
84D
  8
MIRADOR
 10
88.720476801351737
 20
700.00360647280036
 30
0.0
  0
VERTEX
  5
84E
  8
MIRADOR
 10
88.763770209166253
 20
700.00678254283889
 30
0.0
  0
VERTEX
  5
84F
  8
MIRADOR
 10
88.779541871616061
 20
700.03359085040529
 30
0.0
  0
VERTEX
  5
850
  8
MIRADOR
 10
88.792690812115595
 20
700.0581377268968
 30
0.0
  0
VERTEX
  5
851
  8
MIRADOR
 10
88.787356674391347
 20
700.08891690874316
 30
0.0
  0
VERTEX
  5
852
  8
MIRADOR
 10
88.721558631842228
 20
700.08753097359761
 30
0.0
  0
VERTEX
  5
853
  8
MIRADOR
 10
88.691417712933102
 20
700.07859056788175
 30
0.0
  0
SEQEND
  5
854
  8
MIRADOR
  0
POLYLINE
  5
83
  8
MIRADOR
 66
     1
 10
0.0
 20
0.0
 30
0.0
 70
     1
1001
DCO15
1071
        4
1071
        3
1000
lotenos--cerámica
1004
0756475F37383500
1071
        2
1000
lotes--períodos
1004
0756475F37383500
1071
        1
1000
lotes--cerámica
1004
0756475F37383500
  0
VERTEX
  5
855
  8
MIRADOR
 10
89.467051200965344
 20
701.03610905471066
 30
0.0
  0
VERTEX
  5
856
  8
MIRADOR
 10
89.449213629840386
 20
700.96252233079645
 30
0.0
  0
VERTEX
  5
857
  8
MIRADOR
 10
89.373604399848759
 20
700.95729503305972
 30
0.0
  0
VERTEX
  5
858
  8
MIRADOR
 10
89.35481439910734
 20
700.99833384164174
 30
0.0
  0
VERTEX
  5
859
  8
MIRADOR
 10
89.37441094978098
 20
701.05335593631185
 30
0.0
  0
SEQEND
  5
85A
  8
MIRADOR
  0
POLYLINE
  5
84
  8
MIRADOR
 66
     1
 10
0.0
 20
0.0
 30
0.0
 70
   129
1001
DCO15
1071
        4
1071
        3
1000
lotenos--cerámica
1004
07545A5F32323200
1071
        2
1000
lotes--períodos
1004
07545A5F32323200
1071
        1
1000
lotes--cerámica
1004
07545A5F32323200
  0
VERTEX
  5
85B
  8
MIRADOR
 10
90.658488753344045
 20
695.94768661048386
 30
0.0
  0
VERTEX
  5
85C
  8
MIRADOR
 10
90.635459810701235
 20
695.93156590451963
 30
0.0
  0
VERTEX
  5
85D
  8
MIRADOR
 10
90.630665159187046
 20
695.90117664359207
 30
0.0
  0
VERTEX
  5
85E
  8
MIRADOR
 10
90.640707745054286
 20
695.86652341967886
 30
0.0
  0
VERTEX
  5
85F
  8
MIRADOR
 10
90.64649636730779
 20
695.85052083761013
 30
0.0
  0
VERTEX
  5
860
  8
MIRADOR
 10
90.672298367649276
 20
695.86605628566554
 30
0.0
  0
VERTEX
  5
861
  8
MIRADOR
 10
90.689676726623503
 20
695.9233669205156
 30
0.0
  0
VERTEX
  5
862
  8
MIRADOR
 10
90.679512054857028
 20
695.94270899446565
 30
0.0
  0
SEQEND
  5
863
  8
MIRADOR
  0
POLYLINE
  5
85
  8
MIRADOR
 66
     1
 10
0.0
 20
0.0
 30
0.0
 70
     1
1001
DCO15
1071
        4
1071
        3
1000
lotenos--cerámica
1004
0743415F3237353000
1071
        2
1000
lotes--períodos
1004
0743415F3237353000
1071
        1
1000
lotes--cerámica
1004
0743415F3237353000
  0
VERTEX
  5
864
  8
MIRADOR
 10
89.611923942609238
 20
707.32749069857198
 30
0.0
  0
VERTEX
  5
865
  8
MIRADOR
 10
89.645814809665893
 20
707.33337753343471
 30
0.0
  0
VERTEX
  5
866
  8
MIRADOR
 10
89.68715710282062
 20
707.31985374076964
 30
0.0
  0
VERTEX
  5
867
  8
MIRADOR
 10
89.694757875616546
 20
707.29768503097375
 30
0.0
  0
VERTEX
  5
868
  8
MIRADOR
 10
89.666887088524135
 20
707.27529446273275
 30
0.0
  0
VERTEX
  5
869
  8
MIRADOR
 10
89.62364535090326
 20
707.27332465854374
 30
0.0
  0
VERTEX
  5
86A
  8
MIRADOR
 10
89.592144374430774
 20
707.28310760137026
 30
0.0
  0
VERTEX
  5
86B
  8
MIRADOR
 10
89.594806729868324
 20
707.31309003640354
 30
0.0
  0
VERTEX
  5
86C
  8
MIRADOR
 10
89.604104522088335
 20
707.32508579044065
 30
0.0
  0
SEQEND
  5
86D
  8
MIRADOR
  0
POLYLINE
  5
86
  8
MIRADOR
 66
     1
 10
0.0
 20
0.0
 30
0.0
 70
     1
1001
DCO15
1071
        4
1071
        3
1000
lotenos--cerámica
1004
0743415F31343900
1071
        2
1000
lotes--períodos
1004
0743415F31343900
1071
        1
1000
lotes--cerámica
1004
0743415F31343900
  0
VERTEX
  5
86E
  8
MIRADOR
 10
92.060532908845957
 20
702.68476038371296
 30
0.0
  0
VERTEX
  5
86F
  8
MIRADOR
 10
92.038430571280117
 20
702.6798542633752
 30
0.0
  0
VERTEX
  5
870
  8
MIRADOR
 10
92.018570095253352
 20
702.67326140540536
 30
0.0
  0
VERTEX
  5
871
  8
MIRADOR
 10
92.009046171112161
 20
702.66425699559397
 30
0.0
  0
VERTEX
  5
872
  8
MIRADOR
 10
92.008643203633227
 20
702.64439858484332
 30
0.0
  0
VERTEX
  5
873
  8
MIRADOR
 10
92.016413012920054
 20
702.62245931896757
 30
0.0
  0
VERTEX
  5
874
  8
MIRADOR
 10
92.04954152800876
 20
702.61489142825906
 30
0.0
  0
VERTEX
  5
875
  8
MIRADOR
 10
92.064001599164428
 20
702.62335254716777
 30
0.0
  0
VERTEX
  5
876
  8
MIRADOR
 10
92.073709856668373
 20
702.63397881380274
 30
0.0
  0
VERTEX
  5
877
  8
MIRADOR
 10
92.076682881340275
 20
702.63727905154485
 30
0.0
  0
VERTEX
  5
878
  8
MIRADOR
 10
92.083147024205076
 20
702.63899551460236
 30
0.0
  0
SEQEND
  5
879
  8
MIRADOR
  0
POLYLINE
  5
87
  8
MIRADOR
 66
     1
 10
0.0
 20
0.0
 30
0.0
 70
     1
1001
DCO15
1071
        4
1071
        3
1000
lotenos--cerámica
1004
07545A5F31373900
1071
        2
1000
lotes--períodos
1004
07545A5F31373900
1071
        1
1000
lotes--cerámica
1004
07545A5F31373900
  0
VERTEX
  5
87A
  8
MIRADOR
 10
93.111931291455136
 20
696.97038785218717
 30
0.0
  0
VERTEX
  5
87B
  8
MIRADOR
 10
93.135484431506114
 20
696.96242690745066
 30
0.0
  0
VERTEX
  5
87C
  8
MIRADOR
 10
93.147941187734986
 20
696.93663064473799
 30
0.0
  0
VERTEX
  5
87D
  8
MIRADOR
 10
93.168038796054006
 20
696.92271115288816
 30
0.0
  0
VERTEX
  5
87E
  8
MIRADOR
 10
93.179989807130866
 20
696.91316853226385
 30
0.0
  0
VERTEX
  5
87F
  8
MIRADOR
 10
93.194925300178525
 20
696.90141822297551
 30
0.0
  0
VERTEX
  5
880
  8
MIRADOR
 10
93.181719832599924
 20
696.85534866329806
 30
0.0
  0
VERTEX
  5
881
  8
MIRADOR
 10
93.143228333131987
 20
696.87735176009801
 30
0.0
  0
VERTEX
  5
882
  8
MIRADOR
 10
93.106259963145789
 20
696.92154169376818
 30
0.0
  0
SEQEND
  5
883
  8
MIRADOR
  0
POLYLINE
  5
88
  8
MIRADOR
 66
     1
 10
0.0
 20
0.0
 30
0.0
 70
     1
1001
DCO15
1071
        4
1071
        3
1000
lotenos--cerámica
1004
0743415F3232313100
1071
        2
1000
lotes--períodos
1004
0743415F3232313100
1071
        1
1000
lotes--cerámica
1004
0743415F3232313100
  0
VERTEX
  5
884
  8
MIRADOR
 10
93.128515052352043
 20
700.30835858737885
 30
0.0
  0
VERTEX
  5
885
  8
MIRADOR
 10
93.132165049939132
 20
700.33339912746703
 30
0.0
  0
VERTEX
  5
886
  8
MIRADOR
 10
93.186430311616249
 20
700.34820397444412
 30
0.0
  0
VERTEX
  5
887
  8
MIRADOR
 10
93.209224365459477
 20
700.31340684821805
 30
0.0
  0
VERTEX
  5
888
  8
MIRADOR
 10
93.203072283892197
 20
700.29912030584876
 30
0.0
  0
SEQEND
  5
889
  8
MIRADOR
  0
POLYLINE
  5
89
  8
MIRADOR
 66
     1
 10
0.0
 20
0.0
 30
0.0
 70
     1
1001
DCO15
1071
        4
1071
        3
1000
lotenos--cerámica
1004
0743415F3232313000
1071
        2
1000
lotes--períodos
1004
0743415F3232313000
1071
        1
1000
lotes--cerámica
1004
0743415F3232313000
  0
VERTEX
  5
88A
  8
MIRADOR
 10
93.127984690657541
 20
700.30719399942996
 30
0.0
  0
VERTEX
  5
88B
  8
MIRADOR
 10
93.127984690657541
 20
700.30719399942996
 30
0.0
  0
VERTEX
  5
88C
  8
MIRADOR
 10
93.202870703553941
 20
700.29843382029628
 30
0.0
  0
VERTEX
  5
88D
  8
MIRADOR
 10
93.192859469754865
 20
700.26200253400884
 30
0.0
  0
VERTEX
  5
88E
  8
MIRADOR
 10
93.179382291792166
 20
700.23902591530737
 30
0.0
  0
VERTEX
  5
88F
  8
MIRADOR
 10
93.161867921937201
 20
700.23512957763728
 30
0.0
  0
VERTEX
  5
890
  8
MIRADOR
 10
93.126950655910903
 20
700.24662446040657
 30
0.0
  0
VERTEX
  5
891
  8
MIRADOR
 10
93.118386648384444
 20
700.26005481606273
 30
0.0
  0
VERTEX
  5
892
  8
MIRADOR
 10
93.118972748704024
 20
700.27780340183961
 30
0.0
  0
SEQEND
  5
893
  8
MIRADOR
  0
POLYLINE
  5
8A
  8
MIRADOR
 66
     1
 10
0.0
 20
0.0
 30
0.0
 70
     1
1001
DCO15
1071
        4
1071
        3
1000
lotenos--cerámica
1004
0743415F363400
1071
        2
1000
lotes--períodos
1004
0743415F363400
1071
        1
1000
lotes--cerámica
1004
0743415F363400
  0
VERTEX
  5
894
  8
MIRADOR
 10
93.074819250324651
 20
703.99993076452051
 30
0.0
  0
VERTEX
  5
895
  8
MIRADOR
 10
93.055526789140416
 20
704.04231211448041
 30
0.0
  0
VERTEX
  5
896
  8
MIRADOR
 10
93.050383689569585
 20
704.06264883058668
 30
0.0
  0
VERTEX
  5
897
  8
MIRADOR
 10
93.053673139292727
 20
704.08298587069885
 30
0.0
  0
VERTEX
  5
898
  8
MIRADOR
 10
93.063722240497185
 20
704.09132190850517
 30
0.0
  0
VERTEX
  5
899
  8
MIRADOR
 10
93.078572377320768
 20
704.08943160813294
 30
0.0
  0
VERTEX
  5
89A
  8
MIRADOR
 10
93.102033784288068
 20
704.08020261670151
 30
0.0
  0
VERTEX
  5
89B
  8
MIRADOR
 10
93.129716335256447
 20
704.07553559666314
 30
0.0
  0
VERTEX
  5
89C
  8
MIRADOR
 10
93.140045605081696
 20
704.06914204555005
 30
0.0
  0
SEQEND
  5
89D
  8
MIRADOR
  0
POLYLINE
  5
8B
  8
MIRADOR
 66
     1
 10
0.0
 20
0.0
 30
0.0
 70
     1
1001
DCO15
1071
        4
1071
        3
1000
lotenos--cerámica
1004
0743415F353700
1071
        2
1000
lotes--períodos
1004
0743415F353700
1071
        1
1000
lotes--cerámica
1004
0743415F353700
  0
VERTEX
  5
89E
  8
MIRADOR
 10
93.112785936401124
 20
703.88585884043005
 30
0.0
  0
VERTEX
  5
89F
  8
MIRADOR
 10
93.123364849145773
 20
703.90638044467948
 30
0.0
  0
VERTEX
  5
8A0
  8
MIRADOR
 10
93.137426983891999
 20
703.9203821234496
 30
0.0
  0
VERTEX
  5
8A1
  8
MIRADOR
 10
93.163236755693916
 20
703.93095733394318
 30
0.0
  0
VERTEX
  5
8A2
  8
MIRADOR
 10
93.139860508589877
 20
703.97008806952113
 30
0.0
  0
VERTEX
  5
8A3
  8
MIRADOR
 10
93.083454897880841
 20
703.98482391973755
 30
0.0
  0
VERTEX
  5
8A4
  8
MIRADOR
 10
93.070792689801223
 20
703.96070235812601
 30
0.0
  0
SEQEND
  5
8A5
  8
MIRADOR
  0
POLYLINE
  5
8C
  8
MIRADOR
 66
     1
 10
0.0
 20
0.0
 30
0.0
 70
     1
1001
DCO15
1071
        4
1071
        3
1000
lotenos--cerámica
1004
0743415F3231393200
1071
        2
1000
lotes--períodos
1004
0743415F3231393200
1071
        1
1000
lotes--cerámica
1004
0743415F3231393200
  0
VERTEX
  5
8A6
  8
MIRADOR
 10
94.311676051854406
 20
700.05440859017563
 30
0.0
  0
VERTEX
  5
8A7
  8
MIRADOR
 10
94.352192287915287
 20
700.06390927595476
 30
0.0
  0
VERTEX
  5
8A8
  8
MIRADOR
 10
94.363354915059276
 20
699.99781764614534
 30
0.0
  0
VERTEX
  5
8A9
  8
MIRADOR
 10
94.338962524513875
 20
699.98377316781375
 30
0.0
  0
SEQEND
  5
8AA
  8
MIRADOR
  0
POLYLINE
  5
8D
  8
MIRADOR
 66
     1
 10
0.0
 20
0.0
 30
0.0
 70
     1
1001
DCO15
1071
        4
1071
        3
1000
lotenos--cerámica
1004
0743415F3231393100
1071
        2
1000
lotes--períodos
1004
0743415F3231393100
1071
        1
1000
lotes--cerámica
1004
0743415F3231393100
  0
VERTEX
  5
8AB
  8
MIRADOR
 10
94.354123298515447
 20
700.06355194908122
 30
0.0
  0
VERTEX
  5
8AC
  8
MIRADOR
 10
94.370507949633165
 20
700.06871510172766
 30
0.0
  0
VERTEX
  5
8AD
  8
MIRADOR
 10
94.387078332176443
 20
700.07751655090544
 30
0.0
  0
VERTEX
  5
8AE
  8
MIRADOR
 10
94.3963235395574
 20
700.01916912110914
 30
0.0
  0
VERTEX
  5
8AF
  8
MIRADOR
 10
94.390775280889059
 20
700.00974379177785
 30
0.0
  0
VERTEX
  5
8B0
  8
MIRADOR
 10
94.365478679800376
 20
699.9965873047214
 30
0.0
  0
SEQEND
  5
8B1
  8
MIRADOR
  0
POLYLINE
  5
8E
  8
MIRADOR
 66
     1
 10
0.0
 20
0.0
 30
0.0
 70
     1
1001
DCO15
1071
        4
1071
        3
1000
lotenos--cerámica
1004
07545A5F31353100
1071
        2
1000
lotes--períodos
1004
07545A5F31353100
1071
        1
1000
lotes--cerámica
1004
07545A5F31353100
  0
VERTEX
  5
8B2
  8
MIRADOR
 10
93.568429770090347
 20
697.19039706885405
 30
0.0
  0
VERTEX
  5
8B3
  8
MIRADOR
 10
93.526898951772026
 20
697.16625393684467
 30
0.0
  0
VERTEX
  5
8B4
  8
MIRADOR
 10
93.496834177378915
 20
697.1435548264069
 30
0.0
  0
VERTEX
  5
8B5
  8
MIRADOR
 10
93.486931556468662
 20
697.11155833212399
 30
0.0
  0
VERTEX
  5
8B6
  8
MIRADOR
 10
93.491597021316835
 20
697.08111142594464
 30
0.0
  0
VERTEX
  5
8B7
  8
MIRADOR
 10
93.533622905195443
 20
697.07657993105909
 30
0.0
  0
VERTEX
  5
8B8
  8
MIRADOR
 10
93.564354554333022
 20
697.07741069004271
 30
0.0
  0
VERTEX
  5
8B9
  8
MIRADOR
 10
93.585007705961203
 20
697.07544424621472
 30
0.0
  0
SEQEND
  5
8BA
  8
MIRADOR
  0
POLYLINE
  5
8F
  8
MIRADOR
 66
     1
 10
0.0
 20
0.0
 30
0.0
 70
     1
1001
DCO15
1071
        4
1071
        3
1000
lotenos--cerámica
1004
0743415F3231393600
1071
        2
1000
lotes--períodos
1004
0743415F3231393600
1071
        1
1000
lotes--cerámica
1004
0743415F3231393600
  0
VERTEX
  5
8BB
  8
MIRADOR
 10
94.222795025691283
 20
699.93856572656421
 30
0.0
  0
VERTEX
  5
8BC
  8
MIRADOR
 10
94.235495731797187
 20
699.90899390959476
 30
0.0
  0
VERTEX
  5
8BD
  8
MIRADOR
 10
94.209325314891487
 20
699.9150898862855
 30
0.0
  0
VERTEX
  5
8BE
  8
MIRADOR
 10
94.191060811252513
 20
699.92595839992032
 30
0.0
  0
VERTEX
  5
8BF
  8
MIRADOR
 10
94.183597581891675
 20
699.94949636984882
 30
0.0
  0
VERTEX
  5
8C0
  8
MIRADOR
 10
94.186070645168911
 20
699.96533644049896
 30
0.0
  0
VERTEX
  5
8C1
  8
MIRADOR
 10
94.194508127170408
 20
699.97642136583204
 30
0.0
  0
SEQEND
  5
8C2
  8
MIRADOR
  0
POLYLINE
  5
90
  8
MIRADOR
 66
     1
 10
0.0
 20
0.0
 30
0.0
 70
     1
1001
DCO15
1071
        4
1071
        3
1000
lotenos--cerámica
1004
0743415F3231393500
1071
        2
1000
lotes--períodos
1004
0743415F3231393500
1071
        1
1000
lotes--cerámica
1004
0743415F3231393500
  0
VERTEX
  5
8C3
  8
MIRADOR
 10
94.196328752444032
 20
699.9771640118297
 30
0.0
  0
VERTEX
  5
8C4
  8
MIRADOR
 10
94.261650884604947
 20
700.02673273418691
 30
0.0
  0
VERTEX
  5
8C5
  8
MIRADOR
 10
94.280255306679933
 20
699.98666466262375
 30
0.0
  0
VERTEX
  5
8C6
  8
MIRADOR
 10
94.221961463895497
 20
699.94287896487185
 30
0.0
  0
SEQEND
  5
8C7
  8
MIRADOR
  0
POLYLINE
  5
91
  8
MIRADOR
 66
     1
 10
0.0
 20
0.0
 30
0.0
 70
     1
1001
DCO15
1071
        4
1071
        3
1000
lotenos--cerámica
1004
0743415F3231393400
1071
        2
1000
lotes--períodos
1004
0743415F3231393400
1071
        1
1000
lotes--cerámica
1004
0743415F3231393400
  0
VERTEX
  5
8C8
  8
MIRADOR
 10
94.223219220641127
 20
699.94157065120964
 30
0.0
  0
VERTEX
  5
8C9
  8
MIRADOR
 10
94.237671869108979
 20
699.90900701858868
 30
0.0
  0
VERTEX
  5
8CA
  8
MIRADOR
 10
94.248159204793794
 20
699.91469823555315
 30
0.0
  0
VERTEX
  5
8CB
  8
MIRADOR
 10
94.259605411555867
 20
699.92441392703233
 30
0.0
  0
VERTEX
  5
8CC
  8
MIRADOR
 10
94.27713837477242
 20
699.94338366168358
 30
0.0
  0
VERTEX
  5
8CD
  8
MIRADOR
 10
94.291448002924028
 20
699.95480867678555
 30
0.0
  0
VERTEX
  5
8CE
  8
MIRADOR
 10
94.296792527244918
 20
699.95651037751406
 30
0.0
  0
VERTEX
  5
8CF
  8
MIRADOR
 10
94.281495562333404
 20
699.98459929919215
 30
0.0
  0
SEQEND
  5
8D0
  8
MIRADOR
  0
POLYLINE
  5
92
  8
MIRADOR
 66
     1
 10
0.0
 20
0.0
 30
0.0
 70
     1
1001
DCO15
1071
        5
1071
        3
1000
lotenos--cerámica
1004
0743415F3232313700
1071
        2
1000
lotes--períodos
1004
0743415F3232313700
1071
        1
1000
lotes--cerámica
1004
0743415F3232313700
  0
VERTEX
  5
8D1
  8
MIRADOR
 10
93.450188087326737
 20
700.06691039598809
 30
0.0
  0
VERTEX
  5
8D2
  8
MIRADOR
 10
93.427506231612753
 20
700.10507203390864
 30
0.0
  0
VERTEX
  5
8D3
  8
MIRADOR
 10
93.410445040325797
 20
700.1094127786331
 30
0.0
  0
VERTEX
  5
8D4
  8
MIRADOR
 10
93.396220590174039
 20
700.10295174916439
 30
0.0
  0
VERTEX
  5
8D5
  8
MIRADOR
 10
93.381302867881985
 20
700.0808755261653
 30
0.0
  0
VERTEX
  5
8D6
  8
MIRADOR
 10
93.354151887995243
 20
700.04141293369014
 30
0.0
  0
VERTEX
  5
8D7
  8
MIRADOR
 10
93.347248369698875
 20
700.01910467066648
 30
0.0
  0
VERTEX
  5
8D8
  8
MIRADOR
 10
93.378709117840273
 20
700.0116475901799
 30
0.0
  0
VERTEX
  5
8D9
  8
MIRADOR
 10
93.400055587221431
 20
700.01884997720686
 30
0.0
  0
VERTEX
  5
8DA
  8
MIRADOR
 10
93.415113158931064
 20
700.01719455161106
 30
0.0
  0
SEQEND
  5
8DB
  8
MIRADOR
  0
POLYLINE
  5
93
  8
MIRADOR
 66
     1
 10
0.0
 20
0.0
 30
0.0
 70
     1
1001
DCO15
1071
        4
1071
        3
1000
lotenos--cerámica
1004
0743415F3231393900
1071
        2
1000
lotes--períodos
1004
0743415F3231393900
1071
        1
1000
lotes--cerámica
1004
0743415F3231393900
  0
VERTEX
  5
8DC
  8
MIRADOR
 10
93.637956171472027
 20
700.19298350619408
 30
0.0
  0
VERTEX
  5
8DD
  8
MIRADOR
 10
93.696607743944384
 20
700.1596673269845
 30
0.0
  0
VERTEX
  5
8DE
  8
MIRADOR
 10
93.703118510852505
 20
700.18313997583562
 30
0.0
  0
VERTEX
  5
8DF
  8
MIRADOR
 10
93.698375960983711
 20
700.2011991426549
 30
0.0
  0
VERTEX
  5
8E0
  8
MIRADOR
 10
93.691723079982438
 20
700.23510703995976
 30
0.0
  0
VERTEX
  5
8E1
  8
MIRADOR
 10
93.679233727213301
 20
700.2457089721745
 30
0.0
  0
VERTEX
  5
8E2
  8
MIRADOR
 10
93.667598091836069
 20
700.25063979833806
 30
0.0
  0
VERTEX
  5
8E3
  8
MIRADOR
 10
93.651816071939905
 20
700.25067530535068
 30
0.0
  0
VERTEX
  5
8E4
  8
MIRADOR
 10
93.629273879507465
 20
700.24396553805616
 30
0.0
  0
VERTEX
  5
8E5
  8
MIRADOR
 10
93.615329116318705
 20
700.2346286778195
 30
0.0
  0
VERTEX
  5
8E6
  8
MIRADOR
 10
93.637956171472027
 20
700.19298350619408
 30
0.0
  0
SEQEND
  5
8E7
  8
MIRADOR
  0
POLYLINE
  5
94
  8
MIRADOR
 66
     1
 10
0.0
 20
0.0
 30
0.0
 70
     1
1001
DCO15
1071
        4
1071
        3
1000
lotenos--cerámica
1004
0743415F3231393800
1071
        2
1000
lotes--períodos
1004
0743415F3231393800
1071
        1
1000
lotes--cerámica
1004
0743415F3231393800
  0
VERTEX
  5
8E8
  8
MIRADOR
 10
93.639742512788843
 20
700.18911644531329
 30
0.0
  0
VERTEX
  5
8E9
  8
MIRADOR
 10
93.696542367302214
 20
700.15773130675723
 30
0.0
  0
VERTEX
  5
8EA
  8
MIRADOR
 10
93.687596666972524
 20
700.1361537462285
 30
0.0
  0
VERTEX
  5
8EB
  8
MIRADOR
 10
93.672031662263407
 20
700.12102924025476
 30
0.0
  0
VERTEX
  5
8EC
  8
MIRADOR
 10
93.642782055735395
 20
700.10718582529455
 30
0.0
  0
VERTEX
  5
8ED
  8
MIRADOR
 10
93.613695967385027
 20
700.10152992067083
 30
0.0
  0
VERTEX
  5
8EE
  8
MIRADOR
 10
93.595919290020774
 20
700.10059114904982
 30
0.0
  0
VERTEX
  5
8EF
  8
MIRADOR
 10
93.578030828245147
 20
700.1078216631355
 30
0.0
  0
VERTEX
  5
8F0
  8
MIRADOR
 10
93.564716112342154
 20
700.12040184752118
 30
0.0
  0
SEQEND
  5
8F1
  8
MIRADOR
  0
POLYLINE
  5
95
  8
MIRADOR
 66
     1
 10
0.0
 20
0.0
 30
0.0
 70
     1
1001
DCO15
1071
        4
1071
        3
1000
lotenos--cerámica
1004
0743415F3231393700
1071
        2
1000
lotes--períodos
1004
0743415F3231393700
1071
        1
1000
lotes--cerámica
1004
0743415F3231393700
  0
VERTEX
  5
8F2
  8
MIRADOR
 10
93.613743705112356
 20
700.23351867848817
 30
0.0
  0
VERTEX
  5
8F3
  8
MIRADOR
 10
93.574538922550985
 20
700.20046887607737
 30
0.0
  0
VERTEX
  5
8F4
  8
MIRADOR
 10
93.551470350208547
 20
700.18498959346175
 30
0.0
  0
VERTEX
  5
8F5
  8
MIRADOR
 10
93.540177728334768
 20
700.15571786063231
 30
0.0
  0
VERTEX
  5
8F6
  8
MIRADOR
 10
93.54452345854223
 20
700.1456489043004
 30
0.0
  0
VERTEX
  5
8F7
  8
MIRADOR
 10
93.555682417770953
 20
700.13291703149639
 30
0.0
  0
VERTEX
  5
8F8
  8
MIRADOR
 10
93.561493557070904
 20
700.12283451032431
 30
0.0
  0
VERTEX
  5
8F9
  8
MIRADOR
 10
93.563242818633924
 20
700.12096104130899
 30
0.0
  0
VERTEX
  5
8FA
  8
MIRADOR
 10
93.638049035659805
 20
700.19000070613697
 30
0.0
  0
SEQEND
  5
8FB
  8
MIRADOR
  0
POLYLINE
  5
96
  8
MIRADOR
 66
     1
 10
0.0
 20
0.0
 30
0.0
 70
     1
1001
DCO15
1071
        4
1071
        3
1000
lotenos--cerámica
1004
0743415F3231383500
1071
        2
1000
lotes--períodos
1004
0743415F3231383500
1071
        1
1000
lotes--cerámica
1004
0743415F3231383500
  0
VERTEX
  5
8FC
  8
MIRADOR
 10
93.416653932617109
 20
700.01462862059896
 30
0.0
  0
VERTEX
  5
8FD
  8
MIRADOR
 10
93.419615206568224
 20
700.00042801882978
 30
0.0
  0
VERTEX
  5
8FE
  8
MIRADOR
 10
93.440654048944054
 20
699.96125529572396
 30
0.0
  0
VERTEX
  5
8FF
  8
MIRADOR
 10
93.444023367773696
 20
699.95232463217485
 30
0.0
  0
VERTEX
  5
900
  8
MIRADOR
 10
93.516379890690814
 20
700.01395991934828
 30
0.0
  0
VERTEX
  5
901
  8
MIRADOR
 10
93.526754063165583
 20
700.04472108492132
 30
0.0
  0
VERTEX
  5
902
  8
MIRADOR
 10
93.508682917712093
 20
700.08049766703527
 30
0.0
  0
VERTEX
  5
903
  8
MIRADOR
 10
93.508682917712093
 20
700.08049766703527
 30
0.0
  0
VERTEX
  5
904
  8
MIRADOR
 10
93.492439956190964
 20
700.06938695095585
 30
0.0
  0
VERTEX
  5
905
  8
MIRADOR
 10
93.469637548334845
 20
700.06704989743162
 30
0.0
  0
VERTEX
  5
906
  8
MIRADOR
 10
93.460839470372704
 20
700.06715325809694
 30
0.0
  0
VERTEX
  5
907
  8
MIRADOR
 10
93.45380016519259
 20
700.06712325785031
 30
0.0
  0
SEQEND
  5
908
  8
MIRADOR
  0
POLYLINE
  5
97
  8
MIRADOR
 66
     1
 10
0.0
 20
0.0
 30
0.0
 70
     1
1001
DCO15
1071
        4
1071
        3
1000
lotenos--cerámica
1004
0743415F3231393000
1071
        2
1000
lotes--períodos
1004
0743415F3231393000
1071
        1
1000
lotes--cerámica
1004
0743415F3231393000
  0
VERTEX
  5
909
  8
MIRADOR
 10
94.398083182649785
 20
700.01805817978652
 30
0.0
  0
VERTEX
  5
90A
  8
MIRADOR
 10
94.412688822644952
 20
700.02279317078671
 30
0.0
  0
VERTEX
  5
90B
  8
MIRADOR
 10
94.423365726288068
 20
700.03044973548981
 30
0.0
  0
VERTEX
  5
90C
  8
MIRADOR
 10
94.432253665904923
 20
700.03638738199163
 30
0.0
  0
VERTEX
  5
90D
  8
MIRADOR
 10
94.437121387264426
 20
700.04526876287014
 30
0.0
  0
VERTEX
  5
90E
  8
MIRADOR
 10
94.434199938277402
 20
700.05787151314792
 30
0.0
  0
VERTEX
  5
90F
  8
MIRADOR
 10
94.428338996777725
 20
700.0662214184166
 30
0.0
  0
VERTEX
  5
910
  8
MIRADOR
 10
94.412997016354197
 20
700.07866827069813
 30
0.0
  0
VERTEX
  5
911
  8
MIRADOR
 10
94.403876567116697
 20
700.08311075603365
 30
0.0
  0
VERTEX
  5
912
  8
MIRADOR
 10
94.388574251461307
 20
700.07671452223315
 30
0.0
  0
SEQEND
  5
913
  8
MIRADOR
  0
POLYLINE
  5
98
  8
MIRADOR
 66
     1
 10
0.0
 20
0.0
 30
0.0
 70
     1
1001
DCO15
1071
        4
1071
        3
1000
lotenos--cerámica
1004
0743415F3231383600
1071
        2
1000
lotes--períodos
1004
0743415F3231383600
1071
        1
1000
lotes--cerámica
1004
0743415F3231383600
  0
VERTEX
  5
914
  8
MIRADOR
 10
94.627685322894692
 20
699.96400629355821
 30
0.0
  0
VERTEX
  5
915
  8
MIRADOR
 10
94.620516675233901
 20
699.9036029494797
 30
0.0
  0
VERTEX
  5
916
  8
MIRADOR
 10
94.641829306152076
 20
699.90165959570072
 30
0.0
  0
VERTEX
  5
917
  8
MIRADOR
 10
94.672354639186281
 20
699.90994455562247
 30
0.0
  0
VERTEX
  5
918
  8
MIRADOR
 10
94.672375091202056
 20
699.93267961553875
 30
0.0
  0
VERTEX
  5
919
  8
MIRADOR
 10
94.656884660371844
 20
699.95880696911138
 30
0.0
  0
VERTEX
  5
91A
  8
MIRADOR
 10
94.639130930573373
 20
699.96872544771225
 30
0.0
  0
SEQEND
  5
91B
  8
MIRADOR
  0
POLYLINE
  5
99
  8
MIRADOR
 66
     1
 10
0.0
 20
0.0
 30
0.0
 70
     1
1001
DCO15
1071
        4
1071
        3
1000
lotenos--cerámica
1004
0743415F3130343100
1071
        2
1000
lotes--períodos
1004
0743415F3130343100
1071
        1
1000
lotes--cerámica
1004
0743415F3130343100
  0
VERTEX
  5
91C
  8
MIRADOR
 10
94.570156067290924
 20
702.51467540729425
 30
0.0
  0
VERTEX
  5
91D
  8
MIRADOR
 10
94.533534676144029
 20
702.47775001715013
 30
0.0
  0
VERTEX
  5
91E
  8
MIRADOR
 10
94.522480731374685
 20
702.47166212403795
 30
0.0
  0
VERTEX
  5
91F
  8
MIRADOR
 10
94.509788634645844
 20
702.46724642875643
 30
0.0
  0
VERTEX
  5
920
  8
MIRADOR
 10
94.49635745712223
 20
702.47145756288921
 30
0.0
  0
VERTEX
  5
921
  8
MIRADOR
 10
94.480987995239005
 20
702.4789402944856
 30
0.0
  0
VERTEX
  5
922
  8
MIRADOR
 10
94.468381793084546
 20
702.4890864082289
 30
0.0
  0
VERTEX
  5
923
  8
MIRADOR
 10
94.543966594075485
 20
702.55443849470021
 30
0.0
  0
SEQEND
  5
924
  8
MIRADOR
  0
POLYLINE
  5
9A
  8
MIRADOR
 66
     1
 10
0.0
 20
0.0
 30
0.0
 70
     1
1001
DCO15
1071
        4
1071
        3
1000
lotenos--cerámica
1004
0743415F31393100
1071
        2
1000
lotes--períodos
1004
0743415F31393100
1071
        1
1000
lotes--cerámica
1004
0743415F31393100
  0
VERTEX
  5
925
  8
MIRADOR
 10
93.434574181709749
 20
705.2423918000203
 30
0.0
  0
VERTEX
  5
926
  8
MIRADOR
 10
93.485477405104106
 20
705.23519954016695
 30
0.0
  0
VERTEX
  5
927
  8
MIRADOR
 10
93.509871386728804
 20
705.23819007086411
 30
0.0
  0
VERTEX
  5
928
  8
MIRADOR
 10
93.536965787615642
 20
705.23792042058813
 30
0.0
  0
VERTEX
  5
929
  8
MIRADOR
 10
93.543707135088255
 20
705.19025472649707
 30
0.0
  0
VERTEX
  5
92A
  8
MIRADOR
 10
93.517778972166056
 20
705.1545054471818
 30
0.0
  0
VERTEX
  5
92B
  8
MIRADOR
 10
93.493416209459227
 20
705.16602696320683
 30
0.0
  0
VERTEX
  5
92C
  8
MIRADOR
 10
93.469162965372007
 20
705.17310078482546
 30
0.0
  0
VERTEX
  5
92D
  8
MIRADOR
 10
93.447001234950804
 20
705.1825273000893
 30
0.0
  0
VERTEX
  5
92E
  8
MIRADOR
 10
93.428722315906924
 20
705.19497968949941
 30
0.0
  0
VERTEX
  5
92F
  8
MIRADOR
 10
93.414668397297589
 20
705.20804327259862
 30
0.0
  0
SEQEND
  5
930
  8
MIRADOR
  0
POLYLINE
  5
9B
  8
MIRADOR
 66
     1
 10
0.0
 20
0.0
 30
0.0
 70
     1
1001
DCO15
1071
        4
1071
        3
1000
lotenos--cerámica
1004
0743415F31383700
1071
        2
1000
lotes--períodos
1004
0743415F31383700
1071
        1
1000
lotes--cerámica
1004
0743415F31383700
  0
VERTEX
  5
931
  8
MIRADOR
 10
93.653297009084525
 20
705.07468066702825
 30
0.0
  0
VERTEX
  5
932
  8
MIRADOR
 10
93.661852059052279
 20
705.11103621524342
 30
0.0
  0
VERTEX
  5
933
  8
MIRADOR
 10
93.681334511229565
 20
705.13187610848718
 30
0.0
  0
VERTEX
  5
934
  8
MIRADOR
 10
93.714379763551634
 20
705.15008181609926
 30
0.0
  0
VERTEX
  5
935
  8
MIRADOR
 10
93.720495900122927
 20
705.13984656582443
 30
0.0
  0
VERTEX
  5
936
  8
MIRADOR
 10
93.720891775189301
 20
705.11330505886735
 30
0.0
  0
VERTEX
  5
937
  8
MIRADOR
 10
93.708726718146195
 20
705.08387811384557
 30
0.0
  0
VERTEX
  5
938
  8
MIRADOR
 10
93.696611343321464
 20
705.07053428535664
 30
0.0
  0
VERTEX
  5
939
  8
MIRADOR
 10
93.684770089184795
 20
705.05825647416657
 30
0.0
  0
SEQEND
  5
93A
  8
MIRADOR
  0
POLYLINE
  5
9C
  8
MIRADOR
 66
     1
 10
0.0
 20
0.0
 30
0.0
 70
     1
1001
DCO15
1071
        4
1071
        3
1000
lotenos--cerámica
1004
0743415F31363000
1071
        2
1000
lotes--períodos
1004
0743415F31363000
1071
        1
1000
lotes--cerámica
1004
0743415F31363000
  0
VERTEX
  5
93B
  8
MIRADOR
 10
93.838068447851825
 20
705.19319335029115
 30
0.0
  0
VERTEX
  5
93C
  8
MIRADOR
 10
93.849730497804515
 20
705.20573221971404
 30
0.0
  0
VERTEX
  5
93D
  8
MIRADOR
 10
93.863632046146648
 20
705.22207390075948
 30
0.0
  0
VERTEX
  5
93E
  8
MIRADOR
 10
93.876393011494173
 20
705.22444840205947
 30
0.0
  0
VERTEX
  5
93F
  8
MIRADOR
 10
93.893961260695576
 20
705.2215698126206
 30
0.0
  0
VERTEX
  5
940
  8
MIRADOR
 10
93.905559794505706
 20
705.2099868744408
 30
0.0
  0
VERTEX
  5
941
  8
MIRADOR
 10
93.911192056950213
 20
705.20542268833651
 30
0.0
  0
SEQEND
  5
942
  8
MIRADOR
  0
POLYLINE
  5
9D
  8
MIRADOR
 66
     1
 10
0.0
 20
0.0
 30
0.0
 70
     1
1001
DCO15
1071
        4
1071
        3
1000
lotenos--cerámica
1004
0743415F31353800
1071
        2
1000
lotes--períodos
1004
0743415F31353800
1071
        1
1000
lotes--cerámica
1004
0743415F31353800
  0
VERTEX
  5
943
  8
MIRADOR
 10
93.838968145688298
 20
705.12259327043523
 30
0.0
  0
VERTEX
  5
944
  8
MIRADOR
 10
93.888361595731936
 20
705.1208901622548
 30
0.0
  0
VERTEX
  5
945
  8
MIRADOR
 10
93.935565092654784
 20
705.17179305101592
 30
0.0
  0
VERTEX
  5
946
  8
MIRADOR
 10
93.92526515529876
 20
705.18405322013029
 30
0.0
  0
VERTEX
  5
947
  8
MIRADOR
 10
93.849153438154474
 20
705.15433151523735
 30
0.0
  0
VERTEX
  5
948
  8
MIRADOR
 10
93.847287712997186
 20
705.14979991377697
 30
0.0
  0
VERTEX
  5
949
  8
MIRADOR
 10
93.844854151168406
 20
705.13967783606313
 30
0.0
  0
SEQEND
  5
94A
  8
MIRADOR
  0
POLYLINE
  5
9E
  8
MIRADOR
 66
     1
 10
0.0
 20
0.0
 30
0.0
 70
     1
1001
DCO15
1071
        4
1071
        3
1000
lotenos--cerámica
1004
0743415F3130323100
1071
        2
1000
lotes--períodos
1004
0743415F3130323100
1071
        1
1000
lotes--cerámica
1004
0743415F3130323100
  0
VERTEX
  5
94B
  8
MIRADOR
 10
94.939821837852094
 20
704.60940689729443
 30
0.0
  0
VERTEX
  5
94C
  8
MIRADOR
 10
94.929217078714927
 20
704.66445658181703
 30
0.0
  0
VERTEX
  5
94D
  8
MIRADOR
 10
94.94154558108734
 20
704.68160120327013
 30
0.0
  0
VERTEX
  5
94E
  8
MIRADOR
 10
94.960793629421715
 20
704.68797662867053
 30
0.0
  0
VERTEX
  5
94F
  8
MIRADOR
 10
94.979372339533086
 20
704.68117517515441
 30
0.0
  0
VERTEX
  5
950
  8
MIRADOR
 10
94.993437579678229
 20
704.66105540229512
 30
0.0
  0
VERTEX
  5
951
  8
MIRADOR
 10
95.00330324253656
 20
704.63559524456866
 30
0.0
  0
VERTEX
  5
952
  8
MIRADOR
 10
95.009668525829284
 20
704.60857726053393
 30
0.0
  0
VERTEX
  5
953
  8
MIRADOR
 10
95.008630133374425
 20
704.60367795938123
 30
0.0
  0
SEQEND
  5
954
  8
MIRADOR
  0
POLYLINE
  5
9F
  8
MIRADOR
 66
     1
 10
0.0
 20
0.0
 30
0.0
 70
     1
1001
DCO15
1071
        4
1071
        3
1000
lotenos--cerámica
1004
0743415F36313200
1071
        2
1000
lotes--períodos
1004
0743415F36313200
1071
        1
1000
lotes--cerámica
1004
0743415F36313200
  0
VERTEX
  5
955
  8
MIRADOR
 10
94.575202768858077
 20
704.42909944640655
 30
0.0
  0
VERTEX
  5
956
  8
MIRADOR
 10
94.568013098599152
 20
704.4008030965681
 30
0.0
  0
VERTEX
  5
957
  8
MIRADOR
 10
94.554865646309779
 20
704.37494895182613
 30
0.0
  0
VERTEX
  5
958
  8
MIRADOR
 10
94.531225310223647
 20
704.35114111443045
 30
0.0
  0
VERTEX
  5
959
  8
MIRADOR
 10
94.489488318003836
 20
704.34903341140591
 30
0.0
  0
VERTEX
  5
95A
  8
MIRADOR
 10
94.478145308804415
 20
704.37334042256543
 30
0.0
  0
VERTEX
  5
95B
  8
MIRADOR
 10
94.480460349043156
 20
704.38178597256365
 30
0.0
  0
VERTEX
  5
95C
  8
MIRADOR
 10
94.476358957333701
 20
704.4070556461246
 30
0.0
  0
VERTEX
  5
95D
  8
MIRADOR
 10
94.556745692614214
 20
704.45731263061668
 30
0.0
  0
SEQEND
  5
95E
  8
MIRADOR
  0
POLYLINE
  5
A0
  8
MIRADOR
 66
     1
 10
0.0
 20
0.0
 30
0.0
 70
     1
1001
DCO15
1071
        4
1071
        3
1000
lotenos--cerámica
1004
0743415F35383300
1071
        2
1000
lotes--períodos
1004
0743415F35383300
1071
        1
1000
lotes--cerámica
1004
0743415F35383300
  0
VERTEX
  5
95F
  8
MIRADOR
 10
94.729978298779869
 20
704.94141390250309
 30
0.0
  0
VERTEX
  5
960
  8
MIRADOR
 10
94.755963520602705
 20
704.94412563705873
 30
0.0
  0
VERTEX
  5
961
  8
MIRADOR
 10
94.775526792215402
 20
704.94608647006351
 30
0.0
  0
VERTEX
  5
962
  8
MIRADOR
 10
94.801087229465352
 20
704.91975392769405
 30
0.0
  0
VERTEX
  5
963
  8
MIRADOR
 10
94.801391487234483
 20
704.88964824831589
 30
0.0
  0
VERTEX
  5
964
  8
MIRADOR
 10
94.790354178518584
 20
704.86178265997205
 30
0.0
  0
VERTEX
  5
965
  8
MIRADOR
 10
94.780067756527629
 20
704.84961630167982
 30
0.0
  0
VERTEX
  5
966
  8
MIRADOR
 10
94.757519912190645
 20
704.84912460367264
 30
0.0
  0
VERTEX
  5
967
  8
MIRADOR
 10
94.731687342450869
 20
704.86800515752486
 30
0.0
  0
VERTEX
  5
968
  8
MIRADOR
 10
94.724023819378075
 20
704.86865941120743
 30
0.0
  0
SEQEND
  5
969
  8
MIRADOR
  0
POLYLINE
  5
A1
  8
MIRADOR
 66
     1
 10
0.0
 20
0.0
 30
0.0
 70
     1
1001
DCO15
1071
        4
1071
        3
1000
lotenos--cerámica
1004
0743415F35383100
1071
        2
1000
lotes--períodos
1004
0743415F35383100
1071
        1
1000
lotes--cerámica
1004
0743415F35383100
  0
VERTEX
  5
96A
  8
MIRADOR
 10
94.898023937098628
 20
705.08036138541354
 30
0.0
  0
VERTEX
  5
96B
  8
MIRADOR
 10
94.875986548342198
 20
705.12292941110661
 30
0.0
  0
VERTEX
  5
96C
  8
MIRADOR
 10
94.843232846770007
 20
705.11650975115708
 30
0.0
  0
VERTEX
  5
96D
  8
MIRADOR
 10
94.826848413136361
 20
705.10931034533144
 30
0.0
  0
VERTEX
  5
96E
  8
MIRADOR
 10
94.817052047473567
 20
705.10245254140375
 30
0.0
  0
VERTEX
  5
96F
  8
MIRADOR
 10
94.80717859485253
 20
705.07977665218709
 30
0.0
  0
VERTEX
  5
970
  8
MIRADOR
 10
94.801059241528264
 20
705.06348095238332
 30
0.0
  0
VERTEX
  5
971
  8
MIRADOR
 10
94.839257478966232
 20
705.04513267690777
 30
0.0
  0
SEQEND
  5
972
  8
MIRADOR
  0
POLYLINE
  5
A2
  8
MIRADOR
 66
     1
 10
0.0
 20
0.0
 30
0.0
 70
     1
1001
DCO15
1071
        4
1071
        3
1000
lotenos--cerámica
1004
0743415F3234313200
1071
        2
1000
lotes--períodos
1004
0743415F3234313200
1071
        1
1000
lotes--cerámica
1004
0743415F3234313200
  0
VERTEX
  5
973
  8
MIRADOR
 10
96.016863595640643
 20
701.3680829378394
 30
0.0
  0
VERTEX
  5
974
  8
MIRADOR
 10
96.019426987933727
 20
701.35839666758329
 30
0.0
  0
VERTEX
  5
975
  8
MIRADOR
 10
96.03194744702499
 20
701.34294455545535
 30
0.0
  0
VERTEX
  5
976
  8
MIRADOR
 10
96.040811202547701
 20
701.32798984737758
 30
0.0
  0
VERTEX
  5
977
  8
MIRADOR
 10
96.051035458871596
 20
701.31823152074764
 30
0.0
  0
VERTEX
  5
978
  8
MIRADOR
 10
96.049896736199756
 20
701.29783903897669
 30
0.0
  0
VERTEX
  5
979
  8
MIRADOR
 10
96.032885145488507
 20
701.28358843576189
 30
0.0
  0
VERTEX
  5
97A
  8
MIRADOR
 10
96.004305493621203
 20
701.27330094115155
 30
0.0
  0
VERTEX
  5
97B
  8
MIRADOR
 10
95.993394645809886
 20
701.28045762819102
 30
0.0
  0
VERTEX
  5
97C
  8
MIRADOR
 10
95.969885362019028
 20
701.29285181862645
 30
0.0
  0
VERTEX
  5
97D
  8
MIRADOR
 10
95.957680295034734
 20
701.30177310774991
 30
0.0
  0
VERTEX
  5
97E
  8
MIRADOR
 10
95.957680295034734
 20
701.30177310774991
 30
0.0
  0
VERTEX
  5
97F
  8
MIRADOR
 10
96.016863595640643
 20
701.3680829378394
 30
0.0
  0
SEQEND
  5
980
  8
MIRADOR
  0
POLYLINE
  5
A3
  8
BOUNDARY
 66
     1
 10
0.0
 20
0.0
 30
0.0
 70
     1
  0
VERTEX
  5
981
  8
BOUNDARY
 10
94.701787370118154
 20
695.82545378322004
 30
0.0
  0
VERTEX
  5
982
  8
BOUNDARY
 10
94.683337357912919
 20
695.88351785296436
 30
0.0
  0
VERTEX
  5
983
  8
BOUNDARY
 10
94.673841062329771
 20
695.95271677241476
 30
0.0
  0
VERTEX
  5
984
  8
BOUNDARY
 10
94.698712997658717
 20
696.08282272401493
 30
0.0
  0
VERTEX
  5
985
  8
BOUNDARY
 10
94.743339970966204
 20
696.08196711285962
 30
0.0
  0
VERTEX
  5
986
  8
BOUNDARY
 10
94.811862154800565
 20
696.11824257368653
 30
0.0
  0
VERTEX
  5
987
  8
BOUNDARY
 10
94.829090989141591
 20
696.16654762439896
 30
0.0
  0
VERTEX
  5
988
  8
BOUNDARY
 10
94.893163332324775
 20
696.20804096254915
 30
0.0
  0
VERTEX
  5
989
  8
BOUNDARY
 10
94.905176152628627
 20
696.25263998655362
 30
0.0
  0
VERTEX
  5
98A
  8
BOUNDARY
 10
95.011660796871411
 20
696.29997762889866
 30
0.0
  0
VERTEX
  5
98B
  8
BOUNDARY
 10
95.191725259601768
 20
696.32407257360319
 30
0.0
  0
VERTEX
  5
98C
  8
BOUNDARY
 10
95.323296479645919
 20
696.29027114438145
 30
0.0
  0
VERTEX
  5
98D
  8
BOUNDARY
 10
95.393296974932582
 20
696.32282380891866
 30
0.0
  0
VERTEX
  5
98E
  8
BOUNDARY
 10
95.629020779898838
 20
696.29619965896745
 30
0.0
  0
VERTEX
  5
98F
  8
BOUNDARY
 10
95.776193459882279
 20
696.25492096128937
 30
0.0
  0
VERTEX
  5
990
  8
BOUNDARY
 10
95.963535819374357
 20
696.21502927400684
 30
0.0
  0
VERTEX
  5
991
  8
BOUNDARY
 10
96.161977626121811
 20
696.15205140518083
 30
0.0
  0
VERTEX
  5
992
  8
BOUNDARY
 10
96.214057645156799
 20
696.15712767270225
 30
0.0
  0
VERTEX
  5
993
  8
BOUNDARY
 10
96.277453252723944
 20
696.2254001760964
 30
0.0
  0
VERTEX
  5
994
  8
BOUNDARY
 10
96.339890768358131
 20
696.20813593930529
 30
0.0
  0
VERTEX
  5
995
  8
BOUNDARY
 10
96.462683420745876
 20
696.23311817104195
 30
0.0
  0
VERTEX
  5
996
  8
BOUNDARY
 10
96.610077831866647
 20
696.28035333260891
 30
0.0
  0
VERTEX
  5
997
  8
BOUNDARY
 10
96.680810961375528
 20
696.30844125019917
 30
0.0
  0
VERTEX
  5
998
  8
BOUNDARY
 10
96.75067730000751
 20
696.28743931082295
 30
0.0
  0
VERTEX
  5
999
  8
BOUNDARY
 10
96.856440489749502
 20
696.34370458377384
 30
0.0
  0
VERTEX
  5
99A
  8
BOUNDARY
 10
96.980676051138985
 20
696.35083155429868
 30
0.0
  0
VERTEX
  5
99B
  8
BOUNDARY
 10
97.069296117735803
 20
696.39300721792586
 30
0.0
  0
VERTEX
  5
99C
  8
BOUNDARY
 10
97.125339297066574
 20
696.49551379557795
 30
0.0
  0
VERTEX
  5
99D
  8
BOUNDARY
 10
97.1709169091598
 20
696.5772196688348
 30
0.0
  0
VERTEX
  5
99E
  8
BOUNDARY
 10
97.280930567858164
 20
696.54867897253519
 30
0.0
  0
VERTEX
  5
99F
  8
BOUNDARY
 10
97.358510812379095
 20
696.63774286388934
 30
0.0
  0
VERTEX
  5
9A0
  8
BOUNDARY
 10
97.401169067305545
 20
696.74177060859131
 30
0.0
  0
VERTEX
  5
9A1
  8
BOUNDARY
 10
97.452561171003225
 20
696.76916315769745
 30
0.0
  0
VERTEX
  5
9A2
  8
BOUNDARY
 10
97.499527656778824
 20
696.81144316538894
 30
0.0
  0
VERTEX
  5
9A3
  8
BOUNDARY
 10
97.507101816152499
 20
696.86572295037695
 30
0.0
  0
VERTEX
  5
9A4
  8
BOUNDARY
 10
97.536943811651781
 20
696.90135148817762
 30
0.0
  0
VERTEX
  5
9A5
  8
BOUNDARY
 10
97.465861885016025
 20
697.03095398984055
 30
0.0
  0
VERTEX
  5
9A6
  8
BOUNDARY
 10
97.491951271635585
 20
697.05320319309715
 30
0.0
  0
VERTEX
  5
9A7
  8
BOUNDARY
 10
97.551471293389582
 20
697.05900464169326
 30
0.0
  0
VERTEX
  5
9A8
  8
BOUNDARY
 10
97.596303228252523
 20
697.13996856429435
 30
0.0
  0
VERTEX
  5
9A9
  8
BOUNDARY
 10
97.679679331509561
 20
697.16728099206466
 30
0.0
  0
VERTEX
  5
9AA
  8
BOUNDARY
 10
97.724466547487722
 20
697.23039338002798
 30
0.0
  0
VERTEX
  5
9AB
  8
BOUNDARY
 10
97.778873035982571
 20
697.27339856879439
 30
0.0
  0
VERTEX
  5
9AC
  8
BOUNDARY
 10
97.812956184003696
 20
697.22050206762833
 30
0.0
  0
VERTEX
  5
9AD
  8
BOUNDARY
 10
97.870134830002598
 20
697.1824240834344
 30
0.0
  0
VERTEX
  5
9AE
  8
BOUNDARY
 10
97.930519779346696
 20
697.23657157505443
 30
0.0
  0
VERTEX
  5
9AF
  8
BOUNDARY
 10
97.929278105327057
 20
697.33475874213559
 30
0.0
  0
VERTEX
  5
9B0
  8
BOUNDARY
 10
97.894536854558524
 20
697.4218725479775
 30
0.0
  0
VERTEX
  5
9B1
  8
BOUNDARY
 10
97.917718063732067
 20
697.47090650633822
 30
0.0
  0
VERTEX
  5
9B2
  8
BOUNDARY
 10
98.021947043415807
 20
697.50858015728159
 30
0.0
  0
VERTEX
  5
9B3
  8
BOUNDARY
 10
98.106969153943041
 20
697.59911304365346
 30
0.0
  0
VERTEX
  5
9B4
  8
BOUNDARY
 10
98.142088651946082
 20
697.66299346828907
 30
0.0
  0
VERTEX
  5
9B5
  8
BOUNDARY
 10
98.220196569133563
 20
697.66577307894124
 30
0.0
  0
VERTEX
  5
9B6
  8
BOUNDARY
 10
98.328802721280695
 20
697.66922010877397
 30
0.0
  0
VERTEX
  5
9B7
  8
BOUNDARY
 10
98.442084171790384
 20
697.75745074841564
 30
0.0
  0
VERTEX
  5
9B8
  8
BOUNDARY
 10
98.617156214907951
 20
697.86709733960026
 30
0.0
  0
VERTEX
  5
9B9
  8
BOUNDARY
 10
98.829952217714663
 20
697.89259792756923
 30
0.0
  0
VERTEX
  5
9BA
  8
BOUNDARY
 10
99.120967934921055
 20
697.96550696278405
 30
0.0
  0
VERTEX
  5
9BB
  8
BOUNDARY
 10
99.359842144625645
 20
698.00879387035025
 30
0.0
  0
VERTEX
  5
9BC
  8
BOUNDARY
 10
99.615799852295837
 20
698.04236834105609
 30
0.0
  0
VERTEX
  5
9BD
  8
BOUNDARY
 10
100.069080669627
 20
698.16024383027116
 30
0.0
  0
VERTEX
  5
9BE
  8
BOUNDARY
 10
100.2322032441943
 20
698.25058107152165
 30
0.0
  0
VERTEX
  5
9BF
  8
BOUNDARY
 10
100.1985002066944
 20
698.45521561710825
 30
0.0
  0
VERTEX
  5
9C0
  8
BOUNDARY
 10
100.2179753891603
 20
698.50946558950602
 30
0.0
  0
VERTEX
  5
9C1
  8
BOUNDARY
 10
100.2723352954833
 20
698.53387542969131
 30
0.0
  0
VERTEX
  5
9C2
  8
BOUNDARY
 10
100.3414540935982
 20
698.51138772571551
 30
0.0
  0
VERTEX
  5
9C3
  8
BOUNDARY
 10
100.4662191909412
 20
698.43297422948126
 30
0.0
  0
VERTEX
  5
9C4
  8
BOUNDARY
 10
100.6203060642642
 20
698.47944880752368
 30
0.0
  0
VERTEX
  5
9C5
  8
BOUNDARY
 10
100.8962442676238
 20
698.47206320260602
 30
0.0
  0
VERTEX
  5
9C6
  8
BOUNDARY
 10
100.93611023137279
 20
698.35220854025317
 30
0.0
  0
VERTEX
  5
9C7
  8
BOUNDARY
 10
101.06820167093591
 20
698.22914757455635
 30
0.0
  0
VERTEX
  5
9C8
  8
BOUNDARY
 10
101.2264402590112
 20
698.15139404435649
 30
0.0
  0
VERTEX
  5
9C9
  8
BOUNDARY
 10
101.3053907443461
 20
698.19359393071295
 30
0.0
  0
VERTEX
  5
9CA
  8
BOUNDARY
 10
101.41805322113279
 20
698.33166196783804
 30
0.0
  0
VERTEX
  5
9CB
  8
BOUNDARY
 10
101.52725003521751
 20
698.57089801767802
 30
0.0
  0
VERTEX
  5
9CC
  8
BOUNDARY
 10
101.5800474196971
 20
698.86234265334645
 30
0.0
  0
VERTEX
  5
9CD
  8
BOUNDARY
 10
101.580317596293
 20
698.97019567511597
 30
0.0
  0
VERTEX
  5
9CE
  8
BOUNDARY
 10
101.5977197163128
 20
699.08767542254964
 30
0.0
  0
VERTEX
  5
9CF
  8
BOUNDARY
 10
101.72840328684219
 20
699.29338580962485
 30
0.0
  0
VERTEX
  5
9D0
  8
BOUNDARY
 10
101.8096802416371
 20
699.37351461722596
 30
0.0
  0
VERTEX
  5
9D1
  8
BOUNDARY
 10
101.831926419963
 20
699.3865820979895
 30
0.0
  0
VERTEX
  5
9D2
  8
BOUNDARY
 10
101.8412567233437
 20
699.39549811431391
 30
0.0
  0
VERTEX
  5
9D3
  8
BOUNDARY
 10
101.8522095521394
 20
699.40725100301711
 30
0.0
  0
VERTEX
  5
9D4
  8
BOUNDARY
 10
101.85217452731899
 20
699.41208673492247
 30
0.0
  0
VERTEX
  5
9D5
  8
BOUNDARY
 10
101.85158163961199
 20
699.4723375276119
 30
0.0
  0
VERTEX
  5
9D6
  8
BOUNDARY
 10
101.8390560529367
 20
699.51997329585583
 30
0.0
  0
VERTEX
  5
9D7
  8
BOUNDARY
 10
101.6490291104233
 20
699.67590741143135
 30
0.0
  0
VERTEX
  5
9D8
  8
BOUNDARY
 10
101.60525402169741
 20
699.71990236800775
 30
0.0
  0
VERTEX
  5
9D9
  8
BOUNDARY
 10
101.6537514200333
 20
699.95661783314085
 30
0.0
  0
VERTEX
  5
9DA
  8
BOUNDARY
 10
101.65063142003351
 20
699.96597783314053
 30
0.0
  0
VERTEX
  5
9DB
  8
BOUNDARY
 10
101.6568714200334
 20
700.01277783314015
 30
0.0
  0
VERTEX
  5
9DC
  8
BOUNDARY
 10
101.6537514200333
 20
700.06893783314035
 30
0.0
  0
VERTEX
  5
9DD
  8
BOUNDARY
 10
101.65063142003351
 20
700.10949783314015
 30
0.0
  0
VERTEX
  5
9DE
  8
BOUNDARY
 10
101.6568714200334
 20
700.13757783314043
 30
0.0
  0
VERTEX
  5
9DF
  8
BOUNDARY
 10
101.65999142003351
 20
700.16565783314013
 30
0.0
  0
VERTEX
  5
9E0
  8
BOUNDARY
 10
101.6568714200334
 20
700.17189783314052
 30
0.0
  0
VERTEX
  5
9E1
  8
BOUNDARY
 10
101.6662314200334
 20
700.19685783314014
 30
0.0
  0
VERTEX
  5
9E2
  8
BOUNDARY
 10
101.68807142003349
 20
700.23741783314051
 30
0.0
  0
VERTEX
  5
9E3
  8
BOUNDARY
 10
101.6787114200333
 20
700.26237783314025
 30
0.0
  0
VERTEX
  5
9E4
  8
BOUNDARY
 10
101.6724714200334
 20
700.27173783314038
 30
0.0
  0
VERTEX
  5
9E5
  8
BOUNDARY
 10
101.6568714200334
 20
700.27485783314035
 30
0.0
  0
VERTEX
  5
9E6
  8
BOUNDARY
 10
101.60071142003331
 20
700.25613783314077
 30
0.0
  0
VERTEX
  5
9E7
  8
BOUNDARY
 10
101.5476714200335
 20
700.25613783314077
 30
0.0
  0
VERTEX
  5
9E8
  8
BOUNDARY
 10
101.4727914200334
 20
700.29669783314046
 30
0.0
  0
VERTEX
  5
9E9
  8
BOUNDARY
 10
101.43847142003339
 20
700.32789783314058
 30
0.0
  0
VERTEX
  5
9EA
  8
BOUNDARY
 10
101.4322314200333
 20
700.34973783314035
 30
0.0
  0
VERTEX
  5
9EB
  8
BOUNDARY
 10
101.42911142003339
 20
700.37781783314051
 30
0.0
  0
VERTEX
  5
9EC
  8
BOUNDARY
 10
101.4322314200333
 20
700.38093783314071
 30
0.0
  0
VERTEX
  5
9ED
  8
BOUNDARY
 10
101.43847142003339
 20
700.39029783314015
 30
0.0
  0
VERTEX
  5
9EE
  8
BOUNDARY
 10
101.4759114200333
 20
700.40589783314044
 30
0.0
  0
VERTEX
  5
9EF
  8
BOUNDARY
 10
101.5320714200334
 20
700.43397783314072
 30
0.0
  0
VERTEX
  5
9F0
  8
BOUNDARY
 10
101.65063142003351
 20
700.48077783314045
 30
0.0
  0
VERTEX
  5
9F1
  8
BOUNDARY
 10
101.6631114200336
 20
700.49325783314043
 30
0.0
  0
VERTEX
  5
9F2
  8
BOUNDARY
 10
101.66935142003349
 20
700.49325783314043
 30
0.0
  0
VERTEX
  5
9F3
  8
BOUNDARY
 10
101.7161514200336
 20
700.54941783314052
 30
0.0
  0
VERTEX
  5
9F4
  8
BOUNDARY
 10
101.7411114200335
 20
700.58685783314058
 30
0.0
  0
VERTEX
  5
9F5
  8
BOUNDARY
 10
101.76919142003359
 20
700.65237783314058
 30
0.0
  0
VERTEX
  5
9F6
  8
BOUNDARY
 10
101.8066314200334
 20
700.74909783314047
 30
0.0
  0
VERTEX
  5
9F7
  8
BOUNDARY
 10
101.8284714200333
 20
700.79277783314058
 30
0.0
  0
VERTEX
  5
9F8
  8
BOUNDARY
 10
101.8471914200334
 20
700.83645783314068
 30
0.0
  0
VERTEX
  5
9F9
  8
BOUNDARY
 10
101.8471914200334
 20
700.89885783314026
 30
0.0
  0
VERTEX
  5
9FA
  8
BOUNDARY
 10
101.85031142003341
 20
700.9082178331405
 30
0.0
  0
VERTEX
  5
9FB
  8
BOUNDARY
 10
101.8534314200333
 20
700.94877783314041
 30
0.0
  0
VERTEX
  5
9FC
  8
BOUNDARY
 10
101.85967142003319
 20
700.9706178331403
 30
0.0
  0
VERTEX
  5
9FD
  8
BOUNDARY
 10
101.8752714200334
 20
700.98933783314044
 30
0.0
  0
VERTEX
  5
9FE
  8
BOUNDARY
 10
101.88151142003331
 20
700.99245783314052
 30
0.0
  0
VERTEX
  5
9FF
  8
BOUNDARY
 10
102.0063114200334
 20
701.03925783314025
 30
0.0
  0
VERTEX
  5
A00
  8
BOUNDARY
 10
102.0655914200335
 20
701.04549783314042
 30
0.0
  0
VERTEX
  5
A01
  8
BOUNDARY
 10
102.1467114200334
 20
701.03301783314066
 30
0.0
  0
VERTEX
  5
A02
  8
BOUNDARY
 10
102.1623114200336
 20
701.0361378331404
 30
0.0
  0
VERTEX
  5
A03
  8
BOUNDARY
 10
102.1779114200333
 20
701.02989783314047
 30
0.0
  0
VERTEX
  5
A04
  8
BOUNDARY
 10
102.2122314200335
 20
701.01117783314089
 30
0.0
  0
VERTEX
  5
A05
  8
BOUNDARY
 10
102.2590314200333
 20
701.01741783314026
 30
0.0
  0
VERTEX
  5
A06
  8
BOUNDARY
 10
102.3058314200334
 20
701.03301783314066
 30
0.0
  0
VERTEX
  5
A07
  8
BOUNDARY
 10
102.34015142003339
 20
701.02989783314047
 30
0.0
  0
VERTEX
  5
A08
  8
BOUNDARY
 10
102.38071142003329
 20
701.04237783314045
 30
0.0
  0
VERTEX
  5
A09
  8
BOUNDARY
 10
102.43999142003349
 20
701.07669783314043
 30
0.0
  0
VERTEX
  5
A0A
  8
BOUNDARY
 10
102.4930314200335
 20
701.12973783314055
 30
0.0
  0
VERTEX
  5
A0B
  8
BOUNDARY
 10
102.5148714200336
 20
701.16093783314068
 30
0.0
  0
VERTEX
  5
A0C
  8
BOUNDARY
 10
102.5647914200335
 20
701.20461783314067
 30
0.0
  0
VERTEX
  5
A0D
  8
BOUNDARY
 10
102.6084714200333
 20
701.20773783314041
 30
0.0
  0
VERTEX
  5
A0E
  8
BOUNDARY
 10
102.6490314200334
 20
701.20461783314067
 30
0.0
  0
VERTEX
  5
A0F
  8
BOUNDARY
 10
102.6833514200334
 20
701.21085783314061
 30
0.0
  0
VERTEX
  5
A10
  8
BOUNDARY
 10
102.6989514200334
 20
701.20461783314067
 30
0.0
  0
VERTEX
  5
A11
  8
BOUNDARY
 10
102.7145514200335
 20
701.21397783314046
 30
0.0
  0
VERTEX
  5
A12
  8
BOUNDARY
 10
102.7457514200334
 20
701.22957783314041
 30
0.0
  0
VERTEX
  5
A13
  8
BOUNDARY
 10
102.7738314200335
 20
701.23581783314046
 30
0.0
  0
VERTEX
  5
A14
  8
BOUNDARY
 10
102.7894314200334
 20
701.23269783314049
 30
0.0
  0
VERTEX
  5
A15
  8
BOUNDARY
 10
102.80191142003331
 20
701.23581783314046
 30
0.0
  0
VERTEX
  5
A16
  8
BOUNDARY
 10
102.81127142003329
 20
701.24205783314005
 30
0.0
  0
VERTEX
  5
A17
  8
BOUNDARY
 10
102.8580714200334
 20
701.28261783314065
 30
0.0
  0
VERTEX
  5
A18
  8
BOUNDARY
 10
102.9079914200333
 20
701.31693783314029
 30
0.0
  0
VERTEX
  5
A19
  8
BOUNDARY
 10
102.93295142003331
 20
701.35125783314015
 30
0.0
  0
VERTEX
  5
A1A
  8
BOUNDARY
 10
102.9485514200334
 20
701.39493783314015
 30
0.0
  0
VERTEX
  5
A1B
  8
BOUNDARY
 10
102.95167142003351
 20
701.41053783314055
 30
0.0
  0
VERTEX
  5
A1C
  8
BOUNDARY
 10
102.9391914200334
 20
701.47917783314006
 30
0.0
  0
VERTEX
  5
A1D
  8
BOUNDARY
 10
102.9485514200334
 20
701.56653783314061
 30
0.0
  0
VERTEX
  5
A1E
  8
BOUNDARY
 10
102.92983142003339
 20
701.65077783314052
 30
0.0
  0
VERTEX
  5
A1F
  8
BOUNDARY
 10
102.92983142003339
 20
701.65077783314052
 30
0.0
  0
VERTEX
  5
A20
  8
BOUNDARY
 10
102.92983142003339
 20
701.65077783314052
 30
0.0
  0
VERTEX
  5
A21
  8
BOUNDARY
 10
102.8799114200333
 20
701.73189783314069
 30
0.0
  0
VERTEX
  5
A22
  8
BOUNDARY
 10
102.84247142003341
 20
701.76309783314025
 30
0.0
  0
VERTEX
  5
A23
  8
BOUNDARY
 10
102.8175114200335
 20
701.78805783314056
 30
0.0
  0
VERTEX
  5
A24
  8
BOUNDARY
 10
102.81127142003329
 20
701.80677783314047
 30
0.0
  0
VERTEX
  5
A25
  8
BOUNDARY
 10
102.86119142003319
 20
701.87229783314069
 30
0.0
  0
VERTEX
  5
A26
  8
BOUNDARY
 10
102.86119142003319
 20
701.87229783314069
 30
0.0
  0
VERTEX
  5
A27
  8
BOUNDARY
 10
102.86119142003319
 20
701.87229783314069
 30
0.0
  0
VERTEX
  5
A28
  8
BOUNDARY
 10
102.9641514200336
 20
701.9284578331401
 30
0.0
  0
VERTEX
  5
A29
  8
BOUNDARY
 10
102.97039142003359
 20
701.93469783314026
 30
0.0
  0
VERTEX
  5
A2A
  8
BOUNDARY
 10
102.9953514200335
 20
701.96277783314054
 30
0.0
  0
VERTEX
  5
A2B
  8
BOUNDARY
 10
103.0359114200332
 20
702.04077783314051
 30
0.0
  0
VERTEX
  5
A2C
  8
BOUNDARY
 10
103.0390314200335
 20
702.05013783314052
 30
0.0
  0
VERTEX
  5
A2D
  8
BOUNDARY
 10
103.0483914200335
 20
702.09381783314029
 30
0.0
  0
VERTEX
  5
A2E
  8
BOUNDARY
 10
103.0483914200335
 20
702.16869783314041
 30
0.0
  0
VERTEX
  5
A2F
  8
BOUNDARY
 10
103.0296714200333
 20
702.24045783314045
 30
0.0
  0
VERTEX
  5
A30
  8
BOUNDARY
 10
102.9423114200335
 20
702.40893783314073
 30
0.0
  0
VERTEX
  5
A31
  8
BOUNDARY
 10
102.8892714200335
 20
702.49005783314044
 30
0.0
  0
VERTEX
  5
A32
  8
BOUNDARY
 10
102.8487114200334
 20
702.55869783314029
 30
0.0
  0
VERTEX
  5
A33
  8
BOUNDARY
 10
102.7831914200333
 20
702.63669783314026
 30
0.0
  0
VERTEX
  5
A34
  8
BOUNDARY
 10
102.7675914200335
 20
702.66477783314053
 30
0.0
  0
VERTEX
  5
A35
  8
BOUNDARY
 10
102.7582314200333
 20
702.75525783314038
 30
0.0
  0
VERTEX
  5
A36
  8
BOUNDARY
 10
102.75199142003341
 20
702.78645783314073
 30
0.0
  0
VERTEX
  5
A37
  8
BOUNDARY
 10
102.7488714200335
 20
702.79581783314052
 30
0.0
  0
VERTEX
  5
A38
  8
BOUNDARY
 10
102.7551114200335
 20
702.81453783314055
 30
0.0
  0
VERTEX
  5
A39
  8
BOUNDARY
 10
102.7738314200335
 20
702.8488578331403
 30
0.0
  0
VERTEX
  5
A3A
  8
BOUNDARY
 10
102.7894314200334
 20
702.90813783314081
 30
0.0
  0
VERTEX
  5
A3B
  8
BOUNDARY
 10
102.7956714200336
 20
702.95493783314009
 30
0.0
  0
VERTEX
  5
A3C
  8
BOUNDARY
 10
102.8143914200334
 20
703.0017378331404
 30
0.0
  0
VERTEX
  5
A3D
  8
BOUNDARY
 10
102.8331114200334
 20
703.03917783314057
 30
0.0
  0
VERTEX
  5
A3E
  8
BOUNDARY
 10
102.8331114200334
 20
703.05165783314044
 30
0.0
  0
VERTEX
  5
A3F
  8
BOUNDARY
 10
102.8268714200335
 20
703.07973783314037
 30
0.0
  0
VERTEX
  5
A40
  8
BOUNDARY
 10
102.82999142003329
 20
703.12029783313994
 30
0.0
  0
VERTEX
  5
A41
  8
BOUNDARY
 10
102.8237514200334
 20
703.14837783314044
 30
0.0
  0
VERTEX
  5
A42
  8
BOUNDARY
 10
102.82063142003349
 20
703.17333783314052
 30
0.0
  0
VERTEX
  5
A43
  8
BOUNDARY
 10
102.8455914200335
 20
703.22013783314048
 30
0.0
  0
VERTEX
  5
A44
  8
BOUNDARY
 10
102.85183142003341
 20
703.24509783314045
 30
0.0
  0
VERTEX
  5
A45
  8
BOUNDARY
 10
102.8767914200334
 20
703.32309783314031
 30
0.0
  0
VERTEX
  5
A46
  8
BOUNDARY
 10
102.8892714200335
 20
703.36989783314016
 30
0.0
  0
VERTEX
  5
A47
  8
BOUNDARY
 10
102.8892714200335
 20
703.37613783314055
 30
0.0
  0
VERTEX
  5
A48
  8
BOUNDARY
 10
102.8923914200336
 20
703.40421783314048
 30
0.0
  0
VERTEX
  5
A49
  8
BOUNDARY
 10
102.92047142003339
 20
703.48533783314076
 30
0.0
  0
VERTEX
  5
A4A
  8
BOUNDARY
 10
102.9267114200334
 20
703.49781783313995
 30
0.0
  0
VERTEX
  5
A4B
  8
BOUNDARY
 10
102.92983142003339
 20
703.51341783314047
 30
0.0
  0
VERTEX
  5
A4C
  8
BOUNDARY
 10
102.9391914200334
 20
703.52589783314045
 30
0.0
  0
VERTEX
  5
A4D
  8
BOUNDARY
 10
102.9984714200334
 20
703.61325783314055
 30
0.0
  0
VERTEX
  5
A4E
  8
BOUNDARY
 10
103.0171914200334
 20
703.63197783314035
 30
0.0
  0
VERTEX
  5
A4F
  8
BOUNDARY
 10
103.0359114200332
 20
703.66317783314105
 30
0.0
  0
VERTEX
  5
A50
  8
BOUNDARY
 10
103.0577514200333
 20
703.67877783314043
 30
0.0
  0
VERTEX
  5
A51
  8
BOUNDARY
 10
103.08271142003331
 20
703.69125783314053
 30
0.0
  0
VERTEX
  5
A52
  8
BOUNDARY
 10
103.1887914200335
 20
703.69125783314053
 30
0.0
  0
VERTEX
  5
A53
  8
BOUNDARY
 10
103.24183142003361
 20
703.68501783314059
 30
0.0
  0
VERTEX
  5
A54
  8
BOUNDARY
 10
103.2855114200333
 20
703.67253783314027
 30
0.0
  0
VERTEX
  5
A55
  8
BOUNDARY
 10
103.3260714200335
 20
703.63821783314052
 30
0.0
  0
VERTEX
  5
A56
  8
BOUNDARY
 10
103.3635114200333
 20
703.61637783314052
 30
0.0
  0
VERTEX
  5
A57
  8
BOUNDARY
 10
103.4259114200333
 20
703.61637783314052
 30
0.0
  0
VERTEX
  5
A58
  8
BOUNDARY
 10
103.4477514200334
 20
703.61013783314036
 30
0.0
  0
VERTEX
  5
A59
  8
BOUNDARY
 10
103.4851914200333
 20
703.61637783314052
 30
0.0
  0
VERTEX
  5
A5A
  8
BOUNDARY
 10
103.54135142003361
 20
703.60701783314062
 30
0.0
  0
VERTEX
  5
A5B
  8
BOUNDARY
 10
103.63183142003339
 20
703.63821783314052
 30
0.0
  0
VERTEX
  5
A5C
  8
BOUNDARY
 10
103.6567914200334
 20
703.65069783314016
 30
0.0
  0
VERTEX
  5
A5D
  8
BOUNDARY
 10
103.7098314200334
 20
703.67253783314027
 30
0.0
  0
VERTEX
  5
A5E
  8
BOUNDARY
 10
103.7691114200335
 20
703.7006178331402
 30
0.0
  0
VERTEX
  5
A5F
  8
BOUNDARY
 10
103.83151142003339
 20
703.75677783314029
 30
0.0
  0
VERTEX
  5
A60
  8
BOUNDARY
 10
103.8876714200332
 20
703.78485783314068
 30
0.0
  0
VERTEX
  5
A61
  8
BOUNDARY
 10
103.9063914200333
 20
703.8004578331404
 30
0.0
  0
VERTEX
  5
A62
  8
BOUNDARY
 10
103.96255142003341
 20
703.81293783314072
 30
0.0
  0
VERTEX
  5
A63
  8
BOUNDARY
 10
104.0062314200334
 20
703.80981783314041
 30
0.0
  0
VERTEX
  5
A64
  8
BOUNDARY
 10
104.04055142003359
 20
703.81293783314072
 30
0.0
  0
VERTEX
  5
A65
  8
BOUNDARY
 10
104.2558314200334
 20
703.77861783313995
 30
0.0
  0
VERTEX
  5
A66
  8
BOUNDARY
 10
104.2651914200332
 20
703.78173783314048
 30
0.0
  0
VERTEX
  5
A67
  8
BOUNDARY
 10
104.2745514200335
 20
703.77861783313995
 30
0.0
  0
VERTEX
  5
A68
  8
BOUNDARY
 10
104.3868714200334
 20
703.81605783314035
 30
0.0
  0
VERTEX
  5
A69
  8
BOUNDARY
 10
104.4492714200335
 20
703.82541783314036
 30
0.0
  0
VERTEX
  5
A6A
  8
BOUNDARY
 10
104.4804714200334
 20
703.85349783314041
 30
0.0
  0
VERTEX
  5
A6B
  8
BOUNDARY
 10
104.4960714200335
 20
703.8784578331406
 30
0.0
  0
VERTEX
  5
A6C
  8
BOUNDARY
 10
104.5147914200333
 20
703.9002978331406
 30
0.0
  0
VERTEX
  5
A6D
  8
BOUNDARY
 10
104.5303914200335
 20
703.96893783314067
 30
0.0
  0
VERTEX
  5
A6E
  8
BOUNDARY
 10
104.5553514200335
 20
704.02821783314039
 30
0.0
  0
VERTEX
  5
A6F
  8
BOUNDARY
 10
104.6551914200333
 20
704.09997783314066
 30
0.0
  0
VERTEX
  5
A70
  8
BOUNDARY
 10
104.6676714200334
 20
704.11245783314075
 30
0.0
  0
VERTEX
  5
A71
  8
BOUNDARY
 10
104.7051114200335
 20
704.11869783314091
 30
0.0
  0
VERTEX
  5
A72
  8
BOUNDARY
 10
104.7456714200336
 20
704.14677783314005
 30
0.0
  0
VERTEX
  5
A73
  8
BOUNDARY
 10
104.84239142003359
 20
704.25909783314012
 30
0.0
  0
VERTEX
  5
A74
  8
BOUNDARY
 10
104.8673514200334
 20
704.27781783314038
 30
0.0
  0
VERTEX
  5
A75
  8
BOUNDARY
 10
104.8211096296732
 20
704.86945924887618
 30
0.0
  0
VERTEX
  5
A76
  8
BOUNDARY
 10
104.7419449946343
 20
705.35728091792521
 30
0.0
  0
VERTEX
  5
A77
  8
BOUNDARY
 10
104.6231981216286
 20
705.96376186248858
 30
0.0
  0
VERTEX
  5
A78
  8
BOUNDARY
 10
104.53083938075
 20
706.5306896999856
 30
0.0
  0
VERTEX
  5
A79
  8
BOUNDARY
 10
104.4120924281917
 20
707.08443319891694
 30
0.0
  0
VERTEX
  5
A7A
  8
BOUNDARY
 10
104.1877927084676
 20
707.70409852773105
 30
0.0
  0
VERTEX
  5
A7B
  8
BOUNDARY
 10
103.9634929091909
 20
708.16555142827906
 30
0.0
  0
VERTEX
  5
A7C
  8
BOUNDARY
 10
103.3961464376318
 20
708.62700432882696
 30
0.0
  0
VERTEX
  5
A7D
  8
BOUNDARY
 10
102.90796468066399
 20
708.90387603260763
 30
0.0
  0
VERTEX
  5
A7E
  8
BOUNDARY
 10
102.3406182091049
 20
709.1148259521907
 30
0.0
  0
VERTEX
  5
A7F
  8
BOUNDARY
 10
101.6149424674681
 20
709.2598539962064
 30
0.0
  0
VERTEX
  5
A80
  8
BOUNDARY
 10
101.15314892217999
 20
709.28622276470719
 30
0.0
  0
VERTEX
  5
A81
  8
BOUNDARY
 10
100.7309375353062
 20
709.29940710327287
 30
0.0
  0
VERTEX
  5
A82
  8
BOUNDARY
 10
100.68348547490061
 20
709.30994423036498
 30
0.0
  0
VERTEX
  5
A83
  8
BOUNDARY
 10
100.612285060779
 20
709.35497769179244
 30
0.0
  0
VERTEX
  5
A84
  8
BOUNDARY
 10
100.5001201801141
 20
709.48530013856077
 30
0.0
  0
VERTEX
  5
A85
  8
BOUNDARY
 10
100.3879732721533
 20
709.61671102018386
 30
0.0
  0
VERTEX
  5
A86
  8
BOUNDARY
 10
100.3230943126557
 20
709.69541486057176
 30
0.0
  0
VERTEX
  5
A87
  8
BOUNDARY
 10
100.3569377678846
 20
709.76868820912694
 30
0.0
  0
VERTEX
  5
A88
  8
BOUNDARY
 10
100.4151331506997
 20
709.87604665564595
 30
0.0
  0
VERTEX
  5
A89
  8
BOUNDARY
 10
100.5225708355871
 20
710.05497736938776
 30
0.0
  0
VERTEX
  5
A8A
  8
BOUNDARY
 10
100.5807662979547
 20
710.16233577022183
 30
0.0
  0
VERTEX
  5
A8B
  8
BOUNDARY
 10
100.64343826091751
 20
710.32337341715834
 30
0.0
  0
VERTEX
  5
A8C
  8
BOUNDARY
 10
100.665821161656
 20
710.47546453069162
 30
0.0
  0
VERTEX
  5
A8D
  8
BOUNDARY
 10
100.65686800136061
 20
710.59176951061374
 30
0.0
  0
VERTEX
  5
A8E
  8
BOUNDARY
 10
100.6389616807698
 20
710.68123489032735
 30
0.0
  0
VERTEX
  5
A8F
  8
BOUNDARY
 10
100.5718131376593
 20
710.72149429063995
 30
0.0
  0
VERTEX
  5
A90
  8
BOUNDARY
 10
100.44646913218121
 20
710.74833389084858
 30
0.0
  0
VERTEX
  5
A91
  8
BOUNDARY
 10
100.28083606447871
 20
710.66781504453775
 30
0.0
  0
VERTEX
  5
A92
  8
BOUNDARY
 10
100.1733983795914
 20
710.53361704349516
 30
0.0
  0
VERTEX
  5
A93
  8
BOUNDARY
 10
100.10624975692831
 20
710.44862493048322
 30
0.0
  0
VERTEX
  5
A94
  8
BOUNDARY
 10
100.0167183926318
 20
710.34126648396386
 30
0.0
  0
VERTEX
  5
A95
  8
BOUNDARY
 10
99.904804127596805
 20
710.25180114993555
 30
0.0
  0
VERTEX
  5
A96
  8
BOUNDARY
 10
99.87669226373292
 20
710.23494649624399
 30
0.0
  0
VERTEX
  5
A97
  8
BOUNDARY
 10
99.692737800388187
 20
710.24947429066958
 30
0.0
  0
VERTEX
  5
A98
  8
BOUNDARY
 10
99.546113253305762
 20
710.29334616439735
 30
0.0
  0
VERTEX
  5
A99
  8
BOUNDARY
 10
99.460727032849235
 20
710.37878396426117
 30
0.0
  0
VERTEX
  5
A9A
  8
BOUNDARY
 10
99.375979434590917
 20
710.48738159270965
 30
0.0
  0
VERTEX
  5
A9B
  8
BOUNDARY
 10
99.299196821805324
 20
710.59194600526121
 30
0.0
  0
VERTEX
  5
A9C
  8
BOUNDARY
 10
99.223508643556002
 20
710.69759378547735
 30
0.0
  0
VERTEX
  5
A9D
  8
BOUNDARY
 10
99.169242898197552
 20
710.80458460959164
 30
0.0
  0
VERTEX
  5
A9E
  8
BOUNDARY
 10
99.039364202965913
 20
710.9605985122173
 30
0.0
  0
VERTEX
  5
A9F
  8
BOUNDARY
 10
98.886194749797141
 20
711.1047525493658
 30
0.0
  0
VERTEX
  5
AA0
  8
BOUNDARY
 10
98.788710104751871
 20
711.20688132796147
 30
0.0
  0
VERTEX
  5
AA1
  8
BOUNDARY
 10
98.628102396491485
 20
711.31586445243158
 30
0.0
  0
VERTEX
  5
AA2
  8
BOUNDARY
 10
98.438949010839082
 20
711.37889463297563
 30
0.0
  0
VERTEX
  5
AA3
  8
BOUNDARY
 10
98.280874693898866
 20
711.48641297796223
 30
0.0
  0
VERTEX
  5
AA4
  8
BOUNDARY
 10
98.15130692505528
 20
711.56075560909244
 30
0.0
  0
VERTEX
  5
AA5
  8
BOUNDARY
 10
97.952373718762587
 20
711.62782822792633
 30
0.0
  0
VERTEX
  5
AA6
  8
BOUNDARY
 10
97.834221691305174
 20
711.66291139612395
 30
0.0
  0
VERTEX
  5
AA7
  8
BOUNDARY
 10
97.687019389817507
 20
711.69560135337292
 30
0.0
  0
VERTEX
  5
AA8
  8
BOUNDARY
 10
97.605005835798465
 20
711.77079125891055
 30
0.0
  0
VERTEX
  5
AA9
  8
BOUNDARY
 10
97.403955299852285
 20
711.77834650664306
 30
0.0
  0
VERTEX
  5
AAA
  8
BOUNDARY
 10
97.319844310198604
 20
711.72650532836917
 30
0.0
  0
VERTEX
  5
AAB
  8
BOUNDARY
 10
97.237218389293275
 20
711.68119017878405
 30
0.0
  0
VERTEX
  5
AAC
  8
BOUNDARY
 10
97.036471797066227
 20
711.6771286369659
 30
0.0
  0
VERTEX
  5
AAD
  8
BOUNDARY
 10
96.905505254721845
 20
711.69049833990346
 30
0.0
  0
VERTEX
  5
AAE
  8
BOUNDARY
 10
96.772226263240569
 20
711.67738251626668
 30
0.0
  0
VERTEX
  5
AAF
  8
BOUNDARY
 10
96.628133744882206
 20
711.56316402484936
 30
0.0
  0
VERTEX
  5
AB0
  8
BOUNDARY
 10
96.564840582814625
 20
711.55296298432404
 30
0.0
  0
VERTEX
  5
AB1
  8
BOUNDARY
 10
96.417643814679167
 20
711.53854258689273
 30
0.0
  0
VERTEX
  5
AB2
  8
BOUNDARY
 10
96.264674714735321
 20
711.54719481621441
 30
0.0
  0
VERTEX
  5
AB3
  8
BOUNDARY
 10
96.134795260234867
 20
711.56738338175546
 30
0.0
  0
VERTEX
  5
AB4
  8
BOUNDARY
 10
96.007801971638642
 20
711.5904560085088
 30
0.0
  0
VERTEX
  5
AB5
  8
BOUNDARY
 10
95.860605283055691
 20
711.59622417661853
 30
0.0
  0
VERTEX
  5
AB6
  8
BOUNDARY
 10
95.701863692198486
 20
711.5241221437758
 30
0.0
  0
VERTEX
  5
AB7
  8
BOUNDARY
 10
95.629708430859054
 20
711.46644055405011
 30
0.0
  0
VERTEX
  5
AB8
  8
BOUNDARY
 10
95.514260044537068
 20
711.3914544599952
 30
0.0
  0
VERTEX
  5
AB9
  8
BOUNDARY
 10
95.375721933219054
 20
711.35107732891311
 30
0.0
  0
VERTEX
  5
ABA
  8
BOUNDARY
 10
95.268932124162035
 20
711.3280046564746
 30
0.0
  0
VERTEX
  5
ABB
  8
BOUNDARY
 10
95.115963024218232
 20
711.27320712796086
 30
0.0
  0
VERTEX
  5
ABC
  8
BOUNDARY
 10
95.000514637896188
 20
711.19245286579655
 30
0.0
  0
VERTEX
  5
ABD
  8
BOUNDARY
 10
94.919700719739268
 20
711.11746677174165
 30
0.0
  0
VERTEX
  5
ABE
  8
BOUNDARY
 10
94.818683322043071
 20
711.03094438715266
 30
0.0
  0
VERTEX
  5
ABF
  8
BOUNDARY
 10
94.800957527305428
 20
711.01765983654718
 30
0.0
  0
VERTEX
  5
AC0
  8
BOUNDARY
 10
94.675864905646307
 20
711.00055821826538
 30
0.0
  0
VERTEX
  5
AC1
  8
BOUNDARY
 10
94.49014896931196
 20
710.95431503246084
 30
0.0
  0
VERTEX
  5
AC2
  8
BOUNDARY
 10
94.307998146562525
 20
710.89534955569786
 30
0.0
  0
VERTEX
  5
AC3
  8
BOUNDARY
 10
94.165276083529065
 20
710.80968643732513
 30
0.0
  0
VERTEX
  5
AC4
  8
BOUNDARY
 10
93.9921238129957
 20
710.73579320022418
 30
0.0
  0
VERTEX
  5
AC5
  8
BOUNDARY
 10
93.947283851662846
 20
710.71482396152362
 30
0.0
  0
VERTEX
  5
AC6
  8
BOUNDARY
 10
93.775823698409695
 20
710.68680164785565
 30
0.0
  0
VERTEX
  5
AC7
  8
BOUNDARY
 10
93.547367200447255
 20
710.64636002288705
 30
0.0
  0
VERTEX
  5
AC8
  8
BOUNDARY
 10
93.278113334562875
 20
710.57215351200387
 30
0.0
  0
VERTEX
  5
AC9
  8
BOUNDARY
 10
93.155939766106869
 20
710.55524706426775
 30
0.0
  0
VERTEX
  5
ACA
  8
BOUNDARY
 10
92.955440178123325
 20
710.52475430518496
 30
0.0
  0
VERTEX
  5
ACB
  8
BOUNDARY
 10
92.7294067199214
 20
710.46799756331814
 30
0.0
  0
VERTEX
  5
ACC
  8
BOUNDARY
 10
92.526426769289927
 20
710.44549000050085
 30
0.0
  0
VERTEX
  5
ACD
  8
BOUNDARY
 10
92.358877216474056
 20
710.4136839307813
 30
0.0
  0
VERTEX
  5
ACE
  8
BOUNDARY
 10
92.222731817298182
 20
710.36644987159411
 30
0.0
  0
VERTEX
  5
ACF
  8
BOUNDARY
 10
92.050293815870489
 20
710.36111713781156
 30
0.0
  0
VERTEX
  5
AD0
  8
BOUNDARY
 10
91.796557662233596
 20
710.33135291721021
 30
0.0
  0
VERTEX
  5
AD1
  8
BOUNDARY
 10
91.751680408919697
 20
710.31903919449292
 30
0.0
  0
VERTEX
  5
AD2
  8
BOUNDARY
 10
91.682807425772225
 20
710.33998505969066
 30
0.0
  0
VERTEX
  5
AD3
  8
BOUNDARY
 10
91.466701457861632
 20
710.35540984632155
 30
0.0
  0
VERTEX
  5
AD4
  8
BOUNDARY
 10
91.281467680163985
 20
710.41710885578811
 30
0.0
  0
VERTEX
  5
AD5
  8
BOUNDARY
 10
91.163123899843924
 20
710.53022372931946
 30
0.0
  0
VERTEX
  5
AD6
  8
BOUNDARY
 10
91.019053228052698
 20
710.66390493934
 30
0.0
  0
VERTEX
  5
AD7
  8
BOUNDARY
 10
90.880127934555702
 20
710.70503761231782
 30
0.0
  0
VERTEX
  5
AD8
  8
BOUNDARY
 10
90.581695834384732
 20
710.7204623532632
 30
0.0
  0
VERTEX
  5
AD9
  8
BOUNDARY
 10
90.396462136239563
 20
710.65876334379652
 30
0.0
  0
VERTEX
  5
ADA
  8
BOUNDARY
 10
90.226664572977157
 20
710.5250821337761
 30
0.0
  0
VERTEX
  5
ADB
  8
BOUNDARY
 10
90.103175414362866
 20
710.38625932821185
 30
0.0
  0
VERTEX
  5
ADC
  8
BOUNDARY
 10
90.09803003606865
 20
710.24229497278975
 30
0.0
  0
VERTEX
  5
ADD
  8
BOUNDARY
 10
90.200937681505934
 20
710.07262263964969
 30
0.0
  0
VERTEX
  5
ADE
  8
BOUNDARY
 10
90.391316757945305
 20
709.93894147531444
 30
0.0
  0
VERTEX
  5
ADF
  8
BOUNDARY
 10
90.437625162593491
 20
709.78469392880527
 30
0.0
  0
VERTEX
  5
AE0
  8
BOUNDARY
 10
90.417043649416541
 20
709.63044638229564
 30
0.0
  0
VERTEX
  5
AE1
  8
BOUNDARY
 10
90.366909520466919
 20
709.53025202983122
 30
0.0
  0
VERTEX
  5
AE2
  8
BOUNDARY
 10
90.261863756185519
 20
709.48388475234685
 30
0.0
  0
VERTEX
  5
AE3
  8
BOUNDARY
 10
90.181789760902745
 20
709.44337603477754
 30
0.0
  0
VERTEX
  5
AE4
  8
BOUNDARY
 10
90.098850298293456
 20
709.41959580076764
 30
0.0
  0
VERTEX
  5
AE5
  8
BOUNDARY
 10
90.028651164602223
 20
709.41330993380257
 30
0.0
  0
VERTEX
  5
AE6
  8
BOUNDARY
 10
89.939295768996843
 20
709.42522504201202
 30
0.0
  0
VERTEX
  5
AE7
  8
BOUNDARY
 10
89.796327136028296
 20
709.43714015022124
 30
0.0
  0
VERTEX
  5
AE8
  8
BOUNDARY
 10
89.651300794241664
 20
709.42449268341841
 30
0.0
  0
VERTEX
  5
AE9
  8
BOUNDARY
 10
89.523746427863145
 20
709.40365396681932
 30
0.0
  0
VERTEX
  5
AEA
  8
BOUNDARY
 10
89.395053789309713
 20
709.3939887317166
 30
0.0
  0
VERTEX
  5
AEB
  8
BOUNDARY
 10
89.262613032325589
 20
709.41243295436425
 30
0.0
  0
VERTEX
  5
AEC
  8
BOUNDARY
 10
89.122195137017243
 20
709.43949178936828
 30
0.0
  0
VERTEX
  5
AED
  8
BOUNDARY
 10
88.961892655459053
 20
709.47654760085697
 30
0.0
  0
VERTEX
  5
AEE
  8
BOUNDARY
 10
88.803945004535279
 20
709.47575017312045
 30
0.0
  0
VERTEX
  5
AEF
  8
BOUNDARY
 10
88.672708061731697
 20
709.47003891556596
 30
0.0
  0
VERTEX
  5
AF0
  8
BOUNDARY
 10
88.517424875401915
 20
709.44148717932057
 30
0.0
  0
VERTEX
  5
AF1
  8
BOUNDARY
 10
88.420720897041164
 20
709.38149660748581
 30
0.0
  0
VERTEX
  5
AF2
  8
BOUNDARY
 10
88.324976770950855
 20
709.34567243952165
 30
0.0
  0
VERTEX
  5
AF3
  8
BOUNDARY
 10
88.216527509111174
 20
709.32637265962035
 30
0.0
  0
VERTEX
  5
AF4
  8
BOUNDARY
 10
88.173658991861387
 20
709.30709352215808
 30
0.0
  0
VERTEX
  5
AF5
  8
BOUNDARY
 10
88.132512631463797
 20
709.30467492703372
 30
0.0
  0
VERTEX
  5
AF6
  8
BOUNDARY
 10
87.985728263660334
 20
709.31515182338353
 30
0.0
  0
VERTEX
  5
AF7
  8
BOUNDARY
 10
87.854670715695903
 20
709.36229771990236
 30
0.0
  0
VERTEX
  5
AF8
  8
BOUNDARY
 10
87.760309319346732
 20
709.48278166244518
 30
0.0
  0
VERTEX
  5
AF9
  8
BOUNDARY
 10
87.608282598711071
 20
709.59278870863773
 30
0.0
  0
VERTEX
  5
AFA
  8
BOUNDARY
 10
87.477225130299161
 20
709.7132726511802
 30
0.0
  0
VERTEX
  5
AFB
  8
BOUNDARY
 10
87.382863733950018
 20
709.76041854769915
 30
0.0
  0
VERTEX
  5
AFC
  8
BOUNDARY
 10
87.209867840643199
 20
709.75518009952395
 30
0.0
  0
VERTEX
  5
AFD
  8
BOUNDARY
 10
87.063083472839736
 20
709.66088835217136
 30
0.0
  0
VERTEX
  5
AFE
  8
BOUNDARY
 10
86.816695355854904
 20
709.49325851310971
 30
0.0
  0
VERTEX
  5
AFF
  8
BOUNDARY
 10
86.659426361939623
 20
709.32039022587321
 30
0.0
  0
VERTEX
  5
B00
  8
BOUNDARY
 10
86.554580339478576
 20
709.17895258200144
 30
0.0
  0
VERTEX
  5
B01
  8
BOUNDARY
 10
86.454976669849714
 20
709.02179959360444
 30
0.0
  0
VERTEX
  5
B02
  8
BOUNDARY
 10
86.440382795024377
 20
708.99680003072569
 30
0.0
  0
VERTEX
  5
B03
  8
BOUNDARY
 10
86.407619778340575
 20
708.97645390439834
 30
0.0
  0
VERTEX
  5
B04
  8
BOUNDARY
 10
86.332426712268656
 20
708.87005191993205
 30
0.0
  0
VERTEX
  5
B05
  8
BOUNDARY
 10
86.259759744334161
 20
708.76330206866942
 30
0.0
  0
VERTEX
  5
B06
  8
BOUNDARY
 10
86.207323408834512
 20
708.6494419501347
 30
0.0
  0
VERTEX
  5
B07
  8
BOUNDARY
 10
86.110859751161456
 20
708.54185071637801
 30
0.0
  0
VERTEX
  5
B08
  8
BOUNDARY
 10
86.029081013950417
 20
708.45416773681745
 30
0.0
  0
VERTEX
  5
B09
  8
BOUNDARY
 10
85.934792076439635
 20
708.41582657377216
 30
0.0
  0
VERTEX
  5
B0A
  8
BOUNDARY
 10
85.789822652955735
 20
708.34441309669694
 30
0.0
  0
VERTEX
  5
B0B
  8
BOUNDARY
 10
85.653766552119876
 20
708.29323935511354
 30
0.0
  0
VERTEX
  5
B0C
  8
BOUNDARY
 10
85.527774790385877
 20
708.2486075899983
 30
0.0
  0
VERTEX
  5
B0D
  8
BOUNDARY
 10
85.379104584364185
 20
708.19592768271934
 30
0.0
  0
VERTEX
  5
B0E
  8
BOUNDARY
 10
85.179967033931661
 20
708.13938677911119
 30
0.0
  0
VERTEX
  5
B0F
  8
BOUNDARY
 10
85.01980825062013
 20
708.07655150216669
 30
0.0
  0
VERTEX
  5
B10
  8
BOUNDARY
 10
84.845995402956547
 20
708.00391054296483
 30
0.0
  0
VERTEX
  5
B11
  8
BOUNDARY
 10
84.760572322157145
 20
707.92378218987005
 30
0.0
  0
VERTEX
  5
B12
  8
BOUNDARY
 10
84.660098247986753
 20
707.8248255951936
 30
0.0
  0
VERTEX
  5
B13
  8
BOUNDARY
 10
84.582056223154225
 20
707.80731576413882
 30
0.0
  0
VERTEX
  5
B14
  8
BOUNDARY
 10
84.529186502045846
 20
707.79906132216718
 30
0.0
  0
VERTEX
  5
B15
  8
BOUNDARY
 10
84.39370797709006
 20
707.76439254880052
 30
0.0
  0
VERTEX
  5
B16
  8
BOUNDARY
 10
84.183881464489346
 20
707.64222656444235
 30
0.0
  0
VERTEX
  5
B17
  8
BOUNDARY
 10
83.971864072865344
 20
707.56728125691575
 30
0.0
  0
VERTEX
  5
B18
  8
BOUNDARY
 10
83.718054261401576
 20
707.60818810793285
 30
0.0
  0
VERTEX
  5
B19
  8
BOUNDARY
 10
83.382370335171004
 20
707.58364400645962
 30
0.0
  0
VERTEX
  5
B1A
  8
BOUNDARY
 10
83.194059863252207
 20
707.44456065817997
 30
0.0
  0
VERTEX
  5
B1B
  8
BOUNDARY
 10
82.989374536558998
 20
707.31365875320034
 30
0.0
  0
VERTEX
  5
B1C
  8
BOUNDARY
 10
82.702815095099027
 20
707.30547735558582
 30
0.0
  0
VERTEX
  5
B1D
  8
BOUNDARY
 10
82.506317235569242
 20
707.32184010512947
 30
0.0
  0
VERTEX
  5
B1E
  8
BOUNDARY
 10
82.342568926483182
 20
707.28911460604195
 30
0.0
  0
VERTEX
  5
B1F
  8
BOUNDARY
 10
82.23613256933109
 20
707.11730580435994
 30
0.0
  0
VERTEX
  5
B20
  8
BOUNDARY
 10
82.285257054101663
 20
706.9373156507487
 30
0.0
  0
VERTEX
  5
B21
  8
BOUNDARY
 10
82.27706966649076
 20
706.75732545145218
 30
0.0
  0
VERTEX
  5
B22
  8
BOUNDARY
 10
82.293444521265144
 20
706.56915390022641
 30
0.0
  0
VERTEX
  5
B23
  8
BOUNDARY
 10
82.440817896024299
 20
706.29916864696713
 30
0.0
  0
VERTEX
  5
B24
  8
BOUNDARY
 10
82.506317235569242
 20
706.02100199609333
 30
0.0
  0
VERTEX
  5
B25
  8
BOUNDARY
 10
82.563629107950746
 20
705.66920304079974
 30
0.0
  0
VERTEX
  5
B26
  8
BOUNDARY
 10
82.563629107950746
 20
705.47285009195969
 30
0.0
  0
VERTEX
  5
B27
  8
BOUNDARY
 10
82.573007794746204
 20
705.19612768742411
 30
0.0
  0
VERTEX
  5
B28
  8
BOUNDARY
 10
82.597570037131476
 20
704.95068653563783
 30
0.0
  0
VERTEX
  5
B29
  8
BOUNDARY
 10
82.474758825205058
 20
704.73797088293895
 30
0.0
  0
VERTEX
  5
B2A
  8
BOUNDARY
 10
82.057200784207737
 20
704.59888758034458
 30
0.0
  0
VERTEX
  5
B2B
  8
BOUNDARY
 10
81.729704245588096
 20
704.5497993317133
 30
0.0
  0
VERTEX
  5
B2C
  8
BOUNDARY
 10
81.21389731460215
 20
704.40253463150441
 30
0.0
  0
VERTEX
  5
B2D
  8
BOUNDARY
 10
80.902775630756906
 20
704.42707877866258
 30
0.0
  0
VERTEX
  5
B2E
  8
BOUNDARY
 10
80.493404977370446
 20
704.40253463150441
 30
0.0
  0
VERTEX
  5
B2F
  8
BOUNDARY
 10
80.059472081598784
 20
704.27163268083928
 30
0.0
  0
VERTEX
  5
B30
  8
BOUNDARY
 10
79.92847348206142
 20
704.00982882519395
 30
0.0
  0
VERTEX
  5
B31
  8
BOUNDARY
 10
79.920286094450532
 20
703.74802492386414
 30
0.0
  0
VERTEX
  5
B32
  8
BOUNDARY
 10
79.75653786491695
 20
703.52712787355085
 30
0.0
  0
VERTEX
  5
B33
  8
BOUNDARY
 10
79.453603568682624
 20
703.36350042379797
 30
0.0
  0
VERTEX
  5
B34
  8
BOUNDARY
 10
79.011483285300017
 20
703.10987792008245
 30
0.0
  0
VERTEX
  5
B35
  8
BOUNDARY
 10
78.757673473836221
 20
702.9217063688568
 30
0.0
  0
VERTEX
  5
B36
  8
BOUNDARY
 10
78.512051129535919
 20
702.64353971798266
 30
0.0
  0
VERTEX
  5
B37
  8
BOUNDARY
 10
78.372865142387653
 20
702.3571917151794
 30
0.0
  0
VERTEX
  5
B38
  8
BOUNDARY
 10
78.290991027620862
 20
702.10356921146365
 30
0.0
  0
VERTEX
  5
B39
  8
BOUNDARY
 10
78.282803560457424
 20
701.91539766023823
 30
0.0
  0
VERTEX
  5
B3A
  8
BOUNDARY
 10
78.221109218574981
 20
701.75996398878976
 30
0.0
  0
VERTEX
  5
B3B
  8
BOUNDARY
 10
78.078474231350214
 20
701.66773890298805
 30
0.0
  0
VERTEX
  5
B3C
  8
BOUNDARY
 10
77.944229570248581
 20
701.47490453715182
 30
0.0
  0
VERTEX
  5
B3D
  8
BOUNDARY
 10
77.952619816819137
 20
701.16469277692602
 30
0.0
  0
VERTEX
  5
B3E
  8
BOUNDARY
 10
77.89388777261513
 20
700.91316973673725
 30
0.0
  0
VERTEX
  5
B3F
  8
BOUNDARY
 10
77.801594583023842
 20
700.60295797651156
 30
0.0
  0
VERTEX
  5
B40
  8
BOUNDARY
 10
77.726081966126188
 20
700.36820314204806
 30
0.0
  0
VERTEX
  5
B41
  8
BOUNDARY
 10
77.877107199921483
 20
700.09991189613436
 30
0.0
  0
VERTEX
  5
B42
  8
BOUNDARY
 10
78.153986848247897
 20
699.89869342743555
 30
0.0
  0
VERTEX
  5
B43
  8
BOUNDARY
 10
78.321792734289374
 20
699.63878628438488
 30
0.0
  0
VERTEX
  5
B44
  8
BOUNDARY
 10
78.363744126247212
 20
699.35372683274647
 30
0.0
  0
VERTEX
  5
B45
  8
BOUNDARY
 10
78.380524778493381
 20
698.94290583817121
 30
0.0
  0
VERTEX
  5
B46
  8
BOUNDARY
 10
78.422476170451233
 20
698.49016437496903
 30
0.0
  0
VERTEX
  5
B47
  8
BOUNDARY
 10
78.472817968084655
 20
698.26379359768282
 30
0.0
  0
VERTEX
  5
B48
  8
BOUNDARY
 10
78.633140108671313
 20
697.94647440760627
 30
0.0
  0
VERTEX
  5
B49
  8
BOUNDARY
 10
78.792555668589685
 20
697.67818316169314
 30
0.0
  0
VERTEX
  5
B4A
  8
BOUNDARY
 10
78.842897386670586
 20
697.41827601864213
 30
0.0
  0
VERTEX
  5
B4B
  8
BOUNDARY
 10
78.792555668589685
 20
697.11644831559352
 30
0.0
  0
VERTEX
  5
B4C
  8
BOUNDARY
 10
78.649920681364932
 20
696.79785245250537
 30
0.0
  0
VERTEX
  5
B4D
  8
BOUNDARY
 10
78.649920681364932
 20
696.43733607510501
 30
0.0
  0
VERTEX
  5
B4E
  8
BOUNDARY
 10
78.73382362438565
 20
696.16904482919153
 30
0.0
  0
VERTEX
  5
B4F
  8
BOUNDARY
 10
78.968751801201705
 20
695.82529665751622
 30
0.0
  0
VERTEX
  5
B50
  8
BOUNDARY
 10
79.27080234834483
 20
695.61569413163988
 30
0.0
  0
VERTEX
  5
B51
  8
BOUNDARY
 10
79.749048948547454
 20
695.46478028011563
 30
0.0
  0
VERTEX
  5
B52
  8
BOUNDARY
 10
80.067880068384255
 20
695.50670079442796
 30
0.0
  0
VERTEX
  5
B53
  8
BOUNDARY
 10
80.353150042833747
 20
695.81691255465364
 30
0.0
  0
VERTEX
  5
B54
  8
BOUNDARY
 10
80.713932634180864
 20
696.06843559484196
 30
0.0
  0
VERTEX
  5
B55
  8
BOUNDARY
 10
80.864957867976173
 20
696.11874021201675
 30
0.0
  0
VERTEX
  5
B56
  8
BOUNDARY
 10
81.234130705893875
 20
696.22773354922879
 30
0.0
  0
VERTEX
  5
B57
  8
BOUNDARY
 10
81.377232009900411
 20
696.24362196429172
 30
0.0
  0
VERTEX
  5
B58
  8
BOUNDARY
 10
81.586314145718305
 20
696.33593895373565
 30
0.0
  0
VERTEX
  5
B59
  8
BOUNDARY
 10
81.857123697104655
 20
696.55242669663255
 30
0.0
  0
VERTEX
  5
B5A
  8
BOUNDARY
 10
82.127933248491004
 20
696.65390536609004
 30
0.0
  0
VERTEX
  5
B5B
  8
BOUNDARY
 10
82.534147575570543
 20
696.56595719198504
 30
0.0
  0
VERTEX
  5
B5C
  8
BOUNDARY
 10
82.710173783971698
 20
696.34270415572678
 30
0.0
  0
VERTEX
  5
B5D
  8
BOUNDARY
 10
82.859119037234194
 20
696.14651211017315
 30
0.0
  0
VERTEX
  5
B5E
  8
BOUNDARY
 10
82.987753494590152
 20
696.01797249569643
 30
0.0
  0
VERTEX
  5
B5F
  8
BOUNDARY
 10
83.172160085047736
 20
695.91472772764155
 30
0.0
  0
VERTEX
  5
B60
  8
BOUNDARY
 10
83.361726771018184
 20
695.86737103959365
 30
0.0
  0
VERTEX
  5
B61
  8
BOUNDARY
 10
83.618995844835226
 20
695.7929533608409
 30
0.0
  0
VERTEX
  5
B62
  8
BOUNDARY
 10
83.862724441082932
 20
695.77942286548875
 30
0.0
  0
VERTEX
  5
B63
  8
BOUNDARY
 10
84.119993514900017
 20
695.79971860851697
 30
0.0
  0
VERTEX
  5
B64
  8
BOUNDARY
 10
84.336641156009065
 20
695.75236192046918
 30
0.0
  0
VERTEX
  5
B65
  8
BOUNDARY
 10
84.404343464303125
 20
695.67794424171632
 30
0.0
  0
VERTEX
  5
B66
  8
BOUNDARY
 10
84.472045852149733
 20
695.5561698292305
 30
0.0
  0
VERTEX
  5
B67
  8
BOUNDARY
 10
84.492356568503709
 20
695.44116071010592
 30
0.0
  0
VERTEX
  5
B68
  8
BOUNDARY
 10
84.532978001211646
 20
695.21790767384766
 30
0.0
  0
VERTEX
  5
B69
  8
BOUNDARY
 10
84.573599433919583
 20
695.03524612364652
 30
0.0
  0
VERTEX
  5
B6A
  8
BOUNDARY
 10
84.607450627842894
 20
694.82552358274074
 30
0.0
  0
VERTEX
  5
B6B
  8
BOUNDARY
 10
84.614220866627548
 20
694.70374921593998
 30
0.0
  0
VERTEX
  5
B6C
  8
BOUNDARY
 10
84.641301821766191
 20
694.57520955577786
 30
0.0
  0
VERTEX
  5
B6D
  8
BOUNDARY
 10
84.715774448397426
 20
694.4534351889771
 30
0.0
  0
VERTEX
  5
B6E
  8
BOUNDARY
 10
84.783476836244034
 20
694.31813032682396
 30
0.0
  0
VERTEX
  5
B6F
  8
BOUNDARY
 10
84.898570895583234
 20
694.14223402429911
 30
0.0
  0
VERTEX
  5
B70
  8
BOUNDARY
 10
84.932422089506517
 20
694.00692916214575
 30
0.0
  0
VERTEX
  5
B71
  8
BOUNDARY
 10
84.932422089506517
 20
693.85132855696406
 30
0.0
  0
VERTEX
  5
B72
  8
BOUNDARY
 10
84.912111373152541
 20
693.76338038285917
 30
0.0
  0
VERTEX
  5
B73
  8
BOUNDARY
 10
84.932422089506517
 20
693.66866696107797
 30
0.0
  0
VERTEX
  5
B74
  8
BOUNDARY
 10
85.027205432491726
 20
693.50630115390516
 30
0.0
  0
VERTEX
  5
B75
  8
BOUNDARY
 10
85.176150685754266
 20
693.43188347515263
 30
0.0
  0
VERTEX
  5
B76
  8
BOUNDARY
 10
85.467270953494577
 20
693.31010910835187
 30
0.0
  0
VERTEX
  5
B77
  8
BOUNDARY
 10
85.609445967972405
 20
693.16803899852255
 30
0.0
  0
VERTEX
  5
B78
  8
BOUNDARY
 10
85.656837639465024
 20
693.06656032906494
 30
0.0
  0
VERTEX
  5
B79
  8
BOUNDARY
 10
85.731310266096301
 20
692.84330729280703
 30
0.0
  0
VERTEX
  5
B7A
  8
BOUNDARY
 10
85.832863847866165
 20
692.68094148563432
 30
0.0
  0
VERTEX
  5
B7B
  8
BOUNDARY
 10
86.029200772621266
 20
692.65388049492969
 30
0.0
  0
VERTEX
  5
B7C
  8
BOUNDARY
 10
86.259388811747129
 20
692.64034999957721
 30
0.0
  0
VERTEX
  5
B7D
  8
BOUNDARY
 10
86.597900750980074
 20
692.66741099028195
 30
0.0
  0
VERTEX
  5
B7E
  8
BOUNDARY
 10
86.875480541151106
 20
692.76888961405416
 30
0.0
  0
VERTEX
  5
B7F
  8
BOUNDARY
 10
87.010885316844295
 20
692.84330729280703
 30
0.0
  0
VERTEX
  5
B80
  8
BOUNDARY
 10
87.193681764030075
 20
692.94478596226418
 30
0.0
  0
VERTEX
  5
B81
  8
BOUNDARY
 10
87.362937733646547
 20
693.01243839334074
 30
0.0
  0
VERTEX
  5
B82
  8
BOUNDARY
 10
87.380596716706947
 20
693.01530263066957
 30
0.0
  0
VERTEX
  5
B83
  8
BOUNDARY
 10
87.405236998315317
 20
693.01846761261277
 30
0.0
  0
VERTEX
  5
B84
  8
BOUNDARY
 10
87.419481058820338
 20
693.02170087328636
 30
0.0
  0
VERTEX
  5
B85
  8
BOUNDARY
 10
87.485962015184896
 20
693.09610313156816
 30
0.0
  0
VERTEX
  5
B86
  8
BOUNDARY
 10
87.540677170206649
 20
693.24259263725446
 30
0.0
  0
VERTEX
  5
B87
  8
BOUNDARY
 10
87.542387894907023
 20
693.2566549248711
 30
0.0
  0
VERTEX
  5
B88
  8
BOUNDARY
 10
87.605984349978144
 20
693.3545539900822
 30
0.0
  0
VERTEX
  5
B89
  8
BOUNDARY
 10
87.626401401755615
 20
693.36216388660978
 30
0.0
  0
VERTEX
  5
B8A
  8
BOUNDARY
 10
87.687196964754065
 20
693.34119361556918
 30
0.0
  0
VERTEX
  5
B8B
  8
BOUNDARY
 10
87.721562406065686
 20
693.3361427972402
 30
0.0
  0
VERTEX
  5
B8C
  8
BOUNDARY
 10
87.738834618072332
 20
693.34222095176926
 30
0.0
  0
VERTEX
  5
B8D
  8
BOUNDARY
 10
87.743576284460246
 20
693.34686499122893
 30
0.0
  0
VERTEX
  5
B8E
  8
BOUNDARY
 10
87.746932649243007
 20
693.36873242923082
 30
0.0
  0
VERTEX
  5
B8F
  8
BOUNDARY
 10
87.739713260430804
 20
693.42669230440015
 30
0.0
  0
VERTEX
  5
B90
  8
BOUNDARY
 10
87.743167252142939
 20
693.4579454482498
 30
0.0
  0
VERTEX
  5
B91
  8
BOUNDARY
 10
87.775835986459228
 20
693.59058419133135
 30
0.0
  0
VERTEX
  5
B92
  8
BOUNDARY
 10
87.80573637101358
 20
693.60748216677837
 30
0.0
  0
VERTEX
  5
B93
  8
BOUNDARY
 10
87.861904165707315
 20
693.5928178464336
 30
0.0
  0
VERTEX
  5
B94
  8
BOUNDARY
 10
87.868177574094261
 20
693.59431704612246
 30
0.0
  0
VERTEX
  5
B95
  8
BOUNDARY
 10
87.932638653815957
 20
693.62493561493602
 30
0.0
  0
VERTEX
  5
B96
  8
BOUNDARY
 10
87.961560515635469
 20
693.69816409662428
 30
0.0
  0
VERTEX
  5
B97
  8
BOUNDARY
 10
87.981993838567163
 20
693.70733827745948
 30
0.0
  0
VERTEX
  5
B98
  8
BOUNDARY
 10
88.053625493638492
 20
693.67530411818029
 30
0.0
  0
VERTEX
  5
B99
  8
BOUNDARY
 10
88.093629768299252
 20
693.6107454115288
 30
0.0
  0
VERTEX
  5
B9A
  8
BOUNDARY
 10
88.107610700142459
 20
693.60121326528758
 30
0.0
  0
VERTEX
  5
B9B
  8
BOUNDARY
 10
88.120141245761005
 20
693.60264738035755
 30
0.0
  0
VERTEX
  5
B9C
  8
BOUNDARY
 10
88.19900630735151
 20
693.66440519493699
 30
0.0
  0
VERTEX
  5
B9D
  8
BOUNDARY
 10
88.224344008219504
 20
693.69386625831146
 30
0.0
  0
VERTEX
  5
B9E
  8
BOUNDARY
 10
88.237216248088984
 20
693.72815034384905
 30
0.0
  0
VERTEX
  5
B9F
  8
BOUNDARY
 10
88.212299343796275
 20
693.8895482372011
 30
0.0
  0
VERTEX
  5
BA0
  8
BOUNDARY
 10
88.229685453887214
 20
693.90657638188645
 30
0.0
  0
VERTEX
  5
BA1
  8
BOUNDARY
 10
88.253165989661269
 20
693.90789659887264
 30
0.0
  0
VERTEX
  5
BA2
  8
BOUNDARY
 10
88.26884137505111
 20
693.91086245594056
 30
0.0
  0
VERTEX
  5
BA3
  8
BOUNDARY
 10
88.28290366266765
 20
693.90915173123949
 30
0.0
  0
VERTEX
  5
BA4
  8
BOUNDARY
 10
88.30791594044058
 20
693.90732710845487
 30
0.0
  0
VERTEX
  5
BA5
  8
BOUNDARY
 10
88.339510778540429
 20
693.93672308721034
 30
0.0
  0
VERTEX
  5
BA6
  8
BOUNDARY
 10
88.34273697408571
 20
693.94607625074866
 30
0.0
  0
VERTEX
  5
BA7
  8
BOUNDARY
 10
88.338141748090038
 20
693.95551077006041
 30
0.0
  0
VERTEX
  5
BA8
  8
BOUNDARY
 10
88.343111210645901
 20
693.98205478983232
 30
0.0
  0
VERTEX
  5
BA9
  8
BOUNDARY
 10
88.335924364143011
 20
694.04314323361666
 30
0.0
  0
VERTEX
  5
BAA
  8
BOUNDARY
 10
88.392498937706009
 20
694.06758602097193
 30
0.0
  0
VERTEX
  5
BAB
  8
BOUNDARY
 10
88.452120724111623
 20
694.08417484447773
 30
0.0
  0
VERTEX
  5
BAC
  8
BOUNDARY
 10
88.544885361770838
 20
694.12857909127661
 30
0.0
  0
VERTEX
  5
BAD
  8
BOUNDARY
 10
88.560495662541143
 20
694.12528781111212
 30
0.0
  0
VERTEX
  5
BAE
  8
BOUNDARY
 10
88.569930181853124
 20
694.1298830371079
 30
0.0
  0
VERTEX
  5
BAF
  8
BOUNDARY
 10
88.590151979773964
 20
694.11872152193973
 30
0.0
  0
VERTEX
  5
BB0
  8
BOUNDARY
 10
88.600825360297662
 20
694.09201479062062
 30
0.0
  0
VERTEX
  5
BB1
  8
BOUNDARY
 10
88.642963409684185
 20
694.08218976359342
 30
0.0
  0
VERTEX
  5
BB2
  8
BOUNDARY
 10
88.713860609341509
 20
694.12995037517533
 30
0.0
  0
VERTEX
  5
BB3
  8
BOUNDARY
 10
88.724957039890342
 20
694.14391503586353
 30
0.0
  0
VERTEX
  5
BB4
  8
BOUNDARY
 10
88.720313000430664
 20
694.14865670225106
 30
0.0
  0
VERTEX
  5
BB5
  8
BOUNDARY
 10
88.730007858220205
 20
694.17828047717376
 30
0.0
  0
VERTEX
  5
BB6
  8
BOUNDARY
 10
88.796521356894573
 20
694.25581130407193
 30
0.0
  0
VERTEX
  5
BB7
  8
BOUNDARY
 10
88.810697542594397
 20
694.26505056952635
 30
0.0
  0
VERTEX
  5
BB8
  8
BOUNDARY
 10
88.890899092325995
 20
694.30489213263945
 30
0.0
  0
VERTEX
  5
BB9
  8
BOUNDARY
 10
88.904993922252714
 20
694.30630997655408
 30
0.0
  0
VERTEX
  5
BBA
  8
BOUNDARY
 10
88.985325641221593
 20
694.35866581413097
 30
0.0
  0
VERTEX
  5
BBB
  8
BOUNDARY
 10
89.001082382385434
 20
694.36945309273869
 30
0.0
  0
VERTEX
  5
BBC
  8
BOUNDARY
 10
89.005840319928453
 20
694.37566141650632
 30
0.0
  0
VERTEX
  5
BBD
  8
BOUNDARY
 10
89.009017702008578
 20
694.38032172712076
 30
0.0
  0
VERTEX
  5
BBE
  8
BOUNDARY
 10
89.034778452901932
 20
694.45045418250265
 30
0.0
  0
VERTEX
  5
BBF
  8
BOUNDARY
 10
89.060067340305949
 20
694.47522239295415
 30
0.0
  0
VERTEX
  5
BC0
  8
BOUNDARY
 10
89.101389578504509
 20
694.53737071524779
 30
0.0
  0
VERTEX
  5
BC1
  8
BOUNDARY
 10
89.097005877521482
 20
694.56714093056405
 30
0.0
  0
VERTEX
  5
BC2
  8
BOUNDARY
 10
89.165327727825584
 20
694.6681197509256
 30
0.0
  0
VERTEX
  5
BC3
  8
BOUNDARY
 10
89.220826151725106
 20
694.73950733867525
 30
0.0
  0
VERTEX
  5
BC4
  8
BOUNDARY
 10
89.193450049611556
 20
694.81488586624403
 30
0.0
  0
VERTEX
  5
BC5
  8
BOUNDARY
 10
89.185677441535958
 20
694.81966007494225
 30
0.0
  0
VERTEX
  5
BC6
  8
BOUNDARY
 10
89.162782667334312
 20
694.87465409304218
 30
0.0
  0
VERTEX
  5
BC7
  8
BOUNDARY
 10
89.306515587516756
 20
695.00613758413465
 30
0.0
  0
VERTEX
  5
BC8
  8
BOUNDARY
 10
89.324096951464526
 20
695.04193714051519
 30
0.0
  0
VERTEX
  5
BC9
  8
BOUNDARY
 10
89.40001242714149
 20
695.1209346247922
 30
0.0
  0
VERTEX
  5
BCA
  8
BOUNDARY
 10
89.450785455808045
 20
695.18924245738879
 30
0.0
  0
VERTEX
  5
BCB
  8
BOUNDARY
 10
89.498381102393324
 20
695.25288997937275
 30
0.0
  0
VERTEX
  5
BCC
  8
BOUNDARY
 10
89.545602512418753
 20
695.28055896227261
 30
0.0
  0
VERTEX
  5
BCD
  8
BOUNDARY
 10
89.61216482455734
 20
695.36278264209375
 30
0.0
  0
VERTEX
  5
BCE
  8
BOUNDARY
 10
89.667305283051732
 20
695.39975597506759
 30
0.0
  0
VERTEX
  5
BCF
  8
BOUNDARY
 10
89.735106456402036
 20
695.45067769757475
 30
0.0
  0
VERTEX
  5
BD0
  8
BOUNDARY
 10
89.763637810505315
 20
695.48636335587184
 30
0.0
  0
VERTEX
  5
BD1
  8
BOUNDARY
 10
89.765283450587503
 20
695.49416850625676
 30
0.0
  0
VERTEX
  5
BD2
  8
BOUNDARY
 10
89.779719974765129
 20
695.52843632063923
 30
0.0
  0
VERTEX
  5
BD3
  8
BOUNDARY
 10
89.77390215871263
 20
695.57073708157316
 30
0.0
  0
VERTEX
  5
BD4
  8
BOUNDARY
 10
89.782146630276657
 20
695.61132711780647
 30
0.0
  0
VERTEX
  5
BD5
  8
BOUNDARY
 10
89.797903371439574
 20
695.6221143964151
 30
0.0
  0
VERTEX
  5
BD6
  8
BOUNDARY
 10
89.815175583447186
 20
695.62819255094394
 30
0.0
  0
VERTEX
  5
BD7
  8
BOUNDARY
 10
89.838525949983008
 20
695.61699849346633
 30
0.0
  0
VERTEX
  5
BD8
  8
BOUNDARY
 10
89.883564771818541
 20
695.58524094381801
 30
0.0
  0
VERTEX
  5
BD9
  8
BOUNDARY
 10
89.937417555635875
 20
695.64882338118241
 30
0.0
  0
VERTEX
  5
BDA
  8
BOUNDARY
 10
89.951593741336623
 20
695.65806264663684
 30
0.0
  0
VERTEX
  5
BDB
  8
BOUNDARY
 10
89.970527864579253
 20
695.67351023585911
 30
0.0
  0
VERTEX
  5
BDC
  8
BOUNDARY
 10
90.054154633159683
 20
695.72403588020666
 30
0.0
  0
VERTEX
  5
BDD
  8
BOUNDARY
 10
90.069442402797449
 20
695.72292478443694
 30
0.0
  0
VERTEX
  5
BDE
  8
BOUNDARY
 10
90.08643062239851
 20
695.71711863830205
 30
0.0
  0
VERTEX
  5
BDF
  8
BOUNDARY
 10
90.100289361408926
 20
695.70952596990492
 30
0.0
  0
VERTEX
  5
BE0
  8
BOUNDARY
 10
90.110124641128706
 20
695.70059340981049
 30
0.0
  0
VERTEX
  5
BE1
  8
BOUNDARY
 10
90.118587683485643
 20
695.68501626553405
 30
0.0
  0
VERTEX
  5
BE2
  8
BOUNDARY
 10
90.157784403324854
 20
695.62262238413825
 30
0.0
  0
VERTEX
  5
BE3
  8
BOUNDARY
 10
90.193195128085151
 20
695.62032452481981
 30
0.0
  0
VERTEX
  5
BE4
  8
BOUNDARY
 10
90.214008349505534
 20
695.59582002542129
 30
0.0
  0
VERTEX
  5
BE5
  8
BOUNDARY
 10
90.206708576602836
 20
695.56204049178757
 30
0.0
  0
VERTEX
  5
BE6
  8
BOUNDARY
 10
90.237237805152645
 20
695.52213093710225
 30
0.0
  0
VERTEX
  5
BE7
  8
BOUNDARY
 10
90.294332700008056
 20
695.50382499635555
 30
0.0
  0
VERTEX
  5
BE8
  8
BOUNDARY
 10
90.295841981836858
 20
695.50440401731328
 30
0.0
  0
VERTEX
  5
BE9
  8
BOUNDARY
 10
90.34676929693272
 20
695.5072163912331
 30
0.0
  0
VERTEX
  5
BEA
  8
BOUNDARY
 10
90.417772337070275
 20
695.48692669346485
 30
0.0
  0
VERTEX
  5
BEB
  8
BOUNDARY
 10
90.47026999398031
 20
695.44840614961095
 30
0.0
  0
VERTEX
  5
BEC
  8
BOUNDARY
 10
90.508611247652397
 20
695.3917217343643
 30
0.0
  0
VERTEX
  5
BED
  8
BOUNDARY
 10
90.541420863000795
 20
695.34250310517405
 30
0.0
  0
VERTEX
  5
BEE
  8
BOUNDARY
 10
90.579784720251411
 20
695.28347942162145
 30
0.0
  0
VERTEX
  5
BEF
  8
BOUNDARY
 10
90.59980064868364
 20
695.2066179506345
 30
0.0
  0
VERTEX
  5
BF0
  8
BOUNDARY
 10
90.621593990582923
 20
695.13114609987076
 30
0.0
  0
VERTEX
  5
BF1
  8
BOUNDARY
 10
90.649519338014997
 20
695.03859908458514
 30
0.0
  0
VERTEX
  5
BF2
  8
BOUNDARY
 10
90.671914701998119
 20
694.97023572334524
 30
0.0
  0
VERTEX
  5
BF3
  8
BOUNDARY
 10
90.685828729901161
 20
694.90362547482539
 30
0.0
  0
VERTEX
  5
BF4
  8
BOUNDARY
 10
90.685185135219882
 20
694.83634264552086
 30
0.0
  0
VERTEX
  5
BF5
  8
BOUNDARY
 10
90.696529982668935
 20
694.77216392986645
 30
0.0
  0
VERTEX
  5
BF6
  8
BOUNDARY
 10
90.703540662554204
 20
694.70292626811556
 30
0.0
  0
VERTEX
  5
BF7
  8
BOUNDARY
 10
90.711037257622436
 20
694.66767547833342
 30
0.0
  0
VERTEX
  5
BF8
  8
BOUNDARY
 10
90.723337939762132
 20
694.67039646245053
 30
0.0
  0
VERTEX
  5
BF9
  8
BOUNDARY
 10
90.728410673274155
 20
694.62477576300796
 30
0.0
  0
VERTEX
  5
BFA
  8
BOUNDARY
 10
90.820419383006765
 20
694.54049670465258
 30
0.0
  0
VERTEX
  5
BFB
  8
BOUNDARY
 10
90.981434664815069
 20
694.45621760061147
 30
0.0
  0
VERTEX
  5
BFC
  8
BOUNDARY
 10
91.211456439146559
 20
694.39492372752966
 30
0.0
  0
VERTEX
  5
BFD
  8
BOUNDARY
 10
91.395473858611794
 20
694.41024718437882
 30
0.0
  0
VERTEX
  5
BFE
  8
BOUNDARY
 10
91.472147783388976
 20
694.45621760061147
 30
0.0
  0
VERTEX
  5
BFF
  8
BOUNDARY
 10
91.510484706001293
 20
694.56348188992627
 30
0.0
  0
VERTEX
  5
C00
  8
BOUNDARY
 10
91.472147783388976
 20
694.66308445081654
 30
0.0
  0
VERTEX
  5
C01
  8
BOUNDARY
 10
91.372471641402385
 20
694.71671659547394
 30
0.0
  0
VERTEX
  5
C02
  8
BOUNDARY
 10
91.249793361758904
 20
694.76268701170659
 30
0.0
  0
VERTEX
  5
C03
  8
BOUNDARY
 10
91.171614350244695
 20
694.82778813863149
 30
0.0
  0
VERTEX
  5
C04
  8
BOUNDARY
 10
91.162310520781915
 20
694.85724041182561
 30
0.0
  0
VERTEX
  5
C05
  8
BOUNDARY
 10
91.151075940234108
 20
694.89236690207474
 30
0.0
  0
VERTEX
  5
C06
  8
BOUNDARY
 10
91.138894015929949
 20
694.92646126901536
 30
0.0
  0
VERTEX
  5
C07
  8
BOUNDARY
 10
91.135461532629051
 20
694.97186371213991
 30
0.0
  0
VERTEX
  5
C08
  8
BOUNDARY
 10
91.144384453567795
 20
695.00814164895769
 30
0.0
  0
VERTEX
  5
C09
  8
BOUNDARY
 10
91.163563271078985
 20
695.04501645818095
 30
0.0
  0
VERTEX
  5
C0A
  8
BOUNDARY
 10
91.186917497102186
 20
695.08390928715733
 30
0.0
  0
VERTEX
  5
C0B
  8
BOUNDARY
 10
91.214465910590263
 20
695.11983018940407
 30
0.0
  0
VERTEX
  5
C0C
  8
BOUNDARY
 10
91.250738752597925
 20
695.16169587308775
 30
0.0
  0
VERTEX
  5
C0D
  8
BOUNDARY
 10
91.303642841511333
 20
695.21973683403303
 30
0.0
  0
VERTEX
  5
C0E
  8
BOUNDARY
 10
91.353287865653911
 20
695.26300451569705
 30
0.0
  0
VERTEX
  5
C0F
  8
BOUNDARY
 10
91.394835747349859
 20
695.28340841706836
 30
0.0
  0
VERTEX
  5
C10
  8
BOUNDARY
 10
91.461136828327085
 20
695.28424464915247
 30
0.0
  0
VERTEX
  5
C11
  8
BOUNDARY
 10
91.490640818821234
 20
695.27536609768936
 30
0.0
  0
VERTEX
  5
C12
  8
BOUNDARY
 10
91.519946950865446
 20
695.26475957493074
 30
0.0
  0
VERTEX
  5
C13
  8
BOUNDARY
 10
91.544194856014343
 20
695.269798146992
 30
0.0
  0
VERTEX
  5
C14
  8
BOUNDARY
 10
91.593493669604044
 20
695.3259242993945
 30
0.0
  0
VERTEX
  5
C15
  8
BOUNDARY
 10
91.625651507088946
 20
695.3708408775326
 30
0.0
  0
VERTEX
  5
C16
  8
BOUNDARY
 10
91.666539177224038
 20
695.40000267148105
 30
0.0
  0
VERTEX
  5
C17
  8
BOUNDARY
 10
91.726798407001169
 20
695.42552807616914
 30
0.0
  0
VERTEX
  5
C18
  8
BOUNDARY
 10
91.805453927008003
 20
695.47026510530156
 30
0.0
  0
VERTEX
  5
C19
  8
BOUNDARY
 10
91.875276310306702
 20
695.51211460969273
 30
0.0
  0
VERTEX
  5
C1A
  8
BOUNDARY
 10
91.957692854073784
 20
695.55244004622057
 30
0.0
  0
VERTEX
  5
C1B
  8
BOUNDARY
 10
92.048302425458857
 20
695.60325159581828
 30
0.0
  0
VERTEX
  5
C1C
  8
BOUNDARY
 10
92.119428546356716
 20
695.63508079108078
 30
0.0
  0
VERTEX
  5
C1D
  8
BOUNDARY
 10
92.212335548732796
 20
695.66076962052716
 30
0.0
  0
VERTEX
  5
C1E
  8
BOUNDARY
 10
92.295658796871237
 20
695.69761303817961
 30
0.0
  0
VERTEX
  5
C1F
  8
BOUNDARY
 10
92.330367171987405
 20
695.7119784065967
 30
0.0
  0
VERTEX
  5
C20
  8
BOUNDARY
 10
92.403302124567332
 20
695.73650720504838
 30
0.0
  0
VERTEX
  5
C21
  8
BOUNDARY
 10
92.433224409198019
 20
695.72566141715026
 30
0.0
  0
VERTEX
  5
C22
  8
BOUNDARY
 10
92.502031643545436
 20
695.70688671050686
 30
0.0
  0
VERTEX
  5
C23
  8
BOUNDARY
 10
92.563371900662446
 20
695.71741472492704
 30
0.0
  0
VERTEX
  5
C24
  8
BOUNDARY
 10
92.628859041983404
 20
695.74915483986535
 30
0.0
  0
VERTEX
  5
C25
  8
BOUNDARY
 10
92.660789822357174
 20
695.75374916823
 30
0.0
  0
VERTEX
  5
C26
  8
BOUNDARY
 10
92.698107823038484
 20
695.77109361990813
 30
0.0
  0
VERTEX
  5
C27
  8
BOUNDARY
 10
92.727169410632357
 20
695.77807463055592
 30
0.0
  0
VERTEX
  5
C28
  8
BOUNDARY
 10
92.757147137906756
 20
695.79413940621077
 30
0.0
  0
VERTEX
  5
C29
  8
BOUNDARY
 10
92.790737495196737
 20
695.81225685707966
 30
0.0
  0
VERTEX
  5
C2A
  8
BOUNDARY
 10
92.819333025444934
 20
695.8358634072423
 30
0.0
  0
VERTEX
  5
C2B
  8
BOUNDARY
 10
92.830964688433795
 20
695.84059298777265
 30
0.0
  0
VERTEX
  5
C2C
  8
BOUNDARY
 10
92.848979151683764
 20
695.83822590995271
 30
0.0
  0
VERTEX
  5
C2D
  8
BOUNDARY
 10
92.873431106966095
 20
695.83030914624203
 30
0.0
  0
VERTEX
  5
C2E
  8
BOUNDARY
 10
92.902578327004932
 20
695.8448212296214
 30
0.0
  0
VERTEX
  5
C2F
  8
BOUNDARY
 10
92.936275769763071
 20
695.87714953420482
 30
0.0
  0
VERTEX
  5
C30
  8
BOUNDARY
 10
92.995787532723369
 20
695.89034835995824
 30
0.0
  0
VERTEX
  5
C31
  8
BOUNDARY
 10
93.031308448547591
 20
695.89039825183318
 30
0.0
  0
VERTEX
  5
C32
  8
BOUNDARY
 10
93.067194232726479
 20
695.93306006704404
 30
0.0
  0
VERTEX
  5
C33
  8
BOUNDARY
 10
93.108023676384065
 20
695.96354807920272
 30
0.0
  0
VERTEX
  5
C34
  8
BOUNDARY
 10
93.161877428724267
 20
695.98834332615672
 30
0.0
  0
VERTEX
  5
C35
  8
BOUNDARY
 10
93.198273383097415
 20
696.00488143724522
 30
0.0
  0
VERTEX
  5
C36
  8
BOUNDARY
 10
93.228063719310839
 20
696.00158680443997
 30
0.0
  0
VERTEX
  5
C37
  8
BOUNDARY
 10
93.244014831898355
 20
695.98763209127162
 30
0.0
  0
VERTEX
  5
C38
  8
BOUNDARY
 10
93.251185421116546
 20
695.95835325638029
 30
0.0
  0
VERTEX
  5
C39
  8
BOUNDARY
 10
93.267766441856637
 20
695.91384496608623
 30
0.0
  0
VERTEX
  5
C3A
  8
BOUNDARY
 10
93.281461964907805
 20
695.87463858125955
 30
0.0
  0
VERTEX
  5
C3B
  8
BOUNDARY
 10
93.310443354228227
 20
695.82225388454481
 30
0.0
  0
VERTEX
  5
C3C
  8
BOUNDARY
 10
93.336598877222286
 20
695.78488580644319
 30
0.0
  0
VERTEX
  5
C3D
  8
BOUNDARY
 10
93.379748946415901
 20
695.79171322971911
 30
0.0
  0
VERTEX
  5
C3E
  8
BOUNDARY
 10
93.421467219663128
 20
695.80826337193071
 30
0.0
  0
VERTEX
  5
C3F
  8
BOUNDARY
 10
93.450767152132514
 20
695.83561092628463
 30
0.0
  0
VERTEX
  5
C40
  8
BOUNDARY
 10
93.505800739383602
 20
695.86583752436763
 30
0.0
  0
VERTEX
  5
C41
  8
BOUNDARY
 10
93.562728134372193
 20
695.9037611315955
 30
0.0
  0
VERTEX
  5
C42
  8
BOUNDARY
 10
93.610895466548982
 20
695.94853365390202
 30
0.0
  0
VERTEX
  5
C43
  8
BOUNDARY
 10
93.713765925985356
 20
696.04143187108639
 30
0.0
  0
VERTEX
  5
C44
  8
BOUNDARY
 10
93.825475893743743
 20
696.13860089609761
 30
0.0
  0
VERTEX
  5
C45
  8
BOUNDARY
 10
93.912291648251724
 20
696.18422396417964
 30
0.0
  0
VERTEX
  5
C46
  8
BOUNDARY
 10
94.005246093755318
 20
696.18981530311976
 30
0.0
  0
VERTEX
  5
C47
  8
BOUNDARY
 10
94.053173111764352
 20
696.18611437317531
 30
0.0
  0
VERTEX
  5
C48
  8
BOUNDARY
 10
94.076097833364514
 20
696.17222923679435
 30
0.0
  0
VERTEX
  5
C49
  8
BOUNDARY
 10
94.082433348811804
 20
696.10126517169556
 30
0.0
  0
VERTEX
  5
C4A
  8
BOUNDARY
 10
94.084848662873398
 20
695.99305789341372
 30
0.0
  0
VERTEX
  5
C4B
  8
BOUNDARY
 10
94.097246702060929
 20
695.93218721112942
 30
0.0
  0
VERTEX
  5
C4C
  8
BOUNDARY
 10
94.124047539965105
 20
695.90745432206324
 30
0.0
  0
VERTEX
  5
C4D
  8
BOUNDARY
 10
94.192092249308587
 20
695.87215811795795
 30
0.0
  0
VERTEX
  5
C4E
  8
BOUNDARY
 10
94.271535472663217
 20
695.85426737803687
 30
0.0
  0
VERTEX
  5
C4F
  8
BOUNDARY
 10
94.350621230567015
 20
695.84049343210575
 30
0.0
  0
VERTEX
  5
C50
  8
BOUNDARY
 10
94.414266295057274
 20
695.83602068991354
 30
0.0
  0
VERTEX
  5
C51
  8
BOUNDARY
 10
94.474349275811306
 20
695.81323190012358
 30
0.0
  0
VERTEX
  5
C52
  8
BOUNDARY
 10
94.517528498002591
 20
695.78287988374393
 30
0.0
  0
VERTEX
  5
C53
  8
BOUNDARY
 10
94.552736141907161
 20
695.76047653064097
 30
0.0
  0
VERTEX
  5
C54
  8
BOUNDARY
 10
94.609677501431349
 20
695.75269881294957
 30
0.0
  0
VERTEX
  5
C55
  8
BOUNDARY
 10
94.658378432719942
 20
695.73096570724431
 30
0.0
  0
SEQEND
  5
C56
  8
BOUNDARY
  0
ENDSEC
  0
EOF
