  0
SECTION
  2
HEADER
  9
$ACADVER
  1
AC1009
  9
$INSBASE
 10
0.0
 20
0.0
 30
0.0
  9
$EXTMIN
 10
1077680.823050397
 20
692640.83978830744
 30
0.0
  9
$EXTMAX
 10
1104855.215762913
 20
711778.8362953735
 30
0.0
  9
$LIMMIN
 10
0.0
 20
0.0
  9
$LIMMAX
 10
12.0
 20
9.0
  9
$ORTHOMODE
 70
     0
  9
$REGENMODE
 70
     1
  9
$FILLMODE
 70
     1
  9
$QTEXTMODE
 70
     0
  9
$MIRRTEXT
 70
     0
  9
$DRAGMODE
 70
     2
  9
$LTSCALE
 40
1.0
  9
$OSMODE
 70
   621
  9
$ATTMODE
 70
     1
  9
$TEXTSIZE
 40
0.2
  9
$TRACEWID
 40
0.05
  9
$TEXTSTYLE
  7
STANDARD
  9
$CLAYER
  8
CALIFORNIA
  9
$CELTYPE
  6
BYLAYER
  9
$CECOLOR
 62
   256
  9
$DIMSCALE
 40
1.0
  9
$DIMASZ
 40
0.18
  9
$DIMEXO
 40
0.0625
  9
$DIMDLI
 40
0.38
  9
$DIMRND
 40
0.0
  9
$DIMDLE
 40
0.0
  9
$DIMEXE
 40
0.18
  9
$DIMTP
 40
0.0
  9
$DIMTM
 40
0.0
  9
$DIMTXT
 40
0.18
  9
$DIMCEN
 40
0.09
  9
$DIMTSZ
 40
0.0
  9
$DIMTOL
 70
     0
  9
$DIMLIM
 70
     0
  9
$DIMTIH
 70
     1
  9
$DIMTOH
 70
     1
  9
$DIMSE1
 70
     0
  9
$DIMSE2
 70
     0
  9
$DIMTAD
 70
     0
  9
$DIMZIN
 70
     0
  9
$DIMBLK
  1

  9
$DIMASO
 70
     1
  9
$DIMSHO
 70
     1
  9
$DIMPOST
  1

  9
$DIMAPOST
  1

  9
$DIMALT
 70
     0
  9
$DIMALTD
 70
     2
  9
$DIMALTF
 40
25.399999999999999
  9
$DIMLFAC
 40
1.0
  9
$DIMTOFL
 70
     0
  9
$DIMTVP
 40
0.0
  9
$DIMTIX
 70
     0
  9
$DIMSOXD
 70
     0
  9
$DIMSAH
 70
     0
  9
$DIMBLK1
  1

  9
$DIMBLK2
  1

  9
$DIMSTYLE
  2
STANDARD
  9
$DIMCLRD
 70
     0
  9
$DIMCLRE
 70
     0
  9
$DIMCLRT
 70
     0
  9
$DIMTFAC
 40
1.0
  9
$DIMGAP
 40
0.09
  9
$LUNITS
 70
     2
  9
$LUPREC
 70
     4
  9
$SKETCHINC
 40
0.1
  9
$FILLETRAD
 40
0.0
  9
$AUNITS
 70
     0
  9
$AUPREC
 70
     0
  9
$MENU
  1
.
  9
$ELEVATION
 40
0.0
  9
$PELEVATION
 40
0.0
  9
$THICKNESS
 40
0.0
  9
$LIMCHECK
 70
     0
  9
$BLIPMODE
 70
     0
  9
$CHAMFERA
 40
0.0
  9
$CHAMFERB
 40
0.0
  9
$SKPOLY
 70
     0
  9
$TDCREATE
 40
2458369.0707280091
  9
$TDUPDATE
 40
2458369.6015172568
  9
$TDINDWG
 40
0.0359103819
  9
$TDUSRTIMER
 40
0.0359099306
  9
$USRTIMER
 70
     1
  9
$ANGBASE
 50
0.0
  9
$ANGDIR
 70
     0
  9
$PDMODE
 70
     0
  9
$PDSIZE
 40
0.0
  9
$PLINEWID
 40
0.0
  9
$COORDS
 70
     2
  9
$SPLFRAME
 70
     0
  9
$SPLINETYPE
 70
     6
  9
$SPLINESEGS
 70
     8
  9
$ATTDIA
 70
     1
  9
$ATTREQ
 70
     1
  9
$HANDLING
 70
     1
  9
$HANDSEED
  5
107E
  9
$SURFTAB1
 70
     6
  9
$SURFTAB2
 70
     6
  9
$SURFTYPE
 70
     6
  9
$SURFU
 70
     6
  9
$SURFV
 70
     6
  9
$UCSNAME
  2

  9
$UCSORG
 10
0.0
 20
0.0
 30
0.0
  9
$UCSXDIR
 10
1.0
 20
0.0
 30
0.0
  9
$UCSYDIR
 10
0.0
 20
1.0
 30
0.0
  9
$PUCSNAME
  2

  9
$PUCSORG
 10
0.0
 20
0.0
 30
0.0
  9
$PUCSXDIR
 10
1.0
 20
0.0
 30
0.0
  9
$PUCSYDIR
 10
0.0
 20
1.0
 30
0.0
  9
$USERI1
 70
     0
  9
$USERI2
 70
     0
  9
$USERI3
 70
     0
  9
$USERI4
 70
     0
  9
$USERI5
 70
     0
  9
$USERR1
 40
0.0
  9
$USERR2
 40
0.0
  9
$USERR3
 40
0.0
  9
$USERR4
 40
0.0
  9
$USERR5
 40
0.0
  9
$WORLDVIEW
 70
     1
  9
$SHADEDGE
 70
     3
  9
$SHADEDIF
 70
    70
  9
$TILEMODE
 70
     1
  9
$MAXACTVP
 70
    64
  9
$PLIMCHECK
 70
     0
  9
$PEXTMIN
 10
0.0
 20
0.0
 30
0.0
  9
$PEXTMAX
 10
0.0
 20
0.0
 30
0.0
  9
$PLIMMIN
 10
0.0
 20
0.0
  9
$PLIMMAX
 10
12.0
 20
9.0
  9
$UNITMODE
 70
     0
  9
$VISRETAIN
 70
     1
  9
$PLINEGEN
 70
     0
  9
$PSLTSCALE
 70
     1
  0
ENDSEC
  0
SECTION
  2
TABLES
  0
TABLE
  2
VPORT
 70
     1
  0
VPORT
  2
*ACTIVE
 70
     0
 10
0.0
 20
0.0
 11
1.0
 21
1.0
 12
1088202.6996587899
 22
700140.67106950004
 13
0.0
 23
0.0
 14
0.5
 24
0.5
 15
0.5
 25
0.5
 16
0.0
 26
0.0
 36
1.0
 17
0.0
 27
0.0
 37
0.0
 40
34883.48442867479
 41
1.303763440860215
 42
50.0
 43
0.0
 44
0.0
 50
0.0
 51
0.0
 71
     0
 72
  1000
 73
     1
 74
     2
 75
     0
 76
     0
 77
     0
 78
     0
  0
ENDTAB
  0
TABLE
  2
LTYPE
 70
     1
  0
LTYPE
  2
CONTINUOUS
 70
     0
  3
Solid line
 72
    65
 73
     0
 40
0.0
  0
ENDTAB
  0
TABLE
  2
LAYER
 70
     3
  0
LAYER
  2
0
 70
     0
 62
     7
  6
CONTINUOUS
  0
LAYER
  2
CALIFORNIA
 70
     0
 62
     2
  6
CONTINUOUS
  0
LAYER
  2
BOUNDARY
 70
     0
 62
     1
  6
CONTINUOUS
  0
ENDTAB
  0
TABLE
  2
STYLE
 70
     3
  0
STYLE
  2
STANDARD
 70
     0
 40
0.0
 41
1.0
 50
0.0
 71
     0
 42
0.2
  3
txt
  4

  0
STYLE
  2
ANNOTATIVE
 70
     0
 40
0.0
 41
1.0
 50
0.0
 71
     0
 42
0.2
  3
txt
  4

  0
STYLE
  2
LEGEND
 70
     0
 40
0.0
 41
1.0
 50
0.0
 71
     0
 42
0.2
  3
txt
  4

  0
ENDTAB
  0
TABLE
  2
VIEW
 70
     0
  0
ENDTAB
  0
TABLE
  2
UCS
 70
     0
  0
ENDTAB
  0
TABLE
  2
APPID
 70
    12
  0
APPID
  2
ACAD
 70
     0
  0
APPID
  2
ACADANNOTATIVE
 70
     0
  0
APPID
  2
ACAD_DSTYLE_DIMJAG
 70
     0
  0
APPID
  2
ACAD_DSTYLE_DIMTALN
 70
     0
  0
APPID
  2
ACAD_NAV_VCDISPLAY
 70
     0
  0
APPID
  2
ADE
 70
     0
  0
APPID
  2
DCO15
 70
     0
  0
APPID
  2
ADE_PROJECTION
 70
     0
  0
APPID
  2
ACMAPDMDISPLAYSTYLEREGAPP
 70
     0
  0
APPID
  2
MAPGWS
 70
     0
  0
APPID
  2
ACAD_MLEADERVER
 70
     0
  0
APPID
  2
MapManagementAppName
 70
     0
  0
ENDTAB
  0
TABLE
  2
DIMSTYLE
 70
     2
  0
DIMSTYLE
  2
STANDARD
 70
     0
  3

  4

  5

  6

  7

 40
1.0
 41
0.18
 42
0.0625
 43
0.38
 44
0.18
 45
0.0
 46
0.0
 47
0.0
 48
0.0
140
0.18
141
0.09
142
0.0
143
25.399999999999999
144
1.0
145
0.0
146
1.0
147
0.09
 71
     0
 72
     0
 73
     1
 74
     1
 75
     0
 76
     0
 77
     0
 78
     0
170
     0
171
     2
172
     0
173
     0
174
     0
175
     0
176
     0
177
     0
178
     0
  0
DIMSTYLE
  2
ANNOTATIVE
 70
     0
  3

  4

  5

  6

  7

 40
0.0
 41
0.18
 42
0.0625
 43
0.38
 44
0.18
 45
0.0
 46
0.0
 47
0.0
 48
0.0
140
0.18
141
0.09
142
0.0
143
25.399999999999999
144
1.0
145
0.0
146
1.0
147
0.09
 71
     0
 72
     0
 73
     1
 74
     1
 75
     0
 76
     0
 77
     0
 78
     0
170
     0
171
     2
172
     0
173
     0
174
     0
175
     0
176
     0
177
     0
178
     0
  0
ENDTAB
  0
ENDSEC
  0
SECTION
  2
BLOCKS
  0
BLOCK
  8
0
  2
$MODEL_SPACE
 70
     0
 10
0.0
 20
0.0
 30
0.0
  3
$MODEL_SPACE
  1

  0
ENDBLK
  5
8C1
  8
0
  0
BLOCK
 67
     1
  8
0
  2
$PAPER_SPACE
 70
     0
 10
0.0
 20
0.0
 30
0.0
  3
$PAPER_SPACE
  1

  0
ENDBLK
  5
8BD
 67
     1
  8
0
  0
ENDSEC
  0
SECTION
  2
ENTITIES
  0
POLYLINE
  5
6C
  8
CALIFORNIA
 66
     1
 10
0.0
 20
0.0
 30
0.0
 70
   129
1001
DCO15
1071
        4
1071
        3
1000
lotenos--cerámica
1004
0756535F3130333900
1071
        2
1000
lotes--períodos
1004
0756535F3130333900
1071
        1
1000
lotes--cerámica
1004
0756535F3130333900
  0
VERTEX
  5
904
  8
CALIFORNIA
 10
1081885.251313736
 20
698551.31624095922
 30
0.0
  0
VERTEX
  5
905
  8
CALIFORNIA
 10
1081983.8391653651
 20
698543.03115732421
 30
0.0
  0
VERTEX
  5
906
  8
CALIFORNIA
 10
1081995.995577784
 20
698619.21468681935
 30
0.0
  0
VERTEX
  5
907
  8
CALIFORNIA
 10
1081895.881739018
 20
698628.35291538294
 30
0.0
  0
SEQEND
  5
908
  8
CALIFORNIA
  0
POLYLINE
  5
6E
  8
CALIFORNIA
 66
     1
 10
0.0
 20
0.0
 30
0.0
 70
     1
1001
DCO15
1071
        4
1071
        3
1000
lotenos--cerámica
1004
0756475F35373800
1071
        2
1000
lotes--períodos
1004
0756475F35373800
1071
        1
1000
lotes--cerámica
1004
0756475F35373800
  0
VERTEX
  5
909
  8
CALIFORNIA
 10
1083821.3482704239
 20
700899.37109404511
 30
0.0
  0
VERTEX
  5
90A
  8
CALIFORNIA
 10
1083844.613254518
 20
700948.75140264689
 30
0.0
  0
VERTEX
  5
90B
  8
CALIFORNIA
 10
1083892.0402340831
 20
700975.19505859422
 30
0.0
  0
VERTEX
  5
90C
  8
CALIFORNIA
 10
1083904.567328217
 20
700972.25648545718
 30
0.0
  0
VERTEX
  5
90D
  8
CALIFORNIA
 10
1083955.7284889121
 20
700887.57224382833
 30
0.0
  0
VERTEX
  5
90E
  8
CALIFORNIA
 10
1083948.44744181
 20
700849.44336066279
 30
0.0
  0
VERTEX
  5
90F
  8
CALIFORNIA
 10
1083855.142252913
 20
700851.3595406675
 30
0.0
  0
VERTEX
  5
910
  8
CALIFORNIA
 10
1083822.4199955859
 20
700899.374950242
 30
0.0
  0
SEQEND
  5
911
  8
CALIFORNIA
  0
POLYLINE
  5
6F
  8
CALIFORNIA
 66
     1
 10
0.0
 20
0.0
 30
0.0
 70
     1
1001
DCO15
1071
        4
1071
        3
1000
lotenos--cerámica
1004
0756475F36303900
1071
        2
1000
lotes--períodos
1004
0756475F36303900
1071
        1
1000
lotes--cerámica
1004
0756475F36303900
  0
VERTEX
  5
912
  8
CALIFORNIA
 10
1085037.303253493
 20
701343.64580344409
 30
0.0
  0
VERTEX
  5
913
  8
CALIFORNIA
 10
1085032.2772060961
 20
701352.68434898555
 30
0.0
  0
VERTEX
  5
914
  8
CALIFORNIA
 10
1084987.265140011
 20
701350.95416054851
 30
0.0
  0
VERTEX
  5
915
  8
CALIFORNIA
 10
1084951.994639891
 20
701339.04613105545
 30
0.0
  0
VERTEX
  5
916
  8
CALIFORNIA
 10
1084934.680926173
 20
701319.83033852535
 30
0.0
  0
VERTEX
  5
917
  8
CALIFORNIA
 10
1084950.5072197211
 20
701294.22069267766
 30
0.0
  0
VERTEX
  5
918
  8
CALIFORNIA
 10
1084981.833312388
 20
701278.76730175503
 30
0.0
  0
VERTEX
  5
919
  8
CALIFORNIA
 10
1085007.3262152569
 20
701273.86127659935
 30
0.0
  0
SEQEND
  5
91A
  8
CALIFORNIA
  0
POLYLINE
  5
70
  8
CALIFORNIA
 66
     1
 10
0.0
 20
0.0
 30
0.0
 70
     1
1001
DCO15
1071
        4
1071
        3
1000
lotenos--cerámica
1004
0756475F32313200
1071
        2
1000
lotes--períodos
1004
0756475F32313200
1071
        1
1000
lotes--cerámica
1004
0756475F32313200
  0
VERTEX
  5
91B
  8
CALIFORNIA
 10
1084583.200208294
 20
701499.95014478755
 30
0.0
  0
VERTEX
  5
91C
  8
CALIFORNIA
 10
1084576.8144057691
 20
701525.54795686575
 30
0.0
  0
VERTEX
  5
91D
  8
CALIFORNIA
 10
1084562.622153627
 20
701551.1190168435
 30
0.0
  0
VERTEX
  5
91E
  8
CALIFORNIA
 10
1084564.8196725361
 20
701585.83529314143
 30
0.0
  0
VERTEX
  5
91F
  8
CALIFORNIA
 10
1084569.481240958
 20
701621.44798060937
 30
0.0
  0
VERTEX
  5
920
  8
CALIFORNIA
 10
1084572.908561155
 20
701628.22330124793
 30
0.0
  0
VERTEX
  5
921
  8
CALIFORNIA
 10
1084593.338961941
 20
701621.30353403557
 30
0.0
  0
VERTEX
  5
922
  8
CALIFORNIA
 10
1084635.0935220621
 20
701617.48020139243
 30
0.0
  0
VERTEX
  5
923
  8
CALIFORNIA
 10
1084648.0875346861
 20
701609.46960493934
 30
0.0
  0
VERTEX
  5
924
  8
CALIFORNIA
 10
1084649.9272878971
 20
701571.15925287816
 30
0.0
  0
VERTEX
  5
925
  8
CALIFORNIA
 10
1084632.3883061651
 20
701547.54132224445
 30
0.0
  0
VERTEX
  5
926
  8
CALIFORNIA
 10
1084653.005761771
 20
701498.83047100354
 30
0.0
  0
VERTEX
  5
927
  8
CALIFORNIA
 10
1084629.141926059
 20
701481.69086514472
 30
0.0
  0
SEQEND
  5
928
  8
CALIFORNIA
  0
POLYLINE
  5
71
  8
CALIFORNIA
 66
     1
 10
0.0
 20
0.0
 30
0.0
 70
     1
1001
DCO15
1071
        4
1071
        3
1000
lotenos--cerámica
1004
0756475F383300
1071
        2
1000
lotes--períodos
1004
0756475F383300
1071
        1
1000
lotes--cerámica
1004
0756475F383300
  0
VERTEX
  5
929
  8
CALIFORNIA
 10
1087094.5040350549
 20
699330.34495239356
 30
0.0
  0
VERTEX
  5
92A
  8
CALIFORNIA
 10
1087119.4272431729
 20
699340.67026020132
 30
0.0
  0
VERTEX
  5
92B
  8
CALIFORNIA
 10
1087152.8608263929
 20
699340.67101274931
 30
0.0
  0
VERTEX
  5
92C
  8
CALIFORNIA
 10
1087191.7653379489
 20
699323.66642971779
 30
0.0
  0
VERTEX
  5
92D
  8
CALIFORNIA
 10
1087193.8681550501
 20
699316.83668759034
 30
0.0
  0
VERTEX
  5
92E
  8
CALIFORNIA
 10
1087180.541194245
 20
699283.26830880425
 30
0.0
  0
VERTEX
  5
92F
  8
CALIFORNIA
 10
1087149.4101776499
 20
699257.43166366732
 30
0.0
  0
VERTEX
  5
930
  8
CALIFORNIA
 10
1087122.223170009
 20
699251.85767679114
 30
0.0
  0
VERTEX
  5
931
  8
CALIFORNIA
 10
1087089.991865078
 20
699267.31083860132
 30
0.0
  0
VERTEX
  5
932
  8
CALIFORNIA
 10
1087076.8754173969
 20
699275.07681524788
 30
0.0
  0
SEQEND
  5
933
  8
CALIFORNIA
  0
POLYLINE
  5
72
  8
CALIFORNIA
 66
     1
 10
0.0
 20
0.0
 30
0.0
 70
     1
1001
DCO15
1071
        4
1071
        3
1000
lotenos--cerámica
1004
0756535F37393400
1071
        2
1000
lotes--períodos
1004
0756535F37393400
1071
        1
1000
lotes--cerámica
1004
0756535F37393400
  0
VERTEX
  5
934
  8
CALIFORNIA
 10
1085319.9580154
 20
699284.04370000795
 30
0.0
  0
VERTEX
  5
935
  8
CALIFORNIA
 10
1085302.5646352631
 20
699265.43426023854
 30
0.0
  0
VERTEX
  5
936
  8
CALIFORNIA
 10
1085294.0999434281
 20
699217.72425023466
 30
0.0
  0
VERTEX
  5
937
  8
CALIFORNIA
 10
1085299.0686602481
 20
699179.21146785305
 30
0.0
  0
VERTEX
  5
938
  8
CALIFORNIA
 10
1085342.1421892811
 20
699174.52479031216
 30
0.0
  0
VERTEX
  5
939
  8
CALIFORNIA
 10
1085376.295188583
 20
699183.48636321526
 30
0.0
  0
VERTEX
  5
93A
  8
CALIFORNIA
 10
1085392.010660771
 20
699188.977693061
 30
0.0
  0
VERTEX
  5
93B
  8
CALIFORNIA
 10
1085401.9116122129
 20
699276.35730111576
 30
0.0
  0
SEQEND
  5
93C
  8
CALIFORNIA
  0
POLYLINE
  5
73
  8
CALIFORNIA
 66
     1
 10
0.0
 20
0.0
 30
0.0
 70
     1
1001
DCO15
1071
        4
1071
        3
1000
lotenos--cerámica
1004
0756535F39333900
1071
        2
1000
lotes--períodos
1004
0756535F39333900
1071
        1
1000
lotes--cerámica
1004
0756535F39333900
  0
VERTEX
  5
93D
  8
CALIFORNIA
 10
1085284.096828277
 20
700246.44640012854
 30
0.0
  0
VERTEX
  5
93E
  8
CALIFORNIA
 10
1085319.68674533
 20
700257.68055530766
 30
0.0
  0
VERTEX
  5
93F
  8
CALIFORNIA
 10
1085368.3145910259
 20
700232.48410140455
 30
0.0
  0
VERTEX
  5
940
  8
CALIFORNIA
 10
1085374.078232161
 20
700208.69344798685
 30
0.0
  0
VERTEX
  5
941
  8
CALIFORNIA
 10
1085380.0944635931
 20
700164.98982755851
 30
0.0
  0
VERTEX
  5
942
  8
CALIFORNIA
 10
1085364.2342384229
 20
700150.58251897537
 30
0.0
  0
VERTEX
  5
943
  8
CALIFORNIA
 10
1085328.431005589
 20
700144.04289667238
 30
0.0
  0
VERTEX
  5
944
  8
CALIFORNIA
 10
1085293.0033223841
 20
700157.37043945096
 30
0.0
  0
SEQEND
  5
945
  8
CALIFORNIA
  0
POLYLINE
  5
74
  8
CALIFORNIA
 66
     1
 10
0.0
 20
0.0
 30
0.0
 70
     1
1001
DCO15
1071
        4
1071
        3
1000
lotenos--cerámica
1004
0756475F33373700
1071
        2
1000
lotes--períodos
1004
0756475F33373700
1071
        1
1000
lotes--cerámica
1004
0756475F33373700
  0
VERTEX
  5
946
  8
CALIFORNIA
 10
1085912.807647984
 20
701027.18816512218
 30
0.0
  0
VERTEX
  5
947
  8
CALIFORNIA
 10
1085931.5053941121
 20
701004.47039980826
 30
0.0
  0
VERTEX
  5
948
  8
CALIFORNIA
 10
1085950.1809629849
 20
700990.0660528536
 30
0.0
  0
VERTEX
  5
949
  8
CALIFORNIA
 10
1086005.3472365129
 20
701044.07066869712
 30
0.0
  0
VERTEX
  5
94A
  8
CALIFORNIA
 10
1086002.6378731299
 20
701062.06590964436
 30
0.0
  0
VERTEX
  5
94B
  8
CALIFORNIA
 10
1085984.0994708219
 20
701071.67177971336
 30
0.0
  0
VERTEX
  5
94C
  8
CALIFORNIA
 10
1085967.089165709
 20
701082.80131954502
 30
0.0
  0
VERTEX
  5
94D
  8
CALIFORNIA
 10
1085946.9169011109
 20
701080.59245515277
 30
0.0
  0
VERTEX
  5
94E
  8
CALIFORNIA
 10
1085934.4953644951
 20
701077.91969771509
 30
0.0
  0
SEQEND
  5
94F
  8
CALIFORNIA
  0
POLYLINE
  5
75
  8
CALIFORNIA
 66
     1
 10
0.0
 20
0.0
 30
0.0
 70
     1
1001
DCO15
1071
        4
1071
        3
1000
lotenos--cerámica
1004
0756475F32303100
1071
        2
1000
lotes--períodos
1004
0756475F32303100
1071
        1
1000
lotes--cerámica
1004
0756475F32303100
  0
VERTEX
  5
950
  8
CALIFORNIA
 10
1085498.9408616619
 20
701022.71526285366
 30
0.0
  0
VERTEX
  5
951
  8
CALIFORNIA
 10
1085503.388688185
 20
701037.27540730953
 30
0.0
  0
VERTEX
  5
952
  8
CALIFORNIA
 10
1085575.89025943
 20
701055.53580279695
 30
0.0
  0
VERTEX
  5
953
  8
CALIFORNIA
 10
1085586.651109756
 20
701052.15016064746
 30
0.0
  0
VERTEX
  5
954
  8
CALIFORNIA
 10
1085581.431789669
 20
700982.45203651139
 30
0.0
  0
VERTEX
  5
955
  8
CALIFORNIA
 10
1085549.2849032951
 20
700968.38234314427
 30
0.0
  0
VERTEX
  5
956
  8
CALIFORNIA
 10
1085517.710253871
 20
700954.27472310292
 30
0.0
  0
VERTEX
  5
957
  8
CALIFORNIA
 10
1085515.207789111
 20
700953.74219506071
 30
0.0
  0
SEQEND
  5
958
  8
CALIFORNIA
  0
POLYLINE
  5
76
  8
CALIFORNIA
 66
     1
 10
0.0
 20
0.0
 30
0.0
 70
     1
1001
DCO15
1071
        4
1071
        3
1000
lotenos--cerámica
1004
0756475F31393900
1071
        2
1000
lotes--períodos
1004
0756475F31393900
1071
        1
1000
lotes--cerámica
1004
0756475F31393900
  0
VERTEX
  5
959
  8
CALIFORNIA
 10
1085414.43206632
 20
700923.21717818966
 30
0.0
  0
VERTEX
  5
95A
  8
CALIFORNIA
 10
1085440.6178842681
 20
700926.38897096948
 30
0.0
  0
VERTEX
  5
95B
  8
CALIFORNIA
 10
1085443.395144145
 20
700847.70418172795
 30
0.0
  0
VERTEX
  5
95C
  8
CALIFORNIA
 10
1085412.215363218
 20
700819.62580473896
 30
0.0
  0
VERTEX
  5
95D
  8
CALIFORNIA
 10
1085388.134644652
 20
700852.08444233902
 30
0.0
  0
VERTEX
  5
95E
  8
CALIFORNIA
 10
1085375.4666740799
 20
700866.53294346412
 30
0.0
  0
VERTEX
  5
95F
  8
CALIFORNIA
 10
1085358.7385238099
 20
700881.98881694046
 30
0.0
  0
VERTEX
  5
960
  8
CALIFORNIA
 10
1085360.3876364769
 20
700895.39409977326
 30
0.0
  0
SEQEND
  5
961
  8
CALIFORNIA
  0
POLYLINE
  5
77
  8
CALIFORNIA
 66
     1
 10
0.0
 20
0.0
 30
0.0
 70
     1
1001
DCO15
1071
        4
1071
        3
1000
lotenos--cerámica
1004
0756475F393300
1071
        2
1000
lotes--períodos
1004
0756475F393300
1071
        1
1000
lotes--cerámica
1004
0756475F393300
  0
VERTEX
  5
962
  8
CALIFORNIA
 10
1085436.012494195
 20
700313.65863238508
 30
0.0
  0
VERTEX
  5
963
  8
CALIFORNIA
 10
1085436.012494195
 20
700313.65863238508
 30
0.0
  0
VERTEX
  5
964
  8
CALIFORNIA
 10
1085512.3231845759
 20
700319.55818716076
 30
0.0
  0
VERTEX
  5
965
  8
CALIFORNIA
 10
1085513.991139024
 20
700385.41788023384
 30
0.0
  0
VERTEX
  5
966
  8
CALIFORNIA
 10
1085438.9427593369
 20
700382.73827677534
 30
0.0
  0
VERTEX
  5
967
  8
CALIFORNIA
 10
1085438.9427593369
 20
700382.73827677534
 30
0.0
  0
VERTEX
  5
968
  8
CALIFORNIA
 10
1085424.742943336
 20
700350.11756719474
 30
0.0
  0
SEQEND
  5
969
  8
CALIFORNIA
  0
POLYLINE
  5
78
  8
CALIFORNIA
 66
     1
 10
0.0
 20
0.0
 30
0.0
 70
     1
1001
DCO15
1071
        4
1071
        3
1000
lotenos--cerámica
1004
0756475F393200
1071
        2
1000
lotes--períodos
1004
0756475F393200
1071
        1
1000
lotes--cerámica
1004
0756475F393200
  0
VERTEX
  5
96A
  8
CALIFORNIA
 10
1085420.2223405379
 20
700235.11770047562
 30
0.0
  0
VERTEX
  5
96B
  8
CALIFORNIA
 10
1085376.658886703
 20
700242.95549818047
 30
0.0
  0
VERTEX
  5
96C
  8
CALIFORNIA
 10
1085357.765714932
 20
700261.43510467198
 30
0.0
  0
VERTEX
  5
96D
  8
CALIFORNIA
 10
1085359.738253881
 20
700295.43212200922
 30
0.0
  0
VERTEX
  5
96E
  8
CALIFORNIA
 10
1085377.4613332599
 20
700346.37850655406
 30
0.0
  0
VERTEX
  5
96F
  8
CALIFORNIA
 10
1085418.3023330311
 20
700350.02174910856
 30
0.0
  0
VERTEX
  5
970
  8
CALIFORNIA
 10
1085423.3612771011
 20
700348.67454785481
 30
0.0
  0
VERTEX
  5
971
  8
CALIFORNIA
 10
1085434.0911301449
 20
700313.18144117494
 30
0.0
  0
SEQEND
  5
972
  8
CALIFORNIA
  0
POLYLINE
  5
79
  8
CALIFORNIA
 66
     1
 10
0.0
 20
0.0
 30
0.0
 70
     1
1001
DCO15
1071
        4
1071
        3
1000
lotenos--cerámica
1004
0756475F393000
1071
        2
1000
lotes--períodos
1004
0756475F393000
1071
        1
1000
lotes--cerámica
1004
0756475F393000
  0
VERTEX
  5
973
  8
CALIFORNIA
 10
1085516.671426503
 20
700380.06215515046
 30
0.0
  0
VERTEX
  5
974
  8
CALIFORNIA
 10
1085538.821362592
 20
700389.77466142643
 30
0.0
  0
VERTEX
  5
975
  8
CALIFORNIA
 10
1085569.9013015439
 20
700395.37242578203
 30
0.0
  0
VERTEX
  5
976
  8
CALIFORNIA
 10
1085592.8461544011
 20
700384.91384679638
 30
0.0
  0
VERTEX
  5
977
  8
CALIFORNIA
 10
1085597.113233808
 20
700365.67026695923
 30
0.0
  0
VERTEX
  5
978
  8
CALIFORNIA
 10
1085596.0399360431
 20
700301.86666672665
 30
0.0
  0
VERTEX
  5
979
  8
CALIFORNIA
 10
1085533.8027986891
 20
700268.86946495064
 30
0.0
  0
VERTEX
  5
97A
  8
CALIFORNIA
 10
1085517.5468216171
 20
700291.15553318558
 30
0.0
  0
VERTEX
  5
97B
  8
CALIFORNIA
 10
1085514.243513776
 20
700325.54726798146
 30
0.0
  0
SEQEND
  5
97C
  8
CALIFORNIA
  0
POLYLINE
  5
7A
  8
CALIFORNIA
 66
     1
 10
0.0
 20
0.0
 30
0.0
 70
     1
1001
DCO15
1071
        4
1071
        3
1000
lotenos--cerámica
1004
0756475F383500
1071
        2
1000
lotes--períodos
1004
0756475F383500
1071
        1
1000
lotes--cerámica
1004
0756475F383500
  0
VERTEX
  5
97D
  8
CALIFORNIA
 10
1085710.9746998451
 20
700240.33651661035
 30
0.0
  0
VERTEX
  5
97E
  8
CALIFORNIA
 10
1085688.6350581751
 20
700203.50704178598
 30
0.0
  0
VERTEX
  5
97F
  8
CALIFORNIA
 10
1085688.569281637
 20
700182.76534732978
 30
0.0
  0
VERTEX
  5
980
  8
CALIFORNIA
 10
1085703.965092863
 20
700163.06668764411
 30
0.0
  0
VERTEX
  5
981
  8
CALIFORNIA
 10
1085731.538521447
 20
700149.03985529509
 30
0.0
  0
VERTEX
  5
982
  8
CALIFORNIA
 10
1085756.8611985149
 20
700156.96834420005
 30
0.0
  0
VERTEX
  5
983
  8
CALIFORNIA
 10
1085790.136339837
 20
700167.30959100637
 30
0.0
  0
VERTEX
  5
984
  8
CALIFORNIA
 10
1085786.9094733079
 20
700205.52803178364
 30
0.0
  0
SEQEND
  5
985
  8
CALIFORNIA
  0
POLYLINE
  5
7B
  8
CALIFORNIA
 66
     1
 10
0.0
 20
0.0
 30
0.0
 70
     1
1001
DCO15
1071
        4
1071
        3
1000
lotenos--cerámica
1004
0756475F353200
1071
        2
1000
lotes--períodos
1004
0756475F353200
1071
        1
1000
lotes--cerámica
1004
0756475F353200
  0
VERTEX
  5
986
  8
CALIFORNIA
 10
1085740.593297743
 20
699912.5448344961
 30
0.0
  0
VERTEX
  5
987
  8
CALIFORNIA
 10
1085766.8073167091
 20
699871.77076296834
 30
0.0
  0
VERTEX
  5
988
  8
CALIFORNIA
 10
1085788.6120729069
 20
699866.98655999615
 30
0.0
  0
VERTEX
  5
989
  8
CALIFORNIA
 10
1085843.16306936
 20
699872.82582034555
 30
0.0
  0
VERTEX
  5
98A
  8
CALIFORNIA
 10
1085854.2368088199
 20
699881.58876659954
 30
0.0
  0
VERTEX
  5
98B
  8
CALIFORNIA
 10
1085857.045517273
 20
699896.02164575749
 30
0.0
  0
VERTEX
  5
98C
  8
CALIFORNIA
 10
1085848.861580438
 20
699925.04785047192
 30
0.0
  0
VERTEX
  5
98D
  8
CALIFORNIA
 10
1085839.967916395
 20
699944.08370022359
 30
0.0
  0
VERTEX
  5
98E
  8
CALIFORNIA
 10
1085828.421316355
 20
699947.50211884535
 30
0.0
  0
SEQEND
  5
98F
  8
CALIFORNIA
  0
POLYLINE
  5
7C
  8
CALIFORNIA
 66
     1
 10
0.0
 20
0.0
 30
0.0
 70
     1
1001
DCO15
1071
        4
1071
        3
1000
lotenos--cerámica
1004
0756475F343600
1071
        2
1000
lotes--períodos
1004
0756475F343600
1071
        1
1000
lotes--cerámica
1004
0756475F343600
  0
VERTEX
  5
990
  8
CALIFORNIA
 10
1085527.2140730601
 20
699882.47007144452
 30
0.0
  0
VERTEX
  5
991
  8
CALIFORNIA
 10
1085575.626379072
 20
699880.18962553167
 30
0.0
  0
VERTEX
  5
992
  8
CALIFORNIA
 10
1085615.817714052
 20
699858.28765498218
 30
0.0
  0
VERTEX
  5
993
  8
CALIFORNIA
 10
1085594.351869711
 20
699770.21929414279
 30
0.0
  0
VERTEX
  5
994
  8
CALIFORNIA
 10
1085525.3871800359
 20
699769.30509687285
 30
0.0
  0
VERTEX
  5
995
  8
CALIFORNIA
 10
1085521.8185811681
 20
699831.87874995836
 30
0.0
  0
SEQEND
  5
996
  8
CALIFORNIA
  0
POLYLINE
  5
7D
  8
CALIFORNIA
 66
     1
 10
0.0
 20
0.0
 30
0.0
 70
     1
1001
DCO15
1071
        4
1071
        3
1000
lotenos--cerámica
1004
0756475F343500
1071
        2
1000
lotes--períodos
1004
0756475F343500
1071
        1
1000
lotes--cerámica
1004
0756475F343500
  0
VERTEX
  5
997
  8
CALIFORNIA
 10
1085524.021335318
 20
699766.50142872706
 30
0.0
  0
VERTEX
  5
998
  8
CALIFORNIA
 10
1085594.097799533
 20
699768.49708294007
 30
0.0
  0
VERTEX
  5
999
  8
CALIFORNIA
 10
1085596.390848475
 20
699705.51134090323
 30
0.0
  0
VERTEX
  5
99A
  8
CALIFORNIA
 10
1085602.173859902
 20
699695.53831725521
 30
0.0
  0
VERTEX
  5
99B
  8
CALIFORNIA
 10
1085547.9643168261
 20
699682.33541856229
 30
0.0
  0
VERTEX
  5
99C
  8
CALIFORNIA
 10
1085539.936433088
 20
699704.5453781765
 30
0.0
  0
VERTEX
  5
99D
  8
CALIFORNIA
 10
1085528.5144095069
 20
699731.04191858193
 30
0.0
  0
SEQEND
  5
99E
  8
CALIFORNIA
  0
POLYLINE
  5
7E
  8
CALIFORNIA
 66
     1
 10
0.0
 20
0.0
 30
0.0
 70
     1
1001
DCO15
1071
        4
1071
        3
1000
lotenos--cerámica
1004
0756475F343000
1071
        2
1000
lotes--períodos
1004
0756475F343000
1071
        1
1000
lotes--cerámica
1004
0756475F343000
  0
VERTEX
  5
99F
  8
CALIFORNIA
 10
1085745.7808003221
 20
699756.40931461134
 30
0.0
  0
VERTEX
  5
9A0
  8
CALIFORNIA
 10
1085779.482031425
 20
699741.15474108199
 30
0.0
  0
VERTEX
  5
9A1
  8
CALIFORNIA
 10
1085746.305860417
 20
699712.18745335285
 30
0.0
  0
VERTEX
  5
9A2
  8
CALIFORNIA
 10
1085737.5290993301
 20
699655.37904083019
 30
0.0
  0
VERTEX
  5
9A3
  8
CALIFORNIA
 10
1085712.0799137901
 20
699633.39685921138
 30
0.0
  0
VERTEX
  5
9A4
  8
CALIFORNIA
 10
1085701.584941515
 20
699633.62806555023
 30
0.0
  0
VERTEX
  5
9A5
  8
CALIFORNIA
 10
1085684.0403673081
 20
699641.89981952589
 30
0.0
  0
VERTEX
  5
9A6
  8
CALIFORNIA
 10
1085675.771941117
 20
699661.23504893039
 30
0.0
  0
VERTEX
  5
9A7
  8
CALIFORNIA
 10
1085666.1986843559
 20
699727.10893911205
 30
0.0
  0
VERTEX
  5
9A8
  8
CALIFORNIA
 10
1085745.796017467
 20
699755.30808290944
 30
0.0
  0
SEQEND
  5
9A9
  8
CALIFORNIA
  0
POLYLINE
  5
7F
  8
CALIFORNIA
 66
     1
 10
0.0
 20
0.0
 30
0.0
 70
     1
1001
DCO15
1071
        4
1071
        3
1000
lotenos--cerámica
1004
0756475F333600
1071
        2
1000
lotes--períodos
1004
0756475F333600
1071
        1
1000
lotes--cerámica
1004
0756475F333600
  0
VERTEX
  5
9AA
  8
CALIFORNIA
 10
1085950.5086580629
 20
699521.06856607459
 30
0.0
  0
VERTEX
  5
9AB
  8
CALIFORNIA
 10
1085941.0947395479
 20
699512.21615235379
 30
0.0
  0
VERTEX
  5
9AC
  8
CALIFORNIA
 10
1085910.7176304229
 20
699531.15565487125
 30
0.0
  0
VERTEX
  5
9AD
  8
CALIFORNIA
 10
1085882.625023331
 20
699548.17499234283
 30
0.0
  0
VERTEX
  5
9AE
  8
CALIFORNIA
 10
1085878.0105843181
 20
699623.95123545604
 30
0.0
  0
VERTEX
  5
9AF
  8
CALIFORNIA
 10
1085918.2727273609
 20
699638.63973843167
 30
0.0
  0
VERTEX
  5
9B0
  8
CALIFORNIA
 10
1085928.9120691961
 20
699657.1706372241
 30
0.0
  0
VERTEX
  5
9B1
  8
CALIFORNIA
 10
1085990.3793266639
 20
699604.05883526895
 30
0.0
  0
SEQEND
  5
9B2
  8
CALIFORNIA
  0
POLYLINE
  5
80
  8
CALIFORNIA
 66
     1
 10
0.0
 20
0.0
 30
0.0
 70
     1
1001
DCO15
1071
        4
1071
        3
1000
lotenos--cerámica
1004
0756475F333500
1071
        2
1000
lotes--períodos
1004
0756475F333500
1071
        1
1000
lotes--cerámica
1004
0756475F333500
  0
VERTEX
  5
9B3
  8
CALIFORNIA
 10
1086034.6800378631
 20
699497.83345398947
 30
0.0
  0
VERTEX
  5
9B4
  8
CALIFORNIA
 10
1086066.3772342701
 20
699552.83574739413
 30
0.0
  0
VERTEX
  5
9B5
  8
CALIFORNIA
 10
1086037.836347521
 20
699603.90659372066
 30
0.0
  0
VERTEX
  5
9B6
  8
CALIFORNIA
 10
1085995.0787954661
 20
699607.05417706596
 30
0.0
  0
VERTEX
  5
9B7
  8
CALIFORNIA
 10
1085954.3849765379
 20
699519.96212919732
 30
0.0
  0
SEQEND
  5
9B8
  8
CALIFORNIA
  0
POLYLINE
  5
81
  8
CALIFORNIA
 66
     1
 10
0.0
 20
0.0
 30
0.0
 70
     1
1001
DCO15
1071
        4
1071
        3
1000
lotenos--cerámica
1004
0756475F31393500
1071
        2
1000
lotes--períodos
1004
0756475F31393500
1071
        1
1000
lotes--cerámica
1004
0756475F31393500
  0
VERTEX
  5
9B9
  8
CALIFORNIA
 10
1085217.2449155001
 20
701050.53588893497
 30
0.0
  0
VERTEX
  5
9BA
  8
CALIFORNIA
 10
1085273.5841015871
 20
701050.53717428562
 30
0.0
  0
VERTEX
  5
9BB
  8
CALIFORNIA
 10
1085295.00887913
 20
701105.63713363791
 30
0.0
  0
VERTEX
  5
9BC
  8
CALIFORNIA
 10
1085282.1903210951
 20
701133.34654168214
 30
0.0
  0
VERTEX
  5
9BD
  8
CALIFORNIA
 10
1085262.4404995581
 20
701141.10777661938
 30
0.0
  0
VERTEX
  5
9BE
  8
CALIFORNIA
 10
1085227.422022691
 20
701140.45701773523
 30
0.0
  0
VERTEX
  5
9BF
  8
CALIFORNIA
 10
1085202.2198468379
 20
701114.58603552647
 30
0.0
  0
VERTEX
  5
9C0
  8
CALIFORNIA
 10
1085210.907164146
 20
701083.14681324689
 30
0.0
  0
VERTEX
  5
9C1
  8
CALIFORNIA
 10
1085210.2377935071
 20
701055.55744397978
 30
0.0
  0
SEQEND
  5
9C2
  8
CALIFORNIA
  0
POLYLINE
  5
82
  8
CALIFORNIA
 66
     1
 10
0.0
 20
0.0
 30
0.0
 70
     1
1001
DCO15
1071
        4
1071
        3
1000
lotenos--cerámica
1004
0756475F373200
1071
        2
1000
lotes--períodos
1004
0756475F373200
1071
        1
1000
lotes--cerámica
1004
0756475F373200
  0
VERTEX
  5
9C3
  8
CALIFORNIA
 10
1087059.2468285761
 20
699377.71651784831
 30
0.0
  0
VERTEX
  5
9C4
  8
CALIFORNIA
 10
1087092.237533896
 20
699332.82996991137
 30
0.0
  0
VERTEX
  5
9C5
  8
CALIFORNIA
 10
1087119.519285582
 20
699343.99933750543
 30
0.0
  0
VERTEX
  5
9C6
  8
CALIFORNIA
 10
1087136.447992861
 20
699415.98053761583
 30
0.0
  0
VERTEX
  5
9C7
  8
CALIFORNIA
 10
1087135.232219904
 20
699445.740071974
 30
0.0
  0
VERTEX
  5
9C8
  8
CALIFORNIA
 10
1087109.701144733
 20
699459.70826947235
 30
0.0
  0
VERTEX
  5
9C9
  8
CALIFORNIA
 10
1087084.4453529229
 20
699407.67904184549
 30
0.0
  0
SEQEND
  5
9CA
  8
CALIFORNIA
  0
POLYLINE
  5
83
  8
CALIFORNIA
 66
     1
 10
0.0
 20
0.0
 30
0.0
 70
     1
1001
DCO15
1071
        4
1071
        3
1000
lotenos--cerámica
1004
0756475F363800
1071
        2
1000
lotes--períodos
1004
0756475F363800
1071
        1
1000
lotes--cerámica
1004
0756475F363800
  0
VERTEX
  5
9CB
  8
CALIFORNIA
 10
1087041.883200947
 20
699793.2905039785
 30
0.0
  0
VERTEX
  5
9CC
  8
CALIFORNIA
 10
1087089.8451754691
 20
699770.13075475849
 30
0.0
  0
VERTEX
  5
9CD
  8
CALIFORNIA
 10
1087147.399580552
 20
699848.39968965854
 30
0.0
  0
VERTEX
  5
9CE
  8
CALIFORNIA
 10
1087129.014160004
 20
699913.08987070189
 30
0.0
  0
VERTEX
  5
9CF
  8
CALIFORNIA
 10
1087102.9289323629
 20
699904.77050590073
 30
0.0
  0
VERTEX
  5
9D0
  8
CALIFORNIA
 10
1087102.9289323629
 20
699904.77050590073
 30
0.0
  0
VERTEX
  5
9D1
  8
CALIFORNIA
 10
1087093.0426742339
 20
699901.10932276025
 30
0.0
  0
SEQEND
  5
9D2
  8
CALIFORNIA
  0
POLYLINE
  5
84
  8
CALIFORNIA
 66
     1
 10
0.0
 20
0.0
 30
0.0
 70
     1
1001
DCO15
1071
        4
1071
        3
1000
lotenos--cerámica
1004
0756475F34303000
1071
        2
1000
lotes--períodos
1004
0756475F34303000
1071
        1
1000
lotes--cerámica
1004
0756475F34303000
  0
VERTEX
  5
9D3
  8
CALIFORNIA
 10
1086300.485754617
 20
700469.28003954806
 30
0.0
  0
VERTEX
  5
9D4
  8
CALIFORNIA
 10
1086301.0212899591
 20
700444.70235721185
 30
0.0
  0
VERTEX
  5
9D5
  8
CALIFORNIA
 10
1086350.274429572
 20
700386.12080639077
 30
0.0
  0
VERTEX
  5
9D6
  8
CALIFORNIA
 10
1086416.2771382851
 20
700408.76245294302
 30
0.0
  0
VERTEX
  5
9D7
  8
CALIFORNIA
 10
1086398.270735339
 20
700487.68364973785
 30
0.0
  0
SEQEND
  5
9D8
  8
CALIFORNIA
  0
POLYLINE
  5
85
  8
CALIFORNIA
 66
     1
 10
0.0
 20
0.0
 30
0.0
 70
     1
1001
DCO15
1071
        4
1071
        3
1000
lotenos--cerámica
1004
0756475F33393600
1071
        2
1000
lotes--períodos
1004
0756475F33393600
1071
        1
1000
lotes--cerámica
1004
0756475F33393600
  0
VERTEX
  5
9D9
  8
CALIFORNIA
 10
1086579.6062662511
 20
700481.24005974899
 30
0.0
  0
VERTEX
  5
9DA
  8
CALIFORNIA
 10
1086615.4462216489
 20
700479.59443171695
 30
0.0
  0
VERTEX
  5
9DB
  8
CALIFORNIA
 10
1086641.526743975
 20
700467.96327093465
 30
0.0
  0
VERTEX
  5
9DC
  8
CALIFORNIA
 10
1086639.093815404
 20
700446.16213201382
 30
0.0
  0
VERTEX
  5
9DD
  8
CALIFORNIA
 10
1086621.9776693829
 20
700415.82475010608
 30
0.0
  0
VERTEX
  5
9DE
  8
CALIFORNIA
 10
1086596.186128967
 20
700412.67428546422
 30
0.0
  0
VERTEX
  5
9DF
  8
CALIFORNIA
 10
1086575.1827778961
 20
700416.138895871
 30
0.0
  0
SEQEND
  5
9E0
  8
CALIFORNIA
  0
POLYLINE
  5
86
  8
CALIFORNIA
 66
     1
 10
0.0
 20
0.0
 30
0.0
 70
     1
1001
DCO15
1071
        4
1071
        3
1000
lotenos--cerámica
1004
0756475F33393400
1071
        2
1000
lotes--períodos
1004
0756475F33393400
1071
        1
1000
lotes--cerámica
1004
0756475F33393400
  0
VERTEX
  5
9E1
  8
CALIFORNIA
 10
1086712.4128735911
 20
699546.76434079569
 30
0.0
  0
VERTEX
  5
9E2
  8
CALIFORNIA
 10
1086728.358660527
 20
699573.7462788074
 30
0.0
  0
VERTEX
  5
9E3
  8
CALIFORNIA
 10
1086742.315273144
 20
699595.56912850938
 30
0.0
  0
VERTEX
  5
9E4
  8
CALIFORNIA
 10
1086753.2857204911
 20
699611.17726460588
 30
0.0
  0
VERTEX
  5
9E5
  8
CALIFORNIA
 10
1086773.2359335441
 20
699589.53456247272
 30
0.0
  0
VERTEX
  5
9E6
  8
CALIFORNIA
 10
1086801.088180298
 20
699563.72830661386
 30
0.0
  0
VERTEX
  5
9E7
  8
CALIFORNIA
 10
1086804.011553834
 20
699546.05202970898
 30
0.0
  0
VERTEX
  5
9E8
  8
CALIFORNIA
 10
1086788.982063747
 20
699519.96645207505
 30
0.0
  0
VERTEX
  5
9E9
  8
CALIFORNIA
 10
1086775.9170485481
 20
699487.66622781125
 30
0.0
  0
VERTEX
  5
9EA
  8
CALIFORNIA
 10
1086762.018837013
 20
699487.66515953897
 30
0.0
  0
SEQEND
  5
9EB
  8
CALIFORNIA
  0
POLYLINE
  5
87
  8
CALIFORNIA
 66
     1
 10
0.0
 20
0.0
 30
0.0
 70
     1
1001
DCO15
1071
        4
1071
        3
1000
lotenos--cerámica
1004
0756475F33353900
1071
        2
1000
lotes--períodos
1004
0756475F33353900
1071
        1
1000
lotes--cerámica
1004
0756475F33353900
  0
VERTEX
  5
9EC
  8
CALIFORNIA
 10
1086895.6101453991
 20
701264.74866161682
 30
0.0
  0
VERTEX
  5
9ED
  8
CALIFORNIA
 10
1086883.332842157
 20
701299.96075621678
 30
0.0
  0
VERTEX
  5
9EE
  8
CALIFORNIA
 10
1086858.752055354
 20
701318.02205466374
 30
0.0
  0
VERTEX
  5
9EF
  8
CALIFORNIA
 10
1086836.2209244331
 20
701326.22940181044
 30
0.0
  0
VERTEX
  5
9F0
  8
CALIFORNIA
 10
1086820.8516084149
 20
701321.68994273478
 30
0.0
  0
VERTEX
  5
9F1
  8
CALIFORNIA
 10
1086810.5556035391
 20
701293.29898888431
 30
0.0
  0
VERTEX
  5
9F2
  8
CALIFORNIA
 10
1086822.802561359
 20
701263.87463212525
 30
0.0
  0
VERTEX
  5
9F3
  8
CALIFORNIA
 10
1086841.2476739639
 20
701251.7422455136
 30
0.0
  0
VERTEX
  5
9F4
  8
CALIFORNIA
 10
1086861.74080316
 20
701239.73551261751
 30
0.0
  0
SEQEND
  5
9F5
  8
CALIFORNIA
  0
POLYLINE
  5
88
  8
CALIFORNIA
 66
     1
 10
0.0
 20
0.0
 30
0.0
 70
     1
1001
DCO15
1071
        4
1071
        3
1000
lotenos--cerámica
1004
0756475F31333600
1071
        2
1000
lotes--períodos
1004
0756475F31333600
1071
        1
1000
lotes--cerámica
1004
0756475F31333600
  0
VERTEX
  5
9F6
  8
CALIFORNIA
 10
1086890.8384982981
 20
700835.81013720145
 30
0.0
  0
VERTEX
  5
9F7
  8
CALIFORNIA
 10
1086954.607594999
 20
700810.21551929414
 30
0.0
  0
VERTEX
  5
9F8
  8
CALIFORNIA
 10
1086949.366262208
 20
700804.11463597312
 30
0.0
  0
VERTEX
  5
9F9
  8
CALIFORNIA
 10
1086938.2008715949
 20
700767.03521601437
 30
0.0
  0
VERTEX
  5
9FA
  8
CALIFORNIA
 10
1086931.90746847
 20
700756.76929560106
 30
0.0
  0
VERTEX
  5
9FB
  8
CALIFORNIA
 10
1086890.5600213639
 20
700749.84078960144
 30
0.0
  0
VERTEX
  5
9FC
  8
CALIFORNIA
 10
1086887.1368050519
 20
700765.24256325315
 30
0.0
  0
VERTEX
  5
9FD
  8
CALIFORNIA
 10
1086874.3570424439
 20
700771.20884583122
 30
0.0
  0
VERTEX
  5
9FE
  8
CALIFORNIA
 10
1086863.558133303
 20
700776.36534196394
 30
0.0
  0
VERTEX
  5
9FF
  8
CALIFORNIA
 10
1086856.038588529
 20
700795.23495613923
 30
0.0
  0
VERTEX
  5
A00
  8
CALIFORNIA
 10
1086864.3467973871
 20
700810.35853492096
 30
0.0
  0
VERTEX
  5
A01
  8
CALIFORNIA
 10
1086885.742095632
 20
700827.4223782887
 30
0.0
  0
VERTEX
  5
A02
  8
CALIFORNIA
 10
1086890.8384982981
 20
700835.81013720145
 30
0.0
  0
SEQEND
  5
A03
  8
CALIFORNIA
  0
POLYLINE
  5
89
  8
CALIFORNIA
 66
     1
 10
0.0
 20
0.0
 30
0.0
 70
     1
1001
DCO15
1071
        4
1071
        3
1000
lotenos--cerámica
1004
0756475F31333200
1071
        2
1000
lotes--períodos
1004
0756475F31333200
1071
        1
1000
lotes--cerámica
1004
0756475F31333200
  0
VERTEX
  5
A04
  8
CALIFORNIA
 10
1086766.4213337691
 20
700600.32437580405
 30
0.0
  0
VERTEX
  5
A05
  8
CALIFORNIA
 10
1086759.196639498
 20
700578.66958644288
 30
0.0
  0
VERTEX
  5
A06
  8
CALIFORNIA
 10
1086691.013623215
 20
700606.18746915355
 30
0.0
  0
VERTEX
  5
A07
  8
CALIFORNIA
 10
1086722.6216474411
 20
700641.37696313998
 30
0.0
  0
VERTEX
  5
A08
  8
CALIFORNIA
 10
1086768.679048918
 20
700641.37800147571
 30
0.0
  0
SEQEND
  5
A09
  8
CALIFORNIA
  0
POLYLINE
  5
8A
  8
CALIFORNIA
 66
     1
 10
0.0
 20
0.0
 30
0.0
 70
     1
1001
DCO15
1071
        4
1071
        3
1000
lotenos--cerámica
1004
0756475F31323800
1071
        2
1000
lotes--períodos
1004
0756475F31323800
1071
        1
1000
lotes--cerámica
1004
0756475F31323800
  0
VERTEX
  5
A0A
  8
CALIFORNIA
 10
1086741.586493358
 20
700836.2231861084
 30
0.0
  0
VERTEX
  5
A0B
  8
CALIFORNIA
 10
1086716.489194945
 20
700865.29166768771
 30
0.0
  0
VERTEX
  5
A0C
  8
CALIFORNIA
 10
1086694.6260263899
 20
700889.45642913994
 30
0.0
  0
VERTEX
  5
A0D
  8
CALIFORNIA
 10
1086625.9914618011
 20
700893.51512665697
 30
0.0
  0
VERTEX
  5
A0E
  8
CALIFORNIA
 10
1086611.136322276
 20
700881.45738947706
 30
0.0
  0
VERTEX
  5
A0F
  8
CALIFORNIA
 10
1086642.947839218
 20
700847.52674017765
 30
0.0
  0
VERTEX
  5
A10
  8
CALIFORNIA
 10
1086669.3700937331
 20
700786.61417811643
 30
0.0
  0
VERTEX
  5
A11
  8
CALIFORNIA
 10
1086701.3991579439
 20
700786.59708446579
 30
0.0
  0
VERTEX
  5
A12
  8
CALIFORNIA
 10
1086741.586493358
 20
700836.2231861084
 30
0.0
  0
SEQEND
  5
A13
  8
CALIFORNIA
  0
POLYLINE
  5
8B
  8
CALIFORNIA
 66
     1
 10
0.0
 20
0.0
 30
0.0
 70
     1
1001
DCO15
1071
        4
1071
        3
1000
lotenos--cerámica
1004
0756475F31323400
1071
        2
1000
lotes--períodos
1004
0756475F31323400
1071
        1
1000
lotes--cerámica
1004
0756475F31323400
  0
VERTEX
  5
A14
  8
CALIFORNIA
 10
1086609.1943531891
 20
700879.07833312685
 30
0.0
  0
VERTEX
  5
A15
  8
CALIFORNIA
 10
1086562.3890536069
 20
700862.68770748458
 30
0.0
  0
VERTEX
  5
A16
  8
CALIFORNIA
 10
1086551.8916708841
 20
700803.69419483026
 30
0.0
  0
VERTEX
  5
A17
  8
CALIFORNIA
 10
1086584.338261652
 20
700757.93227890797
 30
0.0
  0
VERTEX
  5
A18
  8
CALIFORNIA
 10
1086606.504590644
 20
700772.00870933314
 30
0.0
  0
VERTEX
  5
A19
  8
CALIFORNIA
 10
1086653.344162479
 20
700772.21310102544
 30
0.0
  0
VERTEX
  5
A1A
  8
CALIFORNIA
 10
1086667.4434141021
 20
700784.79177044495
 30
0.0
  0
VERTEX
  5
A1B
  8
CALIFORNIA
 10
1086641.705458415
 20
700846.14597305865
 30
0.0
  0
SEQEND
  5
A1C
  8
CALIFORNIA
  0
POLYLINE
  5
8C
  8
CALIFORNIA
 66
     1
 10
0.0
 20
0.0
 30
0.0
 70
     1
1001
DCO15
1071
        4
1071
        3
1000
lotenos--cerámica
1004
0756475F323200
1071
        2
1000
lotes--períodos
1004
0756475F323200
1071
        1
1000
lotes--cerámica
1004
0756475F323200
  0
VERTEX
  5
A1D
  8
CALIFORNIA
 10
1086201.7967897551
 20
699821.73783805524
 30
0.0
  0
VERTEX
  5
A1E
  8
CALIFORNIA
 10
1086199.0158894861
 20
699896.28393066721
 30
0.0
  0
VERTEX
  5
A1F
  8
CALIFORNIA
 10
1086224.9869361769
 20
699933.22349559539
 30
0.0
  0
VERTEX
  5
A20
  8
CALIFORNIA
 10
1086249.4762504471
 20
699929.9917386818
 30
0.0
  0
VERTEX
  5
A21
  8
CALIFORNIA
 10
1086276.4782495149
 20
699914.12309423392
 30
0.0
  0
VERTEX
  5
A22
  8
CALIFORNIA
 10
1086279.219384511
 20
699891.12749559607
 30
0.0
  0
VERTEX
  5
A23
  8
CALIFORNIA
 10
1086277.156907053
 20
699877.29952293483
 30
0.0
  0
VERTEX
  5
A24
  8
CALIFORNIA
 10
1086280.9020587311
 20
699862.36116968561
 30
0.0
  0
VERTEX
  5
A25
  8
CALIFORNIA
 10
1086233.238360323
 20
699812.65848453459
 30
0.0
  0
SEQEND
  5
A26
  8
CALIFORNIA
  0
POLYLINE
  5
8D
  8
CALIFORNIA
 66
     1
 10
0.0
 20
0.0
 30
0.0
 70
     1
1001
DCO15
1071
        4
1071
        3
1000
lotenos--cerámica
1004
0756475F323000
1071
        2
1000
lotes--períodos
1004
0756475F323000
1071
        1
1000
lotes--cerámica
1004
0756475F323000
  0
VERTEX
  5
A27
  8
CALIFORNIA
 10
1086349.4057356119
 20
700143.92712940671
 30
0.0
  0
VERTEX
  5
A28
  8
CALIFORNIA
 10
1086334.5531855591
 20
700131.00919898762
 30
0.0
  0
VERTEX
  5
A29
  8
CALIFORNIA
 10
1086311.729058458
 20
700106.48146046896
 30
0.0
  0
VERTEX
  5
A2A
  8
CALIFORNIA
 10
1086310.8635464029
 20
700086.90090439608
 30
0.0
  0
VERTEX
  5
A2B
  8
CALIFORNIA
 10
1086304.6417656669
 20
700039.60912108514
 30
0.0
  0
VERTEX
  5
A2C
  8
CALIFORNIA
 10
1086361.7507760089
 20
700018.49100131646
 30
0.0
  0
VERTEX
  5
A2D
  8
CALIFORNIA
 10
1086388.2764449711
 20
700021.19282010652
 30
0.0
  0
VERTEX
  5
A2E
  8
CALIFORNIA
 10
1086384.54126527
 20
700038.45470548386
 30
0.0
  0
VERTEX
  5
A2F
  8
CALIFORNIA
 10
1086406.0932333779
 20
700061.91626668675
 30
0.0
  0
VERTEX
  5
A30
  8
CALIFORNIA
 10
1086397.425214459
 20
700099.86312265985
 30
0.0
  0
VERTEX
  5
A31
  8
CALIFORNIA
 10
1086369.50077991
 20
700114.33864435833
 30
0.0
  0
SEQEND
  5
A32
  8
CALIFORNIA
  0
POLYLINE
  5
8E
  8
CALIFORNIA
 66
     1
 10
0.0
 20
0.0
 30
0.0
 70
     1
1001
DCO15
1071
        4
1071
        3
1000
lotenos--cerámica
1004
0756475F34303700
1071
        2
1000
lotes--períodos
1004
0756475F34303700
1071
        1
1000
lotes--cerámica
1004
0756475F34303700
  0
VERTEX
  5
A33
  8
CALIFORNIA
 10
1086434.271568466
 20
700274.23327864753
 30
0.0
  0
VERTEX
  5
A34
  8
CALIFORNIA
 10
1086379.3841321431
 20
700314.15052168816
 30
0.0
  0
VERTEX
  5
A35
  8
CALIFORNIA
 10
1086384.2209130621
 20
700343.11520507769
 30
0.0
  0
VERTEX
  5
A36
  8
CALIFORNIA
 10
1086407.8757291411
 20
700363.23117773526
 30
0.0
  0
VERTEX
  5
A37
  8
CALIFORNIA
 10
1086444.303663068
 20
700370.31103367242
 30
0.0
  0
VERTEX
  5
A38
  8
CALIFORNIA
 10
1086458.208970173
 20
700360.61939128221
 30
0.0
  0
VERTEX
  5
A39
  8
CALIFORNIA
 10
1086461.9895584879
 20
700343.6045949969
 30
0.0
  0
VERTEX
  5
A3A
  8
CALIFORNIA
 10
1086460.059739643
 20
700326.31884997815
 30
0.0
  0
VERTEX
  5
A3B
  8
CALIFORNIA
 10
1086434.271568466
 20
700274.23327864753
 30
0.0
  0
VERTEX
  5
A3C
  8
CALIFORNIA
 10
1086434.271568466
 20
700274.23327864753
 30
0.0
  0
SEQEND
  5
A3D
  8
CALIFORNIA
  0
POLYLINE
  5
8F
  8
CALIFORNIA
 66
     1
 10
0.0
 20
0.0
 30
0.0
 70
     1
1001
DCO15
1071
        4
1071
        3
1000
lotenos--cerámica
1004
0756475F34303600
1071
        2
1000
lotes--períodos
1004
0756475F34303600
1071
        1
1000
lotes--cerámica
1004
0756475F34303600
  0
VERTEX
  5
A3E
  8
CALIFORNIA
 10
1086432.8344001609
 20
700271.42396707146
 30
0.0
  0
VERTEX
  5
A3F
  8
CALIFORNIA
 10
1086377.5640999221
 20
700311.42288179253
 30
0.0
  0
VERTEX
  5
A40
  8
CALIFORNIA
 10
1086353.1137735359
 20
700281.79200708901
 30
0.0
  0
VERTEX
  5
A41
  8
CALIFORNIA
 10
1086346.608654341
 20
700255.31532545586
 30
0.0
  0
VERTEX
  5
A42
  8
CALIFORNIA
 10
1086349.474985037
 20
700217.51900603238
 30
0.0
  0
VERTEX
  5
A43
  8
CALIFORNIA
 10
1086357.770837679
 20
700202.75270570815
 30
0.0
  0
VERTEX
  5
A44
  8
CALIFORNIA
 10
1086367.0988727161
 20
700176.86086512136
 30
0.0
  0
VERTEX
  5
A45
  8
CALIFORNIA
 10
1086404.8645927941
 20
700185.95372810995
 30
0.0
  0
VERTEX
  5
A46
  8
CALIFORNIA
 10
1086432.8344001609
 20
700271.42396707146
 30
0.0
  0
VERTEX
  5
A47
  8
CALIFORNIA
 10
1086432.8344001609
 20
700271.42396707146
 30
0.0
  0
SEQEND
  5
A48
  8
CALIFORNIA
  0
POLYLINE
  5
90
  8
CALIFORNIA
 66
     1
 10
0.0
 20
0.0
 30
0.0
 70
     1
1001
DCO15
1071
        4
1071
        3
1000
lotenos--cerámica
1004
0756475F353800
1071
        2
1000
lotes--períodos
1004
0756475F353800
1071
        1
1000
lotes--cerámica
1004
0756475F353800
  0
VERTEX
  5
A49
  8
CALIFORNIA
 10
1086937.5539245759
 20
700133.66440514929
 30
0.0
  0
VERTEX
  5
A4A
  8
CALIFORNIA
 10
1086947.229346772
 20
700106.55535114626
 30
0.0
  0
VERTEX
  5
A4B
  8
CALIFORNIA
 10
1087022.9765188131
 20
700111.03154303855
 30
0.0
  0
VERTEX
  5
A4C
  8
CALIFORNIA
 10
1087063.7833205441
 20
700175.36279870174
 30
0.0
  0
VERTEX
  5
A4D
  8
CALIFORNIA
 10
1087029.2634548261
 20
700222.71993501089
 30
0.0
  0
VERTEX
  5
A4E
  8
CALIFORNIA
 10
1086989.076132796
 20
700209.85002558678
 30
0.0
  0
SEQEND
  5
A4F
  8
CALIFORNIA
  0
POLYLINE
  5
91
  8
CALIFORNIA
 66
     1
 10
0.0
 20
0.0
 30
0.0
 70
     1
1001
DCO15
1071
        4
1071
        3
1000
lotenos--cerámica
1004
0756475F32323700
1071
        2
1000
lotes--períodos
1004
0756475F32323700
1071
        1
1000
lotes--cerámica
1004
0756475F32323700
  0
VERTEX
  5
A50
  8
CALIFORNIA
 10
1088169.628528676
 20
700323.08101875847
 30
0.0
  0
VERTEX
  5
A51
  8
CALIFORNIA
 10
1088209.4165497341
 20
700351.75458225934
 30
0.0
  0
VERTEX
  5
A52
  8
CALIFORNIA
 10
1088260.7806982731
 20
700350.17283705936
 30
0.0
  0
VERTEX
  5
A53
  8
CALIFORNIA
 10
1088264.6410235809
 20
700350.04000609368
 30
0.0
  0
VERTEX
  5
A54
  8
CALIFORNIA
 10
1088275.05283639
 20
700342.23695651302
 30
0.0
  0
VERTEX
  5
A55
  8
CALIFORNIA
 10
1088276.454861871
 20
700334.74921026034
 30
0.0
  0
VERTEX
  5
A56
  8
CALIFORNIA
 10
1088276.907960749
 20
700306.21688051312
 30
0.0
  0
VERTEX
  5
A57
  8
CALIFORNIA
 10
1088264.3639394371
 20
700288.02721289115
 30
0.0
  0
VERTEX
  5
A58
  8
CALIFORNIA
 10
1088254.2450452
 20
700279.65811640664
 30
0.0
  0
VERTEX
  5
A59
  8
CALIFORNIA
 10
1088241.4677838001
 20
700277.55156749545
 30
0.0
  0
VERTEX
  5
A5A
  8
CALIFORNIA
 10
1088223.52055889
 20
700279.28371545929
 30
0.0
  0
VERTEX
  5
A5B
  8
CALIFORNIA
 10
1088209.5931934849
 20
700272.18118978594
 30
0.0
  0
VERTEX
  5
A5C
  8
CALIFORNIA
 10
1088204.749626928
 20
700262.92821405595
 30
0.0
  0
SEQEND
  5
A5D
  8
CALIFORNIA
  0
POLYLINE
  5
92
  8
CALIFORNIA
 66
     1
 10
0.0
 20
0.0
 30
0.0
 70
     1
1001
DCO15
1071
        4
1071
        3
1000
lotenos--cerámica
1004
0756475F38313400
1071
        2
1000
lotes--períodos
1004
0756475F38313400
1071
        1
1000
lotes--cerámica
1004
0756475F38313400
  0
VERTEX
  5
A5E
  8
CALIFORNIA
 10
1087950.391085393
 20
699905.19520136528
 30
0.0
  0
VERTEX
  5
A5F
  8
CALIFORNIA
 10
1087958.722757712
 20
699945.12500757026
 30
0.0
  0
VERTEX
  5
A60
  8
CALIFORNIA
 10
1087960.7838705671
 20
699948.81454261462
 30
0.0
  0
VERTEX
  5
A61
  8
CALIFORNIA
 10
1088049.530821691
 20
699944.88822607091
 30
0.0
  0
VERTEX
  5
A62
  8
CALIFORNIA
 10
1088050.838131367
 20
699939.00496589055
 30
0.0
  0
VERTEX
  5
A63
  8
CALIFORNIA
 10
1088038.066972476
 20
699884.77316460502
 30
0.0
  0
VERTEX
  5
A64
  8
CALIFORNIA
 10
1088001.8327016891
 20
699881.94038953248
 30
0.0
  0
SEQEND
  5
A65
  8
CALIFORNIA
  0
POLYLINE
  5
93
  8
CALIFORNIA
 66
     1
 10
0.0
 20
0.0
 30
0.0
 70
     1
1001
DCO15
1071
        4
1071
        3
1000
lotenos--cerámica
1004
0756475F35323700
1071
        2
1000
lotes--períodos
1004
0756475F35323700
1071
        1
1000
lotes--cerámica
1004
0756475F35323700
  0
VERTEX
  5
A66
  8
CALIFORNIA
 10
1087954.9580889151
 20
700663.47307958512
 30
0.0
  0
VERTEX
  5
A67
  8
CALIFORNIA
 10
1088015.542138482
 20
700636.78633642313
 30
0.0
  0
VERTEX
  5
A68
  8
CALIFORNIA
 10
1088004.6961362429
 20
700620.91968385817
 30
0.0
  0
VERTEX
  5
A69
  8
CALIFORNIA
 10
1088004.4318957031
 20
700594.13640388311
 30
0.0
  0
VERTEX
  5
A6A
  8
CALIFORNIA
 10
1088007.324229348
 20
700569.24683169066
 30
0.0
  0
VERTEX
  5
A6B
  8
CALIFORNIA
 10
1088011.3152820249
 20
700543.25828600256
 30
0.0
  0
VERTEX
  5
A6C
  8
CALIFORNIA
 10
1088007.190703915
 20
700516.13212532457
 30
0.0
  0
VERTEX
  5
A6D
  8
CALIFORNIA
 10
1087995.955256352
 20
700500.96157185081
 30
0.0
  0
VERTEX
  5
A6E
  8
CALIFORNIA
 10
1087987.7736371211
 20
700499.90261252585
 30
0.0
  0
VERTEX
  5
A6F
  8
CALIFORNIA
 10
1087977.560024899
 20
700498.81633770885
 30
0.0
  0
VERTEX
  5
A70
  8
CALIFORNIA
 10
1087964.2661363699
 20
700508.79335965554
 30
0.0
  0
VERTEX
  5
A71
  8
CALIFORNIA
 10
1087964.2489976769
 20
700537.99039010785
 30
0.0
  0
VERTEX
  5
A72
  8
CALIFORNIA
 10
1087963.3319667149
 20
700567.04064292565
 30
0.0
  0
VERTEX
  5
A73
  8
CALIFORNIA
 10
1087967.5798808259
 20
700592.01253532758
 30
0.0
  0
VERTEX
  5
A74
  8
CALIFORNIA
 10
1087961.635715002
 20
700611.86513908824
 30
0.0
  0
VERTEX
  5
A75
  8
CALIFORNIA
 10
1087945.4743863521
 20
700626.64892468438
 30
0.0
  0
VERTEX
  5
A76
  8
CALIFORNIA
 10
1087940.506986178
 20
700638.51819951623
 30
0.0
  0
VERTEX
  5
A77
  8
CALIFORNIA
 10
1087954.9580889151
 20
700663.47307958512
 30
0.0
  0
SEQEND
  5
A78
  8
CALIFORNIA
  0
POLYLINE
  5
94
  8
CALIFORNIA
 66
     1
 10
0.0
 20
0.0
 30
0.0
 70
     1
1001
DCO15
1071
        4
1071
        3
1000
lotenos--cerámica
1004
0756475F32323600
1071
        2
1000
lotes--períodos
1004
0756475F32323600
1071
        1
1000
lotes--cerámica
1004
0756475F32323600
  0
VERTEX
  5
A79
  8
CALIFORNIA
 10
1088098.3828658599
 20
700224.82857362356
 30
0.0
  0
VERTEX
  5
A7A
  8
CALIFORNIA
 10
1088101.393252102
 20
700247.88751815457
 30
0.0
  0
VERTEX
  5
A7B
  8
CALIFORNIA
 10
1088112.431311616
 20
700248.89032376534
 30
0.0
  0
VERTEX
  5
A7C
  8
CALIFORNIA
 10
1088185.683886013
 20
700224.83051981905
 30
0.0
  0
VERTEX
  5
A7D
  8
CALIFORNIA
 10
1088195.7118045811
 20
700190.75937265041
 30
0.0
  0
VERTEX
  5
A7E
  8
CALIFORNIA
 10
1088175.661878695
 20
700170.23443490127
 30
0.0
  0
VERTEX
  5
A7F
  8
CALIFORNIA
 10
1088149.1098581741
 20
700162.1247628195
 30
0.0
  0
VERTEX
  5
A80
  8
CALIFORNIA
 10
1088123.4693583001
 20
700156.65506983339
 30
0.0
  0
SEQEND
  5
A81
  8
CALIFORNIA
  0
POLYLINE
  5
95
  8
CALIFORNIA
 66
     1
 10
0.0
 20
0.0
 30
0.0
 70
     1
1001
DCO15
1071
        4
1071
        3
1000
lotenos--cerámica
1004
0756475F32323500
1071
        2
1000
lotes--períodos
1004
0756475F32323500
1071
        1
1000
lotes--cerámica
1004
0756475F32323500
  0
VERTEX
  5
A82
  8
CALIFORNIA
 10
1088100.3897974549
 20
700250.89517420123
 30
0.0
  0
VERTEX
  5
A83
  8
CALIFORNIA
 10
1088110.848919387
 20
700252.73387722531
 30
0.0
  0
VERTEX
  5
A84
  8
CALIFORNIA
 10
1088183.590627773
 20
700230.56370124174
 30
0.0
  0
VERTEX
  5
A85
  8
CALIFORNIA
 10
1088199.56482859
 20
700262.47747775773
 30
0.0
  0
VERTEX
  5
A86
  8
CALIFORNIA
 10
1088168.6250724129
 20
700314.05796114425
 30
0.0
  0
VERTEX
  5
A87
  8
CALIFORNIA
 10
1088072.2929201911
 20
700307.03789715108
 30
0.0
  0
VERTEX
  5
A88
  8
CALIFORNIA
 10
1088100.3897974549
 20
700250.89517420123
 30
0.0
  0
SEQEND
  5
A89
  8
CALIFORNIA
  0
POLYLINE
  5
96
  8
CALIFORNIA
 66
     1
 10
0.0
 20
0.0
 30
0.0
 70
     1
1001
DCO15
1071
        4
1071
        3
1000
lotenos--cerámica
1004
0756475F36383600
1071
        2
1000
lotes--períodos
1004
0756475F36383600
1071
        1
1000
lotes--cerámica
1004
0756475F36383600
  0
VERTEX
  5
A8A
  8
CALIFORNIA
 10
1087720.9393161549
 20
698924.0225961525
 30
0.0
  0
VERTEX
  5
A8B
  8
CALIFORNIA
 10
1087737.67439553
 20
698918.7310745127
 30
0.0
  0
VERTEX
  5
A8C
  8
CALIFORNIA
 10
1087754.0393844279
 20
698907.12048150157
 30
0.0
  0
VERTEX
  5
A8D
  8
CALIFORNIA
 10
1087775.4400754231
 20
698894.7489902142
 30
0.0
  0
VERTEX
  5
A8E
  8
CALIFORNIA
 10
1087795.9159656791
 20
698894.34647321282
 30
0.0
  0
VERTEX
  5
A8F
  8
CALIFORNIA
 10
1087828.045775536
 20
698888.06295781885
 30
0.0
  0
VERTEX
  5
A90
  8
CALIFORNIA
 10
1087843.033820573
 20
698871.6175268013
 30
0.0
  0
VERTEX
  5
A91
  8
CALIFORNIA
 10
1087849.9650191241
 20
698857.50849444151
 30
0.0
  0
VERTEX
  5
A92
  8
CALIFORNIA
 10
1087849.7435219139
 20
698838.20821660967
 30
0.0
  0
VERTEX
  5
A93
  8
CALIFORNIA
 10
1087844.1349466371
 20
698806.53500326432
 30
0.0
  0
VERTEX
  5
A94
  8
CALIFORNIA
 10
1087844.1349466371
 20
698806.53500326432
 30
0.0
  0
VERTEX
  5
A95
  8
CALIFORNIA
 10
1087844.1349466371
 20
698806.53500326432
 30
0.0
  0
VERTEX
  5
A96
  8
CALIFORNIA
 10
1087713.7395594891
 20
698874.46867405064
 30
0.0
  0
SEQEND
  5
A97
  8
CALIFORNIA
  0
POLYLINE
  5
97
  8
CALIFORNIA
 66
     1
 10
0.0
 20
0.0
 30
0.0
 70
     1
1001
DCO15
1071
        4
1071
        3
1000
lotenos--cerámica
1004
0756475F32373100
1071
        2
1000
lotes--períodos
1004
0756475F32373100
1071
        1
1000
lotes--cerámica
1004
0756475F32373100
  0
VERTEX
  5
A98
  8
CALIFORNIA
 10
1087692.857823492
 20
699814.2629687977
 30
0.0
  0
VERTEX
  5
A99
  8
CALIFORNIA
 10
1087760.5735515191
 20
699785.97225425125
 30
0.0
  0
VERTEX
  5
A9A
  8
CALIFORNIA
 10
1087734.7295432379
 20
699717.0381850875
 30
0.0
  0
VERTEX
  5
A9B
  8
CALIFORNIA
 10
1087704.31206685
 20
699715.41846968594
 30
0.0
  0
VERTEX
  5
A9C
  8
CALIFORNIA
 10
1087682.49497945
 20
699743.68980382476
 30
0.0
  0
VERTEX
  5
A9D
  8
CALIFORNIA
 10
1087649.900769467
 20
699758.00372441451
 30
0.0
  0
SEQEND
  5
A9E
  8
CALIFORNIA
  0
POLYLINE
  5
98
  8
CALIFORNIA
 66
     1
 10
0.0
 20
0.0
 30
0.0
 70
     1
1001
DCO15
1071
        4
1071
        3
1000
lotenos--cerámica
1004
0756475F32343400
1071
        2
1000
lotes--períodos
1004
0756475F32343400
1071
        1
1000
lotes--cerámica
1004
0756475F32343400
  0
VERTEX
  5
A9F
  8
CALIFORNIA
 10
1087577.915695182
 20
701035.14331213571
 30
0.0
  0
VERTEX
  5
AA0
  8
CALIFORNIA
 10
1087592.933177076
 20
701106.94851281599
 30
0.0
  0
VERTEX
  5
AA1
  8
CALIFORNIA
 10
1087629.629178135
 20
701101.0961536041
 30
0.0
  0
VERTEX
  5
AA2
  8
CALIFORNIA
 10
1087642.9674105321
 20
701093.04520277434
 30
0.0
  0
VERTEX
  5
AA3
  8
CALIFORNIA
 10
1087642.044296718
 20
701069.32353365456
 30
0.0
  0
VERTEX
  5
AA4
  8
CALIFORNIA
 10
1087640.078309715
 20
701047.59047355503
 30
0.0
  0
VERTEX
  5
AA5
  8
CALIFORNIA
 10
1087641.1395825371
 20
701036.69976163295
 30
0.0
  0
VERTEX
  5
AA6
  8
CALIFORNIA
 10
1087629.9391919239
 20
701016.06195546919
 30
0.0
  0
VERTEX
  5
AA7
  8
CALIFORNIA
 10
1087606.4000760049
 20
701007.46286168287
 30
0.0
  0
VERTEX
  5
AA8
  8
CALIFORNIA
 10
1087598.187279141
 20
701013.50382647011
 30
0.0
  0
VERTEX
  5
AA9
  8
CALIFORNIA
 10
1087590.991774803
 20
701021.50702763349
 30
0.0
  0
VERTEX
  5
AAA
  8
CALIFORNIA
 10
1087581.761356839
 20
701023.60806369432
 30
0.0
  0
SEQEND
  5
AAB
  8
CALIFORNIA
  0
POLYLINE
  5
99
  8
CALIFORNIA
 66
     1
 10
0.0
 20
0.0
 30
0.0
 70
     1
1001
DCO15
1071
        4
1071
        3
1000
lotenos--cerámica
1004
0756475F32343100
1071
        2
1000
lotes--períodos
1004
0756475F32343100
1071
        1
1000
lotes--cerámica
1004
0756475F32343100
  0
VERTEX
  5
AAC
  8
CALIFORNIA
 10
1087496.8211884219
 20
701064.54985881958
 30
0.0
  0
VERTEX
  5
AAD
  8
CALIFORNIA
 10
1087502.7270112161
 20
701092.11183147295
 30
0.0
  0
VERTEX
  5
AAE
  8
CALIFORNIA
 10
1087535.491766308
 20
701095.52563262812
 30
0.0
  0
VERTEX
  5
AAF
  8
CALIFORNIA
 10
1087567.1700441011
 20
701118.09623337339
 30
0.0
  0
VERTEX
  5
AB0
  8
CALIFORNIA
 10
1087591.145392501
 20
701107.66294998315
 30
0.0
  0
VERTEX
  5
AB1
  8
CALIFORNIA
 10
1087577.3533236079
 20
701040.5253656765
 30
0.0
  0
VERTEX
  5
AB2
  8
CALIFORNIA
 10
1087513.751219176
 20
701048.10115809995
 30
0.0
  0
SEQEND
  5
AB3
  8
CALIFORNIA
  0
POLYLINE
  5
9A
  8
CALIFORNIA
 66
     1
 10
0.0
 20
0.0
 30
0.0
 70
     1
1001
DCO15
1071
        4
1071
        3
1000
lotenos--cerámica
1004
0756475F32343000
1071
        2
1000
lotes--períodos
1004
0756475F32343000
1071
        1
1000
lotes--cerámica
1004
0756475F32343000
  0
VERTEX
  5
AB4
  8
CALIFORNIA
 10
1087401.203439788
 20
700985.55584634375
 30
0.0
  0
VERTEX
  5
AB5
  8
CALIFORNIA
 10
1087418.195031771
 20
701006.01058340247
 30
0.0
  0
VERTEX
  5
AB6
  8
CALIFORNIA
 10
1087432.165078752
 20
701036.07946326397
 30
0.0
  0
VERTEX
  5
AB7
  8
CALIFORNIA
 10
1087455.061097594
 20
701050.89472822356
 30
0.0
  0
VERTEX
  5
AB8
  8
CALIFORNIA
 10
1087470.979267749
 20
701055.40494054696
 30
0.0
  0
VERTEX
  5
AB9
  8
CALIFORNIA
 10
1087477.08410607
 20
700998.20292036445
 30
0.0
  0
VERTEX
  5
ABA
  8
CALIFORNIA
 10
1087494.9620398991
 20
700979.62694291514
 30
0.0
  0
VERTEX
  5
ABB
  8
CALIFORNIA
 10
1087454.069448201
 20
700947.32569585973
 30
0.0
  0
SEQEND
  5
ABC
  8
CALIFORNIA
  0
POLYLINE
  5
9B
  8
CALIFORNIA
 66
     1
 10
0.0
 20
0.0
 30
0.0
 70
     1
1001
DCO15
1071
        4
1071
        3
1000
lotenos--cerámica
1004
0756475F31373800
1071
        2
1000
lotes--períodos
1004
0756475F31373800
1071
        1
1000
lotes--cerámica
1004
0756475F31373800
  0
VERTEX
  5
ABD
  8
CALIFORNIA
 10
1087651.7637376799
 20
700108.14037945354
 30
0.0
  0
VERTEX
  5
ABE
  8
CALIFORNIA
 10
1087595.9971829951
 20
700105.76821250352
 30
0.0
  0
VERTEX
  5
ABF
  8
CALIFORNIA
 10
1087563.0477533201
 20
700061.8766719104
 30
0.0
  0
VERTEX
  5
AC0
  8
CALIFORNIA
 10
1087613.7043504091
 20
700020.56421932857
 30
0.0
  0
VERTEX
  5
AC1
  8
CALIFORNIA
 10
1087649.983932138
 20
700042.94016319793
 30
0.0
  0
SEQEND
  5
AC2
  8
CALIFORNIA
  0
POLYLINE
  5
9C
  8
CALIFORNIA
 66
     1
 10
0.0
 20
0.0
 30
0.0
 70
     1
1001
DCO15
1071
        4
1071
        3
1000
lotenos--cerámica
1004
0756475F31353200
1071
        2
1000
lotes--períodos
1004
0756475F31353200
1071
        1
1000
lotes--cerámica
1004
0756475F31353200
  0
VERTEX
  5
AC3
  8
CALIFORNIA
 10
1087710.2668775539
 20
699873.98316779535
 30
0.0
  0
VERTEX
  5
AC4
  8
CALIFORNIA
 10
1087764.499258962
 20
699893.22353148821
 30
0.0
  0
VERTEX
  5
AC5
  8
CALIFORNIA
 10
1087774.6685290569
 20
699853.04721662495
 30
0.0
  0
VERTEX
  5
AC6
  8
CALIFORNIA
 10
1087772.275696418
 20
699797.03555088607
 30
0.0
  0
VERTEX
  5
AC7
  8
CALIFORNIA
 10
1087762.1413068611
 20
699787.60446817591
 30
0.0
  0
VERTEX
  5
AC8
  8
CALIFORNIA
 10
1087697.1806967589
 20
699814.65570381575
 30
0.0
  0
SEQEND
  5
AC9
  8
CALIFORNIA
  0
POLYLINE
  5
9D
  8
CALIFORNIA
 66
     1
 10
0.0
 20
0.0
 30
0.0
 70
     1
1001
DCO15
1071
        4
1071
        3
1000
lotenos--cerámica
1004
0756475F31343100
1071
        2
1000
lotes--períodos
1004
0756475F31343100
1071
        1
1000
lotes--cerámica
1004
0756475F31343100
  0
VERTEX
  5
ACA
  8
CALIFORNIA
 10
1087363.640655553
 20
700108.43513147614
 30
0.0
  0
VERTEX
  5
ACB
  8
CALIFORNIA
 10
1087418.8163364229
 20
700128.64658741339
 30
0.0
  0
VERTEX
  5
ACC
  8
CALIFORNIA
 10
1087427.437568801
 20
700107.08019483462
 30
0.0
  0
VERTEX
  5
ACD
  8
CALIFORNIA
 10
1087449.9362784531
 20
700093.79036703217
 30
0.0
  0
VERTEX
  5
ACE
  8
CALIFORNIA
 10
1087465.62696913
 20
700093.99475829792
 30
0.0
  0
VERTEX
  5
ACF
  8
CALIFORNIA
 10
1087465.5928005171
 20
700089.18434025533
 30
0.0
  0
VERTEX
  5
AD0
  8
CALIFORNIA
 10
1087445.511145615
 20
700031.20262630295
 30
0.0
  0
VERTEX
  5
AD1
  8
CALIFORNIA
 10
1087392.7057231951
 20
700014.43139129155
 30
0.0
  0
VERTEX
  5
AD2
  8
CALIFORNIA
 10
1087383.050005116
 20
700029.68885710835
 30
0.0
  0
VERTEX
  5
AD3
  8
CALIFORNIA
 10
1087387.081645892
 20
700055.02355901105
 30
0.0
  0
VERTEX
  5
AD4
  8
CALIFORNIA
 10
1087375.417519307
 20
700090.91836243065
 30
0.0
  0
VERTEX
  5
AD5
  8
CALIFORNIA
 10
1087363.640655553
 20
700108.43513147614
 30
0.0
  0
SEQEND
  5
AD6
  8
CALIFORNIA
  0
POLYLINE
  5
9E
  8
CALIFORNIA
 66
     1
 10
0.0
 20
0.0
 30
0.0
 70
     1
1001
DCO15
1071
        4
1071
        3
1000
lotenos--cerámica
1004
0756475F383100
1071
        2
1000
lotes--períodos
1004
0756475F383100
1071
        1
1000
lotes--cerámica
1004
0756475F383100
  0
VERTEX
  5
AD7
  8
CALIFORNIA
 10
1087627.9559199801
 20
699630.35646687972
 30
0.0
  0
VERTEX
  5
AD8
  8
CALIFORNIA
 10
1087615.4650140521
 20
699629.8761935879
 30
0.0
  0
VERTEX
  5
AD9
  8
CALIFORNIA
 10
1087588.081111544
 20
699648.11513886682
 30
0.0
  0
VERTEX
  5
ADA
  8
CALIFORNIA
 10
1087536.843884367
 20
699561.32318235037
 30
0.0
  0
VERTEX
  5
ADB
  8
CALIFORNIA
 10
1087568.5776810681
 20
699556.51844462391
 30
0.0
  0
VERTEX
  5
ADC
  8
CALIFORNIA
 10
1087605.1158459231
 20
699560.57792970329
 30
0.0
  0
VERTEX
  5
ADD
  8
CALIFORNIA
 10
1087637.689316635
 20
699568.01411558385
 30
0.0
  0
VERTEX
  5
ADE
  8
CALIFORNIA
 10
1087646.2118422
 20
699576.59816675214
 30
0.0
  0
SEQEND
  5
ADF
  8
CALIFORNIA
  0
POLYLINE
  5
9F
  8
CALIFORNIA
 66
     1
 10
0.0
 20
0.0
 30
0.0
 70
     1
1001
DCO15
1071
        4
1071
        3
1000
lotenos--cerámica
1004
0756475F373700
1071
        2
1000
lotes--períodos
1004
0756475F373700
1071
        1
1000
lotes--cerámica
1004
0756475F373700
  0
VERTEX
  5
AE0
  8
CALIFORNIA
 10
1087629.0526025009
 20
699631.54388163064
 30
0.0
  0
VERTEX
  5
AE1
  8
CALIFORNIA
 10
1087662.1529475979
 20
699670.43171327363
 30
0.0
  0
VERTEX
  5
AE2
  8
CALIFORNIA
 10
1087650.1031441649
 20
699685.77895369206
 30
0.0
  0
VERTEX
  5
AE3
  8
CALIFORNIA
 10
1087645.150155891
 20
699718.21200171497
 30
0.0
  0
VERTEX
  5
AE4
  8
CALIFORNIA
 10
1087632.476594364
 20
699736.69504096219
 30
0.0
  0
VERTEX
  5
AE5
  8
CALIFORNIA
 10
1087616.808693629
 20
699743.06791533553
 30
0.0
  0
VERTEX
  5
AE6
  8
CALIFORNIA
 10
1087598.177824511
 20
699744.19964465173
 30
0.0
  0
VERTEX
  5
AE7
  8
CALIFORNIA
 10
1087573.6587478551
 20
699739.72459827457
 30
0.0
  0
VERTEX
  5
AE8
  8
CALIFORNIA
 10
1087559.749906481
 20
699678.53450001776
 30
0.0
  0
VERTEX
  5
AE9
  8
CALIFORNIA
 10
1087589.3598943241
 20
699649.2944199437
 30
0.0
  0
VERTEX
  5
AEA
  8
CALIFORNIA
 10
1087618.162570277
 20
699632.59982240596
 30
0.0
  0
VERTEX
  5
AEB
  8
CALIFORNIA
 10
1087629.011124779
 20
699633.63634187332
 30
0.0
  0
SEQEND
  5
AEC
  8
CALIFORNIA
  0
POLYLINE
  5
A0
  8
CALIFORNIA
 66
     1
 10
0.0
 20
0.0
 30
0.0
 70
     1
1001
DCO15
1071
        4
1071
        3
1000
lotenos--cerámica
1004
0756475F36383500
1071
        2
1000
lotes--períodos
1004
0756475F36383500
1071
        1
1000
lotes--cerámica
1004
0756475F36383500
  0
VERTEX
  5
AED
  8
CALIFORNIA
 10
1087809.69326233
 20
698638.91157273029
 30
0.0
  0
VERTEX
  5
AEE
  8
CALIFORNIA
 10
1087826.375402621
 20
698617.72406409099
 30
0.0
  0
VERTEX
  5
AEF
  8
CALIFORNIA
 10
1087861.0175579181
 20
698603.56047980534
 30
0.0
  0
VERTEX
  5
AF0
  8
CALIFORNIA
 10
1087890.205484061
 20
698615.49177974416
 30
0.0
  0
VERTEX
  5
AF1
  8
CALIFORNIA
 10
1087893.1059021121
 20
698622.93856210855
 30
0.0
  0
VERTEX
  5
AF2
  8
CALIFORNIA
 10
1087879.150819046
 20
698664.58735681092
 30
0.0
  0
VERTEX
  5
AF3
  8
CALIFORNIA
 10
1087869.662219723
 20
698688.33854277455
 30
0.0
  0
VERTEX
  5
AF4
  8
CALIFORNIA
 10
1087860.917491361
 20
698707.8578090173
 30
0.0
  0
VERTEX
  5
AF5
  8
CALIFORNIA
 10
1087856.8689793099
 20
698728.68492349889
 30
0.0
  0
VERTEX
  5
AF6
  8
CALIFORNIA
 10
1087853.8002348051
 20
698751.92757363687
 30
0.0
  0
VERTEX
  5
AF7
  8
CALIFORNIA
 10
1087802.536400853
 20
698769.76838103135
 30
0.0
  0
SEQEND
  5
AF8
  8
CALIFORNIA
  0
POLYLINE
  5
A1
  8
CALIFORNIA
 66
     1
 10
0.0
 20
0.0
 30
0.0
 70
     1
1001
DCO15
1071
        4
1071
        3
1000
lotenos--cerámica
1004
0756475F32353100
1071
        2
1000
lotes--períodos
1004
0756475F32353100
1071
        1
1000
lotes--cerámica
1004
0756475F32353100
  0
VERTEX
  5
AF9
  8
CALIFORNIA
 10
1087879.287362488
 20
700914.08233510389
 30
0.0
  0
VERTEX
  5
AFA
  8
CALIFORNIA
 10
1087866.617426621
 20
700912.93057464471
 30
0.0
  0
VERTEX
  5
AFB
  8
CALIFORNIA
 10
1087832.888410395
 20
700907.2074207454
 30
0.0
  0
VERTEX
  5
AFC
  8
CALIFORNIA
 10
1087816.53238082
 20
700897.41315398505
 30
0.0
  0
VERTEX
  5
AFD
  8
CALIFORNIA
 10
1087809.8296584829
 20
700888.42198353435
 30
0.0
  0
VERTEX
  5
AFE
  8
CALIFORNIA
 10
1087814.2072371179
 20
700854.8906854731
 30
0.0
  0
VERTEX
  5
AFF
  8
CALIFORNIA
 10
1087825.297118441
 20
700829.23213252472
 30
0.0
  0
VERTEX
  5
B00
  8
CALIFORNIA
 10
1087850.0086975091
 20
700828.04419407679
 30
0.0
  0
VERTEX
  5
B01
  8
CALIFORNIA
 10
1087874.5751005011
 20
700842.79875361943
 30
0.0
  0
VERTEX
  5
B02
  8
CALIFORNIA
 10
1087893.035562095
 20
700858.51765749359
 30
0.0
  0
VERTEX
  5
B03
  8
CALIFORNIA
 10
1087893.587473538
 20
700867.7218582402
 30
0.0
  0
SEQEND
  5
B04
  8
CALIFORNIA
  0
POLYLINE
  5
A2
  8
CALIFORNIA
 66
     1
 10
0.0
 20
0.0
 30
0.0
 70
     1
1001
DCO15
1071
        4
1071
        3
1000
lotenos--cerámica
1004
0756475F38353800
1071
        2
1000
lotes--períodos
1004
0756475F38353800
1071
        1
1000
lotes--cerámica
1004
0756475F38353800
  0
VERTEX
  5
B05
  8
CALIFORNIA
 10
1088861.077975119
 20
699902.21023463132
 30
0.0
  0
VERTEX
  5
B06
  8
CALIFORNIA
 10
1088844.891382623
 20
699941.91260507365
 30
0.0
  0
VERTEX
  5
B07
  8
CALIFORNIA
 10
1088844.9069766209
 20
699944.3177402966
 30
0.0
  0
VERTEX
  5
B08
  8
CALIFORNIA
 10
1088786.9377232699
 20
699943.16701331502
 30
0.0
  0
VERTEX
  5
B09
  8
CALIFORNIA
 10
1088777.343094964
 20
699868.22160003928
 30
0.0
  0
VERTEX
  5
B0A
  8
CALIFORNIA
 10
1088788.021167733
 20
699854.03379802022
 30
0.0
  0
VERTEX
  5
B0B
  8
CALIFORNIA
 10
1088850.892832747
 20
699868.22496576887
 30
0.0
  0
VERTEX
  5
B0C
  8
CALIFORNIA
 10
1088868.0558689381
 20
699887.3956441601
 30
0.0
  0
SEQEND
  5
B0D
  8
CALIFORNIA
  0
POLYLINE
  5
A3
  8
CALIFORNIA
 66
     1
 10
0.0
 20
0.0
 30
0.0
 70
     1
1001
DCO15
1071
        4
1071
        3
1000
lotenos--cerámica
1004
0756475F37393700
1071
        2
1000
lotes--períodos
1004
0756475F37393700
1071
        1
1000
lotes--cerámica
1004
0756475F37393700
  0
VERTEX
  5
B0E
  8
CALIFORNIA
 10
1088449.268394575
 20
700089.43722163467
 30
0.0
  0
VERTEX
  5
B0F
  8
CALIFORNIA
 10
1088462.1461777959
 20
700097.39979671035
 30
0.0
  0
VERTEX
  5
B10
  8
CALIFORNIA
 10
1088506.309946958
 20
700086.58715662919
 30
0.0
  0
VERTEX
  5
B11
  8
CALIFORNIA
 10
1088529.8576966559
 20
700062.07149025286
 30
0.0
  0
VERTEX
  5
B12
  8
CALIFORNIA
 10
1088496.473077914
 20
700000.23113364424
 30
0.0
  0
VERTEX
  5
B13
  8
CALIFORNIA
 10
1088471.928402348
 20
699985.57999328594
 30
0.0
  0
VERTEX
  5
B14
  8
CALIFORNIA
 10
1088455.218245331
 20
699989.53976890107
 30
0.0
  0
VERTEX
  5
B15
  8
CALIFORNIA
 10
1088430.232483404
 20
700060.12526803336
 30
0.0
  0
SEQEND
  5
B16
  8
CALIFORNIA
  0
POLYLINE
  5
A4
  8
CALIFORNIA
 66
     1
 10
0.0
 20
0.0
 30
0.0
 70
     1
1001
DCO15
1071
        4
1071
        3
1000
lotenos--cerámica
1004
0756475F35333300
1071
        2
1000
lotes--períodos
1004
0756475F35333300
1071
        1
1000
lotes--cerámica
1004
0756475F35333300
  0
VERTEX
  5
B17
  8
CALIFORNIA
 10
1088524.233771594
 20
700210.81561207853
 30
0.0
  0
VERTEX
  5
B18
  8
CALIFORNIA
 10
1088567.7684057311
 20
700212.04013336659
 30
0.0
  0
VERTEX
  5
B19
  8
CALIFORNIA
 10
1088590.1957322489
 20
700187.34921566222
 30
0.0
  0
VERTEX
  5
B1A
  8
CALIFORNIA
 10
1088590.4252095469
 20
700161.57210628537
 30
0.0
  0
VERTEX
  5
B1B
  8
CALIFORNIA
 10
1088580.2719446069
 20
700126.63225952385
 30
0.0
  0
VERTEX
  5
B1C
  8
CALIFORNIA
 10
1088564.8350774751
 20
700099.35676690657
 30
0.0
  0
VERTEX
  5
B1D
  8
CALIFORNIA
 10
1088555.8299417
 20
700083.95028826897
 30
0.0
  0
VERTEX
  5
B1E
  8
CALIFORNIA
 10
1088542.839647047
 20
700081.00159690809
 30
0.0
  0
VERTEX
  5
B1F
  8
CALIFORNIA
 10
1088534.9370741169
 20
700094.90824987146
 30
0.0
  0
VERTEX
  5
B20
  8
CALIFORNIA
 10
1088521.7894616609
 20
700114.00800317293
 30
0.0
  0
VERTEX
  5
B21
  8
CALIFORNIA
 10
1088514.444541526
 20
700120.34635501401
 30
0.0
  0
VERTEX
  5
B22
  8
CALIFORNIA
 10
1088507.9184096879
 20
700176.58372334042
 30
0.0
  0
VERTEX
  5
B23
  8
CALIFORNIA
 10
1088524.233771594
 20
700210.81561207853
 30
0.0
  0
SEQEND
  5
B24
  8
CALIFORNIA
  0
POLYLINE
  5
A5
  8
CALIFORNIA
 66
     1
 10
0.0
 20
0.0
 30
0.0
 70
     1
1001
DCO15
1071
        4
1071
        3
1000
lotenos--cerámica
1004
0756475F34383000
1071
        2
1000
lotes--períodos
1004
0756475F34383000
1071
        1
1000
lotes--cerámica
1004
0756475F34383000
  0
VERTEX
  5
B25
  8
CALIFORNIA
 10
1088564.509212208
 20
701498.64200749795
 30
0.0
  0
VERTEX
  5
B26
  8
CALIFORNIA
 10
1088552.498243649
 20
701527.44222550443
 30
0.0
  0
VERTEX
  5
B27
  8
CALIFORNIA
 10
1088503.973906101
 20
701542.32139898115
 30
0.0
  0
VERTEX
  5
B28
  8
CALIFORNIA
 10
1088463.885993042
 20
701482.72645701969
 30
0.0
  0
VERTEX
  5
B29
  8
CALIFORNIA
 10
1088497.7281801379
 20
701396.39883640781
 30
0.0
  0
VERTEX
  5
B2A
  8
CALIFORNIA
 10
1088576.0397427781
 20
701455.44155088498
 30
0.0
  0
SEQEND
  5
B2B
  8
CALIFORNIA
  0
POLYLINE
  5
A6
  8
CALIFORNIA
 66
     1
 10
0.0
 20
0.0
 30
0.0
 70
     1
1001
DCO15
1071
        4
1071
        3
1000
lotenos--cerámica
1004
0756475F34313200
1071
        2
1000
lotes--períodos
1004
0756475F34313200
1071
        1
1000
lotes--cerámica
1004
0756475F34313200
  0
VERTEX
  5
B2C
  8
CALIFORNIA
 10
1088415.005006389
 20
700895.53763640369
 30
0.0
  0
VERTEX
  5
B2D
  8
CALIFORNIA
 10
1088433.3225471601
 20
700921.25853562367
 30
0.0
  0
VERTEX
  5
B2E
  8
CALIFORNIA
 10
1088465.5020265239
 20
700938.57111454883
 30
0.0
  0
VERTEX
  5
B2F
  8
CALIFORNIA
 10
1088534.3165890779
 20
700855.97030863899
 30
0.0
  0
VERTEX
  5
B30
  8
CALIFORNIA
 10
1088424.4113073191
 20
700856.95712131588
 30
0.0
  0
SEQEND
  5
B31
  8
CALIFORNIA
  0
POLYLINE
  5
A7
  8
CALIFORNIA
 66
     1
 10
0.0
 20
0.0
 30
0.0
 70
     1
1001
DCO15
1071
        4
1071
        3
1000
lotenos--cerámica
1004
0756475F32333300
1071
        2
1000
lotes--períodos
1004
0756475F32333300
1071
        1
1000
lotes--cerámica
1004
0756475F32333300
  0
VERTEX
  5
B32
  8
CALIFORNIA
 10
1088417.9754111851
 20
700787.70951237157
 30
0.0
  0
VERTEX
  5
B33
  8
CALIFORNIA
 10
1088455.105575813
 20
700772.37697127031
 30
0.0
  0
VERTEX
  5
B34
  8
CALIFORNIA
 10
1088456.09569762
 20
700726.87152166886
 30
0.0
  0
VERTEX
  5
B35
  8
CALIFORNIA
 10
1088430.8166758399
 20
700692.96879226959
 30
0.0
  0
VERTEX
  5
B36
  8
CALIFORNIA
 10
1088393.2219552239
 20
700686.31089276145
 30
0.0
  0
VERTEX
  5
B37
  8
CALIFORNIA
 10
1088366.9833194539
 20
700754.07389483065
 30
0.0
  0
SEQEND
  5
B38
  8
CALIFORNIA
  0
POLYLINE
  5
A8
  8
CALIFORNIA
 66
     1
 10
0.0
 20
0.0
 30
0.0
 70
     1
1001
DCO15
1071
        4
1071
        3
1000
lotenos--cerámica
1004
0756475F32323900
1071
        2
1000
lotes--períodos
1004
0756475F32323900
1071
        1
1000
lotes--cerámica
1004
0756475F32323900
  0
VERTEX
  5
B39
  8
CALIFORNIA
 10
1088305.4466893841
 20
700629.62557518401
 30
0.0
  0
VERTEX
  5
B3A
  8
CALIFORNIA
 10
1088268.316520117
 20
700603.90425656794
 30
0.0
  0
VERTEX
  5
B3B
  8
CALIFORNIA
 10
1088279.096991512
 20
700576.20265798725
 30
0.0
  0
VERTEX
  5
B3C
  8
CALIFORNIA
 10
1088298.4263707949
 20
700563.24451045645
 30
0.0
  0
VERTEX
  5
B3D
  8
CALIFORNIA
 10
1088339.730270246
 20
700556.53441587323
 30
0.0
  0
VERTEX
  5
B3E
  8
CALIFORNIA
 10
1088370.7311856539
 20
700558.71796845994
 30
0.0
  0
VERTEX
  5
B3F
  8
CALIFORNIA
 10
1088386.097581526
 20
700599.30933865777
 30
0.0
  0
VERTEX
  5
B40
  8
CALIFORNIA
 10
1088364.0986123499
 20
700631.87419924024
 30
0.0
  0
VERTEX
  5
B41
  8
CALIFORNIA
 10
1088335.7728877319
 20
700622.25297230505
 30
0.0
  0
SEQEND
  5
B42
  8
CALIFORNIA
  0
POLYLINE
  5
A9
  8
CALIFORNIA
 66
     1
 10
0.0
 20
0.0
 30
0.0
 70
     1
1001
DCO15
1071
        4
1071
        3
1000
lotenos--cerámica
1004
0743415F33323300
1071
        2
1000
lotes--períodos
1004
0743415F33323300
1071
        1
1000
lotes--cerámica
1004
0743415F33323300
  0
VERTEX
  5
B43
  8
CALIFORNIA
 10
1091351.261083405
 20
702738.05614477419
 30
0.0
  0
VERTEX
  5
B44
  8
CALIFORNIA
 10
1091285.4882526961
 20
702742.44568013842
 30
0.0
  0
VERTEX
  5
B45
  8
CALIFORNIA
 10
1091279.1194270749
 20
702719.32511297823
 30
0.0
  0
VERTEX
  5
B46
  8
CALIFORNIA
 10
1091321.4168842491
 20
702669.54452062817
 30
0.0
  0
VERTEX
  5
B47
  8
CALIFORNIA
 10
1091348.1224865711
 20
702668.58272442699
 30
0.0
  0
VERTEX
  5
B48
  8
CALIFORNIA
 10
1091355.5200895979
 20
702687.12103888008
 30
0.0
  0
VERTEX
  5
B49
  8
CALIFORNIA
 10
1091352.010436757
 20
702726.2667100234
 30
0.0
  0
SEQEND
  5
B4A
  8
CALIFORNIA
  0
POLYLINE
  5
AA
  8
CALIFORNIA
 66
     1
 10
0.0
 20
0.0
 30
0.0
 70
     1
1001
DCO15
1071
        4
1071
        3
1000
lotenos--cerámica
1004
0756475F37373300
1071
        2
1000
lotes--períodos
1004
0756475F37373300
1071
        1
1000
lotes--cerámica
1004
0756475F37373300
  0
VERTEX
  5
B4B
  8
CALIFORNIA
 10
1089549.3312475239
 20
700680.79314811202
 30
0.0
  0
VERTEX
  5
B4C
  8
CALIFORNIA
 10
1089628.2886978199
 20
700648.2840416939
 30
0.0
  0
VERTEX
  5
B4D
  8
CALIFORNIA
 10
1089618.4628110961
 20
700615.1923306589
 30
0.0
  0
VERTEX
  5
B4E
  8
CALIFORNIA
 10
1089598.8896012369
 20
700602.4796555026
 30
0.0
  0
VERTEX
  5
B4F
  8
CALIFORNIA
 10
1089578.6667158019
 20
700597.30872960133
 30
0.0
  0
VERTEX
  5
B50
  8
CALIFORNIA
 10
1089538.447088734
 20
700612.50004464725
 30
0.0
  0
VERTEX
  5
B51
  8
CALIFORNIA
 10
1089526.3881175041
 20
700630.24312751496
 30
0.0
  0
VERTEX
  5
B52
  8
CALIFORNIA
 10
1089513.38543953
 20
700644.16570557246
 30
0.0
  0
VERTEX
  5
B53
  8
CALIFORNIA
 10
1089511.6558434521
 20
700661.64358566888
 30
0.0
  0
VERTEX
  5
B54
  8
CALIFORNIA
 10
1089511.0488468129
 20
700673.62079935207
 30
0.0
  0
SEQEND
  5
B55
  8
CALIFORNIA
  0
POLYLINE
  5
AB
  8
CALIFORNIA
 66
     1
 10
0.0
 20
0.0
 30
0.0
 70
     1
1001
DCO15
1071
        4
1071
        3
1000
lotenos--cerámica
1004
0743415F34323300
1071
        2
1000
lotes--períodos
1004
0743415F34323300
1071
        1
1000
lotes--cerámica
1004
0743415F34323300
  0
VERTEX
  5
B56
  8
CALIFORNIA
 10
1091104.4763299029
 20
701865.21243399498
 30
0.0
  0
VERTEX
  5
B57
  8
CALIFORNIA
 10
1091128.424475346
 20
701843.34476333391
 30
0.0
  0
VERTEX
  5
B58
  8
CALIFORNIA
 10
1091140.7559754991
 20
701825.01118801173
 30
0.0
  0
VERTEX
  5
B59
  8
CALIFORNIA
 10
1091152.910511517
 20
701810.18492465303
 30
0.0
  0
VERTEX
  5
B5A
  8
CALIFORNIA
 10
1091177.952720714
 20
701822.78487820341
 30
0.0
  0
VERTEX
  5
B5B
  8
CALIFORNIA
 10
1091201.2023427931
 20
701832.94301552186
 30
0.0
  0
VERTEX
  5
B5C
  8
CALIFORNIA
 10
1091217.664912208
 20
701841.01337611151
 30
0.0
  0
VERTEX
  5
B5D
  8
CALIFORNIA
 10
1091232.22952771
 20
701849.04355492722
 30
0.0
  0
VERTEX
  5
B5E
  8
CALIFORNIA
 10
1091221.4477284651
 20
701914.22175976646
 30
0.0
  0
VERTEX
  5
B5F
  8
CALIFORNIA
 10
1091197.177430142
 20
701915.53133412742
 30
0.0
  0
SEQEND
  5
B60
  8
CALIFORNIA
  0
POLYLINE
  5
AC
  8
CALIFORNIA
 66
     1
 10
0.0
 20
0.0
 30
0.0
 70
     1
1001
DCO15
1071
        4
1071
        3
1000
lotenos--cerámica
1004
0743415F34323200
1071
        2
1000
lotes--períodos
1004
0743415F34323200
1071
        1
1000
lotes--cerámica
1004
0743415F34323200
  0
VERTEX
  5
B61
  8
CALIFORNIA
 10
1091174.8252971
 20
702013.48724411335
 30
0.0
  0
VERTEX
  5
B62
  8
CALIFORNIA
 10
1091140.2812052241
 20
701984.5563634634
 30
0.0
  0
VERTEX
  5
B63
  8
CALIFORNIA
 10
1091107.646625313
 20
701963.42720714654
 30
0.0
  0
VERTEX
  5
B64
  8
CALIFORNIA
 10
1091090.2965028421
 20
701939.2784908996
 30
0.0
  0
VERTEX
  5
B65
  8
CALIFORNIA
 10
1091092.5290074369
 20
701923.1422719449
 30
0.0
  0
VERTEX
  5
B66
  8
CALIFORNIA
 10
1091092.5290074369
 20
701923.1422719449
 30
0.0
  0
VERTEX
  5
B67
  8
CALIFORNIA
 10
1091115.8970959459
 20
701920.09750327875
 30
0.0
  0
VERTEX
  5
B68
  8
CALIFORNIA
 10
1091201.241438983
 20
701970.85392803315
 30
0.0
  0
VERTEX
  5
B69
  8
CALIFORNIA
 10
1091174.8252971
 20
702013.48724411335
 30
0.0
  0
SEQEND
  5
B6A
  8
CALIFORNIA
  0
POLYLINE
  5
AD
  8
CALIFORNIA
 66
     1
 10
0.0
 20
0.0
 30
0.0
 70
     1
1001
DCO15
1071
        4
1071
        3
1000
lotenos--cerámica
1004
07545A5F34343600
1071
        2
1000
lotes--períodos
1004
07545A5F34343600
1071
        1
1000
lotes--cerámica
1004
07545A5F34343600
  0
VERTEX
  5
B6B
  8
CALIFORNIA
 10
1092089.8248679501
 20
697308.09852574393
 30
0.0
  0
VERTEX
  5
B6C
  8
CALIFORNIA
 10
1092089.286720657
 20
697316.70195039723
 30
0.0
  0
VERTEX
  5
B6D
  8
CALIFORNIA
 10
1092100.446941725
 20
697336.37066490832
 30
0.0
  0
VERTEX
  5
B6E
  8
CALIFORNIA
 10
1092115.872596374
 20
697351.52401992586
 30
0.0
  0
VERTEX
  5
B6F
  8
CALIFORNIA
 10
1092127.599620098
 20
697365.87386794097
 30
0.0
  0
VERTEX
  5
B70
  8
CALIFORNIA
 10
1092145.843535841
 20
697383.32781031157
 30
0.0
  0
VERTEX
  5
B71
  8
CALIFORNIA
 10
1092140.8142575331
 20
697401.11952380405
 30
0.0
  0
VERTEX
  5
B72
  8
CALIFORNIA
 10
1092131.202050043
 20
697420.32405562489
 30
0.0
  0
VERTEX
  5
B73
  8
CALIFORNIA
 10
1092119.2530878419
 20
697430.53828711004
 30
0.0
  0
VERTEX
  5
B74
  8
CALIFORNIA
 10
1092094.1298465671
 20
697451.66850601055
 30
0.0
  0
VERTEX
  5
B75
  8
CALIFORNIA
 10
1092028.4793148111
 20
697364.55727913487
 30
0.0
  0
VERTEX
  5
B76
  8
CALIFORNIA
 10
1092069.22430766
 20
697289.76230275119
 30
0.0
  0
SEQEND
  5
B77
  8
CALIFORNIA
  0
POLYLINE
  5
AE
  8
CALIFORNIA
 66
     1
 10
0.0
 20
0.0
 30
0.0
 70
     1
1001
DCO15
1071
        4
1071
        3
1000
lotenos--cerámica
1004
0743415F32373000
1071
        2
1000
lotes--períodos
1004
0743415F32373000
1071
        1
1000
lotes--cerámica
1004
0743415F32373000
  0
VERTEX
  5
B78
  8
CALIFORNIA
 10
1091778.7010416931
 20
702781.22479485301
 30
0.0
  0
VERTEX
  5
B79
  8
CALIFORNIA
 10
1091774.5052100071
 20
702760.57431145874
 30
0.0
  0
VERTEX
  5
B7A
  8
CALIFORNIA
 10
1091772.0000253681
 20
702747.19892072456
 30
0.0
  0
VERTEX
  5
B7B
  8
CALIFORNIA
 10
1091771.173843147
 20
702738.17594903277
 30
0.0
  0
VERTEX
  5
B7C
  8
CALIFORNIA
 10
1091704.8917907169
 20
702719.10167049512
 30
0.0
  0
VERTEX
  5
B7D
  8
CALIFORNIA
 10
1091703.760667549
 20
702739.14956289902
 30
0.0
  0
VERTEX
  5
B7E
  8
CALIFORNIA
 10
1091705.2508635439
 20
702756.22310803365
 30
0.0
  0
VERTEX
  5
B7F
  8
CALIFORNIA
 10
1091704.918648042
 20
702765.14976804575
 30
0.0
  0
SEQEND
  5
B80
  8
CALIFORNIA
  0
POLYLINE
  5
AF
  8
CALIFORNIA
 66
     1
 10
0.0
 20
0.0
 30
0.0
 70
     1
1001
DCO15
1071
        4
1071
        3
1000
lotenos--cerámica
1004
0743415F33393300
1071
        2
1000
lotes--períodos
1004
0743415F33393300
1071
        1
1000
lotes--cerámica
1004
0743415F33393300
  0
VERTEX
  5
B81
  8
CALIFORNIA
 10
1091425.596390788
 20
702041.61264091323
 30
0.0
  0
VERTEX
  5
B82
  8
CALIFORNIA
 10
1091427.8389016839
 20
702070.55212556815
 30
0.0
  0
VERTEX
  5
B83
  8
CALIFORNIA
 10
1091430.9725497139
 20
702082.56515034055
 30
0.0
  0
VERTEX
  5
B84
  8
CALIFORNIA
 10
1091438.6405049069
 20
702100.96545649739
 30
0.0
  0
VERTEX
  5
B85
  8
CALIFORNIA
 10
1091441.308308949
 20
702123.55375991168
 30
0.0
  0
VERTEX
  5
B86
  8
CALIFORNIA
 10
1091437.9702552231
 20
702134.49134552898
 30
0.0
  0
VERTEX
  5
B87
  8
CALIFORNIA
 10
1091437.9702552231
 20
702134.49134552898
 30
0.0
  0
VERTEX
  5
B88
  8
CALIFORNIA
 10
1091374.4700407621
 20
702131.95224953827
 30
0.0
  0
VERTEX
  5
B89
  8
CALIFORNIA
 10
1091346.8936732649
 20
702127.26741059078
 30
0.0
  0
SEQEND
  5
B8A
  8
CALIFORNIA
  0
POLYLINE
  5
B0
  8
CALIFORNIA
 66
     1
 10
0.0
 20
0.0
 30
0.0
 70
     1
1001
DCO15
1071
        4
1071
        3
1000
lotenos--cerámica
1004
07545A5F31373900
1071
        2
1000
lotes--períodos
1004
07545A5F31373900
1071
        1
1000
lotes--cerámica
1004
07545A5F31373900
  0
VERTEX
  5
B8B
  8
CALIFORNIA
 10
1093103.4957296071
 20
696976.15199682163
 30
0.0
  0
VERTEX
  5
B8C
  8
CALIFORNIA
 10
1093127.048988315
 20
696968.19161971589
 30
0.0
  0
VERTEX
  5
B8D
  8
CALIFORNIA
 10
1093139.505803484
 20
696942.395826853
 30
0.0
  0
VERTEX
  5
B8E
  8
CALIFORNIA
 10
1093159.6035118231
 20
696928.47687527491
 30
0.0
  0
VERTEX
  5
B8F
  8
CALIFORNIA
 10
1093171.55458216
 20
696918.93458584137
 30
0.0
  0
VERTEX
  5
B90
  8
CALIFORNIA
 10
1093186.490149311
 20
696907.18468904379
 30
0.0
  0
VERTEX
  5
B91
  8
CALIFORNIA
 10
1093173.2846061031
 20
696861.11520851892
 30
0.0
  0
VERTEX
  5
B92
  8
CALIFORNIA
 10
1093134.7929142511
 20
696883.11730713327
 30
0.0
  0
VERTEX
  5
B93
  8
CALIFORNIA
 10
1093097.824363698
 20
696927.30610067875
 30
0.0
  0
SEQEND
  5
B94
  8
CALIFORNIA
  0
POLYLINE
  5
B1
  8
CALIFORNIA
 66
     1
 10
0.0
 20
0.0
 30
0.0
 70
     1
1001
DCO15
1071
        4
1071
        3
1000
lotenos--cerámica
1004
0743415F3135383100
1071
        2
1000
lotes--períodos
1004
0743415F3135383100
1071
        1
1000
lotes--cerámica
1004
0743415F3135383100
  0
VERTEX
  5
B95
  8
CALIFORNIA
 10
1092042.2433056801
 20
705442.84272415808
 30
0.0
  0
VERTEX
  5
B96
  8
CALIFORNIA
 10
1092060.594654433
 20
705444.24798092083
 30
0.0
  0
VERTEX
  5
B97
  8
CALIFORNIA
 10
1092083.997761366
 20
705444.69810776238
 30
0.0
  0
VERTEX
  5
B98
  8
CALIFORNIA
 10
1092095.820734126
 20
705427.39102065668
 30
0.0
  0
VERTEX
  5
B99
  8
CALIFORNIA
 10
1092092.583920012
 20
705408.3103022048
 30
0.0
  0
VERTEX
  5
B9A
  8
CALIFORNIA
 10
1092078.6236768039
 20
705393.90642462694
 30
0.0
  0
VERTEX
  5
B9B
  8
CALIFORNIA
 10
1092061.254680282
 20
705389.08157348365
 30
0.0
  0
VERTEX
  5
B9C
  8
CALIFORNIA
 10
1092055.6473157869
 20
705385.60581652494
 30
0.0
  0
SEQEND
  5
B9D
  8
CALIFORNIA
  0
POLYLINE
  5
B2
  8
CALIFORNIA
 66
     1
 10
0.0
 20
0.0
 30
0.0
 70
     1
1001
DCO15
1071
        4
1071
        3
1000
lotenos--cerámica
1004
0743415F33303800
1071
        2
1000
lotes--períodos
1004
0743415F33303800
1071
        1
1000
lotes--cerámica
1004
0743415F33303800
  0
VERTEX
  5
B9E
  8
CALIFORNIA
 10
1092212.13706349
 20
705929.57956476463
 30
0.0
  0
VERTEX
  5
B9F
  8
CALIFORNIA
 10
1092199.933392385
 20
705892.75868450885
 30
0.0
  0
VERTEX
  5
BA0
  8
CALIFORNIA
 10
1092195.4057043509
 20
705862.44534966955
 30
0.0
  0
VERTEX
  5
BA1
  8
CALIFORNIA
 10
1092198.8143473391
 20
705832.49619915802
 30
0.0
  0
VERTEX
  5
BA2
  8
CALIFORNIA
 10
1092204.0381380371
 20
705818.93914972269
 30
0.0
  0
VERTEX
  5
BA3
  8
CALIFORNIA
 10
1092215.501929048
 20
705812.06255452277
 30
0.0
  0
VERTEX
  5
BA4
  8
CALIFORNIA
 10
1092234.952326057
 20
705827.25796465727
 30
0.0
  0
VERTEX
  5
BA5
  8
CALIFORNIA
 10
1092251.0324237689
 20
705856.54359673371
 30
0.0
  0
VERTEX
  5
BA6
  8
CALIFORNIA
 10
1092255.2096125691
 20
705876.23083534546
 30
0.0
  0
VERTEX
  5
BA7
  8
CALIFORNIA
 10
1092263.4844304479
 20
705886.89344887715
 30
0.0
  0
SEQEND
  5
BA8
  8
CALIFORNIA
  0
POLYLINE
  5
B3
  8
CALIFORNIA
 66
     1
 10
0.0
 20
0.0
 30
0.0
 70
     1
1001
DCO15
1071
        4
1071
        3
1000
lotenos--cerámica
1004
0743415F33373500
1071
        2
1000
lotes--períodos
1004
0743415F33373500
1071
        1
1000
lotes--cerámica
1004
0743415F33373500
  0
VERTEX
  5
BA9
  8
CALIFORNIA
 10
1091612.698783126
 20
704653.04664956592
 30
0.0
  0
VERTEX
  5
BAA
  8
CALIFORNIA
 10
1091579.4296143269
 20
704668.49945516745
 30
0.0
  0
VERTEX
  5
BAB
  8
CALIFORNIA
 10
1091562.5378300869
 20
704675.3511913094
 30
0.0
  0
VERTEX
  5
BAC
  8
CALIFORNIA
 10
1091542.910211233
 20
704695.34880194499
 30
0.0
  0
VERTEX
  5
BAD
  8
CALIFORNIA
 10
1091552.5400913421
 20
704729.18710399652
 30
0.0
  0
VERTEX
  5
BAE
  8
CALIFORNIA
 10
1091584.421879289
 20
704753.82708091766
 30
0.0
  0
VERTEX
  5
BAF
  8
CALIFORNIA
 10
1091609.9143617731
 20
704754.83566082164
 30
0.0
  0
VERTEX
  5
BB0
  8
CALIFORNIA
 10
1091643.5262003581
 20
704749.29647617985
 30
0.0
  0
VERTEX
  5
BB1
  8
CALIFORNIA
 10
1091667.475675307
 20
704740.12695832876
 30
0.0
  0
VERTEX
  5
BB2
  8
CALIFORNIA
 10
1091679.273553421
 20
704732.76764264237
 30
0.0
  0
VERTEX
  5
BB3
  8
CALIFORNIA
 10
1091684.862704868
 20
704724.26809067745
 30
0.0
  0
SEQEND
  5
BB4
  8
CALIFORNIA
  0
POLYLINE
  5
B4
  8
CALIFORNIA
 66
     1
 10
0.0
 20
0.0
 30
0.0
 70
     1
1001
DCO15
1071
        4
1071
        3
1000
lotenos--cerámica
1004
0752445F3136393800
1071
        2
1000
lotes--períodos
1004
0752445F3136393800
1071
        1
1000
lotes--cerámica
1004
0752445F3136393800
  0
VERTEX
  5
BB5
  8
CALIFORNIA
 10
1093119.4578876549
 20
710290.87482718716
 30
0.0
  0
VERTEX
  5
BB6
  8
CALIFORNIA
 10
1093131.138797825
 20
710264.23399183841
 30
0.0
  0
VERTEX
  5
BB7
  8
CALIFORNIA
 10
1093149.923884159
 20
710246.31752249436
 30
0.0
  0
VERTEX
  5
BB8
  8
CALIFORNIA
 10
1093165.222938484
 20
710229.1463373981
 30
0.0
  0
VERTEX
  5
BB9
  8
CALIFORNIA
 10
1093182.5889192431
 20
710202.02829610207
 30
0.0
  0
VERTEX
  5
BBA
  8
CALIFORNIA
 10
1093204.0908772119
 20
710156.43107057502
 30
0.0
  0
VERTEX
  5
BBB
  8
CALIFORNIA
 10
1093198.473425861
 20
710139.46784480626
 30
0.0
  0
VERTEX
  5
BBC
  8
CALIFORNIA
 10
1093194.24072264
 20
710118.94365655514
 30
0.0
  0
VERTEX
  5
BBD
  8
CALIFORNIA
 10
1093176.7784899331
 20
710104.93353195442
 30
0.0
  0
VERTEX
  5
BBE
  8
CALIFORNIA
 10
1093156.580115211
 20
710112.229412138
 30
0.0
  0
VERTEX
  5
BBF
  8
CALIFORNIA
 10
1093142.6622130449
 20
710122.30059678282
 30
0.0
  0
VERTEX
  5
BC0
  8
CALIFORNIA
 10
1093107.9253052259
 20
710173.01626866031
 30
0.0
  0
VERTEX
  5
BC1
  8
CALIFORNIA
 10
1093084.9907087011
 20
710205.5303875563
 30
0.0
  0
SEQEND
  5
BC2
  8
CALIFORNIA
  0
POLYLINE
  5
B5
  8
CALIFORNIA
 66
     1
 10
0.0
 20
0.0
 30
0.0
 70
     1
1001
DCO15
1071
        4
1071
        3
1000
lotenos--cerámica
1004
0743415F31303900
1071
        2
1000
lotes--períodos
1004
0743415F31303900
1071
        1
1000
lotes--cerámica
1004
0743415F31303900
  0
VERTEX
  5
BC3
  8
CALIFORNIA
 10
1093065.3956724999
 20
704335.70624660561
 30
0.0
  0
VERTEX
  5
BC4
  8
CALIFORNIA
 10
1093048.3571135721
 20
704289.38681785215
 30
0.0
  0
VERTEX
  5
BC5
  8
CALIFORNIA
 10
1093015.8650144171
 20
704300.47102567519
 30
0.0
  0
VERTEX
  5
BC6
  8
CALIFORNIA
 10
1092977.429262215
 20
704395.48365883017
 30
0.0
  0
VERTEX
  5
BC7
  8
CALIFORNIA
 10
1092994.002664827
 20
704396.66607216815
 30
0.0
  0
VERTEX
  5
BC8
  8
CALIFORNIA
 10
1093022.8825122539
 20
704392.4064521566
 30
0.0
  0
VERTEX
  5
BC9
  8
CALIFORNIA
 10
1093041.185781175
 20
704383.21187673521
 30
0.0
  0
VERTEX
  5
BCA
  8
CALIFORNIA
 10
1093066.392449918
 20
704345.02676906984
 30
0.0
  0
SEQEND
  5
BCB
  8
CALIFORNIA
  0
POLYLINE
  5
B6
  8
CALIFORNIA
 66
     1
 10
0.0
 20
0.0
 30
0.0
 70
     1
1001
DCO15
1071
        4
1071
        3
1000
lotenos--cerámica
1004
0743415F313500
1071
        2
1000
lotes--períodos
1004
0743415F313500
1071
        1
1000
lotes--cerámica
1004
0743415F313500
  0
VERTEX
  5
BCC
  8
CALIFORNIA
 10
1092334.3166696881
 20
703371.07678640541
 30
0.0
  0
VERTEX
  5
BCD
  8
CALIFORNIA
 10
1092338.240875568
 20
703337.63149793318
 30
0.0
  0
VERTEX
  5
BCE
  8
CALIFORNIA
 10
1092358.7904605439
 20
703325.62860962714
 30
0.0
  0
VERTEX
  5
BCF
  8
CALIFORNIA
 10
1092384.3388251029
 20
703318.13456919661
 30
0.0
  0
VERTEX
  5
BD0
  8
CALIFORNIA
 10
1092405.755234845
 20
703329.25259267841
 30
0.0
  0
VERTEX
  5
BD1
  8
CALIFORNIA
 10
1092408.9862576199
 20
703355.33239660412
 30
0.0
  0
VERTEX
  5
BD2
  8
CALIFORNIA
 10
1092399.1133717841
 20
703384.99638623046
 30
0.0
  0
VERTEX
  5
BD3
  8
CALIFORNIA
 10
1092380.5709023741
 20
703394.96141921205
 30
0.0
  0
VERTEX
  5
BD4
  8
CALIFORNIA
 10
1092360.7575533111
 20
703388.40048561257
 30
0.0
  0
SEQEND
  5
BD5
  8
CALIFORNIA
  0
POLYLINE
  5
B7
  8
CALIFORNIA
 66
     1
 10
0.0
 20
0.0
 30
0.0
 70
     1
1001
DCO15
1071
        4
1071
        3
1000
lotenos--cerámica
1004
07545A5F34313300
1071
        2
1000
lotes--períodos
1004
07545A5F34313300
1071
        1
1000
lotes--cerámica
1004
07545A5F34313300
  0
VERTEX
  5
BD6
  8
CALIFORNIA
 10
1093408.0281614929
 20
697818.65655220859
 30
0.0
  0
VERTEX
  5
BD7
  8
CALIFORNIA
 10
1093402.982004534
 20
697763.4158094211
 30
0.0
  0
VERTEX
  5
BD8
  8
CALIFORNIA
 10
1093410.816629068
 20
697725.61199955735
 30
0.0
  0
VERTEX
  5
BD9
  8
CALIFORNIA
 10
1093431.0848320711
 20
697697.57877173705
 30
0.0
  0
VERTEX
  5
BDA
  8
CALIFORNIA
 10
1093451.177745468
 20
697683.67672462657
 30
0.0
  0
VERTEX
  5
BDB
  8
CALIFORNIA
 10
1093469.54201875
 20
697675.09322975716
 30
0.0
  0
VERTEX
  5
BDC
  8
CALIFORNIA
 10
1093486.10536861
 20
697673.3216636643
 30
0.0
  0
VERTEX
  5
BDD
  8
CALIFORNIA
 10
1093469.838660029
 20
697812.59992869582
 30
0.0
  0
SEQEND
  5
BDE
  8
CALIFORNIA
  0
POLYLINE
  5
B8
  8
CALIFORNIA
 66
     1
 10
0.0
 20
0.0
 30
0.0
 70
     1
1001
DCO15
1071
        4
1071
        3
1000
lotenos--cerámica
1004
07545A5F32363300
1071
        2
1000
lotes--períodos
1004
07545A5F32363300
1071
        1
1000
lotes--cerámica
1004
07545A5F32363300
  0
VERTEX
  5
BDF
  8
CALIFORNIA
 10
1094549.317020057
 20
696458.19635075855
 30
0.0
  0
VERTEX
  5
BE0
  8
CALIFORNIA
 10
1094595.0321600621
 20
696444.62856877781
 30
0.0
  0
VERTEX
  5
BE1
  8
CALIFORNIA
 10
1094623.988523911
 20
696440.30364633538
 30
0.0
  0
VERTEX
  5
BE2
  8
CALIFORNIA
 10
1094637.691149164
 20
696446.12937593833
 30
0.0
  0
VERTEX
  5
BE3
  8
CALIFORNIA
 10
1094641.811812548
 20
696462.01034792815
 30
0.0
  0
VERTEX
  5
BE4
  8
CALIFORNIA
 10
1094640.551526505
 20
696474.22446227155
 30
0.0
  0
VERTEX
  5
BE5
  8
CALIFORNIA
 10
1094632.142166883
 20
696490.4133292936
 30
0.0
  0
VERTEX
  5
BE6
  8
CALIFORNIA
 10
1094621.228051723
 20
696499.78627136105
 30
0.0
  0
VERTEX
  5
BE7
  8
CALIFORNIA
 10
1094577.534422114
 20
696513.82725125365
 30
0.0
  0
SEQEND
  5
BE8
  8
CALIFORNIA
  0
POLYLINE
  5
B9
  8
CALIFORNIA
 66
     1
 10
0.0
 20
0.0
 30
0.0
 70
     1
1001
DCO15
1071
        4
1071
        3
1000
lotenos--cerámica
1004
0743415F3231353000
1071
        2
1000
lotes--períodos
1004
0743415F3231353000
1071
        1
1000
lotes--cerámica
1004
0743415F3231353000
  0
VERTEX
  5
BE9
  8
CALIFORNIA
 10
1094415.2637393661
 20
699472.47750208655
 30
0.0
  0
VERTEX
  5
BEA
  8
CALIFORNIA
 10
1094423.363314783
 20
699452.08443203405
 30
0.0
  0
VERTEX
  5
BEB
  8
CALIFORNIA
 10
1094426.295832667
 20
699422.29202039109
 30
0.0
  0
VERTEX
  5
BEC
  8
CALIFORNIA
 10
1094415.2519138979
 20
699387.75768465397
 30
0.0
  0
VERTEX
  5
BED
  8
CALIFORNIA
 10
1094397.2118826199
 20
699383.17769115046
 30
0.0
  0
VERTEX
  5
BEE
  8
CALIFORNIA
 10
1094369.3898820819
 20
699405.56101520883
 30
0.0
  0
VERTEX
  5
BEF
  8
CALIFORNIA
 10
1094363.307359426
 20
699426.04801715328
 30
0.0
  0
VERTEX
  5
BF0
  8
CALIFORNIA
 10
1094361.9770986049
 20
699441.65831791633
 30
0.0
  0
SEQEND
  5
BF1
  8
CALIFORNIA
  0
POLYLINE
  5
BA
  8
CALIFORNIA
 66
     1
 10
0.0
 20
0.0
 30
0.0
 70
     1
1001
DCO15
1071
        4
1071
        3
1000
lotenos--cerámica
1004
0743415F3131303300
1071
        2
1000
lotes--períodos
1004
0743415F3131303300
1071
        1
1000
lotes--cerámica
1004
0743415F3131303300
  0
VERTEX
  5
BF2
  8
CALIFORNIA
 10
1094668.0986891331
 20
701668.4906370556
 30
0.0
  0
VERTEX
  5
BF3
  8
CALIFORNIA
 10
1094655.7821373909
 20
701642.7183023023
 30
0.0
  0
VERTEX
  5
BF4
  8
CALIFORNIA
 10
1094642.23678008
 20
701622.20636484236
 30
0.0
  0
VERTEX
  5
BF5
  8
CALIFORNIA
 10
1094627.401170678
 20
701610.66633019317
 30
0.0
  0
VERTEX
  5
BF6
  8
CALIFORNIA
 10
1094606.366460585
 20
701611.81909234985
 30
0.0
  0
VERTEX
  5
BF7
  8
CALIFORNIA
 10
1094591.853861694
 20
701615.73762248317
 30
0.0
  0
VERTEX
  5
BF8
  8
CALIFORNIA
 10
1094580.119165485
 20
701627.67358588229
 30
0.0
  0
VERTEX
  5
BF9
  8
CALIFORNIA
 10
1094572.921883679
 20
701641.91692950006
 30
0.0
  0
VERTEX
  5
BFA
  8
CALIFORNIA
 10
1094574.2451907471
 20
701670.04883282387
 30
0.0
  0
VERTEX
  5
BFB
  8
CALIFORNIA
 10
1094579.035363032
 20
701689.66196640965
 30
0.0
  0
VERTEX
  5
BFC
  8
CALIFORNIA
 10
1094583.9708605099
 20
701694.74068121915
 30
0.0
  0
SEQEND
  5
BFD
  8
CALIFORNIA
  0
POLYLINE
  5
BB
  8
CALIFORNIA
 66
     1
 10
0.0
 20
0.0
 30
0.0
 70
     1
1001
DCO15
1071
        4
1071
        3
1000
lotenos--cerámica
1004
0743415F36323500
1071
        2
1000
lotes--períodos
1004
0743415F36323500
1071
        1
1000
lotes--cerámica
1004
0743415F36323500
  0
VERTEX
  5
BFE
  8
CALIFORNIA
 10
1094085.7290909861
 20
704770.26031628205
 30
0.0
  0
VERTEX
  5
BFF
  8
CALIFORNIA
 10
1094078.778465735
 20
704776.87811362138
 30
0.0
  0
VERTEX
  5
C00
  8
CALIFORNIA
 10
1094086.134022072
 20
704845.81392003095
 30
0.0
  0
VERTEX
  5
C01
  8
CALIFORNIA
 10
1094025.394865534
 20
704866.21747267863
 30
0.0
  0
VERTEX
  5
C02
  8
CALIFORNIA
 10
1094003.4749686839
 20
704858.02245091938
 30
0.0
  0
VERTEX
  5
C03
  8
CALIFORNIA
 10
1093995.1977740501
 20
704840.81512298505
 30
0.0
  0
VERTEX
  5
C04
  8
CALIFORNIA
 10
1093999.772020143
 20
704825.29543631419
 30
0.0
  0
VERTEX
  5
C05
  8
CALIFORNIA
 10
1094011.76701513
 20
704809.7450361813
 30
0.0
  0
VERTEX
  5
C06
  8
CALIFORNIA
 10
1094029.356300408
 20
704797.59398872487
 30
0.0
  0
VERTEX
  5
C07
  8
CALIFORNIA
 10
1094034.7727117271
 20
704773.13938931981
 30
0.0
  0
VERTEX
  5
C08
  8
CALIFORNIA
 10
1094044.6177922499
 20
704759.65516626707
 30
0.0
  0
VERTEX
  5
C09
  8
CALIFORNIA
 10
1094045.1126789351
 20
704753.44773667329
 30
0.0
  0
SEQEND
  5
C0A
  8
CALIFORNIA
  0
POLYLINE
  5
BC
  8
CALIFORNIA
 66
     1
 10
0.0
 20
0.0
 30
0.0
 70
     1
1001
DCO15
1071
        4
1071
        3
1000
lotenos--cerámica
1004
0743415F35333300
1071
        2
1000
lotes--períodos
1004
0743415F35333300
1071
        1
1000
lotes--cerámica
1004
0743415F35333300
  0
VERTEX
  5
C0B
  8
CALIFORNIA
 10
1094075.2558024691
 20
705337.03587964526
 30
0.0
  0
VERTEX
  5
C0C
  8
CALIFORNIA
 10
1094098.807472623
 20
705314.1743843127
 30
0.0
  0
VERTEX
  5
C0D
  8
CALIFORNIA
 10
1094101.1621602229
 20
705290.04572309158
 30
0.0
  0
VERTEX
  5
C0E
  8
CALIFORNIA
 10
1094100.772841644
 20
705259.55704148125
 30
0.0
  0
VERTEX
  5
C0F
  8
CALIFORNIA
 10
1094095.3334358919
 20
705248.6508947236
 30
0.0
  0
VERTEX
  5
C10
  8
CALIFORNIA
 10
1094089.84426662
 20
705246.54744414508
 30
0.0
  0
VERTEX
  5
C11
  8
CALIFORNIA
 10
1094089.84426662
 20
705246.54744414508
 30
0.0
  0
VERTEX
  5
C12
  8
CALIFORNIA
 10
1094042.0783851049
 20
705253.46281618986
 30
0.0
  0
SEQEND
  5
C13
  8
CALIFORNIA
  0
POLYLINE
  5
BD
  8
CALIFORNIA
 66
     1
 10
0.0
 20
0.0
 30
0.0
 70
     1
1001
DCO15
1071
        4
1071
        3
1000
lotenos--cerámica
1004
0743415F31333300
1071
        2
1000
lotes--períodos
1004
0743415F31333300
1071
        1
1000
lotes--cerámica
1004
0743415F31333300
  0
VERTEX
  5
C14
  8
CALIFORNIA
 10
1093856.824081653
 20
705044.32189871348
 30
0.0
  0
VERTEX
  5
C15
  8
CALIFORNIA
 10
1093873.6322339179
 20
705004.18052747508
 30
0.0
  0
VERTEX
  5
C16
  8
CALIFORNIA
 10
1093884.176547325
 20
704994.39958338544
 30
0.0
  0
VERTEX
  5
C17
  8
CALIFORNIA
 10
1093904.8899980539
 20
704996.42340370605
 30
0.0
  0
VERTEX
  5
C18
  8
CALIFORNIA
 10
1093923.636955115
 20
705005.77278627106
 30
0.0
  0
VERTEX
  5
C19
  8
CALIFORNIA
 10
1093934.9906488601
 20
705023.85496787063
 30
0.0
  0
VERTEX
  5
C1A
  8
CALIFORNIA
 10
1093934.2452442059
 20
705040.9269732798
 30
0.0
  0
VERTEX
  5
C1B
  8
CALIFORNIA
 10
1093932.8657719761
 20
705054.52623601735
 30
0.0
  0
SEQEND
  5
C1C
  8
CALIFORNIA
  0
POLYLINE
  5
BE
  8
CALIFORNIA
 66
     1
 10
0.0
 20
0.0
 30
0.0
 70
     1
1001
DCO15
1071
        4
1071
        3
1000
lotenos--cerámica
1004
0743415F31323900
1071
        2
1000
lotes--períodos
1004
0743415F31323900
1071
        1
1000
lotes--cerámica
1004
0743415F31323900
  0
VERTEX
  5
C1D
  8
CALIFORNIA
 10
1093890.8529564179
 20
704781.85137533059
 30
0.0
  0
VERTEX
  5
C1E
  8
CALIFORNIA
 10
1093890.298767504
 20
704803.08538263512
 30
0.0
  0
VERTEX
  5
C1F
  8
CALIFORNIA
 10
1093894.2556590911
 20
704826.7373870716
 30
0.0
  0
VERTEX
  5
C20
  8
CALIFORNIA
 10
1093900.56910876
 20
704846.30204889423
 30
0.0
  0
VERTEX
  5
C21
  8
CALIFORNIA
 10
1093906.1548714321
 20
704865.90385909646
 30
0.0
  0
VERTEX
  5
C22
  8
CALIFORNIA
 10
1093907.4533516681
 20
704876.28924091405
 30
0.0
  0
VERTEX
  5
C23
  8
CALIFORNIA
 10
1093975.644284914
 20
704829.94015693676
 30
0.0
  0
VERTEX
  5
C24
  8
CALIFORNIA
 10
1093975.644284914
 20
704829.94015693676
 30
0.0
  0
VERTEX
  5
C25
  8
CALIFORNIA
 10
1093975.644284914
 20
704829.94015693676
 30
0.0
  0
VERTEX
  5
C26
  8
CALIFORNIA
 10
1093938.1951509451
 20
704789.17324803816
 30
0.0
  0
SEQEND
  5
C27
  8
CALIFORNIA
  0
POLYLINE
  5
BF
  8
CALIFORNIA
 66
     1
 10
0.0
 20
0.0
 30
0.0
 70
     1
1001
DCO15
1071
        4
1071
        3
1000
lotenos--cerámica
1004
0743415F3138313000
1071
        2
1000
lotes--períodos
1004
0743415F3138313000
1071
        1
1000
lotes--cerámica
1004
0743415F3138313000
  0
VERTEX
  5
C28
  8
CALIFORNIA
 10
1095242.0643926531
 20
706271.20319702686
 30
0.0
  0
VERTEX
  5
C29
  8
CALIFORNIA
 10
1095244.435864609
 20
706238.56344988372
 30
0.0
  0
VERTEX
  5
C2A
  8
CALIFORNIA
 10
1095238.8372837619
 20
706211.69487152575
 30
0.0
  0
VERTEX
  5
C2B
  8
CALIFORNIA
 10
1095230.0091610621
 20
706194.50774172926
 30
0.0
  0
VERTEX
  5
C2C
  8
CALIFORNIA
 10
1095210.2499718261
 20
706184.54249824898
 30
0.0
  0
VERTEX
  5
C2D
  8
CALIFORNIA
 10
1095194.871958897
 20
706181.61706208845
 30
0.0
  0
VERTEX
  5
C2E
  8
CALIFORNIA
 10
1095189.4785357029
 20
706269.85497917305
 30
0.0
  0
SEQEND
  5
C2F
  8
CALIFORNIA
  0
POLYLINE
  5
C0
  8
CALIFORNIA
 66
     1
 10
0.0
 20
0.0
 30
0.0
 70
     1
1001
DCO15
1071
        4
1071
        3
1000
lotenos--cerámica
1004
0743415F3130323300
1071
        2
1000
lotes--períodos
1004
0743415F3130323300
1071
        1
1000
lotes--cerámica
1004
0743415F3130323300
  0
VERTEX
  5
C30
  8
CALIFORNIA
 10
1095032.987340657
 20
704601.37722957134
 30
0.0
  0
VERTEX
  5
C31
  8
CALIFORNIA
 10
1095080.185480749
 20
704593.90684252745
 30
0.0
  0
VERTEX
  5
C32
  8
CALIFORNIA
 10
1095084.540041748
 20
704613.77206150838
 30
0.0
  0
VERTEX
  5
C33
  8
CALIFORNIA
 10
1095090.3152851639
 20
704638.75738083944
 30
0.0
  0
VERTEX
  5
C34
  8
CALIFORNIA
 10
1095096.93895029
 20
704682.3943892417
 30
0.0
  0
VERTEX
  5
C35
  8
CALIFORNIA
 10
1095026.9670497079
 20
704672.04513967305
 30
0.0
  0
VERTEX
  5
C36
  8
CALIFORNIA
 10
1095029.1595381759
 20
704636.9187093178
 30
0.0
  0
VERTEX
  5
C37
  8
CALIFORNIA
 10
1095032.8139801959
 20
704621.14309664979
 30
0.0
  0
SEQEND
  5
C38
  8
CALIFORNIA
  0
POLYLINE
  5
C1
  8
CALIFORNIA
 66
     1
 10
0.0
 20
0.0
 30
0.0
 70
     1
1001
DCO15
1071
        4
1071
        3
1000
lotenos--cerámica
1004
0743415F3130323100
1071
        2
1000
lotes--períodos
1004
0743415F3130323100
1071
        1
1000
lotes--cerámica
1004
0743415F3130323100
  0
VERTEX
  5
C39
  8
CALIFORNIA
 10
1094931.3958720849
 20
704615.14942658716
 30
0.0
  0
VERTEX
  5
C3A
  8
CALIFORNIA
 10
1094920.7910534041
 20
704670.19845379435
 30
0.0
  0
VERTEX
  5
C3B
  8
CALIFORNIA
 10
1094933.1196167441
 20
704687.34319652698
 30
0.0
  0
VERTEX
  5
C3C
  8
CALIFORNIA
 10
1094952.3677623661
 20
704693.71897276561
 30
0.0
  0
VERTEX
  5
C3D
  8
CALIFORNIA
 10
1094970.946567738
 20
704686.91796046984
 30
0.0
  0
VERTEX
  5
C3E
  8
CALIFORNIA
 10
1094985.011881558
 20
704666.79864023766
 30
0.0
  0
VERTEX
  5
C3F
  8
CALIFORNIA
 10
1094994.8775972601
 20
704641.33888991014
 30
0.0
  0
VERTEX
  5
C40
  8
CALIFORNIA
 10
1095001.242915719
 20
704614.32125266013
 30
0.0
  0
VERTEX
  5
C41
  8
CALIFORNIA
 10
1095000.2045184721
 20
704609.4219686914
 30
0.0
  0
SEQEND
  5
C42
  8
CALIFORNIA
  0
POLYLINE
  5
C2
  8
CALIFORNIA
 66
     1
 10
0.0
 20
0.0
 30
0.0
 70
     1
1001
DCO15
1071
        4
1071
        3
1000
lotenos--cerámica
1004
0743415F35383700
1071
        2
1000
lotes--períodos
1004
0743415F35383700
1071
        1
1000
lotes--cerámica
1004
0743415F35383700
  0
VERTEX
  5
C43
  8
CALIFORNIA
 10
1094963.525580287
 20
704982.9639239877
 30
0.0
  0
VERTEX
  5
C44
  8
CALIFORNIA
 10
1094988.624347727
 20
704964.07637667761
 30
0.0
  0
VERTEX
  5
C45
  8
CALIFORNIA
 10
1095016.5582287421
 20
704996.83553381404
 30
0.0
  0
VERTEX
  5
C46
  8
CALIFORNIA
 10
1095028.8578060661
 20
705020.57545362425
 30
0.0
  0
VERTEX
  5
C47
  8
CALIFORNIA
 10
1095032.7634248971
 20
705040.19689187873
 30
0.0
  0
VERTEX
  5
C48
  8
CALIFORNIA
 10
1095021.136319895
 20
705053.63625976036
 30
0.0
  0
VERTEX
  5
C49
  8
CALIFORNIA
 10
1095017.0278546771
 20
705057.98856744438
 30
0.0
  0
SEQEND
  5
C4A
  8
CALIFORNIA
  0
POLYLINE
  5
C3
  8
CALIFORNIA
 66
     1
 10
0.0
 20
0.0
 30
0.0
 70
     1
1001
DCO15
1071
        4
1071
        3
1000
lotenos--cerámica
1004
0743415F3139383600
1071
        2
1000
lotes--períodos
1004
0743415F3139383600
1071
        1
1000
lotes--cerámica
1004
0743415F3139383600
  0
VERTEX
  5
C4B
  8
CALIFORNIA
 10
1094711.9221767499
 20
706904.97247641603
 30
0.0
  0
VERTEX
  5
C4C
  8
CALIFORNIA
 10
1094712.940421249
 20
706926.57834107196
 30
0.0
  0
VERTEX
  5
C4D
  8
CALIFORNIA
 10
1094705.991968635
 20
706948.12620895985
 30
0.0
  0
VERTEX
  5
C4E
  8
CALIFORNIA
 10
1094692.9715480099
 20
706963.43435331574
 30
0.0
  0
VERTEX
  5
C4F
  8
CALIFORNIA
 10
1094672.3113503
 20
706976.733584787
 30
0.0
  0
VERTEX
  5
C50
  8
CALIFORNIA
 10
1094641.435000065
 20
706986.79143039917
 30
0.0
  0
VERTEX
  5
C51
  8
CALIFORNIA
 10
1094624.991246104
 20
706986.56090135011
 30
0.0
  0
VERTEX
  5
C52
  8
CALIFORNIA
 10
1094620.641715779
 20
706981.96713485802
 30
0.0
  0
VERTEX
  5
C53
  8
CALIFORNIA
 10
1094674.8556175011
 20
706890.29815426096
 30
0.0
  0
SEQEND
  5
C54
  8
CALIFORNIA
  0
POLYLINE
  5
C4
  8
CALIFORNIA
 66
     1
 10
0.0
 20
0.0
 30
0.0
 70
     1
1001
DCO15
1071
        4
1071
        3
1000
lotenos--cerámica
1004
0743415F3130323800
1071
        2
1000
lotes--períodos
1004
0743415F3130323800
1071
        1
1000
lotes--cerámica
1004
0743415F3130323800
  0
VERTEX
  5
C55
  8
CALIFORNIA
 10
1094858.0485211411
 20
704579.66311950772
 30
0.0
  0
VERTEX
  5
C56
  8
CALIFORNIA
 10
1094853.7543267431
 20
704646.47025419888
 30
0.0
  0
VERTEX
  5
C57
  8
CALIFORNIA
 10
1094875.5971778641
 20
704643.07438798842
 30
0.0
  0
VERTEX
  5
C58
  8
CALIFORNIA
 10
1094894.1244294881
 20
704632.13284482295
 30
0.0
  0
VERTEX
  5
C59
  8
CALIFORNIA
 10
1094900.9859555061
 20
704617.20619003265
 30
0.0
  0
VERTEX
  5
C5A
  8
CALIFORNIA
 10
1094908.501445988
 20
704596.34048619401
 30
0.0
  0
VERTEX
  5
C5B
  8
CALIFORNIA
 10
1094903.6877240499
 20
704573.93574034609
 30
0.0
  0
VERTEX
  5
C5C
  8
CALIFORNIA
 10
1094899.7638962651
 20
704555.14760472113
 30
0.0
  0
VERTEX
  5
C5D
  8
CALIFORNIA
 10
1094899.7638962651
 20
704555.14760472113
 30
0.0
  0
SEQEND
  5
C5E
  8
CALIFORNIA
  0
POLYLINE
  5
C5
  8
CALIFORNIA
 66
     1
 10
0.0
 20
0.0
 30
0.0
 70
     1
1001
DCO15
1071
        4
1071
        3
1000
lotenos--cerámica
1004
0743415F36303000
1071
        2
1000
lotes--períodos
1004
0743415F36303000
1071
        1
1000
lotes--cerámica
1004
0743415F36303000
  0
VERTEX
  5
C5F
  8
CALIFORNIA
 10
1094715.7256531951
 20
704574.14397346042
 30
0.0
  0
VERTEX
  5
C60
  8
CALIFORNIA
 10
1094691.187228201
 20
704592.53074089845
 30
0.0
  0
VERTEX
  5
C61
  8
CALIFORNIA
 10
1094698.960684133
 20
704618.66521872184
 30
0.0
  0
VERTEX
  5
C62
  8
CALIFORNIA
 10
1094699.383069959
 20
704644.47944320505
 30
0.0
  0
VERTEX
  5
C63
  8
CALIFORNIA
 10
1094699.148855255
 20
704663.68715849449
 30
0.0
  0
VERTEX
  5
C64
  8
CALIFORNIA
 10
1094704.4129604839
 20
704680.19881142594
 30
0.0
  0
VERTEX
  5
C65
  8
CALIFORNIA
 10
1094723.9582619171
 20
704681.74758740433
 30
0.0
  0
VERTEX
  5
C66
  8
CALIFORNIA
 10
1094736.151737344
 20
704668.27807556419
 30
0.0
  0
VERTEX
  5
C67
  8
CALIFORNIA
 10
1094750.3545500471
 20
704656.81244357955
 30
0.0
  0
VERTEX
  5
C68
  8
CALIFORNIA
 10
1094756.2192870071
 20
704653.75306656735
 30
0.0
  0
SEQEND
  5
C69
  8
CALIFORNIA
  0
POLYLINE
  5
C6
  8
CALIFORNIA
 66
     1
 10
0.0
 20
0.0
 30
0.0
 70
     1
1001
DCO15
1071
        4
1071
        3
1000
lotenos--cerámica
1004
0743415F35393900
1071
        2
1000
lotes--períodos
1004
0743415F35393900
1071
        1
1000
lotes--cerámica
1004
0743415F35393900
  0
VERTEX
  5
C6A
  8
CALIFORNIA
 10
1094759.8948206319
 20
704651.98446807219
 30
0.0
  0
VERTEX
  5
C6B
  8
CALIFORNIA
 10
1094786.8871145679
 20
704632.98482004704
 30
0.0
  0
VERTEX
  5
C6C
  8
CALIFORNIA
 10
1094783.2063464059
 20
704613.37163488555
 30
0.0
  0
VERTEX
  5
C6D
  8
CALIFORNIA
 10
1094772.7775226331
 20
704584.56461614941
 30
0.0
  0
VERTEX
  5
C6E
  8
CALIFORNIA
 10
1094758.8953164511
 20
704571.25200699328
 30
0.0
  0
VERTEX
  5
C6F
  8
CALIFORNIA
 10
1094748.852520291
 20
704550.24114181544
 30
0.0
  0
VERTEX
  5
C70
  8
CALIFORNIA
 10
1094748.852520291
 20
704550.24114181544
 30
0.0
  0
VERTEX
  5
C71
  8
CALIFORNIA
 10
1094718.792939696
 20
704572.91820954601
 30
0.0
  0
SEQEND
  5
C72
  8
CALIFORNIA
  0
POLYLINE
  5
C7
  8
CALIFORNIA
 66
     1
 10
0.0
 20
0.0
 30
0.0
 70
     1
1001
DCO15
1071
        4
1071
        3
1000
lotenos--cerámica
1004
0743415F35393200
1071
        2
1000
lotes--períodos
1004
0743415F35393200
1071
        1
1000
lotes--cerámica
1004
0743415F35393200
  0
VERTEX
  5
C73
  8
CALIFORNIA
 10
1094875.496627779
 20
704485.92427123233
 30
0.0
  0
VERTEX
  5
C74
  8
CALIFORNIA
 10
1094910.056689864
 20
704538.84893389873
 30
0.0
  0
VERTEX
  5
C75
  8
CALIFORNIA
 10
1094902.2631854189
 20
704549.63011127221
 30
0.0
  0
VERTEX
  5
C76
  8
CALIFORNIA
 10
1094857.435103815
 20
704576.59855416755
 30
0.0
  0
VERTEX
  5
C77
  8
CALIFORNIA
 10
1094842.712024542
 20
704564.34003669838
 30
0.0
  0
VERTEX
  5
C78
  8
CALIFORNIA
 10
1094875.496627779
 20
704485.92427123233
 30
0.0
  0
SEQEND
  5
C79
  8
CALIFORNIA
  0
POLYLINE
  5
C8
  8
CALIFORNIA
 66
     1
 10
0.0
 20
0.0
 30
0.0
 70
     1
1001
DCO15
1071
        4
1071
        3
1000
lotenos--cerámica
1004
0743415F35383300
1071
        2
1000
lotes--períodos
1004
0743415F35383300
1071
        1
1000
lotes--cerámica
1004
0743415F35383300
  0
VERTEX
  5
C7A
  8
CALIFORNIA
 10
1094721.5512319021
 20
704947.14942271204
 30
0.0
  0
VERTEX
  5
C7B
  8
CALIFORNIA
 10
1094747.536585303
 20
704949.86167847202
 30
0.0
  0
VERTEX
  5
C7C
  8
CALIFORNIA
 10
1094767.0999560051
 20
704951.82290442125
 30
0.0
  0
VERTEX
  5
C7D
  8
CALIFORNIA
 10
1094792.660525912
 20
704925.49110414577
 30
0.0
  0
VERTEX
  5
C7E
  8
CALIFORNIA
 10
1094792.9647884921
 20
704895.38566951605
 30
0.0
  0
VERTEX
  5
C7F
  8
CALIFORNIA
 10
1094781.9274267161
 20
704867.52007141395
 30
0.0
  0
VERTEX
  5
C80
  8
CALIFORNIA
 10
1094771.640953789
 20
704855.35359469219
 30
0.0
  0
VERTEX
  5
C81
  8
CALIFORNIA
 10
1094749.0929950201
 20
704854.86142973776
 30
0.0
  0
VERTEX
  5
C82
  8
CALIFORNIA
 10
1094723.2602921431
 20
704873.74129457015
 30
0.0
  0
VERTEX
  5
C83
  8
CALIFORNIA
 10
1094715.5967301079
 20
704874.39538298862
 30
0.0
  0
SEQEND
  5
C84
  8
CALIFORNIA
  0
POLYLINE
  5
C9
  8
CALIFORNIA
 66
     1
 10
0.0
 20
0.0
 30
0.0
 70
     1
1001
DCO15
1071
        4
1071
        3
1000
lotenos--cerámica
1004
0743415F35383100
1071
        2
1000
lotes--períodos
1004
0743415F35383100
1071
        1
1000
lotes--cerámica
1004
0743415F35383100
  0
VERTEX
  5
C85
  8
CALIFORNIA
 10
1094889.597707913
 20
705086.09931203781
 30
0.0
  0
VERTEX
  5
C86
  8
CALIFORNIA
 10
1094867.5602022661
 20
705128.66654102516
 30
0.0
  0
VERTEX
  5
C87
  8
CALIFORNIA
 10
1094834.8063350981
 20
705122.24624882452
 30
0.0
  0
VERTEX
  5
C88
  8
CALIFORNIA
 10
1094818.421819109
 20
705115.04655822809
 30
0.0
  0
VERTEX
  5
C89
  8
CALIFORNIA
 10
1094808.625404502
 20
705108.18860422564
 30
0.0
  0
VERTEX
  5
C8A
  8
CALIFORNIA
 10
1094798.7519043621
 20
705085.51268856693
 30
0.0
  0
VERTEX
  5
C8B
  8
CALIFORNIA
 10
1094792.632521831
 20
705069.21699010942
 30
0.0
  0
VERTEX
  5
C8C
  8
CALIFORNIA
 10
1094830.8309553
 20
705050.86965696281
 30
0.0
  0
SEQEND
  5
C8D
  8
CALIFORNIA
  0
POLYLINE
  5
CA
  8
CALIFORNIA
 66
     1
 10
0.0
 20
0.0
 30
0.0
 70
   129
1001
DCO15
1071
        4
1071
        3
1000
lotenos--cerámica
1004
07545A5F32333700
1071
        2
1000
lotes--períodos
1004
07545A5F32333700
1071
        1
1000
lotes--cerámica
1004
07545A5F32333700
  0
VERTEX
  5
C8E
  8
CALIFORNIA
 10
1095675.7394222061
 20
696829.81881440652
 30
0.0
  0
VERTEX
  5
C8F
  8
CALIFORNIA
 10
1095690.5457380279
 20
696816.14179316931
 30
0.0
  0
VERTEX
  5
C90
  8
CALIFORNIA
 10
1095697.401333499
 20
696794.293144222
 30
0.0
  0
VERTEX
  5
C91
  8
CALIFORNIA
 10
1095693.91158627
 20
696766.38697389723
 30
0.0
  0
VERTEX
  5
C92
  8
CALIFORNIA
 10
1095680.4251159001
 20
696749.58073609532
 30
0.0
  0
VERTEX
  5
C93
  8
CALIFORNIA
 10
1095657.341769889
 20
696748.26065152604
 30
0.0
  0
VERTEX
  5
C94
  8
CALIFORNIA
 10
1095646.8186013149
 20
696765.10067107202
 30
0.0
  0
VERTEX
  5
C95
  8
CALIFORNIA
 10
1095646.297060461
 20
696782.89134659676
 30
0.0
  0
VERTEX
  5
C96
  8
CALIFORNIA
 10
1095638.1649268011
 20
696800.86408635427
 30
0.0
  0
VERTEX
  5
C97
  8
CALIFORNIA
 10
1095637.035493386
 20
696818.79378622712
 30
0.0
  0
VERTEX
  5
C98
  8
CALIFORNIA
 10
1095654.914583294
 20
696828.66433113744
 30
0.0
  0
SEQEND
  5
C99
  8
CALIFORNIA
  0
POLYLINE
  5
CB
  8
CALIFORNIA
 66
     1
 10
0.0
 20
0.0
 30
0.0
 70
     1
1001
DCO15
1071
        4
1071
        3
1000
lotenos--cerámica
1004
07545A5F32343100
1071
        2
1000
lotes--períodos
1004
07545A5F32343100
1071
        1
1000
lotes--cerámica
1004
07545A5F32343100
  0
VERTEX
  5
C9A
  8
CALIFORNIA
 10
1095450.6650743161
 20
696734.86476400646
 30
0.0
  0
VERTEX
  5
C9B
  8
CALIFORNIA
 10
1095511.5707736141
 20
696727.38835725712
 30
0.0
  0
VERTEX
  5
C9C
  8
CALIFORNIA
 10
1095535.319029755
 20
696790.5712327098
 30
0.0
  0
VERTEX
  5
C9D
  8
CALIFORNIA
 10
1095489.8031175979
 20
696802.40997818112
 30
0.0
  0
VERTEX
  5
C9E
  8
CALIFORNIA
 10
1095455.4090812199
 20
696792.92932853615
 30
0.0
  0
SEQEND
  5
C9F
  8
CALIFORNIA
  0
POLYLINE
  5
CC
  8
CALIFORNIA
 66
     1
 10
0.0
 20
0.0
 30
0.0
 70
     1
1001
DCO15
1071
        4
1071
        3
1000
lotenos--cerámica
1004
0743415F3234313300
1071
        2
1000
lotes--períodos
1004
0743415F3234313300
1071
        1
1000
lotes--cerámica
1004
0743415F3234313300
  0
VERTEX
  5
CA0
  8
CALIFORNIA
 10
1095960.207014425
 20
701410.10346039827
 30
0.0
  0
VERTEX
  5
CA1
  8
CALIFORNIA
 10
1095967.3237490631
 20
701397.22852193995
 30
0.0
  0
VERTEX
  5
CA2
  8
CALIFORNIA
 10
1095982.5627388461
 20
701386.96685047576
 30
0.0
  0
VERTEX
  5
CA3
  8
CALIFORNIA
 10
1096006.093743257
 20
701374.6447320747
 30
0.0
  0
VERTEX
  5
CA4
  8
CALIFORNIA
 10
1096006.42144224
 20
701373.96961418039
 30
0.0
  0
VERTEX
  5
CA5
  8
CALIFORNIA
 10
1095949.8862569721
 20
701310.04811247776
 30
0.0
  0
VERTEX
  5
CA6
  8
CALIFORNIA
 10
1095920.3686759849
 20
701328.85909097781
 30
0.0
  0
VERTEX
  5
CA7
  8
CALIFORNIA
 10
1095907.097875593
 20
701340.28571973741
 30
0.0
  0
VERTEX
  5
CA8
  8
CALIFORNIA
 10
1095894.86555579
 20
701350.62881389237
 30
0.0
  0
VERTEX
  5
CA9
  8
CALIFORNIA
 10
1095894.86555579
 20
701350.62881389237
 30
0.0
  0
SEQEND
  5
CAA
  8
CALIFORNIA
  0
POLYLINE
  5
CD
  8
CALIFORNIA
 66
     1
 10
0.0
 20
0.0
 30
0.0
 70
     1
1001
DCO15
1071
        4
1071
        3
1000
lotenos--cerámica
1004
0743415F3231303000
1071
        2
1000
lotes--períodos
1004
0743415F3231303000
1071
        1
1000
lotes--cerámica
1004
0743415F3231303000
  0
VERTEX
  5
CAB
  8
CALIFORNIA
 10
1096544.687109069
 20
700007.10858327709
 30
0.0
  0
VERTEX
  5
CAC
  8
CALIFORNIA
 10
1096548.6217328161
 20
700033.28453434608
 30
0.0
  0
VERTEX
  5
CAD
  8
CALIFORNIA
 10
1096573.2173289689
 20
700054.77439072111
 30
0.0
  0
VERTEX
  5
CAE
  8
CALIFORNIA
 10
1096560.9488638041
 20
700073.54430605355
 30
0.0
  0
VERTEX
  5
CAF
  8
CALIFORNIA
 10
1096542.20172674
 20
700080.84762667085
 30
0.0
  0
VERTEX
  5
CB0
  8
CALIFORNIA
 10
1096518.7044095979
 20
700086.05701451772
 30
0.0
  0
VERTEX
  5
CB1
  8
CALIFORNIA
 10
1096493.1706182631
 20
700073.67827363824
 30
0.0
  0
VERTEX
  5
CB2
  8
CALIFORNIA
 10
1096482.840871196
 20
700063.07625927462
 30
0.0
  0
VERTEX
  5
CB3
  8
CALIFORNIA
 10
1096478.5592204081
 20
700036.14154748758
 30
0.0
  0
VERTEX
  5
CB4
  8
CALIFORNIA
 10
1096479.495756719
 20
700017.07313278341
 30
0.0
  0
VERTEX
  5
CB5
  8
CALIFORNIA
 10
1096482.5820855191
 20
700004.00215803029
 30
0.0
  0
VERTEX
  5
CB6
  8
CALIFORNIA
 10
1096484.7983137921
 20
699997.43148141436
 30
0.0
  0
SEQEND
  5
CB7
  8
CALIFORNIA
  0
POLYLINE
  5
CE
  8
CALIFORNIA
 66
     1
 10
0.0
 20
0.0
 30
0.0
 70
     1
1001
DCO15
1071
        4
1071
        3
1000
lotenos--cerámica
1004
0743415F3131373600
1071
        2
1000
lotes--períodos
1004
0743415F3131373600
1071
        1
1000
lotes--cerámica
1004
0743415F3131373600
  0
VERTEX
  5
CB8
  8
CALIFORNIA
 10
1096150.5195536639
 20
704737.50497047394
 30
0.0
  0
VERTEX
  5
CB9
  8
CALIFORNIA
 10
1096128.7785851909
 20
704718.77916655596
 30
0.0
  0
VERTEX
  5
CBA
  8
CALIFORNIA
 10
1096032.8186319759
 20
704762.22003051732
 30
0.0
  0
VERTEX
  5
CBB
  8
CALIFORNIA
 10
1096035.621769913
 20
704781.1993689558
 30
0.0
  0
VERTEX
  5
CBC
  8
CALIFORNIA
 10
1096047.9447415429
 20
704803.51465970813
 30
0.0
  0
VERTEX
  5
CBD
  8
CALIFORNIA
 10
1096082.3066847241
 20
704810.94957536797
 30
0.0
  0
VERTEX
  5
CBE
  8
CALIFORNIA
 10
1096108.5068160221
 20
704796.50964517938
 30
0.0
  0
VERTEX
  5
CBF
  8
CALIFORNIA
 10
1096121.9724397161
 20
704760.58031001838
 30
0.0
  0
VERTEX
  5
CC0
  8
CALIFORNIA
 10
1096133.074059621
 20
704749.01531919185
 30
0.0
  0
VERTEX
  5
CC1
  8
CALIFORNIA
 10
1096150.5195536639
 20
704737.50497047394
 30
0.0
  0
SEQEND
  5
CC2
  8
CALIFORNIA
  0
POLYLINE
  5
CF
  8
CALIFORNIA
 66
     1
 10
0.0
 20
0.0
 30
0.0
 70
     1
1001
DCO15
1071
        4
1071
        3
1000
lotenos--cerámica
1004
0743415F3131373500
1071
        2
1000
lotes--períodos
1004
0743415F3131373500
1071
        1
1000
lotes--cerámica
1004
0743415F3131373500
  0
VERTEX
  5
CC3
  8
CALIFORNIA
 10
1096185.0051736911
 20
704667.09829643252
 30
0.0
  0
VERTEX
  5
CC4
  8
CALIFORNIA
 10
1096128.02889717
 20
704713.53604870604
 30
0.0
  0
VERTEX
  5
CC5
  8
CALIFORNIA
 10
1096151.1516771561
 20
704733.37325850304
 30
0.0
  0
VERTEX
  5
CC6
  8
CALIFORNIA
 10
1096205.9964533399
 20
704688.07113854017
 30
0.0
  0
SEQEND
  5
CC7
  8
CALIFORNIA
  0
POLYLINE
  5
D0
  8
CALIFORNIA
 66
     1
 10
0.0
 20
0.0
 30
0.0
 70
     1
1001
DCO15
1071
        4
1071
        3
1000
lotenos--cerámica
1004
0743415F3138313700
1071
        2
1000
lotes--períodos
1004
0743415F3138313700
1071
        1
1000
lotes--cerámica
1004
0743415F3138313700
  0
VERTEX
  5
CC8
  8
CALIFORNIA
 10
1095526.3308065771
 20
706982.00318649772
 30
0.0
  0
VERTEX
  5
CC9
  8
CALIFORNIA
 10
1095510.1021900531
 20
706987.20318592316
 30
0.0
  0
VERTEX
  5
CCA
  8
CALIFORNIA
 10
1095491.5878459469
 20
706983.27257917356
 30
0.0
  0
VERTEX
  5
CCB
  8
CALIFORNIA
 10
1095482.7394434169
 20
706980.88446838176
 30
0.0
  0
VERTEX
  5
CCC
  8
CALIFORNIA
 10
1095473.872284068
 20
706977.66320742376
 30
0.0
  0
VERTEX
  5
CCD
  8
CALIFORNIA
 10
1095439.0466971931
 20
707050.98532573378
 30
0.0
  0
VERTEX
  5
CCE
  8
CALIFORNIA
 10
1095449.807616754
 20
707064.61178404314
 30
0.0
  0
VERTEX
  5
CCF
  8
CALIFORNIA
 10
1095468.062020981
 20
707076.89303897531
 30
0.0
  0
VERTEX
  5
CD0
  8
CALIFORNIA
 10
1095489.9959946971
 20
707105.39498933405
 30
0.0
  0
VERTEX
  5
CD1
  8
CALIFORNIA
 10
1095502.837258504
 20
707119.83238769835
 30
0.0
  0
VERTEX
  5
CD2
  8
CALIFORNIA
 10
1095516.3334668491
 20
707125.91407533525
 30
0.0
  0
VERTEX
  5
CD3
  8
CALIFORNIA
 10
1095541.4340059429
 20
707127.66460956843
 30
0.0
  0
SEQEND
  5
CD4
  8
CALIFORNIA
  0
POLYLINE
  5
D1
  8
CALIFORNIA
 66
     1
 10
0.0
 20
0.0
 30
0.0
 70
     1
1001
DCO15
1071
        4
1071
        3
1000
lotenos--cerámica
1004
0743415F39363400
1071
        2
1000
lotes--períodos
1004
0743415F39363400
1071
        1
1000
lotes--cerámica
1004
0743415F39363400
  0
VERTEX
  5
CD5
  8
CALIFORNIA
 10
1095463.0791558661
 20
704523.49093183165
 30
0.0
  0
VERTEX
  5
CD6
  8
CALIFORNIA
 10
1095473.833558107
 20
704538.39284579805
 30
0.0
  0
VERTEX
  5
CD7
  8
CALIFORNIA
 10
1095487.207279616
 20
704559.56317980855
 30
0.0
  0
VERTEX
  5
CD8
  8
CALIFORNIA
 10
1095487.002414905
 20
704579.97150384658
 30
0.0
  0
VERTEX
  5
CD9
  8
CALIFORNIA
 10
1095468.32896056
 20
704601.65337112558
 30
0.0
  0
VERTEX
  5
CDA
  8
CALIFORNIA
 10
1095441.272773393
 20
704609.33235833794
 30
0.0
  0
VERTEX
  5
CDB
  8
CALIFORNIA
 10
1095421.3076864399
 20
704598.53206309292
 30
0.0
  0
VERTEX
  5
CDC
  8
CALIFORNIA
 10
1095384.11124377
 20
704578.71718682884
 30
0.0
  0
SEQEND
  5
CDD
  8
CALIFORNIA
  0
POLYLINE
  5
D2
  8
CALIFORNIA
 66
     1
 10
0.0
 20
0.0
 30
0.0
 70
     1
1001
DCO15
1071
        4
1071
        3
1000
lotenos--cerámica
1004
0743415F39353400
1071
        2
1000
lotes--períodos
1004
0743415F39353400
1071
        1
1000
lotes--cerámica
1004
0743415F39353400
  0
VERTEX
  5
CDE
  8
CALIFORNIA
 10
1095633.331395864
 20
704762.63180683565
 30
0.0
  0
VERTEX
  5
CDF
  8
CALIFORNIA
 10
1095647.3114247459
 20
704818.14639372355
 30
0.0
  0
VERTEX
  5
CE0
  8
CALIFORNIA
 10
1095663.2853659729
 20
704838.5617183391
 30
0.0
  0
VERTEX
  5
CE1
  8
CALIFORNIA
 10
1095682.949542433
 20
704845.85925536416
 30
0.0
  0
VERTEX
  5
CE2
  8
CALIFORNIA
 10
1095694.0737677431
 20
704830.92435633391
 30
0.0
  0
VERTEX
  5
CE3
  8
CALIFORNIA
 10
1095699.77432648
 20
704805.76284474297
 30
0.0
  0
VERTEX
  5
CE4
  8
CALIFORNIA
 10
1095700.2016058131
 20
704784.0027832574
 30
0.0
  0
VERTEX
  5
CE5
  8
CALIFORNIA
 10
1095698.1597461421
 20
704762.70364913717
 30
0.0
  0
SEQEND
  5
CE6
  8
CALIFORNIA
  0
POLYLINE
  5
D3
  8
CALIFORNIA
 66
     1
 10
0.0
 20
0.0
 30
0.0
 70
     1
1001
DCO15
1071
        4
1071
        3
1000
lotenos--cerámica
1004
0743415F39343700
1071
        2
1000
lotes--períodos
1004
0743415F39343700
1071
        1
1000
lotes--cerámica
1004
0743415F39343700
  0
VERTEX
  5
CE7
  8
CALIFORNIA
 10
1095764.0847888461
 20
704795.99296405469
 30
0.0
  0
VERTEX
  5
CE8
  8
CALIFORNIA
 10
1095730.770383778
 20
704743.64626393339
 30
0.0
  0
VERTEX
  5
CE9
  8
CALIFORNIA
 10
1095718.0565399281
 20
704716.4235459934
 30
0.0
  0
VERTEX
  5
CEA
  8
CALIFORNIA
 10
1095721.835915566
 20
704690.87038813462
 30
0.0
  0
VERTEX
  5
CEB
  8
CALIFORNIA
 10
1095745.7607405961
 20
704695.01199464803
 30
0.0
  0
VERTEX
  5
CEC
  8
CALIFORNIA
 10
1095774.7352458821
 20
704719.14304324519
 30
0.0
  0
VERTEX
  5
CED
  8
CALIFORNIA
 10
1095793.9881544891
 20
704736.70830096013
 30
0.0
  0
VERTEX
  5
CEE
  8
CALIFORNIA
 10
1095811.154988006
 20
704745.21694539906
 30
0.0
  0
VERTEX
  5
CEF
  8
CALIFORNIA
 10
1095815.472041788
 20
704747.92142142192
 30
0.0
  0
SEQEND
  5
CF0
  8
CALIFORNIA
  0
POLYLINE
  5
D4
  8
CALIFORNIA
 66
     1
 10
0.0
 20
0.0
 30
0.0
 70
     1
1001
DCO15
1071
        4
1071
        3
1000
lotenos--cerámica
1004
0752445F3133373600
1071
        2
1000
lotes--períodos
1004
0752445F3133373600
1071
        1
1000
lotes--cerámica
1004
0752445F3133373600
  0
VERTEX
  5
CF1
  8
CALIFORNIA
 10
1096920.816555806
 20
709685.11409361707
 30
0.0
  0
VERTEX
  5
CF2
  8
CALIFORNIA
 10
1096887.4090249699
 20
709676.07103820564
 30
0.0
  0
VERTEX
  5
CF3
  8
CALIFORNIA
 10
1096880.5162784441
 20
709647.56276744686
 30
0.0
  0
VERTEX
  5
CF4
  8
CALIFORNIA
 10
1096931.69882514
 20
709539.69995475141
 30
0.0
  0
VERTEX
  5
CF5
  8
CALIFORNIA
 10
1096973.3353000281
 20
709559.64443133329
 30
0.0
  0
VERTEX
  5
CF6
  8
CALIFORNIA
 10
1096986.0197449781
 20
709567.4851438608
 30
0.0
  0
VERTEX
  5
CF7
  8
CALIFORNIA
 10
1096982.4244777891
 20
709610.85669034091
 30
0.0
  0
VERTEX
  5
CF8
  8
CALIFORNIA
 10
1096961.955862317
 20
709655.70756707352
 30
0.0
  0
SEQEND
  5
CF9
  8
CALIFORNIA
  0
POLYLINE
  5
D5
  8
CALIFORNIA
 66
     1
 10
0.0
 20
0.0
 30
0.0
 70
     1
1001
DCO15
1071
        4
1071
        3
1000
lotenos--cerámica
1004
0743415F3132393800
1071
        2
1000
lotes--períodos
1004
0743415F3132393800
1071
        1
1000
lotes--cerámica
1004
0743415F3132393800
  0
VERTEX
  5
CFA
  8
CALIFORNIA
 10
1096916.1756058431
 20
704506.39190235664
 30
0.0
  0
VERTEX
  5
CFB
  8
CALIFORNIA
 10
1096907.932904559
 20
704536.38260885887
 30
0.0
  0
VERTEX
  5
CFC
  8
CALIFORNIA
 10
1096910.9314933219
 20
704566.00955520547
 30
0.0
  0
VERTEX
  5
CFD
  8
CALIFORNIA
 10
1096932.3696895549
 20
704578.26889379346
 30
0.0
  0
VERTEX
  5
CFE
  8
CALIFORNIA
 10
1096950.5850048789
 20
704571.32800191105
 30
0.0
  0
VERTEX
  5
CFF
  8
CALIFORNIA
 10
1096965.6126737969
 20
704557.66699061985
 30
0.0
  0
VERTEX
  5
D00
  8
CALIFORNIA
 10
1096974.6231648941
 20
704544.53829435608
 30
0.0
  0
SEQEND
  5
D01
  8
CALIFORNIA
  0
POLYLINE
  5
D6
  8
CALIFORNIA
 66
     1
 10
0.0
 20
0.0
 30
0.0
 70
     1
1001
DCO15
1071
        4
1071
        3
1000
lotenos--cerámica
1004
0743415F3234373100
1071
        2
1000
lotes--períodos
1004
0743415F3234373100
1071
        1
1000
lotes--cerámica
1004
0743415F3234373100
  0
VERTEX
  5
D02
  8
CALIFORNIA
 10
1096685.839181867
 20
704068.75961937616
 30
0.0
  0
VERTEX
  5
D03
  8
CALIFORNIA
 10
1096736.3017795761
 20
704087.09611134173
 30
0.0
  0
VERTEX
  5
D04
  8
CALIFORNIA
 10
1096725.7920254669
 20
704109.43533837143
 30
0.0
  0
VERTEX
  5
D05
  8
CALIFORNIA
 10
1096723.8651563539
 20
704136.15029819135
 30
0.0
  0
VERTEX
  5
D06
  8
CALIFORNIA
 10
1096713.334535948
 20
704164.73075795942
 30
0.0
  0
VERTEX
  5
D07
  8
CALIFORNIA
 10
1096687.41495363
 20
704185.06101518986
 30
0.0
  0
VERTEX
  5
D08
  8
CALIFORNIA
 10
1096666.7986033999
 20
704183.70703657158
 30
0.0
  0
VERTEX
  5
D09
  8
CALIFORNIA
 10
1096662.341484149
 20
704159.94342417095
 30
0.0
  0
VERTEX
  5
D0A
  8
CALIFORNIA
 10
1096669.92741557
 20
704136.55020675785
 30
0.0
  0
VERTEX
  5
D0B
  8
CALIFORNIA
 10
1096681.531731792
 20
704115.92300759139
 30
0.0
  0
VERTEX
  5
D0C
  8
CALIFORNIA
 10
1096683.4151417911
 20
704089.22544714785
 30
0.0
  0
SEQEND
  5
D0D
  8
CALIFORNIA
  0
POLYLINE
  5
D7
  8
CALIFORNIA
 66
     1
 10
0.0
 20
0.0
 30
0.0
 70
     1
1001
DCO15
1071
        4
1071
        3
1000
lotenos--cerámica
1004
0743415F3135343600
1071
        2
1000
lotes--períodos
1004
0743415F3135343600
1071
        1
1000
lotes--cerámica
1004
0743415F3135343600
  0
VERTEX
  5
D0E
  8
CALIFORNIA
 10
1096667.156201777
 20
705758.84872631263
 30
0.0
  0
VERTEX
  5
D0F
  8
CALIFORNIA
 10
1096698.461763934
 20
705761.64993544086
 30
0.0
  0
VERTEX
  5
D10
  8
CALIFORNIA
 10
1096751.6699082069
 20
705776.74269850296
 30
0.0
  0
VERTEX
  5
D11
  8
CALIFORNIA
 10
1096776.6715990659
 20
705798.3879095075
 30
0.0
  0
VERTEX
  5
D12
  8
CALIFORNIA
 10
1096778.1100936991
 20
705833.01551882736
 30
0.0
  0
VERTEX
  5
D13
  8
CALIFORNIA
 10
1096752.847553218
 20
705853.14780966809
 30
0.0
  0
VERTEX
  5
D14
  8
CALIFORNIA
 10
1096708.254749028
 20
705853.38849004847
 30
0.0
  0
VERTEX
  5
D15
  8
CALIFORNIA
 10
1096673.517386103
 20
705839.82323894778
 30
0.0
  0
VERTEX
  5
D16
  8
CALIFORNIA
 10
1096652.498799863
 20
705825.09620966495
 30
0.0
  0
SEQEND
  5
D17
  8
CALIFORNIA
  0
POLYLINE
  5
D8
  8
CALIFORNIA
 66
     1
 10
0.0
 20
0.0
 30
0.0
 70
     1
1001
DCO15
1071
        4
1071
        3
1000
lotenos--cerámica
1004
0743415F3131353700
1071
        2
1000
lotes--períodos
1004
0743415F3131353700
1071
        1
1000
lotes--cerámica
1004
0743415F3131353700
  0
VERTEX
  5
D18
  8
CALIFORNIA
 10
1096672.088780531
 20
704369.40082810656
 30
0.0
  0
VERTEX
  5
D19
  8
CALIFORNIA
 10
1096672.8212932709
 20
704310.85299571301
 30
0.0
  0
VERTEX
  5
D1A
  8
CALIFORNIA
 10
1096690.3432384711
 20
704311.00961490872
 30
0.0
  0
VERTEX
  5
D1B
  8
CALIFORNIA
 10
1096710.73779625
 20
704314.83670536592
 30
0.0
  0
VERTEX
  5
D1C
  8
CALIFORNIA
 10
1096742.6281826859
 20
704332.59974277939
 30
0.0
  0
VERTEX
  5
D1D
  8
CALIFORNIA
 10
1096755.2282028741
 20
704359.93338309438
 30
0.0
  0
VERTEX
  5
D1E
  8
CALIFORNIA
 10
1096754.1592388919
 20
704363.62861385453
 30
0.0
  0
SEQEND
  5
D1F
  8
CALIFORNIA
  0
POLYLINE
  5
D9
  8
CALIFORNIA
 66
     1
 10
0.0
 20
0.0
 30
0.0
 70
     1
1001
DCO15
1071
        4
1071
        3
1000
lotenos--cerámica
1004
0743415F3131353500
1071
        2
1000
lotes--períodos
1004
0743415F3131353500
1071
        1
1000
lotes--cerámica
1004
0743415F3131353500
  0
VERTEX
  5
D20
  8
CALIFORNIA
 10
1096591.0946474711
 20
704388.35654957406
 30
0.0
  0
VERTEX
  5
D21
  8
CALIFORNIA
 10
1096579.885638766
 20
704400.80450542236
 30
0.0
  0
VERTEX
  5
D22
  8
CALIFORNIA
 10
1096554.3977791211
 20
704408.63806343684
 30
0.0
  0
VERTEX
  5
D23
  8
CALIFORNIA
 10
1096545.5269128301
 20
704422.07042929786
 30
0.0
  0
VERTEX
  5
D24
  8
CALIFORNIA
 10
1096554.5787716529
 20
704440.44260011066
 30
0.0
  0
VERTEX
  5
D25
  8
CALIFORNIA
 10
1096581.79209384
 20
704468.10875263682
 30
0.0
  0
VERTEX
  5
D26
  8
CALIFORNIA
 10
1096612.674779217
 20
704476.65079763986
 30
0.0
  0
VERTEX
  5
D27
  8
CALIFORNIA
 10
1096628.125293097
 20
704471.86476577434
 30
0.0
  0
VERTEX
  5
D28
  8
CALIFORNIA
 10
1096652.269426567
 20
704448.91383495461
 30
0.0
  0
VERTEX
  5
D29
  8
CALIFORNIA
 10
1096668.822180419
 20
704439.4122139042
 30
0.0
  0
VERTEX
  5
D2A
  8
CALIFORNIA
 10
1096666.655934514
 20
704410.27738476521
 30
0.0
  0
SEQEND
  5
D2B
  8
CALIFORNIA
  0
POLYLINE
  5
DA
  8
CALIFORNIA
 66
     1
 10
0.0
 20
0.0
 30
0.0
 70
     1
1001
DCO15
1071
        4
1071
        3
1000
lotenos--cerámica
1004
0752445F31363700
1071
        2
1000
lotes--períodos
1004
0752445F31363700
1071
        1
1000
lotes--cerámica
1004
0752445F31363700
  0
VERTEX
  5
D2C
  8
CALIFORNIA
 10
1098453.776026957
 20
701016.43606743857
 30
0.0
  0
VERTEX
  5
D2D
  8
CALIFORNIA
 10
1098521.5714925581
 20
701011.51631358755
 30
0.0
  0
VERTEX
  5
D2E
  8
CALIFORNIA
 10
1098554.359935181
 20
700990.57046158996
 30
0.0
  0
VERTEX
  5
D2F
  8
CALIFORNIA
 10
1098583.5138641801
 20
700929.74722955935
 30
0.0
  0
VERTEX
  5
D30
  8
CALIFORNIA
 10
1098547.179153166
 20
700887.44378387905
 30
0.0
  0
VERTEX
  5
D31
  8
CALIFORNIA
 10
1098523.8620883359
 20
700891.48808511999
 30
0.0
  0
VERTEX
  5
D32
  8
CALIFORNIA
 10
1098502.8490821449
 20
700903.36727192474
 30
0.0
  0
VERTEX
  5
D33
  8
CALIFORNIA
 10
1098461.8904526441
 20
700910.78857082408
 30
0.0
  0
VERTEX
  5
D34
  8
CALIFORNIA
 10
1098445.5229851259
 20
700938.31116909452
 30
0.0
  0
VERTEX
  5
D35
  8
CALIFORNIA
 10
1098437.3597755621
 20
701010.58141086996
 30
0.0
  0
SEQEND
  5
D36
  8
CALIFORNIA
  0
POLYLINE
  5
DB
  8
CALIFORNIA
 66
     1
 10
0.0
 20
0.0
 30
0.0
 70
     1
1001
DCO15
1071
        4
1071
        3
1000
lotenos--cerámica
1004
0752445F39363100
1071
        2
1000
lotes--períodos
1004
0752445F39363100
1071
        1
1000
lotes--cerámica
1004
0752445F39363100
  0
VERTEX
  5
D37
  8
CALIFORNIA
 10
1098450.4525981359
 20
706798.61685875698
 30
0.0
  0
VERTEX
  5
D38
  8
CALIFORNIA
 10
1098549.604883421
 20
706847.19092641887
 30
0.0
  0
VERTEX
  5
D39
  8
CALIFORNIA
 10
1098557.4093996091
 20
706912.33663395792
 30
0.0
  0
VERTEX
  5
D3A
  8
CALIFORNIA
 10
1098474.8048389221
 20
706881.2594428286
 30
0.0
  0
VERTEX
  5
D3B
  8
CALIFORNIA
 10
1098423.816465904
 20
706851.38596361119
 30
0.0
  0
SEQEND
  5
D3C
  8
CALIFORNIA
  0
POLYLINE
  5
DC
  8
CALIFORNIA
 66
     1
 10
0.0
 20
0.0
 30
0.0
 70
     1
1001
DCO15
1071
        4
1071
        3
1000
lotenos--cerámica
1004
0752445F38313700
1071
        2
1000
lotes--períodos
1004
0752445F38313700
1071
        1
1000
lotes--cerámica
1004
0752445F38313700
  0
VERTEX
  5
D3D
  8
CALIFORNIA
 10
1098179.845831801
 20
705885.16442112694
 30
0.0
  0
VERTEX
  5
D3E
  8
CALIFORNIA
 10
1098193.226030088
 20
705951.42061926937
 30
0.0
  0
VERTEX
  5
D3F
  8
CALIFORNIA
 10
1098161.666978318
 20
705959.30887170613
 30
0.0
  0
VERTEX
  5
D40
  8
CALIFORNIA
 10
1098111.8860907441
 20
705942.9395265159
 30
0.0
  0
VERTEX
  5
D41
  8
CALIFORNIA
 10
1098095.0357660251
 20
705906.32712023612
 30
0.0
  0
VERTEX
  5
D42
  8
CALIFORNIA
 10
1098114.970262388
 20
705880.16437398817
 30
0.0
  0
VERTEX
  5
D43
  8
CALIFORNIA
 10
1098153.913772854
 20
705894.96024595376
 30
0.0
  0
SEQEND
  5
D44
  8
CALIFORNIA
  0
POLYLINE
  5
DD
  8
CALIFORNIA
 66
     1
 10
0.0
 20
0.0
 30
0.0
 70
     1
1001
DCO15
1071
        4
1071
        3
1000
lotenos--cerámica
1004
0752445F38333000
1071
        2
1000
lotes--períodos
1004
0752445F38333000
1071
        1
1000
lotes--cerámica
1004
0752445F38333000
  0
VERTEX
  5
D45
  8
CALIFORNIA
 10
1097896.462240201
 20
705706.91409797186
 30
0.0
  0
VERTEX
  5
D46
  8
CALIFORNIA
 10
1097855.3848440491
 20
705679.22862085386
 30
0.0
  0
VERTEX
  5
D47
  8
CALIFORNIA
 10
1097829.4420360969
 20
705696.47260969633
 30
0.0
  0
VERTEX
  5
D48
  8
CALIFORNIA
 10
1097821.5817366031
 20
705712.40415417729
 30
0.0
  0
VERTEX
  5
D49
  8
CALIFORNIA
 10
1097813.821290521
 20
705728.04016920528
 30
0.0
  0
VERTEX
  5
D4A
  8
CALIFORNIA
 10
1097858.058525847
 20
705760.58267024183
 30
0.0
  0
SEQEND
  5
D4B
  8
CALIFORNIA
  0
POLYLINE
  5
DE
  8
CALIFORNIA
 66
     1
 10
0.0
 20
0.0
 30
0.0
 70
     1
1001
DCO15
1071
        4
1071
        3
1000
lotenos--cerámica
1004
0752445F37343800
1071
        2
1000
lotes--períodos
1004
0752445F37343800
1071
        1
1000
lotes--cerámica
1004
0752445F37343800
  0
VERTEX
  5
D4C
  8
CALIFORNIA
 10
1099291.7849384821
 20
705590.92291334609
 30
0.0
  0
VERTEX
  5
D4D
  8
CALIFORNIA
 10
1099309.009583096
 20
705739.69465099624
 30
0.0
  0
VERTEX
  5
D4E
  8
CALIFORNIA
 10
1099324.578464865
 20
705724.55518242146
 30
0.0
  0
VERTEX
  5
D4F
  8
CALIFORNIA
 10
1099324.0698433339
 20
705701.64866247785
 30
0.0
  0
VERTEX
  5
D50
  8
CALIFORNIA
 10
1099315.8286311501
 20
705681.66447705124
 30
0.0
  0
VERTEX
  5
D51
  8
CALIFORNIA
 10
1099355.7991977639
 20
705659.3061763203
 30
0.0
  0
VERTEX
  5
D52
  8
CALIFORNIA
 10
1099357.66206337
 20
705633.57768791937
 30
0.0
  0
VERTEX
  5
D53
  8
CALIFORNIA
 10
1099331.2089922279
 20
705605.12678372278
 30
0.0
  0
VERTEX
  5
D54
  8
CALIFORNIA
 10
1099302.489204173
 20
705588.85664960847
 30
0.0
  0
SEQEND
  5
D55
  8
CALIFORNIA
  0
POLYLINE
  5
DF
  8
CALIFORNIA
 66
     1
 10
0.0
 20
0.0
 30
0.0
 70
     1
1001
DCO15
1071
        4
1071
        3
1000
lotenos--cerámica
1004
0752445F36303500
1071
        2
1000
lotes--períodos
1004
0752445F36303500
1071
        1
1000
lotes--cerámica
1004
0752445F36303500
  0
VERTEX
  5
D56
  8
CALIFORNIA
 10
1099136.5855271141
 20
706434.3426851813
 30
0.0
  0
VERTEX
  5
D57
  8
CALIFORNIA
 10
1099086.217760188
 20
706440.26801602717
 30
0.0
  0
VERTEX
  5
D58
  8
CALIFORNIA
 10
1099061.0882271121
 20
706406.17482113605
 30
0.0
  0
VERTEX
  5
D59
  8
CALIFORNIA
 10
1099058.687977771
 20
706470.7052335937
 30
0.0
  0
VERTEX
  5
D5A
  8
CALIFORNIA
 10
1099133.7489047539
 20
706480.12435440323
 30
0.0
  0
SEQEND
  5
D5B
  8
CALIFORNIA
  0
POLYLINE
  5
E0
  8
CALIFORNIA
 66
     1
 10
0.0
 20
0.0
 30
0.0
 70
     1
1001
DCO15
1071
        4
1071
        3
1000
lotenos--cerámica
1004
0752445F35383900
1071
        2
1000
lotes--períodos
1004
0752445F35383900
1071
        1
1000
lotes--cerámica
1004
0752445F35383900
  0
VERTEX
  5
D5C
  8
CALIFORNIA
 10
1099366.93351945
 20
706687.20040321909
 30
0.0
  0
VERTEX
  5
D5D
  8
CALIFORNIA
 10
1099380.888016169
 20
706704.79774219065
 30
0.0
  0
VERTEX
  5
D5E
  8
CALIFORNIA
 10
1099371.1297412771
 20
706734.07215992932
 30
0.0
  0
VERTEX
  5
D5F
  8
CALIFORNIA
 10
1099327.080348995
 20
706745.81129676744
 30
0.0
  0
VERTEX
  5
D60
  8
CALIFORNIA
 10
1099315.2390983379
 20
706768.68638597045
 30
0.0
  0
VERTEX
  5
D61
  8
CALIFORNIA
 10
1099313.595938409
 20
706687.19934038189
 30
0.0
  0
SEQEND
  5
D62
  8
CALIFORNIA
  0
POLYLINE
  5
E1
  8
BOUNDARY
 66
     1
 10
0.0
 20
0.0
 30
0.0
 70
     1
  0
VERTEX
  5
D63
  8
BOUNDARY
 10
1085315.2540117961
 20
708154.8409669057
 30
0.0
  0
VERTEX
  5
D64
  8
BOUNDARY
 10
1085240.778645697
 20
708099.23284047109
 30
0.0
  0
VERTEX
  5
D65
  8
BOUNDARY
 10
1085065.064286428
 20
708032.51734674466
 30
0.0
  0
VERTEX
  5
D66
  8
BOUNDARY
 10
1084977.181323644
 20
707955.3541403081
 30
0.0
  0
VERTEX
  5
D67
  8
BOUNDARY
 10
1084873.6748368051
 20
707859.89501677721
 30
0.0
  0
VERTEX
  5
D68
  8
BOUNDARY
 10
1084795.3432333381
 20
707845.05616679555
 30
0.0
  0
VERTEX
  5
D69
  8
BOUNDARY
 10
1084742.403810391
 20
707838.61315225926
 30
0.0
  0
VERTEX
  5
D6A
  8
BOUNDARY
 10
1084606.2893782819
 20
707808.6172540352
 30
0.0
  0
VERTEX
  5
D6B
  8
BOUNDARY
 10
1084393.183565255
 20
707693.80437094101
 30
0.0
  0
VERTEX
  5
D6C
  8
BOUNDARY
 10
1084179.5382681959
 20
707626.32071036205
 30
0.0
  0
VERTEX
  5
D6D
  8
BOUNDARY
 10
1083928.103596753
 20
707676.09276956762
 30
0.0
  0
VERTEX
  5
D6E
  8
BOUNDARY
 10
1083592.8170792509
 20
707663.43767744279
 30
0.0
  0
VERTEX
  5
D6F
  8
BOUNDARY
 10
1083400.593682522
 20
707531.27820653562
 30
0.0
  0
VERTEX
  5
D70
  8
BOUNDARY
 10
1083192.284885512
 20
707407.92812325212
 30
0.0
  0
VERTEX
  5
D71
  8
BOUNDARY
 10
1082906.1231563671
 20
707409.93540745543
 30
0.0
  0
VERTEX
  5
D72
  8
BOUNDARY
 10
1082710.486144407
 20
707433.14287103305
 30
0.0
  0
VERTEX
  5
D73
  8
BOUNDARY
 10
1082545.914945662
 20
707406.159792903
 30
0.0
  0
VERTEX
  5
D74
  8
BOUNDARY
 10
1082434.1362293309
 20
707238.39888793416
 30
0.0
  0
VERTEX
  5
D75
  8
BOUNDARY
 10
1082477.537504799
 20
707057.17653595062
 30
0.0
  0
VERTEX
  5
D76
  8
BOUNDARY
 10
1082463.737546152
 20
706877.93340638652
 30
0.0
  0
VERTEX
  5
D77
  8
BOUNDARY
 10
1082474.281365806
 20
706689.73439566605
 30
0.0
  0
VERTEX
  5
D78
  8
BOUNDARY
 10
1082613.261732497
 20
706415.59857916762
 30
0.0
  0
VERTEX
  5
D79
  8
BOUNDARY
 10
1082670.3830050479
 20
706136.25886464096
 30
0.0
  0
VERTEX
  5
D7A
  8
BOUNDARY
 10
1082717.450690791
 20
705784.25811829313
 30
0.0
  0
VERTEX
  5
D7B
  8
BOUNDARY
 10
1082711.998325282
 20
705589.24809293938
 30
0.0
  0
VERTEX
  5
D7C
  8
BOUNDARY
 10
1082714.0651281071
 20
705314.66795616376
 30
0.0
  0
VERTEX
  5
D7D
  8
BOUNDARY
 10
1082732.503029468
 20
705070.94617108267
 30
0.0
  0
VERTEX
  5
D7E
  8
BOUNDARY
 10
1082605.7035899931
 20
704870.00380237529
 30
0.0
  0
VERTEX
  5
D7F
  8
BOUNDARY
 10
1082184.6384840379
 20
704743.93652215076
 30
0.0
  0
VERTEX
  5
D80
  8
BOUNDARY
 10
1081850.3707283649
 20
704696.06015213951
 30
0.0
  0
VERTEX
  5
D81
  8
BOUNDARY
 10
1081330.3644071971
 20
704553.88821328804
 30
0.0
  0
VERTEX
  5
D82
  8
BOUNDARY
 10
1081017.3577462679
 20
704584.5067395987
 30
0.0
  0
VERTEX
  5
D83
  8
BOUNDARY
 10
1080603.6890933721
 20
704567.80977110949
 30
0.0
  0
VERTEX
  5
D84
  8
BOUNDARY
 10
1080153.542330663
 20
704447.31915130978
 30
0.0
  0
VERTEX
  5
D85
  8
BOUNDARY
 10
1080006.543503196
 20
704180.0307302766
 30
0.0
  0
VERTEX
  5
D86
  8
BOUNDARY
 10
1079976.6786218421
 20
703889.65124749835
 30
0.0
  0
VERTEX
  5
D87
  8
BOUNDARY
 10
1079801.2188675799
 20
703673.65978771367
 30
0.0
  0
VERTEX
  5
D88
  8
BOUNDARY
 10
1079489.333349451
 20
703515.45790839067
 30
0.0
  0
VERTEX
  5
D89
  8
BOUNDARY
 10
1079060.7655786041
 20
703291.81984428328
 30
0.0
  0
VERTEX
  5
D8A
  8
BOUNDARY
 10
1078804.0630666751
 20
703103.64288738393
 30
0.0
  0
VERTEX
  5
D8B
  8
BOUNDARY
 10
1078542.5280370819
 20
702834.71620735643
 30
0.0
  0
VERTEX
  5
D8C
  8
BOUNDARY
 10
1078387.4361840291
 20
702546.54352088727
 30
0.0
  0
VERTEX
  5
D8D
  8
BOUNDARY
 10
1078288.344962317
 20
702274.89729678514
 30
0.0
  0
VERTEX
  5
D8E
  8
BOUNDARY
 10
1078283.9617211949
 20
702123.26115667541
 30
0.0
  0
VERTEX
  5
D8F
  8
BOUNDARY
 10
1078220.360800196
 20
701984.32430870784
 30
0.0
  0
VERTEX
  5
D90
  8
BOUNDARY
 10
1078075.8841642591
 20
701903.66332485818
 30
0.0
  0
VERTEX
  5
D91
  8
BOUNDARY
 10
1077936.573643656
 20
701723.59629248292
 30
0.0
  0
VERTEX
  5
D92
  8
BOUNDARY
 10
1077935.1543782491
 20
701420.45008760423
 30
0.0
  0
VERTEX
  5
D93
  8
BOUNDARY
 10
1077867.908135056
 20
701175.24458908895
 30
0.0
  0
VERTEX
  5
D94
  8
BOUNDARY
 10
1077764.723394762
 20
700871.99329571321
 30
0.0
  0
VERTEX
  5
D95
  8
BOUNDARY
 10
1077680.823050397
 20
700641.94715880929
 30
0.0
  0
VERTEX
  5
D96
  8
BOUNDARY
 10
1077821.5678287181
 20
700371.17118082906
 30
0.0
  0
VERTEX
  5
D97
  8
BOUNDARY
 10
1078090.051157421
 20
700163.1153818462
 30
0.0
  0
VERTEX
  5
D98
  8
BOUNDARY
 10
1078247.1709951379
 20
699899.73957128543
 30
0.0
  0
VERTEX
  5
D99
  8
BOUNDARY
 10
1078277.7016725391
 20
699614.45394033391
 30
0.0
  0
VERTEX
  5
D9A
  8
BOUNDARY
 10
1078278.3044454211
 20
699203.54155927233
 30
0.0
  0
VERTEX
  5
D9B
  8
BOUNDARY
 10
1078302.9162767511
 20
698748.46658829565
 30
0.0
  0
VERTEX
  5
D9C
  8
BOUNDARY
 10
1078344.8513994419
 20
698519.30515503907
 30
0.0
  0
VERTEX
  5
D9D
  8
BOUNDARY
 10
1078493.54374783
 20
698193.97102813912
 30
0.0
  0
VERTEX
  5
D9E
  8
BOUNDARY
 10
1078644.447242823
 20
697916.48423587065
 30
0.0
  0
VERTEX
  5
D9F
  8
BOUNDARY
 10
1078689.62549835
 20
697650.63459574245
 30
0.0
  0
VERTEX
  5
DA0
  8
BOUNDARY
 10
1078636.677633645
 20
697347.60348549474
 30
0.0
  0
VERTEX
  5
DA1
  8
BOUNDARY
 10
1078485.019011782
 20
697039.86691858817
 30
0.0
  0
VERTEX
  5
DA2
  8
BOUNDARY
 10
1078469.1316312619
 20
696685.98593807733
 30
0.0
  0
VERTEX
  5
DA3
  8
BOUNDARY
 10
1078540.4090033099
 20
696417.96647982649
 30
0.0
  0
VERTEX
  5
DA4
  8
BOUNDARY
 10
1078759.4470525761
 20
696067.96589750075
 30
0.0
  0
VERTEX
  5
DA5
  8
BOUNDARY
 10
1079051.589754899
 20
695847.56253201177
 30
0.0
  0
VERTEX
  5
DA6
  8
BOUNDARY
 10
1079522.2348839701
 20
695675.90892802936
 30
0.0
  0
VERTEX
  5
DA7
  8
BOUNDARY
 10
1079839.6880841581
 20
695698.86041252362
 30
0.0
  0
VERTEX
  5
DA8
  8
BOUNDARY
 10
1080118.081529198
 20
696006.49869912292
 30
0.0
  0
VERTEX
  5
DA9
  8
BOUNDARY
 10
1080459.0382335701
 20
696278.73366296373
 30
0.0
  0
VERTEX
  5
DAA
  8
BOUNDARY
 10
1080587.373526114
 20
696345.84939271118
 30
0.0
  0
VERTEX
  5
DAB
  8
BOUNDARY
 10
1080995.5119687249
 20
696426.80320528976
 30
0.0
  0
VERTEX
  5
DAC
  8
BOUNDARY
 10
1081140.621674282
 20
696428.0826946724
 30
0.0
  0
VERTEX
  5
DAD
  8
BOUNDARY
 10
1081348.438475928
 20
696508.89055136265
 30
0.0
  0
VERTEX
  5
DAE
  8
BOUNDARY
 10
1081619.8831317569
 20
696729.16946337256
 30
0.0
  0
VERTEX
  5
DAF
  8
BOUNDARY
 10
1081896.3730681329
 20
696826.94655954093
 30
0.0
  0
VERTEX
  5
DB0
  8
BOUNDARY
 10
1082294.966342028
 20
696726.15119381598
 30
0.0
  0
VERTEX
  5
DB1
  8
BOUNDARY
 10
1082467.52960492
 20
696505.99713223812
 30
0.0
  0
VERTEX
  5
DB2
  8
BOUNDARY
 10
1082610.8611388691
 20
696307.54312199715
 30
0.0
  0
VERTEX
  5
DB3
  8
BOUNDARY
 10
1082734.6972512039
 20
696174.67707083526
 30
0.0
  0
VERTEX
  5
DB4
  8
BOUNDARY
 10
1082914.0196211319
 20
696062.96676906513
 30
0.0
  0
VERTEX
  5
DB5
  8
BOUNDARY
 10
1083100.038110092
 20
696005.40491907136
 30
0.0
  0
VERTEX
  5
DB6
  8
BOUNDARY
 10
1083352.3370465219
 20
695916.09057166637
 30
0.0
  0
VERTEX
  5
DB7
  8
BOUNDARY
 10
1083593.828870222
 20
695886.87845651095
 30
0.0
  0
VERTEX
  5
DB8
  8
BOUNDARY
 10
1083851.116293807
 20
695889.58291606465
 30
0.0
  0
VERTEX
  5
DB9
  8
BOUNDARY
 10
1084066.924385522
 20
695828.70439160871
 30
0.0
  0
VERTEX
  5
DBA
  8
BOUNDARY
 10
1084132.4923000811
 20
695751.36252858664
 30
0.0
  0
VERTEX
  5
DBB
  8
BOUNDARY
 10
1084196.447380326
 20
695627.61197262816
 30
0.0
  0
VERTEX
  5
DBC
  8
BOUNDARY
 10
1084321.6776853341
 20
695589.22313536925
 30
0.0
  0
VERTEX
  5
DBD
  8
BOUNDARY
 10
1084459.91019503
 20
695556.65961796069
 30
0.0
  0
VERTEX
  5
DBE
  8
BOUNDARY
 10
1084480.220911382
 20
695441.65049883618
 30
0.0
  0
VERTEX
  5
DBF
  8
BOUNDARY
 10
1084520.842344091
 20
695218.39746257779
 30
0.0
  0
VERTEX
  5
DC0
  8
BOUNDARY
 10
1084561.4637767989
 20
695035.73591237678
 30
0.0
  0
VERTEX
  5
DC1
  8
BOUNDARY
 10
1084595.3149707229
 20
694826.01337147097
 30
0.0
  0
VERTEX
  5
DC2
  8
BOUNDARY
 10
1084602.085209507
 20
694704.23900467029
 30
0.0
  0
VERTEX
  5
DC3
  8
BOUNDARY
 10
1084629.1661646459
 20
694575.69934450788
 30
0.0
  0
VERTEX
  5
DC4
  8
BOUNDARY
 10
1084703.6387912771
 20
694453.92497770721
 30
0.0
  0
VERTEX
  5
DC5
  8
BOUNDARY
 10
1084771.3411791241
 20
694318.62011555419
 30
0.0
  0
VERTEX
  5
DC6
  8
BOUNDARY
 10
1084886.4352384631
 20
694142.72381302924
 30
0.0
  0
VERTEX
  5
DC7
  8
BOUNDARY
 10
1084920.2864323871
 20
694007.41895087599
 30
0.0
  0
VERTEX
  5
DC8
  8
BOUNDARY
 10
1084920.2864323871
 20
693851.81834569457
 30
0.0
  0
VERTEX
  5
DC9
  8
BOUNDARY
 10
1084899.9757160321
 20
693763.87017158943
 30
0.0
  0
VERTEX
  5
DCA
  8
BOUNDARY
 10
1084920.2864323871
 20
693669.156749808
 30
0.0
  0
VERTEX
  5
DCB
  8
BOUNDARY
 10
1085015.069775372
 20
693506.79094263539
 30
0.0
  0
VERTEX
  5
DCC
  8
BOUNDARY
 10
1085164.0150286341
 20
693432.37326388271
 30
0.0
  0
VERTEX
  5
DCD
  8
BOUNDARY
 10
1085455.1352963741
 20
693310.59889708203
 30
0.0
  0
VERTEX
  5
DCE
  8
BOUNDARY
 10
1085597.310310852
 20
693168.52878725273
 30
0.0
  0
VERTEX
  5
DCF
  8
BOUNDARY
 10
1085644.701982345
 20
693067.05011779536
 30
0.0
  0
VERTEX
  5
DD0
  8
BOUNDARY
 10
1085719.1746089761
 20
692843.79708153696
 30
0.0
  0
VERTEX
  5
DD1
  8
BOUNDARY
 10
1085820.7281907459
 20
692681.43127436435
 30
0.0
  0
VERTEX
  5
DD2
  8
BOUNDARY
 10
1086017.0651155009
 20
692654.37028365978
 30
0.0
  0
VERTEX
  5
DD3
  8
BOUNDARY
 10
1086247.253154627
 20
692640.83978830744
 30
0.0
  0
VERTEX
  5
DD4
  8
BOUNDARY
 10
1086585.76509386
 20
692667.90077901236
 30
0.0
  0
VERTEX
  5
DD5
  8
BOUNDARY
 10
1086863.344884031
 20
692769.3794027844
 30
0.0
  0
VERTEX
  5
DD6
  8
BOUNDARY
 10
1086998.7496597241
 20
692843.79708153696
 30
0.0
  0
VERTEX
  5
DD7
  8
BOUNDARY
 10
1087181.5461069101
 20
692945.27575099457
 30
0.0
  0
VERTEX
  5
DD8
  8
BOUNDARY
 10
1087350.802076526
 20
693012.92818207107
 30
0.0
  0
VERTEX
  5
DD9
  8
BOUNDARY
 10
1087368.4610595871
 20
693015.7924193996
 30
0.0
  0
VERTEX
  5
DDA
  8
BOUNDARY
 10
1087393.1013411949
 20
693018.95740134304
 30
0.0
  0
VERTEX
  5
DDB
  8
BOUNDARY
 10
1087407.3454016999
 20
693022.19066201663
 30
0.0
  0
VERTEX
  5
DDC
  8
BOUNDARY
 10
1087473.826358065
 20
693096.59292029869
 30
0.0
  0
VERTEX
  5
DDD
  8
BOUNDARY
 10
1087528.5415130849
 20
693243.08242598479
 30
0.0
  0
VERTEX
  5
DDE
  8
BOUNDARY
 10
1087530.252237787
 20
693257.14471360145
 30
0.0
  0
VERTEX
  5
DDF
  8
BOUNDARY
 10
1087593.8486928579
 20
693355.0437788124
 30
0.0
  0
VERTEX
  5
DE0
  8
BOUNDARY
 10
1087614.2657446349
 20
693362.65367534
 30
0.0
  0
VERTEX
  5
DE1
  8
BOUNDARY
 10
1087675.061307634
 20
693341.68340429943
 30
0.0
  0
VERTEX
  5
DE2
  8
BOUNDARY
 10
1087709.4267489449
 20
693336.63258597045
 30
0.0
  0
VERTEX
  5
DE3
  8
BOUNDARY
 10
1087726.698960952
 20
693342.7107404992
 30
0.0
  0
VERTEX
  5
DE4
  8
BOUNDARY
 10
1087731.44062734
 20
693347.35477995919
 30
0.0
  0
VERTEX
  5
DE5
  8
BOUNDARY
 10
1087734.7969921229
 20
693369.22221796075
 30
0.0
  0
VERTEX
  5
DE6
  8
BOUNDARY
 10
1087727.577603311
 20
693427.18209313066
 30
0.0
  0
VERTEX
  5
DE7
  8
BOUNDARY
 10
1087731.0315950231
 20
693458.43523697997
 30
0.0
  0
VERTEX
  5
DE8
  8
BOUNDARY
 10
1087763.7003293389
 20
693591.07398006134
 30
0.0
  0
VERTEX
  5
DE9
  8
BOUNDARY
 10
1087793.6007138931
 20
693607.97195550846
 30
0.0
  0
VERTEX
  5
DEA
  8
BOUNDARY
 10
1087849.768508587
 20
693593.307635164
 30
0.0
  0
VERTEX
  5
DEB
  8
BOUNDARY
 10
1087856.0419169739
 20
693594.80683485291
 30
0.0
  0
VERTEX
  5
DEC
  8
BOUNDARY
 10
1087920.5029966959
 20
693625.4254036661
 30
0.0
  0
VERTEX
  5
DED
  8
BOUNDARY
 10
1087949.4248585149
 20
693698.65388535452
 30
0.0
  0
VERTEX
  5
DEE
  8
BOUNDARY
 10
1087969.858181447
 20
693707.82806618966
 30
0.0
  0
VERTEX
  5
DEF
  8
BOUNDARY
 10
1088041.489836518
 20
693675.79390691034
 30
0.0
  0
VERTEX
  5
DF0
  8
BOUNDARY
 10
1088081.494111178
 20
693611.23520025902
 30
0.0
  0
VERTEX
  5
DF1
  8
BOUNDARY
 10
1088095.4750430221
 20
693601.70305401785
 30
0.0
  0
VERTEX
  5
DF2
  8
BOUNDARY
 10
1088108.00558864
 20
693603.13716908765
 30
0.0
  0
VERTEX
  5
DF3
  8
BOUNDARY
 10
1088186.87065023
 20
693664.89498366718
 30
0.0
  0
VERTEX
  5
DF4
  8
BOUNDARY
 10
1088212.208351098
 20
693694.35604704206
 30
0.0
  0
VERTEX
  5
DF5
  8
BOUNDARY
 10
1088225.080590969
 20
693728.64013257925
 30
0.0
  0
VERTEX
  5
DF6
  8
BOUNDARY
 10
1088200.163686676
 20
693890.03802593122
 30
0.0
  0
VERTEX
  5
DF7
  8
BOUNDARY
 10
1088217.5497967671
 20
693907.06617061654
 30
0.0
  0
VERTEX
  5
DF8
  8
BOUNDARY
 10
1088241.0303325411
 20
693908.38638760278
 30
0.0
  0
VERTEX
  5
DF9
  8
BOUNDARY
 10
1088256.705717931
 20
693911.35224467097
 30
0.0
  0
VERTEX
  5
DFA
  8
BOUNDARY
 10
1088270.7680055471
 20
693909.64151996979
 30
0.0
  0
VERTEX
  5
DFB
  8
BOUNDARY
 10
1088295.78028332
 20
693907.81689718505
 30
0.0
  0
VERTEX
  5
DFC
  8
BOUNDARY
 10
1088327.37512142
 20
693937.21287594049
 30
0.0
  0
VERTEX
  5
DFD
  8
BOUNDARY
 10
1088330.6013169659
 20
693946.56603947887
 30
0.0
  0
VERTEX
  5
DFE
  8
BOUNDARY
 10
1088326.00609097
 20
693956.00055879075
 30
0.0
  0
VERTEX
  5
DFF
  8
BOUNDARY
 10
1088330.9755535261
 20
693982.54457856261
 30
0.0
  0
VERTEX
  5
E00
  8
BOUNDARY
 10
1088323.788707023
 20
694043.63302234688
 30
0.0
  0
VERTEX
  5
E01
  8
BOUNDARY
 10
1088380.363280586
 20
694068.07580970228
 30
0.0
  0
VERTEX
  5
E02
  8
BOUNDARY
 10
1088439.9850669911
 20
694084.66463320795
 30
0.0
  0
VERTEX
  5
E03
  8
BOUNDARY
 10
1088532.7497046511
 20
694129.06888000679
 30
0.0
  0
VERTEX
  5
E04
  8
BOUNDARY
 10
1088548.3600054211
 20
694125.77759984229
 30
0.0
  0
VERTEX
  5
E05
  8
BOUNDARY
 10
1088557.794524733
 20
694130.37282583816
 30
0.0
  0
VERTEX
  5
E06
  8
BOUNDARY
 10
1088578.016322654
 20
694119.21131066978
 30
0.0
  0
VERTEX
  5
E07
  8
BOUNDARY
 10
1088588.6897031779
 20
694092.50457935105
 30
0.0
  0
VERTEX
  5
E08
  8
BOUNDARY
 10
1088630.8277525641
 20
694082.67955232365
 30
0.0
  0
VERTEX
  5
E09
  8
BOUNDARY
 10
1088701.7249522209
 20
694130.44016390527
 30
0.0
  0
VERTEX
  5
E0A
  8
BOUNDARY
 10
1088712.8213827701
 20
694144.40482459345
 30
0.0
  0
VERTEX
  5
E0B
  8
BOUNDARY
 10
1088708.1773433101
 20
694149.14649098134
 30
0.0
  0
VERTEX
  5
E0C
  8
BOUNDARY
 10
1088717.8722011
 20
694178.77026590402
 30
0.0
  0
VERTEX
  5
E0D
  8
BOUNDARY
 10
1088784.3856997739
 20
694256.30109280196
 30
0.0
  0
VERTEX
  5
E0E
  8
BOUNDARY
 10
1088798.561885474
 20
694265.54035825655
 30
0.0
  0
VERTEX
  5
E0F
  8
BOUNDARY
 10
1088878.7634352059
 20
694305.38192136958
 30
0.0
  0
VERTEX
  5
E10
  8
BOUNDARY
 10
1088892.8582651319
 20
694306.79976528429
 30
0.0
  0
VERTEX
  5
E11
  8
BOUNDARY
 10
1088973.1899841011
 20
694359.15560286108
 30
0.0
  0
VERTEX
  5
E12
  8
BOUNDARY
 10
1088988.9467252649
 20
694369.94288146892
 30
0.0
  0
VERTEX
  5
E13
  8
BOUNDARY
 10
1088993.704662808
 20
694376.15120523633
 30
0.0
  0
VERTEX
  5
E14
  8
BOUNDARY
 10
1088996.8820448881
 20
694380.81151585095
 30
0.0
  0
VERTEX
  5
E15
  8
BOUNDARY
 10
1089022.6427957821
 20
694450.94397123298
 30
0.0
  0
VERTEX
  5
E16
  8
BOUNDARY
 10
1089047.931683186
 20
694475.7121816841
 30
0.0
  0
VERTEX
  5
E17
  8
BOUNDARY
 10
1089089.253921384
 20
694537.8605039781
 30
0.0
  0
VERTEX
  5
E18
  8
BOUNDARY
 10
1089084.8702204011
 20
694567.63071929431
 30
0.0
  0
VERTEX
  5
E19
  8
BOUNDARY
 10
1089153.1920707049
 20
694668.60953965585
 30
0.0
  0
VERTEX
  5
E1A
  8
BOUNDARY
 10
1089208.6904946051
 20
694739.99712740525
 30
0.0
  0
VERTEX
  5
E1B
  8
BOUNDARY
 10
1089181.314392491
 20
694815.37565497425
 30
0.0
  0
VERTEX
  5
E1C
  8
BOUNDARY
 10
1089173.541784416
 20
694820.14986367244
 30
0.0
  0
VERTEX
  5
E1D
  8
BOUNDARY
 10
1089150.6470102139
 20
694875.14388177241
 30
0.0
  0
VERTEX
  5
E1E
  8
BOUNDARY
 10
1089294.379930397
 20
695006.62737286487
 30
0.0
  0
VERTEX
  5
E1F
  8
BOUNDARY
 10
1089311.9612943439
 20
695042.42692924535
 30
0.0
  0
VERTEX
  5
E20
  8
BOUNDARY
 10
1089387.87677002
 20
695121.42441352224
 30
0.0
  0
VERTEX
  5
E21
  8
BOUNDARY
 10
1089438.649798688
 20
695189.73224611906
 30
0.0
  0
VERTEX
  5
E22
  8
BOUNDARY
 10
1089486.2454452729
 20
695253.3797681029
 30
0.0
  0
VERTEX
  5
E23
  8
BOUNDARY
 10
1089533.466855298
 20
695281.04875100253
 30
0.0
  0
VERTEX
  5
E24
  8
BOUNDARY
 10
1089600.029167437
 20
695363.27243082388
 30
0.0
  0
VERTEX
  5
E25
  8
BOUNDARY
 10
1089655.1696259319
 20
695400.24576379778
 30
0.0
  0
VERTEX
  5
E26
  8
BOUNDARY
 10
1089722.970799282
 20
695451.16748630488
 30
0.0
  0
VERTEX
  5
E27
  8
BOUNDARY
 10
1089751.502153385
 20
695486.85314460215
 30
0.0
  0
VERTEX
  5
E28
  8
BOUNDARY
 10
1089753.1477934669
 20
695494.65829498717
 30
0.0
  0
VERTEX
  5
E29
  8
BOUNDARY
 10
1089767.5843176451
 20
695528.92610936926
 30
0.0
  0
VERTEX
  5
E2A
  8
BOUNDARY
 10
1089761.7665015929
 20
695571.22687030328
 30
0.0
  0
VERTEX
  5
E2B
  8
BOUNDARY
 10
1089770.010973156
 20
695611.8169065367
 30
0.0
  0
VERTEX
  5
E2C
  8
BOUNDARY
 10
1089785.7677143191
 20
695622.60418514512
 30
0.0
  0
VERTEX
  5
E2D
  8
BOUNDARY
 10
1089803.0399263271
 20
695628.68233967386
 30
0.0
  0
VERTEX
  5
E2E
  8
BOUNDARY
 10
1089826.3902928629
 20
695617.48828219646
 30
0.0
  0
VERTEX
  5
E2F
  8
BOUNDARY
 10
1089871.429114698
 20
695585.73073254817
 30
0.0
  0
VERTEX
  5
E30
  8
BOUNDARY
 10
1089925.281898516
 20
695649.31316991255
 30
0.0
  0
VERTEX
  5
E31
  8
BOUNDARY
 10
1089939.4580842161
 20
695658.5524353669
 30
0.0
  0
VERTEX
  5
E32
  8
BOUNDARY
 10
1089958.3922074591
 20
695674.00002458924
 30
0.0
  0
VERTEX
  5
E33
  8
BOUNDARY
 10
1090042.01897604
 20
695724.52566893678
 30
0.0
  0
VERTEX
  5
E34
  8
BOUNDARY
 10
1090057.306745677
 20
695723.41457316687
 30
0.0
  0
VERTEX
  5
E35
  8
BOUNDARY
 10
1090074.2949652779
 20
695717.6084270326
 30
0.0
  0
VERTEX
  5
E36
  8
BOUNDARY
 10
1090088.1537042891
 20
695710.01575863524
 30
0.0
  0
VERTEX
  5
E37
  8
BOUNDARY
 10
1090097.988984009
 20
695701.08319854073
 30
0.0
  0
VERTEX
  5
E38
  8
BOUNDARY
 10
1090106.4520263651
 20
695685.50605426414
 30
0.0
  0
VERTEX
  5
E39
  8
BOUNDARY
 10
1090145.648746205
 20
695623.11217286834
 30
0.0
  0
VERTEX
  5
E3A
  8
BOUNDARY
 10
1090181.0594709651
 20
695620.81431355013
 30
0.0
  0
VERTEX
  5
E3B
  8
BOUNDARY
 10
1090201.872692385
 20
695596.30981415138
 30
0.0
  0
VERTEX
  5
E3C
  8
BOUNDARY
 10
1090194.5729194831
 20
695562.53028051776
 30
0.0
  0
VERTEX
  5
E3D
  8
BOUNDARY
 10
1090225.102148032
 20
695522.62072583241
 30
0.0
  0
VERTEX
  5
E3E
  8
BOUNDARY
 10
1090282.197042888
 20
695504.31478508573
 30
0.0
  0
VERTEX
  5
E3F
  8
BOUNDARY
 10
1090283.706324717
 20
695504.89380604331
 30
0.0
  0
VERTEX
  5
E40
  8
BOUNDARY
 10
1090334.633639812
 20
695507.70617996319
 30
0.0
  0
VERTEX
  5
E41
  8
BOUNDARY
 10
1090405.6366799499
 20
695487.41648219526
 30
0.0
  0
VERTEX
  5
E42
  8
BOUNDARY
 10
1090458.1343368599
 20
695448.89593834127
 30
0.0
  0
VERTEX
  5
E43
  8
BOUNDARY
 10
1090496.4755905319
 20
695392.21152309456
 30
0.0
  0
VERTEX
  5
E44
  8
BOUNDARY
 10
1090529.2852058811
 20
695342.9928939041
 30
0.0
  0
VERTEX
  5
E45
  8
BOUNDARY
 10
1090567.6490631311
 20
695283.96921035158
 30
0.0
  0
VERTEX
  5
E46
  8
BOUNDARY
 10
1090587.6649915639
 20
695207.10773936473
 30
0.0
  0
VERTEX
  5
E47
  8
BOUNDARY
 10
1090609.4583334629
 20
695131.63588860095
 30
0.0
  0
VERTEX
  5
E48
  8
BOUNDARY
 10
1090637.383680895
 20
695039.08887331525
 30
0.0
  0
VERTEX
  5
E49
  8
BOUNDARY
 10
1090659.779044878
 20
694970.72551207535
 30
0.0
  0
VERTEX
  5
E4A
  8
BOUNDARY
 10
1090673.693072781
 20
694904.11526355566
 30
0.0
  0
VERTEX
  5
E4B
  8
BOUNDARY
 10
1090673.0494780999
 20
694836.83243425121
 30
0.0
  0
VERTEX
  5
E4C
  8
BOUNDARY
 10
1090684.394325549
 20
694772.65371859679
 30
0.0
  0
VERTEX
  5
E4D
  8
BOUNDARY
 10
1090691.4050054341
 20
694703.4160568458
 30
0.0
  0
VERTEX
  5
E4E
  8
BOUNDARY
 10
1090698.901600502
 20
694668.16526706354
 30
0.0
  0
VERTEX
  5
E4F
  8
BOUNDARY
 10
1090711.202282642
 20
694670.88625118055
 30
0.0
  0
VERTEX
  5
E50
  8
BOUNDARY
 10
1090716.2750161539
 20
694625.26555173856
 30
0.0
  0
VERTEX
  5
E51
  8
BOUNDARY
 10
1090808.2837258871
 20
694540.9864933826
 30
0.0
  0
VERTEX
  5
E52
  8
BOUNDARY
 10
1090969.2990076949
 20
694456.70738934155
 30
0.0
  0
VERTEX
  5
E53
  8
BOUNDARY
 10
1091199.320782026
 20
694395.41351625975
 30
0.0
  0
VERTEX
  5
E54
  8
BOUNDARY
 10
1091383.3382014921
 20
694410.73697310872
 30
0.0
  0
VERTEX
  5
E55
  8
BOUNDARY
 10
1091460.0121262691
 20
694456.70738934155
 30
0.0
  0
VERTEX
  5
E56
  8
BOUNDARY
 10
1091498.3490488811
 20
694563.97167865653
 30
0.0
  0
VERTEX
  5
E57
  8
BOUNDARY
 10
1091460.0121262691
 20
694663.57423954678
 30
0.0
  0
VERTEX
  5
E58
  8
BOUNDARY
 10
1091360.335984282
 20
694717.2063842041
 30
0.0
  0
VERTEX
  5
E59
  8
BOUNDARY
 10
1091237.657704639
 20
694763.17680043669
 30
0.0
  0
VERTEX
  5
E5A
  8
BOUNDARY
 10
1091159.4786931239
 20
694828.27792736178
 30
0.0
  0
VERTEX
  5
E5B
  8
BOUNDARY
 10
1091150.1748636621
 20
694857.73020055599
 30
0.0
  0
VERTEX
  5
E5C
  8
BOUNDARY
 10
1091138.9402831141
 20
694892.85669080506
 30
0.0
  0
VERTEX
  5
E5D
  8
BOUNDARY
 10
1091126.7583588101
 20
694926.95105774561
 30
0.0
  0
VERTEX
  5
E5E
  8
BOUNDARY
 10
1091123.3258755091
 20
694972.35350087006
 30
0.0
  0
VERTEX
  5
E5F
  8
BOUNDARY
 10
1091132.2487964481
 20
695008.63143768813
 30
0.0
  0
VERTEX
  5
E60
  8
BOUNDARY
 10
1091151.427613958
 20
695045.50624691136
 30
0.0
  0
VERTEX
  5
E61
  8
BOUNDARY
 10
1091174.7818399819
 20
695084.39907588728
 30
0.0
  0
VERTEX
  5
E62
  8
BOUNDARY
 10
1091202.33025347
 20
695120.31997813447
 30
0.0
  0
VERTEX
  5
E63
  8
BOUNDARY
 10
1091238.6030954779
 20
695162.1856618179
 30
0.0
  0
VERTEX
  5
E64
  8
BOUNDARY
 10
1091291.50718439
 20
695220.22662276309
 30
0.0
  0
VERTEX
  5
E65
  8
BOUNDARY
 10
1091341.1522085341
 20
695263.49430442753
 30
0.0
  0
VERTEX
  5
E66
  8
BOUNDARY
 10
1091382.70009023
 20
695283.89820579858
 30
0.0
  0
VERTEX
  5
E67
  8
BOUNDARY
 10
1091449.0011712071
 20
695284.73443788255
 30
0.0
  0
VERTEX
  5
E68
  8
BOUNDARY
 10
1091478.505161701
 20
695275.85588641965
 30
0.0
  0
VERTEX
  5
E69
  8
BOUNDARY
 10
1091507.8112937449
 20
695265.24936366105
 30
0.0
  0
VERTEX
  5
E6A
  8
BOUNDARY
 10
1091532.0591988941
 20
695270.28793572215
 30
0.0
  0
VERTEX
  5
E6B
  8
BOUNDARY
 10
1091581.3580124839
 20
695326.41408812464
 30
0.0
  0
VERTEX
  5
E6C
  8
BOUNDARY
 10
1091613.515849968
 20
695371.33066626254
 30
0.0
  0
VERTEX
  5
E6D
  8
BOUNDARY
 10
1091654.403520104
 20
695400.49246021116
 30
0.0
  0
VERTEX
  5
E6E
  8
BOUNDARY
 10
1091714.6627498809
 20
695426.01786489924
 30
0.0
  0
VERTEX
  5
E6F
  8
BOUNDARY
 10
1091793.3182698879
 20
695470.75489403191
 30
0.0
  0
VERTEX
  5
E70
  8
BOUNDARY
 10
1091863.1406531869
 20
695512.60439842311
 30
0.0
  0
VERTEX
  5
E71
  8
BOUNDARY
 10
1091945.557196954
 20
695552.92983495095
 30
0.0
  0
VERTEX
  5
E72
  8
BOUNDARY
 10
1092036.166768339
 20
695603.7413845486
 30
0.0
  0
VERTEX
  5
E73
  8
BOUNDARY
 10
1092107.2928892369
 20
695635.57057981088
 30
0.0
  0
VERTEX
  5
E74
  8
BOUNDARY
 10
1092200.1998916131
 20
695661.25940925744
 30
0.0
  0
VERTEX
  5
E75
  8
BOUNDARY
 10
1092283.5231397511
 20
695698.10282690974
 30
0.0
  0
VERTEX
  5
E76
  8
BOUNDARY
 10
1092318.2315148669
 20
695712.46819532686
 30
0.0
  0
VERTEX
  5
E77
  8
BOUNDARY
 10
1092391.1664674471
 20
695736.99699377886
 30
0.0
  0
VERTEX
  5
E78
  8
BOUNDARY
 10
1092421.0887520779
 20
695726.15120588045
 30
0.0
  0
VERTEX
  5
E79
  8
BOUNDARY
 10
1092489.895986425
 20
695707.37649923703
 30
0.0
  0
VERTEX
  5
E7A
  8
BOUNDARY
 10
1092551.2362435421
 20
695717.90451365698
 30
0.0
  0
VERTEX
  5
E7B
  8
BOUNDARY
 10
1092616.723384863
 20
695749.64462859544
 30
0.0
  0
VERTEX
  5
E7C
  8
BOUNDARY
 10
1092648.654165237
 20
695754.23895696027
 30
0.0
  0
VERTEX
  5
E7D
  8
BOUNDARY
 10
1092685.972165918
 20
695771.58340863825
 30
0.0
  0
VERTEX
  5
E7E
  8
BOUNDARY
 10
1092715.033753512
 20
695778.56441928633
 30
0.0
  0
VERTEX
  5
E7F
  8
BOUNDARY
 10
1092745.0114807871
 20
695794.62919494091
 30
0.0
  0
VERTEX
  5
E80
  8
BOUNDARY
 10
1092778.601838076
 20
695812.74664581008
 30
0.0
  0
VERTEX
  5
E81
  8
BOUNDARY
 10
1092807.197368325
 20
695836.35319597251
 30
0.0
  0
VERTEX
  5
E82
  8
BOUNDARY
 10
1092818.829031314
 20
695841.08277650271
 30
0.0
  0
VERTEX
  5
E83
  8
BOUNDARY
 10
1092836.8434945641
 20
695838.71569868282
 30
0.0
  0
VERTEX
  5
E84
  8
BOUNDARY
 10
1092861.295449846
 20
695830.79893497215
 30
0.0
  0
VERTEX
  5
E85
  8
BOUNDARY
 10
1092890.442669885
 20
695845.31101835158
 30
0.0
  0
VERTEX
  5
E86
  8
BOUNDARY
 10
1092924.1401126429
 20
695877.63932293525
 30
0.0
  0
VERTEX
  5
E87
  8
BOUNDARY
 10
1092983.651875603
 20
695890.83814868832
 30
0.0
  0
VERTEX
  5
E88
  8
BOUNDARY
 10
1093019.172791427
 20
695890.88804056356
 30
0.0
  0
VERTEX
  5
E89
  8
BOUNDARY
 10
1093055.058575606
 20
695933.54985577427
 30
0.0
  0
VERTEX
  5
E8A
  8
BOUNDARY
 10
1093095.888019264
 20
695964.03786793305
 30
0.0
  0
VERTEX
  5
E8B
  8
BOUNDARY
 10
1093149.7417716039
 20
695988.83311488689
 30
0.0
  0
VERTEX
  5
E8C
  8
BOUNDARY
 10
1093186.137725977
 20
696005.37122597545
 30
0.0
  0
VERTEX
  5
E8D
  8
BOUNDARY
 10
1093215.928062191
 20
696002.07659317029
 30
0.0
  0
VERTEX
  5
E8E
  8
BOUNDARY
 10
1093231.879174778
 20
695988.12188000197
 30
0.0
  0
VERTEX
  5
E8F
  8
BOUNDARY
 10
1093239.0497639959
 20
695958.84304511047
 30
0.0
  0
VERTEX
  5
E90
  8
BOUNDARY
 10
1093255.630784736
 20
695914.33475481626
 30
0.0
  0
VERTEX
  5
E91
  8
BOUNDARY
 10
1093269.326307788
 20
695875.12836998946
 30
0.0
  0
VERTEX
  5
E92
  8
BOUNDARY
 10
1093298.307697108
 20
695822.74367327499
 30
0.0
  0
VERTEX
  5
E93
  8
BOUNDARY
 10
1093324.463220102
 20
695785.37559517345
 30
0.0
  0
VERTEX
  5
E94
  8
BOUNDARY
 10
1093367.6132892959
 20
695792.20301844925
 30
0.0
  0
VERTEX
  5
E95
  8
BOUNDARY
 10
1093409.3315625431
 20
695808.75316066097
 30
0.0
  0
VERTEX
  5
E96
  8
BOUNDARY
 10
1093438.631495012
 20
695836.10071501485
 30
0.0
  0
VERTEX
  5
E97
  8
BOUNDARY
 10
1093493.6650822631
 20
695866.32731309754
 30
0.0
  0
VERTEX
  5
E98
  8
BOUNDARY
 10
1093550.592477252
 20
695904.25092032563
 30
0.0
  0
VERTEX
  5
E99
  8
BOUNDARY
 10
1093598.7598094291
 20
695949.02344263205
 30
0.0
  0
VERTEX
  5
E9A
  8
BOUNDARY
 10
1093701.630268865
 20
696041.92165981675
 30
0.0
  0
VERTEX
  5
E9B
  8
BOUNDARY
 10
1093813.3402366231
 20
696139.09068482777
 30
0.0
  0
VERTEX
  5
E9C
  8
BOUNDARY
 10
1093900.155991131
 20
696184.7137529098
 30
0.0
  0
VERTEX
  5
E9D
  8
BOUNDARY
 10
1093993.1104366351
 20
696190.30509184976
 30
0.0
  0
VERTEX
  5
E9E
  8
BOUNDARY
 10
1094041.037454644
 20
696186.60416190582
 30
0.0
  0
VERTEX
  5
E9F
  8
BOUNDARY
 10
1094063.962176244
 20
696172.71902552457
 30
0.0
  0
VERTEX
  5
EA0
  8
BOUNDARY
 10
1094070.2976916919
 20
696101.7549604259
 30
0.0
  0
VERTEX
  5
EA1
  8
BOUNDARY
 10
1094072.713005753
 20
695993.54768214375
 30
0.0
  0
VERTEX
  5
EA2
  8
BOUNDARY
 10
1094085.111044941
 20
695932.67699985974
 30
0.0
  0
VERTEX
  5
EA3
  8
BOUNDARY
 10
1094111.911882845
 20
695907.94411079329
 30
0.0
  0
VERTEX
  5
EA4
  8
BOUNDARY
 10
1094179.9565921889
 20
695872.64790668816
 30
0.0
  0
VERTEX
  5
EA5
  8
BOUNDARY
 10
1094259.3998155431
 20
695854.75716676714
 30
0.0
  0
VERTEX
  5
EA6
  8
BOUNDARY
 10
1094338.4855734471
 20
695840.98322083615
 30
0.0
  0
VERTEX
  5
EA7
  8
BOUNDARY
 10
1094402.130637937
 20
695836.51047864347
 30
0.0
  0
VERTEX
  5
EA8
  8
BOUNDARY
 10
1094462.2136186911
 20
695813.72168885369
 30
0.0
  0
VERTEX
  5
EA9
  8
BOUNDARY
 10
1094505.392840883
 20
695783.36967247399
 30
0.0
  0
VERTEX
  5
EAA
  8
BOUNDARY
 10
1094540.600484787
 20
695760.96631937125
 30
0.0
  0
VERTEX
  5
EAB
  8
BOUNDARY
 10
1094597.5418443109
 20
695753.18860167987
 30
0.0
  0
VERTEX
  5
EAC
  8
BOUNDARY
 10
1094646.2427755999
 20
695731.45549597451
 30
0.0
  0
VERTEX
  5
EAD
  8
BOUNDARY
 10
1094689.651712998
 20
695825.94357195043
 30
0.0
  0
VERTEX
  5
EAE
  8
BOUNDARY
 10
1094671.2017007931
 20
695884.00764169451
 30
0.0
  0
VERTEX
  5
EAF
  8
BOUNDARY
 10
1094661.7054052099
 20
695953.20656114526
 30
0.0
  0
VERTEX
  5
EB0
  8
BOUNDARY
 10
1094686.5773405379
 20
696083.31251274538
 30
0.0
  0
VERTEX
  5
EB1
  8
BOUNDARY
 10
1094731.2043138461
 20
696082.45690158976
 30
0.0
  0
VERTEX
  5
EB2
  8
BOUNDARY
 10
1094799.7264976799
 20
696118.73236241657
 30
0.0
  0
VERTEX
  5
EB3
  8
BOUNDARY
 10
1094816.955332021
 20
696167.03741312912
 30
0.0
  0
VERTEX
  5
EB4
  8
BOUNDARY
 10
1094881.0276752049
 20
696208.53075127956
 30
0.0
  0
VERTEX
  5
EB5
  8
BOUNDARY
 10
1094893.0404955079
 20
696253.12977528386
 30
0.0
  0
VERTEX
  5
EB6
  8
BOUNDARY
 10
1094999.5251397509
 20
696300.46741762885
 30
0.0
  0
VERTEX
  5
EB7
  8
BOUNDARY
 10
1095179.589602482
 20
696324.56236233329
 30
0.0
  0
VERTEX
  5
EB8
  8
BOUNDARY
 10
1095311.1608225261
 20
696290.760933112
 30
0.0
  0
VERTEX
  5
EB9
  8
BOUNDARY
 10
1095381.161317812
 20
696323.31359764887
 30
0.0
  0
VERTEX
  5
EBA
  8
BOUNDARY
 10
1095616.8851227791
 20
696296.68944769772
 30
0.0
  0
VERTEX
  5
EBB
  8
BOUNDARY
 10
1095764.0578027619
 20
696255.41075001925
 30
0.0
  0
VERTEX
  5
EBC
  8
BOUNDARY
 10
1095951.400162254
 20
696215.519062737
 30
0.0
  0
VERTEX
  5
EBD
  8
BOUNDARY
 10
1096149.841969002
 20
696152.54119391099
 30
0.0
  0
VERTEX
  5
EBE
  8
BOUNDARY
 10
1096201.9219880369
 20
696157.61746143247
 30
0.0
  0
VERTEX
  5
EBF
  8
BOUNDARY
 10
1096265.3175956041
 20
696225.88996482664
 30
0.0
  0
VERTEX
  5
EC0
  8
BOUNDARY
 10
1096327.755111238
 20
696208.62572803535
 30
0.0
  0
VERTEX
  5
EC1
  8
BOUNDARY
 10
1096450.5477636261
 20
696233.60795977199
 30
0.0
  0
VERTEX
  5
EC2
  8
BOUNDARY
 10
1096597.942174746
 20
696280.8431213391
 30
0.0
  0
VERTEX
  5
EC3
  8
BOUNDARY
 10
1096668.675304255
 20
696308.93103892962
 30
0.0
  0
VERTEX
  5
EC4
  8
BOUNDARY
 10
1096738.5416428871
 20
696287.92909955338
 30
0.0
  0
VERTEX
  5
EC5
  8
BOUNDARY
 10
1096844.3048326289
 20
696344.19437250402
 30
0.0
  0
VERTEX
  5
EC6
  8
BOUNDARY
 10
1096968.5403940191
 20
696351.32134302892
 30
0.0
  0
VERTEX
  5
EC7
  8
BOUNDARY
 10
1097057.160460616
 20
696393.49700665625
 30
0.0
  0
VERTEX
  5
EC8
  8
BOUNDARY
 10
1097113.2036399459
 20
696496.00358430808
 30
0.0
  0
VERTEX
  5
EC9
  8
BOUNDARY
 10
1097158.7812520401
 20
696577.7094575651
 30
0.0
  0
VERTEX
  5
ECA
  8
BOUNDARY
 10
1097268.794910738
 20
696549.16876126535
 30
0.0
  0
VERTEX
  5
ECB
  8
BOUNDARY
 10
1097346.3751552589
 20
696638.23265261971
 30
0.0
  0
VERTEX
  5
ECC
  8
BOUNDARY
 10
1097389.033410185
 20
696742.26039732154
 30
0.0
  0
VERTEX
  5
ECD
  8
BOUNDARY
 10
1097440.4255138829
 20
696769.65294642758
 30
0.0
  0
VERTEX
  5
ECE
  8
BOUNDARY
 10
1097487.391999658
 20
696811.93295411905
 30
0.0
  0
VERTEX
  5
ECF
  8
BOUNDARY
 10
1097494.966159032
 20
696866.2127391072
 30
0.0
  0
VERTEX
  5
ED0
  8
BOUNDARY
 10
1097524.808154532
 20
696901.84127690783
 30
0.0
  0
VERTEX
  5
ED1
  8
BOUNDARY
 10
1097453.7262278961
 20
697031.44377857074
 30
0.0
  0
VERTEX
  5
ED2
  8
BOUNDARY
 10
1097479.815614515
 20
697053.69298182731
 30
0.0
  0
VERTEX
  5
ED3
  8
BOUNDARY
 10
1097539.3356362691
 20
697059.49443042348
 30
0.0
  0
VERTEX
  5
ED4
  8
BOUNDARY
 10
1097584.1675711321
 20
697140.45835302456
 30
0.0
  0
VERTEX
  5
ED5
  8
BOUNDARY
 10
1097667.5436743889
 20
697167.77078079502
 30
0.0
  0
VERTEX
  5
ED6
  8
BOUNDARY
 10
1097712.330890368
 20
697230.88316875813
 30
0.0
  0
VERTEX
  5
ED7
  8
BOUNDARY
 10
1097766.737378862
 20
697273.88835752453
 30
0.0
  0
VERTEX
  5
ED8
  8
BOUNDARY
 10
1097800.820526883
 20
697220.99185635848
 30
0.0
  0
VERTEX
  5
ED9
  8
BOUNDARY
 10
1097857.9991728819
 20
697182.91387216467
 30
0.0
  0
VERTEX
  5
EDA
  8
BOUNDARY
 10
1097918.3841222271
 20
697237.0613637846
 30
0.0
  0
VERTEX
  5
EDB
  8
BOUNDARY
 10
1097917.1424482069
 20
697335.24853086565
 30
0.0
  0
VERTEX
  5
EDC
  8
BOUNDARY
 10
1097882.4011974379
 20
697422.36233670753
 30
0.0
  0
VERTEX
  5
EDD
  8
BOUNDARY
 10
1097905.5824066121
 20
697471.39629506855
 30
0.0
  0
VERTEX
  5
EDE
  8
BOUNDARY
 10
1098009.8113862961
 20
697509.06994601176
 30
0.0
  0
VERTEX
  5
EDF
  8
BOUNDARY
 10
1098094.833496823
 20
697599.60283238371
 30
0.0
  0
VERTEX
  5
EE0
  8
BOUNDARY
 10
1098129.952994826
 20
697663.48325701943
 30
0.0
  0
VERTEX
  5
EE1
  8
BOUNDARY
 10
1098208.0609120131
 20
697666.2628676712
 30
0.0
  0
VERTEX
  5
EE2
  8
BOUNDARY
 10
1098316.6670641601
 20
697669.70989750419
 30
0.0
  0
VERTEX
  5
EE3
  8
BOUNDARY
 10
1098429.9485146699
 20
697757.94053714594
 30
0.0
  0
VERTEX
  5
EE4
  8
BOUNDARY
 10
1098605.020557788
 20
697867.58712833049
 30
0.0
  0
VERTEX
  5
EE5
  8
BOUNDARY
 10
1098817.8165605939
 20
697893.08771629934
 30
0.0
  0
VERTEX
  5
EE6
  8
BOUNDARY
 10
1099108.8322778009
 20
697965.99675151426
 30
0.0
  0
VERTEX
  5
EE7
  8
BOUNDARY
 10
1099347.706487505
 20
698009.28365908028
 30
0.0
  0
VERTEX
  5
EE8
  8
BOUNDARY
 10
1099603.664195176
 20
698042.85812978621
 30
0.0
  0
VERTEX
  5
EE9
  8
BOUNDARY
 10
1100056.945012507
 20
698160.73361900134
 30
0.0
  0
VERTEX
  5
EEA
  8
BOUNDARY
 10
1100220.0675870739
 20
698251.07086025178
 30
0.0
  0
VERTEX
  5
EEB
  8
BOUNDARY
 10
1100186.364549574
 20
698455.70540583855
 30
0.0
  0
VERTEX
  5
EEC
  8
BOUNDARY
 10
1100205.83973204
 20
698509.95537823625
 30
0.0
  0
VERTEX
  5
EED
  8
BOUNDARY
 10
1100260.199638363
 20
698534.36521842144
 30
0.0
  0
VERTEX
  5
EEE
  8
BOUNDARY
 10
1100329.318436478
 20
698511.87751444569
 30
0.0
  0
VERTEX
  5
EEF
  8
BOUNDARY
 10
1100454.0835338209
 20
698433.46401821182
 30
0.0
  0
VERTEX
  5
EF0
  8
BOUNDARY
 10
1100608.1704071439
 20
698479.93859625387
 30
0.0
  0
VERTEX
  5
EF1
  8
BOUNDARY
 10
1100884.1086105041
 20
698472.55299133621
 30
0.0
  0
VERTEX
  5
EF2
  8
BOUNDARY
 10
1100923.974574252
 20
698352.69832898339
 30
0.0
  0
VERTEX
  5
EF3
  8
BOUNDARY
 10
1101056.066013816
 20
698229.63736328646
 30
0.0
  0
VERTEX
  5
EF4
  8
BOUNDARY
 10
1101214.304601891
 20
698151.88383308682
 30
0.0
  0
VERTEX
  5
EF5
  8
BOUNDARY
 10
1101293.2550872259
 20
698194.08371944295
 30
0.0
  0
VERTEX
  5
EF6
  8
BOUNDARY
 10
1101405.917564013
 20
698332.15175656835
 30
0.0
  0
VERTEX
  5
EF7
  8
BOUNDARY
 10
1101515.114378097
 20
698571.38780640811
 30
0.0
  0
VERTEX
  5
EF8
  8
BOUNDARY
 10
1101567.911762577
 20
698862.83244207688
 30
0.0
  0
VERTEX
  5
EF9
  8
BOUNDARY
 10
1101568.181939173
 20
698970.6854638462
 30
0.0
  0
VERTEX
  5
EFA
  8
BOUNDARY
 10
1101585.584059193
 20
699088.16521127964
 30
0.0
  0
VERTEX
  5
EFB
  8
BOUNDARY
 10
1101716.2676297219
 20
699293.87559835496
 30
0.0
  0
VERTEX
  5
EFC
  8
BOUNDARY
 10
1101797.5445845169
 20
699374.00440595613
 30
0.0
  0
VERTEX
  5
EFD
  8
BOUNDARY
 10
1101819.7907628431
 20
699387.07188671967
 30
0.0
  0
VERTEX
  5
EFE
  8
BOUNDARY
 10
1101829.1210662229
 20
699395.98790304409
 30
0.0
  0
VERTEX
  5
EFF
  8
BOUNDARY
 10
1101840.073895019
 20
699407.74079174735
 30
0.0
  0
VERTEX
  5
F00
  8
BOUNDARY
 10
1101840.038870198
 20
699412.57652365277
 30
0.0
  0
VERTEX
  5
F01
  8
BOUNDARY
 10
1101839.4459824921
 20
699472.82731634192
 30
0.0
  0
VERTEX
  5
F02
  8
BOUNDARY
 10
1101826.920395816
 20
699520.46308458608
 30
0.0
  0
VERTEX
  5
F03
  8
BOUNDARY
 10
1101636.893453303
 20
699676.39720016124
 30
0.0
  0
VERTEX
  5
F04
  8
BOUNDARY
 10
1101593.1183645769
 20
699720.39215673786
 30
0.0
  0
VERTEX
  5
F05
  8
BOUNDARY
 10
1101641.6157629129
 20
699957.10762187105
 30
0.0
  0
VERTEX
  5
F06
  8
BOUNDARY
 10
1101638.495762913
 20
699966.4676218708
 30
0.0
  0
VERTEX
  5
F07
  8
BOUNDARY
 10
1101644.735762913
 20
700013.26762187039
 30
0.0
  0
VERTEX
  5
F08
  8
BOUNDARY
 10
1101641.6157629129
 20
700069.42762187053
 30
0.0
  0
VERTEX
  5
F09
  8
BOUNDARY
 10
1101638.495762913
 20
700109.98762187036
 30
0.0
  0
VERTEX
  5
F0A
  8
BOUNDARY
 10
1101644.735762913
 20
700138.06762187066
 30
0.0
  0
VERTEX
  5
F0B
  8
BOUNDARY
 10
1101647.8557629129
 20
700166.14762187062
 30
0.0
  0
VERTEX
  5
F0C
  8
BOUNDARY
 10
1101644.735762913
 20
700172.38762187108
 30
0.0
  0
VERTEX
  5
F0D
  8
BOUNDARY
 10
1101654.0957629131
 20
700197.34762187046
 30
0.0
  0
VERTEX
  5
F0E
  8
BOUNDARY
 10
1101675.935762913
 20
700237.90762187075
 30
0.0
  0
VERTEX
  5
F0F
  8
BOUNDARY
 10
1101666.5757629131
 20
700262.86762187048
 30
0.0
  0
VERTEX
  5
F10
  8
BOUNDARY
 10
1101660.3357629131
 20
700272.22762187058
 30
0.0
  0
VERTEX
  5
F11
  8
BOUNDARY
 10
1101644.735762913
 20
700275.34762187034
 30
0.0
  0
VERTEX
  5
F12
  8
BOUNDARY
 10
1101588.5757629131
 20
700256.62762187107
 30
0.0
  0
VERTEX
  5
F13
  8
BOUNDARY
 10
1101535.5357629131
 20
700256.62762187107
 30
0.0
  0
VERTEX
  5
F14
  8
BOUNDARY
 10
1101460.655762912
 20
700297.18762187078
 30
0.0
  0
VERTEX
  5
F15
  8
BOUNDARY
 10
1101426.3357629131
 20
700328.38762187085
 30
0.0
  0
VERTEX
  5
F16
  8
BOUNDARY
 10
1101420.0957629131
 20
700350.22762187035
 30
0.0
  0
VERTEX
  5
F17
  8
BOUNDARY
 10
1101416.975762913
 20
700378.30762187066
 30
0.0
  0
VERTEX
  5
F18
  8
BOUNDARY
 10
1101420.0957629131
 20
700381.42762187077
 30
0.0
  0
VERTEX
  5
F19
  8
BOUNDARY
 10
1101426.3357629131
 20
700390.7876218704
 30
0.0
  0
VERTEX
  5
F1A
  8
BOUNDARY
 10
1101463.7757629131
 20
700406.38762187073
 30
0.0
  0
VERTEX
  5
F1B
  8
BOUNDARY
 10
1101519.935762913
 20
700434.46762187104
 30
0.0
  0
VERTEX
  5
F1C
  8
BOUNDARY
 10
1101638.495762913
 20
700481.26762187085
 30
0.0
  0
VERTEX
  5
F1D
  8
BOUNDARY
 10
1101650.975762913
 20
700493.7476218706
 30
0.0
  0
VERTEX
  5
F1E
  8
BOUNDARY
 10
1101657.215762913
 20
700493.7476218706
 30
0.0
  0
VERTEX
  5
F1F
  8
BOUNDARY
 10
1101704.015762913
 20
700549.90762187063
 30
0.0
  0
VERTEX
  5
F20
  8
BOUNDARY
 10
1101728.975762913
 20
700587.34762187058
 30
0.0
  0
VERTEX
  5
F21
  8
BOUNDARY
 10
1101757.0557629131
 20
700652.86762187071
 30
0.0
  0
VERTEX
  5
F22
  8
BOUNDARY
 10
1101794.495762913
 20
700749.58762187092
 30
0.0
  0
VERTEX
  5
F23
  8
BOUNDARY
 10
1101816.3357629131
 20
700793.26762187073
 30
0.0
  0
VERTEX
  5
F24
  8
BOUNDARY
 10
1101835.0557629131
 20
700836.94762187079
 30
0.0
  0
VERTEX
  5
F25
  8
BOUNDARY
 10
1101835.0557629131
 20
700899.34762187046
 30
0.0
  0
VERTEX
  5
F26
  8
BOUNDARY
 10
1101838.175762913
 20
700908.70762187056
 30
0.0
  0
VERTEX
  5
F27
  8
BOUNDARY
 10
1101841.2957629131
 20
700949.26762187073
 30
0.0
  0
VERTEX
  5
F28
  8
BOUNDARY
 10
1101847.5357629131
 20
700971.10762187059
 30
0.0
  0
VERTEX
  5
F29
  8
BOUNDARY
 10
1101863.1357629129
 20
700989.82762187079
 30
0.0
  0
VERTEX
  5
F2A
  8
BOUNDARY
 10
1101869.3757629129
 20
700992.94762187079
 30
0.0
  0
VERTEX
  5
F2B
  8
BOUNDARY
 10
1101994.175762913
 20
701039.74762187025
 30
0.0
  0
VERTEX
  5
F2C
  8
BOUNDARY
 10
1102053.455762913
 20
701045.98762187082
 30
0.0
  0
VERTEX
  5
F2D
  8
BOUNDARY
 10
1102134.5757629131
 20
701033.50762187096
 30
0.0
  0
VERTEX
  5
F2E
  8
BOUNDARY
 10
1102150.175762913
 20
701036.62762187072
 30
0.0
  0
VERTEX
  5
F2F
  8
BOUNDARY
 10
1102165.7757629131
 20
701030.38762187096
 30
0.0
  0
VERTEX
  5
F30
  8
BOUNDARY
 10
1102200.0957629131
 20
701011.66762187122
 30
0.0
  0
VERTEX
  5
F31
  8
BOUNDARY
 10
1102246.8957629129
 20
701017.90762187052
 30
0.0
  0
VERTEX
  5
F32
  8
BOUNDARY
 10
1102293.695762913
 20
701033.50762187096
 30
0.0
  0
VERTEX
  5
F33
  8
BOUNDARY
 10
1102328.015762913
 20
701030.38762187096
 30
0.0
  0
VERTEX
  5
F34
  8
BOUNDARY
 10
1102368.5757629131
 20
701042.86762187071
 30
0.0
  0
VERTEX
  5
F35
  8
BOUNDARY
 10
1102427.8557629129
 20
701077.18762187031
 30
0.0
  0
VERTEX
  5
F36
  8
BOUNDARY
 10
1102480.8957629129
 20
701130.22762187058
 30
0.0
  0
VERTEX
  5
F37
  8
BOUNDARY
 10
1102502.735762913
 20
701161.42762187077
 30
0.0
  0
VERTEX
  5
F38
  8
BOUNDARY
 10
1102552.6557629129
 20
701205.10762187105
 30
0.0
  0
VERTEX
  5
F39
  8
BOUNDARY
 10
1102596.3357629131
 20
701208.22762187058
 30
0.0
  0
VERTEX
  5
F3A
  8
BOUNDARY
 10
1102636.895762912
 20
701205.10762187105
 30
0.0
  0
VERTEX
  5
F3B
  8
BOUNDARY
 10
1102671.215762913
 20
701211.34762187046
 30
0.0
  0
VERTEX
  5
F3C
  8
BOUNDARY
 10
1102686.8157629131
 20
701205.10762187105
 30
0.0
  0
VERTEX
  5
F3D
  8
BOUNDARY
 10
1102702.4157629129
 20
701214.46762187057
 30
0.0
  0
VERTEX
  5
F3E
  8
BOUNDARY
 10
1102733.6157629129
 20
701230.06762187043
 30
0.0
  0
VERTEX
  5
F3F
  8
BOUNDARY
 10
1102761.695762913
 20
701236.30762187066
 30
0.0
  0
VERTEX
  5
F40
  8
BOUNDARY
 10
1102777.2957629131
 20
701233.18762187066
 30
0.0
  0
VERTEX
  5
F41
  8
BOUNDARY
 10
1102789.7757629131
 20
701236.30762187066
 30
0.0
  0
VERTEX
  5
F42
  8
BOUNDARY
 10
1102799.1357629129
 20
701242.54762187053
 30
0.0
  0
VERTEX
  5
F43
  8
BOUNDARY
 10
1102845.935762913
 20
701283.10762187093
 30
0.0
  0
VERTEX
  5
F44
  8
BOUNDARY
 10
1102895.8557629129
 20
701317.42762187053
 30
0.0
  0
VERTEX
  5
F45
  8
BOUNDARY
 10
1102920.8157629131
 20
701351.7476218706
 30
0.0
  0
VERTEX
  5
F46
  8
BOUNDARY
 10
1102936.4157629129
 20
701395.42762187065
 30
0.0
  0
VERTEX
  5
F47
  8
BOUNDARY
 10
1102939.5357629131
 20
701411.02762187074
 30
0.0
  0
VERTEX
  5
F48
  8
BOUNDARY
 10
1102927.0557629131
 20
701479.66762187041
 30
0.0
  0
VERTEX
  5
F49
  8
BOUNDARY
 10
1102936.4157629129
 20
701567.02762187063
 30
0.0
  0
VERTEX
  5
F4A
  8
BOUNDARY
 10
1102917.695762913
 20
701651.26762187085
 30
0.0
  0
VERTEX
  5
F4B
  8
BOUNDARY
 10
1102917.695762913
 20
701651.26762187085
 30
0.0
  0
VERTEX
  5
F4C
  8
BOUNDARY
 10
1102917.695762913
 20
701651.26762187085
 30
0.0
  0
VERTEX
  5
F4D
  8
BOUNDARY
 10
1102867.7757629131
 20
701732.38762187096
 30
0.0
  0
VERTEX
  5
F4E
  8
BOUNDARY
 10
1102830.3357629131
 20
701763.58762187045
 30
0.0
  0
VERTEX
  5
F4F
  8
BOUNDARY
 10
1102805.3757629129
 20
701788.54762187076
 30
0.0
  0
VERTEX
  5
F50
  8
BOUNDARY
 10
1102799.1357629129
 20
701807.26762187062
 30
0.0
  0
VERTEX
  5
F51
  8
BOUNDARY
 10
1102849.0557629131
 20
701872.7876218711
 30
0.0
  0
VERTEX
  5
F52
  8
BOUNDARY
 10
1102849.0557629131
 20
701872.7876218711
 30
0.0
  0
VERTEX
  5
F53
  8
BOUNDARY
 10
1102849.0557629131
 20
701872.7876218711
 30
0.0
  0
VERTEX
  5
F54
  8
BOUNDARY
 10
1102952.015762913
 20
701928.94762187055
 30
0.0
  0
VERTEX
  5
F55
  8
BOUNDARY
 10
1102958.255762913
 20
701935.18762187054
 30
0.0
  0
VERTEX
  5
F56
  8
BOUNDARY
 10
1102983.215762913
 20
701963.26762187073
 30
0.0
  0
VERTEX
  5
F57
  8
BOUNDARY
 10
1103023.7757629131
 20
702041.26762187062
 30
0.0
  0
VERTEX
  5
F58
  8
BOUNDARY
 10
1103026.8957629129
 20
702050.62762187072
 30
0.0
  0
VERTEX
  5
F59
  8
BOUNDARY
 10
1103036.255762913
 20
702094.30762187042
 30
0.0
  0
VERTEX
  5
F5A
  8
BOUNDARY
 10
1103036.255762913
 20
702169.18762187066
 30
0.0
  0
VERTEX
  5
F5B
  8
BOUNDARY
 10
1103017.5357629131
 20
702240.94762187079
 30
0.0
  0
VERTEX
  5
F5C
  8
BOUNDARY
 10
1102930.175762913
 20
702409.42762187077
 30
0.0
  0
VERTEX
  5
F5D
  8
BOUNDARY
 10
1102877.1357629129
 20
702490.54762187041
 30
0.0
  0
VERTEX
  5
F5E
  8
BOUNDARY
 10
1102836.5757629131
 20
702559.18762187054
 30
0.0
  0
VERTEX
  5
F5F
  8
BOUNDARY
 10
1102771.0557629131
 20
702637.18762187066
 30
0.0
  0
VERTEX
  5
F60
  8
BOUNDARY
 10
1102755.455762913
 20
702665.26762187085
 30
0.0
  0
VERTEX
  5
F61
  8
BOUNDARY
 10
1102746.0957629131
 20
702755.74762187025
 30
0.0
  0
VERTEX
  5
F62
  8
BOUNDARY
 10
1102739.8557629129
 20
702786.94762187079
 30
0.0
  0
VERTEX
  5
F63
  8
BOUNDARY
 10
1102736.735762913
 20
702796.30762187066
 30
0.0
  0
VERTEX
  5
F64
  8
BOUNDARY
 10
1102742.975762913
 20
702815.02762187098
 30
0.0
  0
VERTEX
  5
F65
  8
BOUNDARY
 10
1102761.695762913
 20
702849.34762187046
 30
0.0
  0
VERTEX
  5
F66
  8
BOUNDARY
 10
1102777.2957629131
 20
702908.62762187095
 30
0.0
  0
VERTEX
  5
F67
  8
BOUNDARY
 10
1102783.5357629131
 20
702955.4276218703
 30
0.0
  0
VERTEX
  5
F68
  8
BOUNDARY
 10
1102802.255762913
 20
703002.22762187058
 30
0.0
  0
VERTEX
  5
F69
  8
BOUNDARY
 10
1102820.975762913
 20
703039.66762187076
 30
0.0
  0
VERTEX
  5
F6A
  8
BOUNDARY
 10
1102820.975762913
 20
703052.14762187051
 30
0.0
  0
VERTEX
  5
F6B
  8
BOUNDARY
 10
1102814.735762913
 20
703080.2276218707
 30
0.0
  0
VERTEX
  5
F6C
  8
BOUNDARY
 10
1102817.8557629129
 20
703120.7876218704
 30
0.0
  0
VERTEX
  5
F6D
  8
BOUNDARY
 10
1102811.6157629129
 20
703148.8676218706
 30
0.0
  0
VERTEX
  5
F6E
  8
BOUNDARY
 10
1102808.495762913
 20
703173.82762187067
 30
0.0
  0
VERTEX
  5
F6F
  8
BOUNDARY
 10
1102833.455762913
 20
703220.62762187072
 30
0.0
  0
VERTEX
  5
F70
  8
BOUNDARY
 10
1102839.695762913
 20
703245.58762187045
 30
0.0
  0
VERTEX
  5
F71
  8
BOUNDARY
 10
1102864.655762912
 20
703323.58762187045
 30
0.0
  0
VERTEX
  5
F72
  8
BOUNDARY
 10
1102877.1357629129
 20
703370.3876218705
 30
0.0
  0
VERTEX
  5
F73
  8
BOUNDARY
 10
1102877.1357629129
 20
703376.62762187095
 30
0.0
  0
VERTEX
  5
F74
  8
BOUNDARY
 10
1102880.255762913
 20
703404.7076218708
 30
0.0
  0
VERTEX
  5
F75
  8
BOUNDARY
 10
1102908.3357629131
 20
703485.82762187056
 30
0.0
  0
VERTEX
  5
F76
  8
BOUNDARY
 10
1102914.5757629131
 20
703498.30762187042
 30
0.0
  0
VERTEX
  5
F77
  8
BOUNDARY
 10
1102917.695762913
 20
703513.90762187075
 30
0.0
  0
VERTEX
  5
F78
  8
BOUNDARY
 10
1102927.0557629131
 20
703526.38762187061
 30
0.0
  0
VERTEX
  5
F79
  8
BOUNDARY
 10
1102986.3357629131
 20
703613.74762187072
 30
0.0
  0
VERTEX
  5
F7A
  8
BOUNDARY
 10
1103005.0557629131
 20
703632.46762187057
 30
0.0
  0
VERTEX
  5
F7B
  8
BOUNDARY
 10
1103023.7757629131
 20
703663.66762187099
 30
0.0
  0
VERTEX
  5
F7C
  8
BOUNDARY
 10
1103045.6157629129
 20
703679.26762187062
 30
0.0
  0
VERTEX
  5
F7D
  8
BOUNDARY
 10
1103070.5757629131
 20
703691.7476218706
 30
0.0
  0
VERTEX
  5
F7E
  8
BOUNDARY
 10
1103176.6557629129
 20
703691.7476218706
 30
0.0
  0
VERTEX
  5
F7F
  8
BOUNDARY
 10
1103229.695762913
 20
703685.50762187096
 30
0.0
  0
VERTEX
  5
F80
  8
BOUNDARY
 10
1103273.3757629129
 20
703673.02762187039
 30
0.0
  0
VERTEX
  5
F81
  8
BOUNDARY
 10
1103313.935762913
 20
703638.7076218708
 30
0.0
  0
VERTEX
  5
F82
  8
BOUNDARY
 10
1103351.3757629129
 20
703616.86762187071
 30
0.0
  0
VERTEX
  5
F83
  8
BOUNDARY
 10
1103413.7757629131
 20
703616.86762187071
 30
0.0
  0
VERTEX
  5
F84
  8
BOUNDARY
 10
1103435.6157629129
 20
703610.62762187037
 30
0.0
  0
VERTEX
  5
F85
  8
BOUNDARY
 10
1103473.0557629131
 20
703616.86762187071
 30
0.0
  0
VERTEX
  5
F86
  8
BOUNDARY
 10
1103529.215762913
 20
703607.50762187084
 30
0.0
  0
VERTEX
  5
F87
  8
BOUNDARY
 10
1103619.695762913
 20
703638.7076218708
 30
0.0
  0
VERTEX
  5
F88
  8
BOUNDARY
 10
1103644.6557629129
 20
703651.18762187066
 30
0.0
  0
VERTEX
  5
F89
  8
BOUNDARY
 10
1103697.695762913
 20
703673.02762187039
 30
0.0
  0
VERTEX
  5
F8A
  8
BOUNDARY
 10
1103756.975762913
 20
703701.10762187047
 30
0.0
  0
VERTEX
  5
F8B
  8
BOUNDARY
 10
1103819.3757629129
 20
703757.26762187073
 30
0.0
  0
VERTEX
  5
F8C
  8
BOUNDARY
 10
1103875.5357629131
 20
703785.34762187058
 30
0.0
  0
VERTEX
  5
F8D
  8
BOUNDARY
 10
1103894.255762913
 20
703800.94762187079
 30
0.0
  0
VERTEX
  5
F8E
  8
BOUNDARY
 10
1103950.415762912
 20
703813.42762187065
 30
0.0
  0
VERTEX
  5
F8F
  8
BOUNDARY
 10
1103994.0957629131
 20
703810.30762187066
 30
0.0
  0
VERTEX
  5
F90
  8
BOUNDARY
 10
1104028.415762912
 20
703813.42762187065
 30
0.0
  0
VERTEX
  5
F91
  8
BOUNDARY
 10
1104243.695762913
 20
703779.10762187059
 30
0.0
  0
VERTEX
  5
F92
  8
BOUNDARY
 10
1104253.0557629131
 20
703782.22762187081
 30
0.0
  0
VERTEX
  5
F93
  8
BOUNDARY
 10
1104262.4157629129
 20
703779.10762187059
 30
0.0
  0
VERTEX
  5
F94
  8
BOUNDARY
 10
1104374.735762913
 20
703816.54762187041
 30
0.0
  0
VERTEX
  5
F95
  8
BOUNDARY
 10
1104437.1357629129
 20
703825.90762187052
 30
0.0
  0
VERTEX
  5
F96
  8
BOUNDARY
 10
1104468.3357629131
 20
703853.98762187059
 30
0.0
  0
VERTEX
  5
F97
  8
BOUNDARY
 10
1104483.935762913
 20
703878.9476218709
 30
0.0
  0
VERTEX
  5
F98
  8
BOUNDARY
 10
1104502.655762912
 20
703900.78762187075
 30
0.0
  0
VERTEX
  5
F99
  8
BOUNDARY
 10
1104518.255762913
 20
703969.42762187077
 30
0.0
  0
VERTEX
  5
F9A
  8
BOUNDARY
 10
1104543.215762913
 20
704028.70762187068
 30
0.0
  0
VERTEX
  5
F9B
  8
BOUNDARY
 10
1104643.0557629131
 20
704100.4676218708
 30
0.0
  0
VERTEX
  5
F9C
  8
BOUNDARY
 10
1104655.5357629131
 20
704112.94762187079
 30
0.0
  0
VERTEX
  5
F9D
  8
BOUNDARY
 10
1104692.975762913
 20
704119.18762187101
 30
0.0
  0
VERTEX
  5
F9E
  8
BOUNDARY
 10
1104733.5357629131
 20
704147.26762187062
 30
0.0
  0
VERTEX
  5
F9F
  8
BOUNDARY
 10
1104830.255762914
 20
704259.58762187045
 30
0.0
  0
VERTEX
  5
FA0
  8
BOUNDARY
 10
1104855.215762913
 20
704278.30762187066
 30
0.0
  0
VERTEX
  5
FA1
  8
BOUNDARY
 10
1104808.9739725529
 20
704869.9490376066
 30
0.0
  0
VERTEX
  5
FA2
  8
BOUNDARY
 10
1104729.809337514
 20
705357.77070665546
 30
0.0
  0
VERTEX
  5
FA3
  8
BOUNDARY
 10
1104611.062464508
 20
705964.25165121874
 30
0.0
  0
VERTEX
  5
FA4
  8
BOUNDARY
 10
1104518.7037236299
 20
706531.17948871572
 30
0.0
  0
VERTEX
  5
FA5
  8
BOUNDARY
 10
1104399.956771072
 20
707084.92298764735
 30
0.0
  0
VERTEX
  5
FA6
  8
BOUNDARY
 10
1104175.6570513479
 20
707704.58831646154
 30
0.0
  0
VERTEX
  5
FA7
  8
BOUNDARY
 10
1103951.35725207
 20
708166.04121700907
 30
0.0
  0
VERTEX
  5
FA8
  8
BOUNDARY
 10
1103384.010780511
 20
708627.49411755707
 30
0.0
  0
VERTEX
  5
FA9
  8
BOUNDARY
 10
1102895.829023544
 20
708904.36582133768
 30
0.0
  0
VERTEX
  5
FAA
  8
BOUNDARY
 10
1102328.482551985
 20
709115.31574092084
 30
0.0
  0
VERTEX
  5
FAB
  8
BOUNDARY
 10
1101602.8068103481
 20
709260.34378493659
 30
0.0
  0
VERTEX
  5
FAC
  8
BOUNDARY
 10
1101141.01326506
 20
709286.71255343745
 30
0.0
  0
VERTEX
  5
FAD
  8
BOUNDARY
 10
1100718.8018781859
 20
709299.89689200313
 30
0.0
  0
VERTEX
  5
FAE
  8
BOUNDARY
 10
1100671.3498177801
 20
709310.43401909526
 30
0.0
  0
VERTEX
  5
FAF
  8
BOUNDARY
 10
1100600.1494036589
 20
709355.46748052305
 30
0.0
  0
VERTEX
  5
FB0
  8
BOUNDARY
 10
1100487.9845229939
 20
709485.78992729133
 30
0.0
  0
VERTEX
  5
FB1
  8
BOUNDARY
 10
1100375.8376150329
 20
709617.20080891415
 30
0.0
  0
VERTEX
  5
FB2
  8
BOUNDARY
 10
1100310.958655535
 20
709695.9046493019
 30
0.0
  0
VERTEX
  5
FB3
  8
BOUNDARY
 10
1100344.802110764
 20
709769.17799785687
 30
0.0
  0
VERTEX
  5
FB4
  8
BOUNDARY
 10
1100402.99749358
 20
709876.53644437634
 30
0.0
  0
VERTEX
  5
FB5
  8
BOUNDARY
 10
1100510.4351784671
 20
710055.4671581178
 30
0.0
  0
VERTEX
  5
FB6
  8
BOUNDARY
 10
1100568.630640835
 20
710162.82555895206
 30
0.0
  0
VERTEX
  5
FB7
  8
BOUNDARY
 10
1100631.3026037971
 20
710323.86320588877
 30
0.0
  0
VERTEX
  5
FB8
  8
BOUNDARY
 10
1100653.6855045359
 20
710475.9543194219
 30
0.0
  0
VERTEX
  5
FB9
  8
BOUNDARY
 10
1100644.73234424
 20
710592.25929934415
 30
0.0
  0
VERTEX
  5
FBA
  8
BOUNDARY
 10
1100626.8260236499
 20
710681.72467905749
 30
0.0
  0
VERTEX
  5
FBB
  8
BOUNDARY
 10
1100559.6774805391
 20
710721.98407937028
 30
0.0
  0
VERTEX
  5
FBC
  8
BOUNDARY
 10
1100434.333475061
 20
710748.82367957872
 30
0.0
  0
VERTEX
  5
FBD
  8
BOUNDARY
 10
1100268.7004073591
 20
710668.30483326828
 30
0.0
  0
VERTEX
  5
FBE
  8
BOUNDARY
 10
1100161.262722471
 20
710534.10683222569
 30
0.0
  0
VERTEX
  5
FBF
  8
BOUNDARY
 10
1100094.114099808
 20
710449.1147192131
 30
0.0
  0
VERTEX
  5
FC0
  8
BOUNDARY
 10
1100004.5827355119
 20
710341.75627269421
 30
0.0
  0
VERTEX
  5
FC1
  8
BOUNDARY
 10
1099892.668470477
 20
710252.29093866574
 30
0.0
  0
VERTEX
  5
FC2
  8
BOUNDARY
 10
1099864.5566066131
 20
710235.43628497422
 30
0.0
  0
VERTEX
  5
FC3
  8
BOUNDARY
 10
1099680.6021432681
 20
710249.96407939983
 30
0.0
  0
VERTEX
  5
FC4
  8
BOUNDARY
 10
1099533.9775961849
 20
710293.83595312783
 30
0.0
  0
VERTEX
  5
FC5
  8
BOUNDARY
 10
1099448.5913757291
 20
710379.27375299158
 30
0.0
  0
VERTEX
  5
FC6
  8
BOUNDARY
 10
1099363.843777471
 20
710487.87138143985
 30
0.0
  0
VERTEX
  5
FC7
  8
BOUNDARY
 10
1099287.0611646851
 20
710592.43579399155
 30
0.0
  0
VERTEX
  5
FC8
  8
BOUNDARY
 10
1099211.3729864359
 20
710698.0835742075
 30
0.0
  0
VERTEX
  5
FC9
  8
BOUNDARY
 10
1099157.1072410771
 20
710805.07439832191
 30
0.0
  0
VERTEX
  5
FCA
  8
BOUNDARY
 10
1099027.228545846
 20
710961.08830094733
 30
0.0
  0
VERTEX
  5
FCB
  8
BOUNDARY
 10
1098874.059092677
 20
711105.24233809602
 30
0.0
  0
VERTEX
  5
FCC
  8
BOUNDARY
 10
1098776.5744476321
 20
711207.37111669173
 30
0.0
  0
VERTEX
  5
FCD
  8
BOUNDARY
 10
1098615.966739371
 20
711316.35424116184
 30
0.0
  0
VERTEX
  5
FCE
  8
BOUNDARY
 10
1098426.813353719
 20
711379.38442170597
 30
0.0
  0
VERTEX
  5
FCF
  8
BOUNDARY
 10
1098268.7390367789
 20
711486.90276669245
 30
0.0
  0
VERTEX
  5
FD0
  8
BOUNDARY
 10
1098139.1712679351
 20
711561.2453978227
 30
0.0
  0
VERTEX
  5
FD1
  8
BOUNDARY
 10
1097940.238061642
 20
711628.31801665656
 30
0.0
  0
VERTEX
  5
FD2
  8
BOUNDARY
 10
1097822.086034185
 20
711663.4011848541
 30
0.0
  0
VERTEX
  5
FD3
  8
BOUNDARY
 10
1097674.883732697
 20
711696.09114210308
 30
0.0
  0
VERTEX
  5
FD4
  8
BOUNDARY
 10
1097592.8701786781
 20
711771.28104764083
 30
0.0
  0
VERTEX
  5
FD5
  8
BOUNDARY
 10
1097391.8196427319
 20
711778.8362953735
 30
0.0
  0
VERTEX
  5
FD6
  8
BOUNDARY
 10
1097307.7086530779
 20
711726.99511709926
 30
0.0
  0
VERTEX
  5
FD7
  8
BOUNDARY
 10
1097225.0827321729
 20
711681.67996751424
 30
0.0
  0
VERTEX
  5
FD8
  8
BOUNDARY
 10
1097024.336139946
 20
711677.61842569592
 30
0.0
  0
VERTEX
  5
FD9
  8
BOUNDARY
 10
1096893.369597601
 20
711690.98812863359
 30
0.0
  0
VERTEX
  5
FDA
  8
BOUNDARY
 10
1096760.0906061199
 20
711677.87230499671
 30
0.0
  0
VERTEX
  5
FDB
  8
BOUNDARY
 10
1096615.9980877619
 20
711563.65381357935
 30
0.0
  0
VERTEX
  5
FDC
  8
BOUNDARY
 10
1096552.704925694
 20
711553.45277305436
 30
0.0
  0
VERTEX
  5
FDD
  8
BOUNDARY
 10
1096405.508157559
 20
711539.03237562266
 30
0.0
  0
VERTEX
  5
FDE
  8
BOUNDARY
 10
1096252.539057615
 20
711547.68460494454
 30
0.0
  0
VERTEX
  5
FDF
  8
BOUNDARY
 10
1096122.6596031149
 20
711567.87317048584
 30
0.0
  0
VERTEX
  5
FE0
  8
BOUNDARY
 10
1095995.6663145181
 20
711590.94579723908
 30
0.0
  0
VERTEX
  5
FE1
  8
BOUNDARY
 10
1095848.4696259359
 20
711596.71396534878
 30
0.0
  0
VERTEX
  5
FE2
  8
BOUNDARY
 10
1095689.7280350779
 20
711524.61193250609
 30
0.0
  0
VERTEX
  5
FE3
  8
BOUNDARY
 10
1095617.572773739
 20
711466.93034278019
 30
0.0
  0
VERTEX
  5
FE4
  8
BOUNDARY
 10
1095502.124387417
 20
711391.94424872543
 30
0.0
  0
VERTEX
  5
FE5
  8
BOUNDARY
 10
1095363.5862760991
 20
711351.56711764354
 30
0.0
  0
VERTEX
  5
FE6
  8
BOUNDARY
 10
1095256.7964670421
 20
711328.49444520473
 30
0.0
  0
VERTEX
  5
FE7
  8
BOUNDARY
 10
1095103.8273670981
 20
711273.69691669091
 30
0.0
  0
VERTEX
  5
FE8
  8
BOUNDARY
 10
1094988.3789807761
 20
711192.94265452656
 30
0.0
  0
VERTEX
  5
FE9
  8
BOUNDARY
 10
1094907.565062619
 20
711117.95656047191
 30
0.0
  0
VERTEX
  5
FEA
  8
BOUNDARY
 10
1094806.5476649229
 20
711031.43417588295
 30
0.0
  0
VERTEX
  5
FEB
  8
BOUNDARY
 10
1094788.821870185
 20
711018.14962527738
 30
0.0
  0
VERTEX
  5
FEC
  8
BOUNDARY
 10
1094663.729248526
 20
711001.04800699558
 30
0.0
  0
VERTEX
  5
FED
  8
BOUNDARY
 10
1094478.0133121919
 20
710954.80482119089
 30
0.0
  0
VERTEX
  5
FEE
  8
BOUNDARY
 10
1094295.8624894421
 20
710895.83934442815
 30
0.0
  0
VERTEX
  5
FEF
  8
BOUNDARY
 10
1094153.140426409
 20
710810.17622605537
 30
0.0
  0
VERTEX
  5
FF0
  8
BOUNDARY
 10
1093979.9881558761
 20
710736.28298895445
 30
0.0
  0
VERTEX
  5
FF1
  8
BOUNDARY
 10
1093935.1481945431
 20
710715.31375025376
 30
0.0
  0
VERTEX
  5
FF2
  8
BOUNDARY
 10
1093763.68804129
 20
710687.2914365863
 30
0.0
  0
VERTEX
  5
FF3
  8
BOUNDARY
 10
1093535.231543327
 20
710646.84981161752
 30
0.0
  0
VERTEX
  5
FF4
  8
BOUNDARY
 10
1093265.9776774431
 20
710572.64330073423
 30
0.0
  0
VERTEX
  5
FF5
  8
BOUNDARY
 10
1093143.8041089871
 20
710555.73685299815
 30
0.0
  0
VERTEX
  5
FF6
  8
BOUNDARY
 10
1092943.304521003
 20
710525.24409391498
 30
0.0
  0
VERTEX
  5
FF7
  8
BOUNDARY
 10
1092717.2710628009
 20
710468.48735204816
 30
0.0
  0
VERTEX
  5
FF8
  8
BOUNDARY
 10
1092514.2911121701
 20
710445.97978923121
 30
0.0
  0
VERTEX
  5
FF9
  8
BOUNDARY
 10
1092346.7415593539
 20
710414.17371951137
 30
0.0
  0
VERTEX
  5
FFA
  8
BOUNDARY
 10
1092210.5961601781
 20
710366.93966032425
 30
0.0
  0
VERTEX
  5
FFB
  8
BOUNDARY
 10
1092038.15815875
 20
710361.60692654201
 30
0.0
  0
VERTEX
  5
FFC
  8
BOUNDARY
 10
1091784.4220051139
 20
710331.84270594025
 30
0.0
  0
VERTEX
  5
FFD
  8
BOUNDARY
 10
1091739.544751799
 20
710319.52898322302
 30
0.0
  0
VERTEX
  5
FFE
  8
BOUNDARY
 10
1091670.671768652
 20
710340.47484842094
 30
0.0
  0
VERTEX
  5
FFF
  8
BOUNDARY
 10
1091454.5658007411
 20
710355.89963505161
 30
0.0
  0
VERTEX
  5
1000
  8
BOUNDARY
 10
1091269.3320230439
 20
710417.59864451829
 30
0.0
  0
VERTEX
  5
1001
  8
BOUNDARY
 10
1091150.988242724
 20
710530.71351804992
 30
0.0
  0
VERTEX
  5
1002
  8
BOUNDARY
 10
1091006.917570933
 20
710664.39472807012
 30
0.0
  0
VERTEX
  5
1003
  8
BOUNDARY
 10
1090867.992277436
 20
710705.52740104799
 30
0.0
  0
VERTEX
  5
1004
  8
BOUNDARY
 10
1090569.560177264
 20
710720.95214199345
 30
0.0
  0
VERTEX
  5
1005
  8
BOUNDARY
 10
1090384.326479119
 20
710659.25313252665
 30
0.0
  0
VERTEX
  5
1006
  8
BOUNDARY
 10
1090214.528915857
 20
710525.57192250621
 30
0.0
  0
VERTEX
  5
1007
  8
BOUNDARY
 10
1090091.0397572429
 20
710386.74911694229
 30
0.0
  0
VERTEX
  5
1008
  8
BOUNDARY
 10
1090085.894378948
 20
710242.78476151987
 30
0.0
  0
VERTEX
  5
1009
  8
BOUNDARY
 10
1090188.8020243859
 20
710073.11242837994
 30
0.0
  0
VERTEX
  5
100A
  8
BOUNDARY
 10
1090379.1811008251
 20
709939.43126404472
 30
0.0
  0
VERTEX
  5
100B
  8
BOUNDARY
 10
1090425.4895054731
 20
709785.18371753546
 30
0.0
  0
VERTEX
  5
100C
  8
BOUNDARY
 10
1090404.9079922971
 20
709630.93617102597
 30
0.0
  0
VERTEX
  5
100D
  8
BOUNDARY
 10
1090354.773863347
 20
709530.74181856157
 30
0.0
  0
VERTEX
  5
100E
  8
BOUNDARY
 10
1090249.7280990649
 20
709484.37454107695
 30
0.0
  0
VERTEX
  5
100F
  8
BOUNDARY
 10
1090169.654103783
 20
709443.86582350801
 30
0.0
  0
VERTEX
  5
1010
  8
BOUNDARY
 10
1090086.7146411729
 20
709420.08558949782
 30
0.0
  0
VERTEX
  5
1011
  8
BOUNDARY
 10
1090016.515507482
 20
709413.79972253297
 30
0.0
  0
VERTEX
  5
1012
  8
BOUNDARY
 10
1089927.1601118769
 20
709425.71483074233
 30
0.0
  0
VERTEX
  5
1013
  8
BOUNDARY
 10
1089784.1914789081
 20
709437.62993895146
 30
0.0
  0
VERTEX
  5
1014
  8
BOUNDARY
 10
1089639.165137121
 20
709424.98247214861
 30
0.0
  0
VERTEX
  5
1015
  8
BOUNDARY
 10
1089511.6107707431
 20
709404.14375554933
 30
0.0
  0
VERTEX
  5
1016
  8
BOUNDARY
 10
1089382.918132189
 20
709394.47852044669
 30
0.0
  0
VERTEX
  5
1017
  8
BOUNDARY
 10
1089250.4773752049
 20
709412.92274309439
 30
0.0
  0
VERTEX
  5
1018
  8
BOUNDARY
 10
1089110.0594798969
 20
709439.98157809849
 30
0.0
  0
VERTEX
  5
1019
  8
BOUNDARY
 10
1088949.756998339
 20
709477.03738958715
 30
0.0
  0
VERTEX
  5
101A
  8
BOUNDARY
 10
1088791.8093474151
 20
709476.23996185057
 30
0.0
  0
VERTEX
  5
101B
  8
BOUNDARY
 10
1088660.57240461
 20
709470.52870429598
 30
0.0
  0
VERTEX
  5
101C
  8
BOUNDARY
 10
1088505.2892182821
 20
709441.97696805047
 30
0.0
  0
VERTEX
  5
101D
  8
BOUNDARY
 10
1088408.585239921
 20
709381.98639621621
 30
0.0
  0
VERTEX
  5
101E
  8
BOUNDARY
 10
1088312.84111383
 20
709346.16222825146
 30
0.0
  0
VERTEX
  5
101F
  8
BOUNDARY
 10
1088204.3918519909
 20
709326.86244835053
 30
0.0
  0
VERTEX
  5
1020
  8
BOUNDARY
 10
1088161.5233347409
 20
709307.58331088827
 30
0.0
  0
VERTEX
  5
1021
  8
BOUNDARY
 10
1088120.3769743431
 20
709305.16471576411
 30
0.0
  0
VERTEX
  5
1022
  8
BOUNDARY
 10
1087973.5926065401
 20
709315.6416121138
 30
0.0
  0
VERTEX
  5
1023
  8
BOUNDARY
 10
1087842.5350585759
 20
709362.78750863275
 30
0.0
  0
VERTEX
  5
1024
  8
BOUNDARY
 10
1087748.1736622259
 20
709483.27145117533
 30
0.0
  0
VERTEX
  5
1025
  8
BOUNDARY
 10
1087596.1469415911
 20
709593.27849736798
 30
0.0
  0
VERTEX
  5
1026
  8
BOUNDARY
 10
1087465.0894731791
 20
709713.76243991032
 30
0.0
  0
VERTEX
  5
1027
  8
BOUNDARY
 10
1087370.72807683
 20
709760.90833642939
 30
0.0
  0
VERTEX
  5
1028
  8
BOUNDARY
 10
1087197.732183523
 20
709755.66988825449
 30
0.0
  0
VERTEX
  5
1029
  8
BOUNDARY
 10
1087050.94781572
 20
709661.37814090156
 30
0.0
  0
VERTEX
  5
102A
  8
BOUNDARY
 10
1086804.5596987349
 20
709493.74830184015
 30
0.0
  0
VERTEX
  5
102B
  8
BOUNDARY
 10
1086647.2907048189
 20
709320.88001460361
 30
0.0
  0
VERTEX
  5
102C
  8
BOUNDARY
 10
1086542.4446823581
 20
709179.44237073173
 30
0.0
  0
VERTEX
  5
102D
  8
BOUNDARY
 10
1086442.84101273
 20
709022.28938233457
 30
0.0
  0
VERTEX
  5
102E
  8
BOUNDARY
 10
1086428.2471379039
 20
708997.28981945605
 30
0.0
  0
VERTEX
  5
102F
  8
BOUNDARY
 10
1086395.48412122
 20
708976.94369312841
 30
0.0
  0
VERTEX
  5
1030
  8
BOUNDARY
 10
1086320.2910551489
 20
708870.54170866217
 30
0.0
  0
VERTEX
  5
1031
  8
BOUNDARY
 10
1086247.624087214
 20
708763.79185739974
 30
0.0
  0
VERTEX
  5
1032
  8
BOUNDARY
 10
1086195.1877517139
 20
708649.93173886486
 30
0.0
  0
VERTEX
  5
1033
  8
BOUNDARY
 10
1086098.72409404
 20
708542.340505108
 30
0.0
  0
VERTEX
  5
1034
  8
BOUNDARY
 10
1086016.94535683
 20
708454.65752554801
 30
0.0
  0
VERTEX
  5
1035
  8
BOUNDARY
 10
1085922.6564193191
 20
708416.31636250205
 30
0.0
  0
VERTEX
  5
1036
  8
BOUNDARY
 10
1085777.686995836
 20
708344.90288542723
 30
0.0
  0
VERTEX
  5
1037
  8
BOUNDARY
 10
1085641.630895
 20
708293.72914384352
 30
0.0
  0
VERTEX
  5
1038
  8
BOUNDARY
 10
1085515.6391332659
 20
708249.09737872845
 30
0.0
  0
VERTEX
  5
1039
  8
BOUNDARY
 10
1085366.968927244
 20
708196.41747144959
 30
0.0
  0
VERTEX
  5
103A
  8
BOUNDARY
 10
1085315.2540117961
 20
708154.8409669057
 30
0.0
  0
SEQEND
  5
103B
  8
BOUNDARY
  0
ENDSEC
  0
EOF
