  0
SECTION
  2
HEADER
  9
$ACADVER
  1
AC1009
  9
$INSBASE
 10
0.0
 20
0.0
 30
0.0
  9
$EXTMIN
 10
77.726081966126188
 20
692.64034999957721
 30
0.0
  9
$EXTMAX
 10
104.8673514200334
 20
711.77834650664306
 30
0.0
  9
$LIMMIN
 10
0.0
 20
0.0
  9
$LIMMAX
 10
12.0
 20
9.0
  9
$ORTHOMODE
 70
     0
  9
$REGENMODE
 70
     1
  9
$FILLMODE
 70
     1
  9
$QTEXTMODE
 70
     0
  9
$MIRRTEXT
 70
     1
  9
$DRAGMODE
 70
     2
  9
$LTSCALE
 40
1.0
  9
$OSMODE
 70
   621
  9
$ATTMODE
 70
     1
  9
$TEXTSIZE
 40
0.2
  9
$TRACEWID
 40
0.05
  9
$TEXTSTYLE
  7
STANDARD
  9
$CLAYER
  8
0
  9
$CELTYPE
  6
BYLAYER
  9
$CECOLOR
 62
   256
  9
$DIMSCALE
 40
1.0
  9
$DIMASZ
 40
0.18
  9
$DIMEXO
 40
0.0625
  9
$DIMDLI
 40
0.38
  9
$DIMRND
 40
0.0
  9
$DIMDLE
 40
0.0
  9
$DIMEXE
 40
0.18
  9
$DIMTP
 40
0.0
  9
$DIMTM
 40
0.0
  9
$DIMTXT
 40
0.18
  9
$DIMCEN
 40
0.09
  9
$DIMTSZ
 40
0.0
  9
$DIMTOL
 70
     0
  9
$DIMLIM
 70
     0
  9
$DIMTIH
 70
     1
  9
$DIMTOH
 70
     1
  9
$DIMSE1
 70
     0
  9
$DIMSE2
 70
     0
  9
$DIMTAD
 70
     0
  9
$DIMZIN
 70
     0
  9
$DIMBLK
  1

  9
$DIMASO
 70
     1
  9
$DIMSHO
 70
     1
  9
$DIMPOST
  1

  9
$DIMAPOST
  1

  9
$DIMALT
 70
     0
  9
$DIMALTD
 70
     2
  9
$DIMALTF
 40
25.399999999999999
  9
$DIMLFAC
 40
1.0
  9
$DIMTOFL
 70
     0
  9
$DIMTVP
 40
0.0
  9
$DIMTIX
 70
     0
  9
$DIMSOXD
 70
     0
  9
$DIMSAH
 70
     0
  9
$DIMBLK1
  1

  9
$DIMBLK2
  1

  9
$DIMSTYLE
  2
STANDARD
  9
$DIMCLRD
 70
     0
  9
$DIMCLRE
 70
     0
  9
$DIMCLRT
 70
     0
  9
$DIMTFAC
 40
1.0
  9
$DIMGAP
 40
0.09
  9
$LUNITS
 70
     2
  9
$LUPREC
 70
     4
  9
$SKETCHINC
 40
0.1
  9
$FILLETRAD
 40
0.5
  9
$AUNITS
 70
     0
  9
$AUPREC
 70
     0
  9
$MENU
  1
.
  9
$ELEVATION
 40
0.0
  9
$PELEVATION
 40
0.0
  9
$THICKNESS
 40
0.0
  9
$LIMCHECK
 70
     0
  9
$BLIPMODE
 70
     0
  9
$CHAMFERA
 40
0.5
  9
$CHAMFERB
 40
0.5
  9
$SKPOLY
 70
     0
  9
$TDCREATE
 40
2453584.5102847461
  9
$TDUPDATE
 40
2458369.615941667
  9
$TDINDWG
 40
0.0821236574
  9
$TDUSRTIMER
 40
0.0821236458
  9
$USRTIMER
 70
     1
  9
$ANGBASE
 50
0.0
  9
$ANGDIR
 70
     0
  9
$PDMODE
 70
     0
  9
$PDSIZE
 40
0.0
  9
$PLINEWID
 40
0.0
  9
$COORDS
 70
     2
  9
$SPLFRAME
 70
     0
  9
$SPLINETYPE
 70
     6
  9
$SPLINESEGS
 70
     8
  9
$ATTDIA
 70
     1
  9
$ATTREQ
 70
     1
  9
$HANDLING
 70
     1
  9
$HANDSEED
  5
1058
  9
$SURFTAB1
 70
     6
  9
$SURFTAB2
 70
     6
  9
$SURFTYPE
 70
     6
  9
$SURFU
 70
     6
  9
$SURFV
 70
     6
  9
$UCSNAME
  2

  9
$UCSORG
 10
0.0
 20
0.0
 30
0.0
  9
$UCSXDIR
 10
1.0
 20
0.0
 30
0.0
  9
$UCSYDIR
 10
0.0
 20
1.0
 30
0.0
  9
$PUCSNAME
  2

  9
$PUCSORG
 10
0.0
 20
0.0
 30
0.0
  9
$PUCSXDIR
 10
1.0
 20
0.0
 30
0.0
  9
$PUCSYDIR
 10
0.0
 20
1.0
 30
0.0
  9
$USERI1
 70
     0
  9
$USERI2
 70
     0
  9
$USERI3
 70
     0
  9
$USERI4
 70
     0
  9
$USERI5
 70
     0
  9
$USERR1
 40
0.0
  9
$USERR2
 40
0.0
  9
$USERR3
 40
0.0
  9
$USERR4
 40
0.0
  9
$USERR5
 40
0.0
  9
$WORLDVIEW
 70
     1
  9
$SHADEDGE
 70
     3
  9
$SHADEDIF
 70
    70
  9
$TILEMODE
 70
     1
  9
$MAXACTVP
 70
    64
  9
$PLIMCHECK
 70
     0
  9
$PEXTMIN
 10
0.0
 20
0.0
 30
0.0
  9
$PEXTMAX
 10
0.0
 20
0.0
 30
0.0
  9
$PLIMMIN
 10
0.0
 20
0.0
  9
$PLIMMAX
 10
12.0
 20
9.0
  9
$UNITMODE
 70
     0
  9
$VISRETAIN
 70
     1
  9
$PLINEGEN
 70
     0
  9
$PSLTSCALE
 70
     1
  0
ENDSEC
  0
SECTION
  2
TABLES
  0
TABLE
  2
VPORT
 70
     1
  0
VPORT
  2
*ACTIVE
 70
     0
 10
0.0
 20
0.0
 11
1.0
 21
1.0
 12
91.297684431002097
 22
703.04237804644345
 13
0.0
 23
0.0
 14
0.5
 24
0.5
 15
0.5
 25
0.5
 16
0.0
 26
0.0
 36
1.0
 17
0.0
 27
0.0
 37
0.0
 40
19.90795737536828
 41
1.303763440860215
 42
50.0
 43
0.0
 44
0.0
 50
0.0
 51
0.0
 71
     0
 72
   100
 73
     1
 74
     2
 75
     0
 76
     0
 77
     0
 78
     0
  0
ENDTAB
  0
TABLE
  2
LTYPE
 70
     1
  0
LTYPE
  2
CONTINUOUS
 70
     0
  3
Solid line
 72
    65
 73
     0
 40
0.0
  0
ENDTAB
  0
TABLE
  2
LAYER
 70
     4
  0
LAYER
  2
0
 70
     0
 62
     7
  6
CONTINUOUS
  0
LAYER
  2
BOUNDARY
 70
     0
 62
     1
  6
CONTINUOUS
  0
LAYER
  2
CALIFORNIA
 70
     0
 62
     2
  6
CONTINUOUS
  0
ENDTAB
  0
TABLE
  2
STYLE
 70
     3
  0
STYLE
  2
STANDARD
 70
     0
 40
0.0
 41
1.0
 50
0.0
 71
     0
 42
0.2
  3
txt
  4

  0
STYLE
  2
ANNOTATIVE
 70
     0
 40
0.0
 41
1.0
 50
0.0
 71
     0
 42
0.2
  3
txt
  4

  0
STYLE
  2
LEGEND
 70
     0
 40
0.0
 41
1.0
 50
0.0
 71
     0
 42
0.2
  3
txt
  4

  0
ENDTAB
  0
TABLE
  2
VIEW
 70
     0
  0
ENDTAB
  0
TABLE
  2
UCS
 70
     0
  0
ENDTAB
  0
TABLE
  2
APPID
 70
    12
  0
APPID
  2
ACAD
 70
     0
  0
APPID
  2
ACADANNOTATIVE
 70
     0
  0
APPID
  2
DCO15
 70
     0
  0
APPID
  2
ADE
 70
     0
  0
APPID
  2
ACAD_NAV_VCDISPLAY
 70
     0
  0
APPID
  2
ADE_PROJECTION
 70
     0
  0
APPID
  2
ACMAPDMDISPLAYSTYLEREGAPP
 70
     0
  0
APPID
  2
ACAECLAYERSTANDARD
 70
     0
  0
APPID
  2
ACCMTRANSPARENCY
 70
     0
  0
APPID
  2
MAPGWS
 70
     0
  0
APPID
  2
ACAD_MLEADERVER
 70
     0
  0
APPID
  2
MapManagementAppName
 70
     0
  0
ENDTAB
  0
TABLE
  2
DIMSTYLE
 70
     2
  0
DIMSTYLE
  2
STANDARD
 70
     0
  3

  4

  5

  6

  7

 40
1.0
 41
0.18
 42
0.0625
 43
0.38
 44
0.18
 45
0.0
 46
0.0
 47
0.0
 48
0.0
140
0.18
141
0.09
142
0.0
143
25.399999999999999
144
1.0
145
0.0
146
1.0
147
0.09
 71
     0
 72
     0
 73
     1
 74
     1
 75
     0
 76
     0
 77
     0
 78
     0
170
     0
171
     2
172
     0
173
     0
174
     0
175
     0
176
     0
177
     0
178
     0
  0
DIMSTYLE
  2
ANNOTATIVE
 70
     0
  3

  4

  5

  6

  7

 40
1.0
 41
0.18
 42
0.0625
 43
0.38
 44
0.18
 45
0.0
 46
0.0
 47
0.0
 48
0.0
140
0.18
141
0.09
142
0.0
143
25.399999999999999
144
1.0
145
0.0
146
1.0
147
0.09
 71
     0
 72
     0
 73
     1
 74
     1
 75
     0
 76
     0
 77
     0
 78
     0
170
     0
171
     2
172
     0
173
     0
174
     0
175
     0
176
     0
177
     0
178
     0
  0
ENDTAB
  0
ENDSEC
  0
SECTION
  2
BLOCKS
  0
BLOCK
  8
0
  2
$MODEL_SPACE
 70
     0
 10
0.0
 20
0.0
 30
0.0
  3
$MODEL_SPACE
  1

  0
ENDBLK
  5
89D
  8
0
  0
BLOCK
 67
     1
  8
0
  2
$PAPER_SPACE
 70
     0
 10
0.0
 20
0.0
 30
0.0
  3
$PAPER_SPACE
  1

  0
ENDBLK
  5
899
 67
     1
  8
0
  0
ENDSEC
  0
SECTION
  2
ENTITIES
  0
POLYLINE
  5
5B
  8
CALIFORNIA
 66
     1
 10
0.0
 20
0.0
 30
0.0
 70
   129
1001
DCO15
1071
        4
1071
        3
1000
lotenos--cerámica
1004
0756535F3130333900
1071
        2
1000
lotes--períodos
1004
0756535F3130333900
1071
        1
1000
lotes--cerámica
1004
0756535F3130333900
  0
VERTEX
  5
8E1
  8
CALIFORNIA
 10
82.012355088227011
 20
698.38036857847032
 30
0.0
  0
VERTEX
  5
8E2
  8
CALIFORNIA
 10
82.110247631409237
 20
698.3756300752591
 30
0.0
  0
VERTEX
  5
8E3
  8
CALIFORNIA
 10
82.11854816484329
 20
698.45336657176608
 30
0.0
  0
VERTEX
  5
8E4
  8
CALIFORNIA
 10
82.019129692570004
 20
698.45889248032961
 30
0.0
  0
SEQEND
  5
8E5
  8
CALIFORNIA
  0
POLYLINE
  5
5E
  8
CALIFORNIA
 66
     1
 10
0.0
 20
0.0
 30
0.0
 70
     1
1001
DCO15
1071
        4
1071
        3
1000
lotenos--cerámica
1004
0756475F35373800
1071
        2
1000
lotes--períodos
1004
0756475F35373800
1071
        1
1000
lotes--cerámica
1004
0756475F35373800
  0
VERTEX
  5
8E6
  8
CALIFORNIA
 10
83.853373851427378
 20
700.83055467871372
 30
0.0
  0
VERTEX
  5
8E7
  8
CALIFORNIA
 10
83.880619924556413
 20
700.88055744939595
 30
0.0
  0
VERTEX
  5
8E8
  8
CALIFORNIA
 10
83.925651422501545
 20
700.90694035900538
 30
0.0
  0
VERTEX
  5
8E9
  8
CALIFORNIA
 10
83.936238293540484
 20
700.90394278484678
 30
0.0
  0
VERTEX
  5
8EA
  8
CALIFORNIA
 10
83.980403814576221
 20
700.81972555577408
 30
0.0
  0
VERTEX
  5
8EB
  8
CALIFORNIA
 10
83.973188015980057
 20
700.78159081037643
 30
0.0
  0
VERTEX
  5
8EC
  8
CALIFORNIA
 10
83.882846131308114
 20
700.78240994282237
 30
0.0
  0
VERTEX
  5
8ED
  8
CALIFORNIA
 10
83.854349091844796
 20
700.83055255064392
 30
0.0
  0
SEQEND
  5
8EE
  8
CALIFORNIA
  0
POLYLINE
  5
5F
  8
CALIFORNIA
 66
     1
 10
0.0
 20
0.0
 30
0.0
 70
     1
1001
DCO15
1071
        4
1071
        3
1000
lotenos--cerámica
1004
0756475F36303900
1071
        2
1000
lotes--períodos
1004
0756475F36303900
1071
        1
1000
lotes--cerámica
1004
0756475F36303900
  0
VERTEX
  5
8EF
  8
CALIFORNIA
 10
85.045777227667415
 20
701.33809411143841
 30
0.0
  0
VERTEX
  5
8F0
  8
CALIFORNIA
 10
85.040751202000607
 20
701.34713284069767
 30
0.0
  0
VERTEX
  5
8F1
  8
CALIFORNIA
 10
84.995739342405173
 20
701.34540366760746
 30
0.0
  0
VERTEX
  5
8F2
  8
CALIFORNIA
 10
84.960469005544525
 20
701.33349635357945
 30
0.0
  0
VERTEX
  5
8F3
  8
CALIFORNIA
 10
84.94315537391239
 20
701.31428081047943
 30
0.0
  0
VERTEX
  5
8F4
  8
CALIFORNIA
 10
84.958981598777697
 20
701.28867060764151
 30
0.0
  0
VERTEX
  5
8F5
  8
CALIFORNIA
 10
84.990307550252126
 20
701.27321638283763
 30
0.0
  0
VERTEX
  5
8F6
  8
CALIFORNIA
 10
85.01580033703614
 20
701.26830973764675
 30
0.0
  0
SEQEND
  5
8F7
  8
CALIFORNIA
  0
POLYLINE
  5
60
  8
CALIFORNIA
 66
     1
 10
0.0
 20
0.0
 30
0.0
 70
     1
1001
DCO15
1071
        4
1071
        3
1000
lotenos--cerámica
1004
0756475F32313200
1071
        2
1000
lotes--períodos
1004
0756475F32313200
1071
        1
1000
lotes--cerámica
1004
0756475F32313200
  0
VERTEX
  5
8F8
  8
CALIFORNIA
 10
84.602346968752087
 20
701.43978645826769
 30
0.0
  0
VERTEX
  5
8F9
  8
CALIFORNIA
 10
84.594640664436355
 20
701.46584254723302
 30
0.0
  0
VERTEX
  5
8FA
  8
CALIFORNIA
 10
84.578776649834936
 20
701.49196171679216
 30
0.0
  0
VERTEX
  5
8FB
  8
CALIFORNIA
 10
84.576669352581305
 20
701.52877195572921
 30
0.0
  0
VERTEX
  5
8FC
  8
CALIFORNIA
 10
84.577346608012093
 20
701.56636213928971
 30
0.0
  0
VERTEX
  5
8FD
  8
CALIFORNIA
 10
84.580018781544013
 20
701.57354601675297
 30
0.0
  0
VERTEX
  5
8FE
  8
CALIFORNIA
 10
84.600514785226537
 20
701.56687880168238
 30
0.0
  0
VERTEX
  5
8FF
  8
CALIFORNIA
 10
84.641030134677663
 20
701.56425953455448
 30
0.0
  0
VERTEX
  5
900
  8
CALIFORNIA
 10
84.654076403557468
 20
701.55643901575252
 30
0.0
  0
VERTEX
  5
901
  8
CALIFORNIA
 10
84.658556171433744
 20
701.51699847570194
 30
0.0
  0
VERTEX
  5
902
  8
CALIFORNIA
 10
84.643773450812461
 20
701.49183005450391
 30
0.0
  0
VERTEX
  5
903
  8
CALIFORNIA
 10
84.66544955122643
 20
701.44316945623405
 30
0.0
  0
VERTEX
  5
904
  8
CALIFORNIA
 10
84.644210141048845
 20
701.42440920081754
 30
0.0
  0
SEQEND
  5
905
  8
CALIFORNIA
  0
POLYLINE
  5
61
  8
CALIFORNIA
 66
     1
 10
0.0
 20
0.0
 30
0.0
 70
     1
1001
DCO15
1071
        4
1071
        3
1000
lotenos--cerámica
1004
0756475F383300
1071
        2
1000
lotes--períodos
1004
0756475F383300
1071
        1
1000
lotes--cerámica
1004
0756475F383300
  0
VERTEX
  5
906
  8
CALIFORNIA
 10
87.102968749151231
 20
699.32473119449082
 30
0.0
  0
VERTEX
  5
907
  8
CALIFORNIA
 10
87.12789183731384
 20
699.3350560204849
 30
0.0
  0
VERTEX
  5
908
  8
CALIFORNIA
 10
87.16132526207781
 20
699.3350560204849
 30
0.0
  0
VERTEX
  5
909
  8
CALIFORNIA
 10
87.200229592229277
 20
699.31805043134432
 30
0.0
  0
VERTEX
  5
90A
  8
CALIFORNIA
 10
87.202332400590407
 20
699.31122058942083
 30
0.0
  0
VERTEX
  5
90B
  8
CALIFORNIA
 10
87.189005509085135
 20
699.2776522525387
 30
0.0
  0
VERTEX
  5
90C
  8
CALIFORNIA
 10
87.157874644841627
 20
699.25181610949437
 30
0.0
  0
VERTEX
  5
90D
  8
CALIFORNIA
 10
87.130687767109805
 20
699.24624269181322
 30
0.0
  0
VERTEX
  5
90E
  8
CALIFORNIA
 10
87.098456612078195
 20
699.26169669808803
 30
0.0
  0
VERTEX
  5
90F
  8
CALIFORNIA
 10
87.085340225104446
 20
699.26946302978331
 30
0.0
  0
SEQEND
  5
910
  8
CALIFORNIA
  0
POLYLINE
  5
62
  8
CALIFORNIA
 66
     1
 10
0.0
 20
0.0
 30
0.0
 70
     1
1001
DCO15
1071
        4
1071
        3
1000
lotenos--cerámica
1004
0756535F37393400
1071
        2
1000
lotes--períodos
1004
0756535F37393400
1071
        1
1000
lotes--cerámica
1004
0756535F37393400
  0
VERTEX
  5
911
  8
CALIFORNIA
 10
85.328431052146726
 20
699.27846984220037
 30
0.0
  0
VERTEX
  5
912
  8
CALIFORNIA
 10
85.311037756476836
 20
699.25986065793074
 30
0.0
  0
VERTEX
  5
913
  8
CALIFORNIA
 10
85.302573113929583
 20
699.21215047737246
 30
0.0
  0
VERTEX
  5
914
  8
CALIFORNIA
 10
85.307541815933845
 20
699.173637287563
 30
0.0
  0
VERTEX
  5
915
  8
CALIFORNIA
 10
85.350615146377194
 20
699.16894958983994
 30
0.0
  0
VERTEX
  5
916
  8
CALIFORNIA
 10
85.384767985445961
 20
699.17791045083834
 30
0.0
  0
VERTEX
  5
917
  8
CALIFORNIA
 10
85.400483383593141
 20
699.18340146362004
 30
0.0
  0
VERTEX
  5
918
  8
CALIFORNIA
 10
85.410384270751067
 20
699.27078151250794
 30
0.0
  0
SEQEND
  5
919
  8
CALIFORNIA
  0
POLYLINE
  5
63
  8
CALIFORNIA
 66
     1
 10
0.0
 20
0.0
 30
0.0
 70
     1
1001
DCO15
1071
        4
1071
        3
1000
lotenos--cerámica
1004
0756535F39333900
1071
        2
1000
lotes--períodos
1004
0756535F39333900
1071
        1
1000
lotes--cerámica
1004
0756535F39333900
  0
VERTEX
  5
91A
  8
CALIFORNIA
 10
85.292569844378093
 20
700.24088070465984
 30
0.0
  0
VERTEX
  5
91B
  8
CALIFORNIA
 10
85.328159595143475
 20
700.25211413314275
 30
0.0
  0
VERTEX
  5
91C
  8
CALIFORNIA
 10
85.376787220686325
 20
700.22691637730122
 30
0.0
  0
VERTEX
  5
91D
  8
CALIFORNIA
 10
85.382550839410271
 20
700.20312541081421
 30
0.0
  0
VERTEX
  5
91E
  8
CALIFORNIA
 10
85.388567050833856
 20
700.15942131957001
 30
0.0
  0
VERTEX
  5
91F
  8
CALIFORNIA
 10
85.372706901558615
 20
700.14501426290553
 30
0.0
  0
VERTEX
  5
920
  8
CALIFORNIA
 10
85.336903835336287
 20
700.13847540778931
 30
0.0
  0
VERTEX
  5
921
  8
CALIFORNIA
 10
85.301476313341794
 20
700.15180386101576
 30
0.0
  0
SEQEND
  5
922
  8
CALIFORNIA
  0
POLYLINE
  5
64
  8
CALIFORNIA
 66
     1
 10
0.0
 20
0.0
 30
0.0
 70
     1
1001
DCO15
1071
        4
1071
        3
1000
lotenos--cerámica
1004
0756475F33373700
1071
        2
1000
lotes--períodos
1004
0756475F33373700
1071
        1
1000
lotes--cerámica
1004
0756475F33373700
  0
VERTEX
  5
923
  8
CALIFORNIA
 10
85.921277629008273
 20
701.02161412374255
 30
0.0
  0
VERTEX
  5
924
  8
CALIFORNIA
 10
85.939975291572679
 20
700.99889576045746
 30
0.0
  0
VERTEX
  5
925
  8
CALIFORNIA
 10
85.9586507757719
 20
700.98449087966367
 30
0.0
  0
VERTEX
  5
926
  8
CALIFORNIA
 10
86.013816785344545
 20
701.03849465755025
 30
0.0
  0
VERTEX
  5
927
  8
CALIFORNIA
 10
86.011107432029547
 20
701.05649009759429
 30
0.0
  0
VERTEX
  5
928
  8
CALIFORNIA
 10
85.992569114510843
 20
701.06609646148365
 30
0.0
  0
VERTEX
  5
929
  8
CALIFORNIA
 10
85.975558886855325
 20
701.07722647219043
 30
0.0
  0
VERTEX
  5
92A
  8
CALIFORNIA
 10
85.955386716240099
 20
701.07501804841286
 30
0.0
  0
VERTEX
  5
92B
  8
CALIFORNIA
 10
85.942965237670663
 20
701.07234555229445
 30
0.0
  0
SEQEND
  5
92C
  8
CALIFORNIA
  0
POLYLINE
  5
65
  8
CALIFORNIA
 66
     1
 10
0.0
 20
0.0
 30
0.0
 70
     1
1001
DCO15
1071
        4
1071
        3
1000
lotenos--cerámica
1004
0756475F32303100
1071
        2
1000
lotes--períodos
1004
0756475F32303100
1071
        1
1000
lotes--cerámica
1004
0756475F32303100
  0
VERTEX
  5
92D
  8
CALIFORNIA
 10
85.507412759282786
 20
701.0171505940732
 30
0.0
  0
VERTEX
  5
92E
  8
CALIFORNIA
 10
85.511860563106467
 20
701.03171074844226
 30
0.0
  0
VERTEX
  5
92F
  8
CALIFORNIA
 10
85.58436179678354
 20
701.0499696332754
 30
0.0
  0
VERTEX
  5
930
  8
CALIFORNIA
 10
85.595122597876355
 20
701.0465837204398
 30
0.0
  0
VERTEX
  5
931
  8
CALIFORNIA
 10
85.589903312199951
 20
700.97688518268819
 30
0.0
  0
VERTEX
  5
932
  8
CALIFORNIA
 10
85.557756576494896
 20
700.96281611342295
 30
0.0
  0
VERTEX
  5
933
  8
CALIFORNIA
 10
85.526182075059978
 20
700.94870910438635
 30
0.0
  0
VERTEX
  5
934
  8
CALIFORNIA
 10
85.523679621938825
 20
700.94817662925038
 30
0.0
  0
SEQEND
  5
935
  8
CALIFORNIA
  0
POLYLINE
  5
66
  8
CALIFORNIA
 66
     1
 10
0.0
 20
0.0
 30
0.0
 70
     1
1001
DCO15
1071
        4
1071
        3
1000
lotenos--cerámica
1004
0756475F31393900
1071
        2
1000
lotes--períodos
1004
0756475F31393900
1071
        1
1000
lotes--cerámica
1004
0756475F31393900
  0
VERTEX
  5
936
  8
CALIFORNIA
 10
85.422904368969924
 20
700.91765367467315
 30
0.0
  0
VERTEX
  5
937
  8
CALIFORNIA
 10
85.449090065610591
 20
700.92082489504389
 30
0.0
  0
VERTEX
  5
938
  8
CALIFORNIA
 10
85.451867324795586
 20
700.84213944184421
 30
0.0
  0
VERTEX
  5
939
  8
CALIFORNIA
 10
85.420687692152697
 20
700.81406156099877
 30
0.0
  0
VERTEX
  5
93A
  8
CALIFORNIA
 10
85.396607079611314
 20
700.84652099519565
 30
0.0
  0
VERTEX
  5
93B
  8
CALIFORNIA
 10
85.383939165212723
 20
700.86096989535815
 30
0.0
  0
VERTEX
  5
93C
  8
CALIFORNIA
 10
85.367211089668274
 20
700.87642626814295
 30
0.0
  0
VERTEX
  5
93D
  8
CALIFORNIA
 10
85.368860192652676
 20
700.88983161568456
 30
0.0
  0
SEQEND
  5
93E
  8
CALIFORNIA
  0
POLYLINE
  5
67
  8
CALIFORNIA
 66
     1
 10
0.0
 20
0.0
 30
0.0
 70
     1
1001
DCO15
1071
        4
1071
        3
1000
lotenos--cerámica
1004
0756475F393300
1071
        2
1000
lotes--períodos
1004
0756475F393300
1071
        1
1000
lotes--cerámica
1004
0756475F393300
  0
VERTEX
  5
93F
  8
CALIFORNIA
 10
85.444484796724481
 20
700.30808998385055
 30
0.0
  0
VERTEX
  5
940
  8
CALIFORNIA
 10
85.444484796724481
 20
700.30808998385055
 30
0.0
  0
VERTEX
  5
941
  8
CALIFORNIA
 10
85.520795133084448
 20
700.31398784432599
 30
0.0
  0
VERTEX
  5
942
  8
CALIFORNIA
 10
85.522463068558196
 20
700.37984800230925
 30
0.0
  0
VERTEX
  5
943
  8
CALIFORNIA
 10
85.447415036426733
 20
700.3771700887861
 30
0.0
  0
VERTEX
  5
944
  8
CALIFORNIA
 10
85.447415036426733
 20
700.3771700887861
 30
0.0
  0
VERTEX
  5
945
  8
CALIFORNIA
 10
85.433215291662108
 20
700.34454945393338
 30
0.0
  0
SEQEND
  5
946
  8
CALIFORNIA
  0
POLYLINE
  5
68
  8
CALIFORNIA
 66
     1
 10
0.0
 20
0.0
 30
0.0
 70
     1
1001
DCO15
1071
        4
1071
        3
1000
lotenos--cerámica
1004
0756475F393200
1071
        2
1000
lotes--períodos
1004
0756475F393200
1071
        1
1000
lotes--cerámica
1004
0756475F393200
  0
VERTEX
  5
947
  8
CALIFORNIA
 10
85.428694729804249
 20
700.22954881244323
 30
0.0
  0
VERTEX
  5
948
  8
CALIFORNIA
 10
85.385131475954708
 20
700.23738766362703
 30
0.0
  0
VERTEX
  5
949
  8
CALIFORNIA
 10
85.366238388215535
 20
700.2558678421982
 30
0.0
  0
VERTEX
  5
94A
  8
CALIFORNIA
 10
85.368210912079192
 20
700.28986507398565
 30
0.0
  0
VERTEX
  5
94B
  8
CALIFORNIA
 10
85.385933900719067
 20
700.34081144304355
 30
0.0
  0
VERTEX
  5
94C
  8
CALIFORNIA
 10
85.426774711144986
 20
700.34445378197336
 30
0.0
  0
VERTEX
  5
94D
  8
CALIFORNIA
 10
85.43183363206434
 20
700.34310645508185
 30
0.0
  0
VERTEX
  5
94E
  8
CALIFORNIA
 10
85.44256344164063
 20
700.30761283280583
 30
0.0
  0
SEQEND
  5
94F
  8
CALIFORNIA
  0
POLYLINE
  5
69
  8
CALIFORNIA
 66
     1
 10
0.0
 20
0.0
 30
0.0
 70
     1
1001
DCO15
1071
        4
1071
        3
1000
lotenos--cerámica
1004
0756475F393000
1071
        2
1000
lotes--períodos
1004
0756475F393000
1071
        1
1000
lotes--cerámica
1004
0756475F393000
  0
VERTEX
  5
950
  8
CALIFORNIA
 10
85.525143344544034
 20
700.37449217526284
 30
0.0
  0
VERTEX
  5
951
  8
CALIFORNIA
 10
85.547293176473019
 20
700.38420425111292
 30
0.0
  0
VERTEX
  5
952
  8
CALIFORNIA
 10
85.578372970588632
 20
700.3898013503532
 30
0.0
  0
VERTEX
  5
953
  8
CALIFORNIA
 10
85.601317718946632
 20
700.37934216901294
 30
0.0
  0
VERTEX
  5
954
  8
CALIFORNIA
 10
85.605584781840179
 20
700.36009834502852
 30
0.0
  0
VERTEX
  5
955
  8
CALIFORNIA
 10
85.604511499908853
 20
700.29629428186718
 30
0.0
  0
VERTEX
  5
956
  8
CALIFORNIA
 10
85.542274656517449
 20
700.26329824563436
 30
0.0
  0
VERTEX
  5
957
  8
CALIFORNIA
 10
85.526018750845154
 20
700.28558485443853
 30
0.0
  0
VERTEX
  5
958
  8
CALIFORNIA
 10
85.52271545236465
 20
700.31997692712434
 30
0.0
  0
SEQEND
  5
959
  8
CALIFORNIA
  0
POLYLINE
  5
6A
  8
CALIFORNIA
 66
     1
 10
0.0
 20
0.0
 30
0.0
 70
     1
1001
DCO15
1071
        4
1071
        3
1000
lotenos--cerámica
1004
0756475F383500
1071
        2
1000
lotes--períodos
1004
0756475F383500
1071
        1
1000
lotes--cerámica
1004
0756475F383500
  0
VERTEX
  5
95A
  8
CALIFORNIA
 10
85.719445741262163
 20
700.23476104566328
 30
0.0
  0
VERTEX
  5
95B
  8
CALIFORNIA
 10
85.697106209622589
 20
700.19793179770716
 30
0.0
  0
VERTEX
  5
95C
  8
CALIFORNIA
 10
85.697040436989965
 20
700.17718994625625
 30
0.0
  0
VERTEX
  5
95D
  8
CALIFORNIA
 10
85.712436180187993
 20
700.15749078570627
 30
0.0
  0
VERTEX
  5
95E
  8
CALIFORNIA
 10
85.740009483193504
 20
700.14346321881669
 30
0.0
  0
VERTEX
  5
95F
  8
CALIFORNIA
 10
85.765332041263662
 20
700.1513911923023
 30
0.0
  0
VERTEX
  5
960
  8
CALIFORNIA
 10
85.798607026186843
 20
700.16173176143525
 30
0.0
  0
VERTEX
  5
961
  8
CALIFORNIA
 10
85.795380168065819
 20
700.19995056772905
 30
0.0
  0
SEQEND
  5
962
  8
CALIFORNIA
  0
POLYLINE
  5
6B
  8
CALIFORNIA
 66
     1
 10
0.0
 20
0.0
 30
0.0
 70
     1
1001
DCO15
1071
        4
1071
        3
1000
lotenos--cerámica
1004
0756475F353200
1071
        2
1000
lotes--períodos
1004
0756475F353200
1071
        1
1000
lotes--cerámica
1004
0756475F353200
  0
VERTEX
  5
963
  8
CALIFORNIA
 10
85.749064259596182
 20
699.90696618457173
 30
0.0
  0
VERTEX
  5
964
  8
CALIFORNIA
 10
85.775278164139991
 20
699.86619120496334
 30
0.0
  0
VERTEX
  5
965
  8
CALIFORNIA
 10
85.797082819800437
 20
699.86140646938748
 30
0.0
  0
VERTEX
  5
966
  8
CALIFORNIA
 10
85.851633561350184
 20
699.86724453379384
 30
0.0
  0
VERTEX
  5
967
  8
CALIFORNIA
 10
85.862707247666265
 20
699.87600729528185
 30
0.0
  0
VERTEX
  5
968
  8
CALIFORNIA
 10
85.865515940425794
 20
699.89044022094197
 30
0.0
  0
VERTEX
  5
969
  8
CALIFORNIA
 10
85.857332036445925
 20
699.91946683363915
 30
0.0
  0
VERTEX
  5
96A
  8
CALIFORNIA
 10
85.848438410367521
 20
699.93850303112674
 30
0.0
  0
VERTEX
  5
96B
  8
CALIFORNIA
 10
85.836891863439902
 20
699.94192173840815
 30
0.0
  0
SEQEND
  5
96C
  8
CALIFORNIA
  0
POLYLINE
  5
6C
  8
CALIFORNIA
 66
     1
 10
0.0
 20
0.0
 30
0.0
 70
     1
1001
DCO15
1071
        4
1071
        3
1000
lotenos--cerámica
1004
0756475F343600
1071
        2
1000
lotes--períodos
1004
0756475F343600
1071
        1
1000
lotes--cerámica
1004
0756475F343600
  0
VERTEX
  5
96D
  8
CALIFORNIA
 10
85.535686030928574
 20
699.8768960514825
 30
0.0
  0
VERTEX
  5
96E
  8
CALIFORNIA
 10
85.584098112871061
 20
699.87461448478962
 30
0.0
  0
VERTEX
  5
96F
  8
CALIFORNIA
 10
85.624289265436715
 20
699.85271143126113
 30
0.0
  0
VERTEX
  5
970
  8
CALIFORNIA
 10
85.602823537243353
 20
699.76464288673753
 30
0.0
  0
VERTEX
  5
971
  8
CALIFORNIA
 10
85.533859167685605
 20
699.76373025437022
 30
0.0
  0
VERTEX
  5
972
  8
CALIFORNIA
 10
85.530290573524212
 20
699.82630446665587
 30
0.0
  0
SEQEND
  5
973
  8
CALIFORNIA
  0
POLYLINE
  5
6D
  8
CALIFORNIA
 66
     1
 10
0.0
 20
0.0
 30
0.0
 70
     1
1001
DCO15
1071
        4
1071
        3
1000
lotenos--cerámica
1004
0756475F343500
1071
        2
1000
lotes--períodos
1004
0756475F343500
1071
        1
1000
lotes--cerámica
1004
0756475F343500
  0
VERTEX
  5
974
  8
CALIFORNIA
 10
85.532493329835944
 20
699.76092659595429
 30
0.0
  0
VERTEX
  5
975
  8
CALIFORNIA
 10
85.602569468570692
 20
699.76292066816893
 30
0.0
  0
VERTEX
  5
976
  8
CALIFORNIA
 10
85.604862518853153
 20
699.69993439276243
 30
0.0
  0
VERTEX
  5
977
  8
CALIFORNIA
 10
85.610645505341964
 20
699.68996116115522
 30
0.0
  0
VERTEX
  5
978
  8
CALIFORNIA
 10
85.556436216411143
 20
699.67675939716753
 30
0.0
  0
VERTEX
  5
979
  8
CALIFORNIA
 10
85.548408365642644
 20
699.69896970941829
 30
0.0
  0
VERTEX
  5
97A
  8
CALIFORNIA
 10
85.536986389958415
 20
699.72546671258112
 30
0.0
  0
SEQEND
  5
97B
  8
CALIFORNIA
  0
POLYLINE
  5
6E
  8
CALIFORNIA
 66
     1
 10
0.0
 20
0.0
 30
0.0
 70
     1
1001
DCO15
1071
        4
1071
        3
1000
lotenos--cerámica
1004
0756475F343000
1071
        2
1000
lotes--períodos
1004
0756475F343000
1071
        1
1000
lotes--cerámica
1004
0756475F343000
  0
VERTEX
  5
97C
  8
CALIFORNIA
 10
85.754251766912859
 20
699.75082935332807
 30
0.0
  0
VERTEX
  5
97D
  8
CALIFORNIA
 10
85.787952844100786
 20
699.73557389632447
 30
0.0
  0
VERTEX
  5
97E
  8
CALIFORNIA
 10
85.754776832885454
 20
699.70660714213841
 30
0.0
  0
VERTEX
  5
97F
  8
CALIFORNIA
 10
85.746000123410269
 20
699.64979849521069
 30
0.0
  0
VERTEX
  5
980
  8
CALIFORNIA
 10
85.720551060445786
 20
699.6278167249568
 30
0.0
  0
VERTEX
  5
981
  8
CALIFORNIA
 10
85.710056136929992
 20
699.62804817202243
 30
0.0
  0
VERTEX
  5
982
  8
CALIFORNIA
 10
85.692511642704517
 20
699.63632038872095
 30
0.0
  0
VERTEX
  5
983
  8
CALIFORNIA
 10
85.684243251235856
 20
699.65565595416626
 30
0.0
  0
VERTEX
  5
984
  8
CALIFORNIA
 10
85.674670026407384
 20
699.72153056569243
 30
0.0
  0
VERTEX
  5
985
  8
CALIFORNIA
 10
85.754266984190181
 20
699.74972811286341
 30
0.0
  0
SEQEND
  5
986
  8
CALIFORNIA
  0
POLYLINE
  5
6F
  8
CALIFORNIA
 66
     1
 10
0.0
 20
0.0
 30
0.0
 70
     1
1001
DCO15
1071
        4
1071
        3
1000
lotenos--cerámica
1004
0756475F333600
1071
        2
1000
lotes--períodos
1004
0756475F333600
1071
        1
1000
lotes--cerámica
1004
0756475F333600
  0
VERTEX
  5
987
  8
CALIFORNIA
 10
85.958978715572414
 20
699.51548214943125
 30
0.0
  0
VERTEX
  5
988
  8
CALIFORNIA
 10
85.949564842688673
 20
699.50662988195677
 30
0.0
  0
VERTEX
  5
989
  8
CALIFORNIA
 10
85.919187871628594
 20
699.52557021983046
 30
0.0
  0
VERTEX
  5
98A
  8
CALIFORNIA
 10
85.89109539225656
 20
699.54259032616847
 30
0.0
  0
VERTEX
  5
98B
  8
CALIFORNIA
 10
85.886480960274582
 20
699.61836725364526
 30
0.0
  0
VERTEX
  5
98C
  8
CALIFORNIA
 10
85.926742912844574
 20
699.63305495366103
 30
0.0
  0
VERTEX
  5
98D
  8
CALIFORNIA
 10
85.937382201576114
 20
699.65158575236717
 30
0.0
  0
VERTEX
  5
98E
  8
CALIFORNIA
 10
85.998849182280907
 20
699.59847214752074
 30
0.0
  0
SEQEND
  5
98F
  8
CALIFORNIA
  0
POLYLINE
  5
70
  8
CALIFORNIA
 66
     1
 10
0.0
 20
0.0
 30
0.0
 70
     1
1001
DCO15
1071
        4
1071
        3
1000
lotenos--cerámica
1004
0756475F333500
1071
        2
1000
lotes--períodos
1004
0756475F333500
1071
        1
1000
lotes--cerámica
1004
0756475F333500
  0
VERTEX
  5
990
  8
CALIFORNIA
 10
86.043149706816976
 20
699.49224494731106
 30
0.0
  0
VERTEX
  5
991
  8
CALIFORNIA
 10
86.074846744635607
 20
699.5472469418047
 30
0.0
  0
VERTEX
  5
992
  8
CALIFORNIA
 10
86.04630598158262
 20
699.59831882695403
 30
0.0
  0
VERTEX
  5
993
  8
CALIFORNIA
 10
86.003548628579736
 20
699.60146740547839
 30
0.0
  0
VERTEX
  5
994
  8
CALIFORNIA
 10
85.962855016171574
 20
699.51437561599687
 30
0.0
  0
SEQEND
  5
995
  8
CALIFORNIA
  0
POLYLINE
  5
71
  8
CALIFORNIA
 66
     1
 10
0.0
 20
0.0
 30
0.0
 70
     1
1001
DCO15
1071
        4
1071
        3
1000
lotenos--cerámica
1004
0756475F31393500
1071
        2
1000
lotes--períodos
1004
0756475F31393500
1071
        1
1000
lotes--cerámica
1004
0756475F31393500
  0
VERTEX
  5
996
  8
CALIFORNIA
 10
85.225718106993156
 20
701.04497785343369
 30
0.0
  0
VERTEX
  5
997
  8
CALIFORNIA
 10
85.282057033868412
 20
701.04497785343369
 30
0.0
  0
VERTEX
  5
998
  8
CALIFORNIA
 10
85.303481704527201
 20
701.10007774454573
 30
0.0
  0
VERTEX
  5
999
  8
CALIFORNIA
 10
85.290663201372297
 20
701.12778765632515
 30
0.0
  0
VERTEX
  5
99A
  8
CALIFORNIA
 10
85.270913469559204
 20
701.13554940091069
 30
0.0
  0
VERTEX
  5
99B
  8
CALIFORNIA
 10
85.235895153859545
 20
701.13489943590969
 30
0.0
  0
VERTEX
  5
99C
  8
CALIFORNIA
 10
85.210693097748674
 20
701.10902883143842
 30
0.0
  0
VERTEX
  5
99D
  8
CALIFORNIA
 10
85.219380379844324
 20
701.07758917111346
 30
0.0
  0
VERTEX
  5
99E
  8
CALIFORNIA
 10
85.218711016463018
 20
701.04999960668681
 30
0.0
  0
SEQEND
  5
99F
  8
CALIFORNIA
  0
POLYLINE
  5
72
  8
CALIFORNIA
 66
     1
 10
0.0
 20
0.0
 30
0.0
 70
     1
1001
DCO15
1071
        4
1071
        3
1000
lotenos--cerámica
1004
0756475F373200
1071
        2
1000
lotes--períodos
1004
0756475F373200
1071
        1
1000
lotes--cerámica
1004
0756475F373200
  0
VERTEX
  5
9A0
  8
CALIFORNIA
 10
87.067711701057704
 20
699.37210391780604
 30
0.0
  0
VERTEX
  5
9A1
  8
CALIFORNIA
 10
87.100702258277238
 20
699.32721628213335
 30
0.0
  0
VERTEX
  5
9A2
  8
CALIFORNIA
 10
87.127983878685896
 20
699.33838512129296
 30
0.0
  0
VERTEX
  5
9A3
  8
CALIFORNIA
 10
87.144912492817255
 20
699.41036649337275
 30
0.0
  0
VERTEX
  5
9A4
  8
CALIFORNIA
 10
87.143696720331647
 20
699.44012628373935
 30
0.0
  0
VERTEX
  5
9A5
  8
CALIFORNIA
 10
87.118165763625683
 20
699.4540951632107
 30
0.0
  0
VERTEX
  5
9A6
  8
CALIFORNIA
 10
87.092910100699314
 20
699.40206610449434
 30
0.0
  0
SEQEND
  5
9A7
  8
CALIFORNIA
  0
POLYLINE
  5
73
  8
CALIFORNIA
 66
     1
 10
0.0
 20
0.0
 30
0.0
 70
     1
1001
DCO15
1071
        4
1071
        3
1000
lotenos--cerámica
1004
0756475F363800
1071
        2
1000
lotes--períodos
1004
0756475F363800
1071
        1
1000
lotes--cerámica
1004
0756475F363800
  0
VERTEX
  5
9A8
  8
CALIFORNIA
 10
87.050348083323044
 20
699.78768148680729
 30
0.0
  0
VERTEX
  5
9A9
  8
CALIFORNIA
 10
87.098309834907553
 20
699.76452048010356
 30
0.0
  0
VERTEX
  5
9AA
  8
CALIFORNIA
 10
87.155863954722932
 20
699.84278872142659
 30
0.0
  0
VERTEX
  5
9AB
  8
CALIFORNIA
 10
87.137478610644209
 20
699.90747981304025
 30
0.0
  0
VERTEX
  5
9AC
  8
CALIFORNIA
 10
87.111393507736452
 20
699.89916097114155
 30
0.0
  0
VERTEX
  5
9AD
  8
CALIFORNIA
 10
87.111393507736452
 20
699.89916097114155
 30
0.0
  0
VERTEX
  5
9AE
  8
CALIFORNIA
 10
87.101507296955816
 20
699.89549998231371
 30
0.0
  0
SEQEND
  5
9AF
  8
CALIFORNIA
  0
POLYLINE
  5
74
  8
CALIFORNIA
 66
     1
 10
0.0
 20
0.0
 30
0.0
 70
     1
1001
DCO15
1071
        4
1071
        3
1000
lotenos--cerámica
1004
0756475F34303000
1071
        2
1000
lotes--períodos
1004
0756475F34303000
1071
        1
1000
lotes--cerámica
1004
0756475F34303000
  0
VERTEX
  5
9B0
  8
CALIFORNIA
 10
86.308954012986206
 20
700.46369294287865
 30
0.0
  0
VERTEX
  5
9B1
  8
CALIFORNIA
 10
86.309489549651147
 20
700.43911506018264
 30
0.0
  0
VERTEX
  5
9B2
  8
CALIFORNIA
 10
86.358742468149089
 20
700.38053194604004
 30
0.0
  0
VERTEX
  5
9B3
  8
CALIFORNIA
 10
86.424744864461886
 20
700.40317227308356
 30
0.0
  0
VERTEX
  5
9B4
  8
CALIFORNIA
 10
86.406738533601185
 20
700.48209448176851
 30
0.0
  0
SEQEND
  5
9B5
  8
CALIFORNIA
  0
POLYLINE
  5
75
  8
CALIFORNIA
 66
     1
 10
0.0
 20
0.0
 30
0.0
 70
     1
1001
DCO15
1071
        4
1071
        3
1000
lotenos--cerámica
1004
0756475F33393600
1071
        2
1000
lotes--períodos
1004
0756475F33393600
1071
        1
1000
lotes--cerámica
1004
0756475F33393600
  0
VERTEX
  5
9B6
  8
CALIFORNIA
 10
86.588073216029855
 20
700.47564674466992
 30
0.0
  0
VERTEX
  5
9B7
  8
CALIFORNIA
 10
86.623913003549816
 20
700.47400029485595
 30
0.0
  0
VERTEX
  5
9B8
  8
CALIFORNIA
 10
86.649993405230504
 20
700.4623684562041
 30
0.0
  0
VERTEX
  5
9B9
  8
CALIFORNIA
 10
86.647560491364104
 20
700.44056720500544
 30
0.0
  0
VERTEX
  5
9BA
  8
CALIFORNIA
 10
86.630444430281557
 20
700.41022997680705
 30
0.0
  0
VERTEX
  5
9BB
  8
CALIFORNIA
 10
86.604653011378176
 20
700.40708007030071
 30
0.0
  0
VERTEX
  5
9BC
  8
CALIFORNIA
 10
86.583649758311395
 20
700.41054518155443
 30
0.0
  0
SEQEND
  5
9BD
  8
CALIFORNIA
  0
POLYLINE
  5
76
  8
CALIFORNIA
 66
     1
 10
0.0
 20
0.0
 30
0.0
 70
     1
1001
DCO15
1071
        4
1071
        3
1000
lotenos--cerámica
1004
0756475F33393400
1071
        2
1000
lotes--períodos
1004
0756475F33393400
1071
        1
1000
lotes--cerámica
1004
0756475F33393400
  0
VERTEX
  5
9BE
  8
CALIFORNIA
 10
86.720879353670043
 20
699.54116086031161
 30
0.0
  0
VERTEX
  5
9BF
  8
CALIFORNIA
 10
86.736825060630622
 20
699.56814264523427
 30
0.0
  0
VERTEX
  5
9C0
  8
CALIFORNIA
 10
86.750781603585551
 20
699.58996534724793
 30
0.0
  0
VERTEX
  5
9C1
  8
CALIFORNIA
 10
86.761751996455175
 20
699.60557335543649
 30
0.0
  0
VERTEX
  5
9C2
  8
CALIFORNIA
 10
86.781702119309543
 20
699.58393003694687
 30
0.0
  0
VERTEX
  5
9C3
  8
CALIFORNIA
 10
86.809554239322551
 20
699.55812295451449
 30
0.0
  0
VERTEX
  5
9C4
  8
CALIFORNIA
 10
86.812477602223666
 20
699.54044647600483
 30
0.0
  0
VERTEX
  5
9C5
  8
CALIFORNIA
 10
86.797448187704674
 20
699.51436103738422
 30
0.0
  0
VERTEX
  5
9C6
  8
CALIFORNIA
 10
86.784383239954934
 20
699.48206086017285
 30
0.0
  0
VERTEX
  5
9C7
  8
CALIFORNIA
 10
86.770485093960914
 20
699.48206010562762
 30
0.0
  0
SEQEND
  5
9C8
  8
CALIFORNIA
  0
POLYLINE
  5
77
  8
CALIFORNIA
 66
     1
 10
0.0
 20
0.0
 30
0.0
 70
     1
1001
DCO15
1071
        4
1071
        3
1000
lotenos--cerámica
1004
0756475F33353900
1071
        2
1000
lotes--períodos
1004
0756475F33353900
1071
        1
1000
lotes--cerámica
1004
0756475F33353900
  0
VERTEX
  5
9C9
  8
CALIFORNIA
 10
86.904075505932965
 20
701.25915423485549
 30
0.0
  0
VERTEX
  5
9CA
  8
CALIFORNIA
 10
86.891798256148263
 20
701.29436687597263
 30
0.0
  0
VERTEX
  5
9CB
  8
CALIFORNIA
 10
86.867217582605946
 20
701.31242886615337
 30
0.0
  0
VERTEX
  5
9CC
  8
CALIFORNIA
 10
86.844686556460189
 20
701.32063678336453
 30
0.0
  0
VERTEX
  5
9CD
  8
CALIFORNIA
 10
86.829317313100702
 20
701.31609763539905
 30
0.0
  0
VERTEX
  5
9CE
  8
CALIFORNIA
 10
86.819021359930858
 20
701.28770669545872
 30
0.0
  0
VERTEX
  5
9CF
  8
CALIFORNIA
 10
86.831268263835966
 20
701.25828183718613
 30
0.0
  0
VERTEX
  5
9D0
  8
CALIFORNIA
 10
86.849713291335433
 20
701.24614894226045
 30
0.0
  0
VERTEX
  5
9D1
  8
CALIFORNIA
 10
86.870206325777389
 20
701.23414165597455
 30
0.0
  0
SEQEND
  5
9D2
  8
CALIFORNIA
  0
POLYLINE
  5
78
  8
CALIFORNIA
 66
     1
 10
0.0
 20
0.0
 30
0.0
 70
     1
1001
DCO15
1071
        4
1071
        3
1000
lotenos--cerámica
1004
0756475F31333600
1071
        2
1000
lotes--períodos
1004
0756475F31333600
1071
        1
1000
lotes--cerámica
1004
0756475F31333600
  0
VERTEX
  5
9D3
  8
CALIFORNIA
 10
86.899303935807552
 20
700.83021252518972
 30
0.0
  0
VERTEX
  5
9D4
  8
CALIFORNIA
 10
86.963072735895267
 20
700.80461627561158
 30
0.0
  0
VERTEX
  5
9D5
  8
CALIFORNIA
 10
86.9578314285977
 20
700.79851546338227
 30
0.0
  0
VERTEX
  5
9D6
  8
CALIFORNIA
 10
86.946666095555955
 20
700.76143600999421
 30
0.0
  0
VERTEX
  5
9D7
  8
CALIFORNIA
 10
86.940372723450906
 20
700.75117015240005
 30
0.0
  0
VERTEX
  5
9D8
  8
CALIFORNIA
 10
86.899025471856575
 20
700.74424252394658
 30
0.0
  0
VERTEX
  5
9D9
  8
CALIFORNIA
 10
86.895602269537548
 20
700.75964449289415
 30
0.0
  0
VERTEX
  5
9DA
  8
CALIFORNIA
 10
86.882822566224021
 20
700.76561110901002
 30
0.0
  0
VERTEX
  5
9DB
  8
CALIFORNIA
 10
86.872023707162626
 20
700.77076788788531
 30
0.0
  0
VERTEX
  5
9DC
  8
CALIFORNIA
 10
86.864504195171634
 20
700.78963781622065
 30
0.0
  0
VERTEX
  5
9DD
  8
CALIFORNIA
 10
86.872812362912711
 20
700.80476132399315
 30
0.0
  0
VERTEX
  5
9DE
  8
CALIFORNIA
 10
86.894207558237653
 20
700.82182481662244
 30
0.0
  0
VERTEX
  5
9DF
  8
CALIFORNIA
 10
86.899303935807552
 20
700.83021252518972
 30
0.0
  0
SEQEND
  5
9E0
  8
CALIFORNIA
  0
POLYLINE
  5
79
  8
CALIFORNIA
 66
     1
 10
0.0
 20
0.0
 30
0.0
 70
     1
1001
DCO15
1071
        4
1071
        3
1000
lotenos--cerámica
1004
0756475F31333200
1071
        2
1000
lotes--períodos
1004
0756475F31333200
1071
        1
1000
lotes--cerámica
1004
0756475F31333200
  0
VERTEX
  5
9E1
  8
CALIFORNIA
 10
86.774887388972601
 20
700.59472775930624
 30
0.0
  0
VERTEX
  5
9E2
  8
CALIFORNIA
 10
86.767662731779595
 20
700.57307296666625
 30
0.0
  0
VERTEX
  5
9E3
  8
CALIFORNIA
 10
86.69948003175962
 20
700.60059259799152
 30
0.0
  0
VERTEX
  5
9E4
  8
CALIFORNIA
 10
86.731087902500747
 20
700.63578164907108
 30
0.0
  0
VERTEX
  5
9E5
  8
CALIFORNIA
 10
86.777145087627886
 20
700.63578164907108
 30
0.0
  0
SEQEND
  5
9E6
  8
CALIFORNIA
  0
POLYLINE
  5
7A
  8
CALIFORNIA
 66
     1
 10
0.0
 20
0.0
 30
0.0
 70
     1
1001
DCO15
1071
        4
1071
        3
1000
lotenos--cerámica
1004
0756475F31323800
1071
        2
1000
lotes--períodos
1004
0756475F31323800
1071
        1
1000
lotes--cerámica
1004
0756475F31323800
  0
VERTEX
  5
9E7
  8
CALIFORNIA
 10
86.750052632110737
 20
700.83062893925364
 30
0.0
  0
VERTEX
  5
9E8
  8
CALIFORNIA
 10
86.724955447530036
 20
700.85969820956223
 30
0.0
  0
VERTEX
  5
9E9
  8
CALIFORNIA
 10
86.703092378269545
 20
700.88386364928601
 30
0.0
  0
VERTEX
  5
9EA
  8
CALIFORNIA
 10
86.634458134935841
 20
700.88792392586936
 30
0.0
  0
VERTEX
  5
9EB
  8
CALIFORNIA
 10
86.619603066675296
 20
700.87586643138013
 30
0.0
  0
VERTEX
  5
9EC
  8
CALIFORNIA
 10
86.651414439168917
 20
700.84193480420504
 30
0.0
  0
VERTEX
  5
9ED
  8
CALIFORNIA
 10
86.67783657820658
 20
700.78102117899959
 30
0.0
  0
VERTEX
  5
9EE
  8
CALIFORNIA
 10
86.709865492148822
 20
700.78100336290879
 30
0.0
  0
VERTEX
  5
9EF
  8
CALIFORNIA
 10
86.750052632110737
 20
700.83062893925364
 30
0.0
  0
SEQEND
  5
9F0
  8
CALIFORNIA
  0
POLYLINE
  5
7B
  8
CALIFORNIA
 66
     1
 10
0.0
 20
0.0
 30
0.0
 70
     1
1001
DCO15
1071
        4
1071
        3
1000
lotenos--cerámica
1004
0756475F31323400
1071
        2
1000
lotes--períodos
1004
0756475F31323400
1071
        1
1000
lotes--cerámica
1004
0756475F31323400
  0
VERTEX
  5
9F1
  8
CALIFORNIA
 10
86.617661107011656
 20
700.87348740060395
 30
0.0
  0
VERTEX
  5
9F2
  8
CALIFORNIA
 10
86.570856028950004
 20
700.85709770559185
 30
0.0
  0
VERTEX
  5
9F3
  8
CALIFORNIA
 10
86.560358703610817
 20
700.79810397764265
 30
0.0
  0
VERTEX
  5
9F4
  8
CALIFORNIA
 10
86.592805148819735
 20
700.75234097842917
 30
0.0
  0
VERTEX
  5
9F5
  8
CALIFORNIA
 10
86.614971371939177
 20
700.76641701650817
 30
0.0
  0
VERTEX
  5
9F6
  8
CALIFORNIA
 10
86.661810724133801
 20
700.76662035294783
 30
0.0
  0
VERTEX
  5
9F7
  8
CALIFORNIA
 10
86.675909907869581
 20
700.77919880080685
 30
0.0
  0
VERTEX
  5
9F8
  8
CALIFORNIA
 10
86.650172064380286
 20
700.84055405452273
 30
0.0
  0
SEQEND
  5
9F9
  8
CALIFORNIA
  0
POLYLINE
  5
7C
  8
CALIFORNIA
 66
     1
 10
0.0
 20
0.0
 30
0.0
 70
     1
1001
DCO15
1071
        4
1071
        3
1000
lotenos--cerámica
1004
0756475F323200
1071
        2
1000
lotes--períodos
1004
0756475F323200
1071
        1
1000
lotes--cerámica
1004
0756475F323200
  0
VERTEX
  5
9FA
  8
CALIFORNIA
 10
86.210265617564787
 20
699.81614801835758
 30
0.0
  0
VERTEX
  5
9FB
  8
CALIFORNIA
 10
86.207484717091006
 20
699.89069474473604
 30
0.0
  0
VERTEX
  5
9FC
  8
CALIFORNIA
 10
86.233455635862299
 20
699.92763400382375
 30
0.0
  0
VERTEX
  5
9FD
  8
CALIFORNIA
 10
86.257944836143125
 20
699.92440166721622
 30
0.0
  0
VERTEX
  5
9FE
  8
CALIFORNIA
 10
86.284946711623846
 20
699.90853228948447
 30
0.0
  0
VERTEX
  5
9FF
  8
CALIFORNIA
 10
86.287687837803475
 20
699.88553645264324
 30
0.0
  0
VERTEX
  5
A00
  8
CALIFORNIA
 10
86.285625372421364
 20
699.87170842080843
 30
0.0
  0
VERTEX
  5
A01
  8
CALIFORNIA
 10
86.289370509194342
 20
699.85676986831163
 30
0.0
  0
VERTEX
  5
A02
  8
CALIFORNIA
 10
86.241707042665723
 20
699.80706788260807
 30
0.0
  0
SEQEND
  5
A03
  8
CALIFORNIA
  0
POLYLINE
  5
7D
  8
CALIFORNIA
 66
     1
 10
0.0
 20
0.0
 30
0.0
 70
     1
1001
DCO15
1071
        4
1071
        3
1000
lotenos--cerámica
1004
0756475F323000
1071
        2
1000
lotes--períodos
1004
0756475F323000
1071
        1
1000
lotes--cerámica
1004
0756475F323000
  0
VERTEX
  5
A04
  8
CALIFORNIA
 10
86.357873817340504
 20
700.13833643342923
 30
0.0
  0
VERTEX
  5
A05
  8
CALIFORNIA
 10
86.343021338951814
 20
700.12541874024805
 30
0.0
  0
VERTEX
  5
A06
  8
CALIFORNIA
 10
86.320197322755988
 20
700.10089133057966
 30
0.0
  0
VERTEX
  5
A07
  8
CALIFORNIA
 10
86.319331818033746
 20
700.08131064413237
 30
0.0
  0
VERTEX
  5
A08
  8
CALIFORNIA
 10
86.313110074393634
 20
700.03401863949318
 30
0.0
  0
VERTEX
  5
A09
  8
CALIFORNIA
 10
86.370218820937353
 20
700.0128990650154
 30
0.0
  0
VERTEX
  5
A0A
  8
CALIFORNIA
 10
86.396744365181377
 20
700.01560030416522
 30
0.0
  0
VERTEX
  5
A0B
  8
CALIFORNIA
 10
86.393009200067709
 20
700.03286240631917
 30
0.0
  0
VERTEX
  5
A0C
  8
CALIFORNIA
 10
86.414561063260024
 20
700.05632365960491
 30
0.0
  0
VERTEX
  5
A0D
  8
CALIFORNIA
 10
86.405893078622938
 20
700.09427100244
 30
0.0
  0
VERTEX
  5
A0E
  8
CALIFORNIA
 10
86.377968772458559
 20
700.10874726692123
 30
0.0
  0
SEQEND
  5
A0F
  8
CALIFORNIA
  0
POLYLINE
  5
7E
  8
CALIFORNIA
 66
     1
 10
0.0
 20
0.0
 30
0.0
 70
     1
1001
DCO15
1071
        4
1071
        3
1000
lotenos--cerámica
1004
0756475F34303700
1071
        2
1000
lotes--períodos
1004
0756475F34303700
1071
        1
1000
lotes--cerámica
1004
0756475F34303700
  0
VERTEX
  5
A10
  8
CALIFORNIA
 10
86.44273923159534
 20
700.2686416610353
 30
0.0
  0
VERTEX
  5
A11
  8
CALIFORNIA
 10
86.387852045909554
 20
700.30856045139012
 30
0.0
  0
VERTEX
  5
A12
  8
CALIFORNIA
 10
86.392688799591042
 20
700.33752524726731
 30
0.0
  0
VERTEX
  5
A13
  8
CALIFORNIA
 10
86.416343501769546
 20
700.35764083900483
 30
0.0
  0
VERTEX
  5
A14
  8
CALIFORNIA
 10
86.452771264013577
 20
700.36471992545705
 30
0.0
  0
VERTEX
  5
A15
  8
CALIFORNIA
 10
86.466676507502896
 20
700.35502789442535
 30
0.0
  0
VERTEX
  5
A16
  8
CALIFORNIA
 10
86.470457080776981
 20
700.33801288227983
 30
0.0
  0
VERTEX
  5
A17
  8
CALIFORNIA
 10
86.468527273692544
 20
700.32072704841812
 30
0.0
  0
VERTEX
  5
A18
  8
CALIFORNIA
 10
86.44273923159534
 20
700.2686416610353
 30
0.0
  0
VERTEX
  5
A19
  8
CALIFORNIA
 10
86.44273923159534
 20
700.2686416610353
 30
0.0
  0
SEQEND
  5
A1A
  8
CALIFORNIA
  0
POLYLINE
  5
7F
  8
CALIFORNIA
 66
     1
 10
0.0
 20
0.0
 30
0.0
 70
     1
1001
DCO15
1071
        4
1071
        3
1000
lotenos--cerámica
1004
0756475F34303600
1071
        2
1000
lotes--períodos
1004
0756475F34303600
1071
        1
1000
lotes--cerámica
1004
0756475F34303600
  0
VERTEX
  5
A1B
  8
CALIFORNIA
 10
86.441302070472247
 20
700.26583236043246
 30
0.0
  0
VERTEX
  5
A1C
  8
CALIFORNIA
 10
86.386032022639199
 20
700.3058328317727
 30
0.0
  0
VERTEX
  5
A1D
  8
CALIFORNIA
 10
86.361581815421687
 20
700.27620228329044
 30
0.0
  0
VERTEX
  5
A1E
  8
CALIFORNIA
 10
86.355076730938052
 20
700.24972554604756
 30
0.0
  0
VERTEX
  5
A1F
  8
CALIFORNIA
 10
86.357943054356454
 20
700.21192887222514
 30
0.0
  0
VERTEX
  5
A20
  8
CALIFORNIA
 10
86.366238870581171
 20
700.19716227104198
 30
0.0
  0
VERTEX
  5
A21
  8
CALIFORNIA
 10
86.375566866189544
 20
700.17127002101381
 30
0.0
  0
VERTEX
  5
A22
  8
CALIFORNIA
 10
86.413332407926845
 20
700.18036209919285
 30
0.0
  0
VERTEX
  5
A23
  8
CALIFORNIA
 10
86.441302070472247
 20
700.26583236043246
 30
0.0
  0
VERTEX
  5
A24
  8
CALIFORNIA
 10
86.441302070472247
 20
700.26583236043246
 30
0.0
  0
SEQEND
  5
A25
  8
CALIFORNIA
  0
POLYLINE
  5
80
  8
CALIFORNIA
 66
     1
 10
0.0
 20
0.0
 30
0.0
 70
     1
1001
DCO15
1071
        4
1071
        3
1000
lotenos--cerámica
1004
0756475F353800
1071
        2
1000
lotes--períodos
1004
0756475F353800
1071
        1
1000
lotes--cerámica
1004
0756475F353800
  0
VERTEX
  5
A26
  8
CALIFORNIA
 10
86.946019244405093
 20
700.12806035100675
 30
0.0
  0
VERTEX
  5
A27
  8
CALIFORNIA
 10
86.955694625234926
 20
700.10095087095556
 30
0.0
  0
VERTEX
  5
A28
  8
CALIFORNIA
 10
87.031441439093385
 20
700.10542539177345
 30
0.0
  0
VERTEX
  5
A29
  8
CALIFORNIA
 10
87.072248038131164
 20
700.16975622325913
 30
0.0
  0
VERTEX
  5
A2A
  8
CALIFORNIA
 10
87.037728328144382
 20
700.21711450002363
 30
0.0
  0
VERTEX
  5
A2B
  8
CALIFORNIA
 10
86.997541197737661
 20
700.20424539627288
 30
0.0
  0
SEQEND
  5
A2C
  8
CALIFORNIA
  0
POLYLINE
  5
81
  8
CALIFORNIA
 66
     1
 10
0.0
 20
0.0
 30
0.0
 70
     1
1001
DCO15
1071
        4
1071
        3
1000
lotenos--cerámica
1004
0756475F32323700
1071
        2
1000
lotes--períodos
1004
0756475F32323700
1071
        1
1000
lotes--cerámica
1004
0756475F32323700
  0
VERTEX
  5
A2D
  8
CALIFORNIA
 10
88.178087967668787
 20
700.31745081863392
 30
0.0
  0
VERTEX
  5
A2E
  8
CALIFORNIA
 10
88.217875794510206
 20
700.3461237168201
 30
0.0
  0
VERTEX
  5
A2F
  8
CALIFORNIA
 10
88.269239697299724
 20
700.34454081544595
 30
0.0
  0
VERTEX
  5
A30
  8
CALIFORNIA
 10
88.273100004132715
 20
700.34440789749897
 30
0.0
  0
VERTEX
  5
A31
  8
CALIFORNIA
 10
88.283511768086569
 20
700.33660455588335
 30
0.0
  0
VERTEX
  5
A32
  8
CALIFORNIA
 10
88.284913787828813
 20
700.32911672063415
 30
0.0
  0
VERTEX
  5
A33
  8
CALIFORNIA
 10
88.285366888286859
 20
700.30058416062116
 30
0.0
  0
VERTEX
  5
A34
  8
CALIFORNIA
 10
88.272822929487091
 20
700.28239463194973
 30
0.0
  0
VERTEX
  5
A35
  8
CALIFORNIA
 10
88.262704084841786
 20
700.27402569622654
 30
0.0
  0
VERTEX
  5
A36
  8
CALIFORNIA
 10
88.249926884927888
 20
700.27191941563024
 30
0.0
  0
VERTEX
  5
A37
  8
CALIFORNIA
 10
88.231979745741967
 20
700.27365197672179
 30
0.0
  0
VERTEX
  5
A38
  8
CALIFORNIA
 10
88.218052447978266
 20
700.26654970651953
 30
0.0
  0
VERTEX
  5
A39
  8
CALIFORNIA
 10
88.213208905854728
 20
700.25729676731805
 30
0.0
  0
SEQEND
  5
A3A
  8
CALIFORNIA
  0
POLYLINE
  5
82
  8
CALIFORNIA
 66
     1
 10
0.0
 20
0.0
 30
0.0
 70
     1
1001
DCO15
1071
        4
1071
        3
1000
lotenos--cerámica
1004
0756475F38313400
1071
        2
1000
lotes--períodos
1004
0756475F38313400
1071
        1
1000
lotes--cerámica
1004
0756475F38313400
  0
VERTEX
  5
A3B
  8
CALIFORNIA
 10
87.958851631882084
 20
699.89956667080219
 30
0.0
  0
VERTEX
  5
A3C
  8
CALIFORNIA
 10
87.967183258424186
 20
699.93949659864575
 30
0.0
  0
VERTEX
  5
A3D
  8
CALIFORNIA
 10
87.969244360881163
 20
699.94318611609003
 30
0.0
  0
VERTEX
  5
A3E
  8
CALIFORNIA
 10
88.057990888280258
 20
699.93925778781033
 30
0.0
  0
VERTEX
  5
A3F
  8
CALIFORNIA
 10
88.059298192568548
 20
699.93337445309237
 30
0.0
  0
VERTEX
  5
A40
  8
CALIFORNIA
 10
88.046527102827696
 20
699.87914251875156
 30
0.0
  0
VERTEX
  5
A41
  8
CALIFORNIA
 10
88.010293005768688
 20
699.87631053081645
 30
0.0
  0
SEQEND
  5
A42
  8
CALIFORNIA
  0
POLYLINE
  5
83
  8
CALIFORNIA
 66
     1
 10
0.0
 20
0.0
 30
0.0
 70
     1
1001
DCO15
1071
        4
1071
        3
1000
lotenos--cerámica
1004
0756475F35323700
1071
        2
1000
lotes--períodos
1004
0756475F35323700
1071
        1
1000
lotes--cerámica
1004
0756475F35323700
  0
VERTEX
  5
A43
  8
CALIFORNIA
 10
87.963418509432302
 20
700.65785029125925
 30
0.0
  0
VERTEX
  5
A44
  8
CALIFORNIA
 10
88.024002273353943
 20
700.63116199074523
 30
0.0
  0
VERTEX
  5
A45
  8
CALIFORNIA
 10
88.013156324850669
 20
700.6152954577974
 30
0.0
  0
VERTEX
  5
A46
  8
CALIFORNIA
 10
88.012892088941555
 20
700.58851197724925
 30
0.0
  0
VERTEX
  5
A47
  8
CALIFORNIA
 10
88.015784411936991
 20
700.56362214866363
 30
0.0
  0
VERTEX
  5
A48
  8
CALIFORNIA
 10
88.019775448880026
 20
700.53763331359755
 30
0.0
  0
VERTEX
  5
A49
  8
CALIFORNIA
 10
88.015650893938144
 20
700.51050703582155
 30
0.0
  0
VERTEX
  5
A4A
  8
CALIFORNIA
 10
88.004415501958889
 20
700.49533661608029
 30
0.0
  0
VERTEX
  5
A4B
  8
CALIFORNIA
 10
87.996233921911042
 20
700.49427783115232
 30
0.0
  0
VERTEX
  5
A4C
  8
CALIFORNIA
 10
87.986020358569093
 20
700.4931917758804
 30
0.0
  0
VERTEX
  5
A4D
  8
CALIFORNIA
 10
87.972726532168863
 20
700.50316917141095
 30
0.0
  0
VERTEX
  5
A4E
  8
CALIFORNIA
 10
87.972709389786075
 20
700.53236642728496
 30
0.0
  0
VERTEX
  5
A4F
  8
CALIFORNIA
 10
87.971792359472957
 20
700.56141692447625
 30
0.0
  0
VERTEX
  5
A50
  8
CALIFORNIA
 10
87.976040250144749
 20
700.58638891455576
 30
0.0
  0
VERTEX
  5
A51
  8
CALIFORNIA
 10
87.970096110154572
 20
700.60624180398054
 30
0.0
  0
VERTEX
  5
A52
  8
CALIFORNIA
 10
87.953934856703555
 20
700.62102606419421
 30
0.0
  0
VERTEX
  5
A53
  8
CALIFORNIA
 10
87.948967478717293
 20
700.63289554136907
 30
0.0
  0
VERTEX
  5
A54
  8
CALIFORNIA
 10
87.963418509432302
 20
700.65785029125925
 30
0.0
  0
SEQEND
  5
A55
  8
CALIFORNIA
  0
POLYLINE
  5
84
  8
CALIFORNIA
 66
     1
 10
0.0
 20
0.0
 30
0.0
 70
     1
1001
DCO15
1071
        4
1071
        3
1000
lotenos--cerámica
1004
0756475F32323600
1071
        2
1000
lotes--períodos
1004
0756475F32323600
1071
        1
1000
lotes--cerámica
1004
0756475F32323600
  0
VERTEX
  5
A56
  8
CALIFORNIA
 10
88.106842658952374
 20
700.21919920401365
 30
0.0
  0
VERTEX
  5
A57
  8
CALIFORNIA
 10
88.109853027641776
 20
700.24225825923065
 30
0.0
  0
VERTEX
  5
A58
  8
CALIFORNIA
 10
88.120891034226759
 20
700.24326082643688
 30
0.0
  0
VERTEX
  5
A59
  8
CALIFORNIA
 10
88.194143261374052
 20
700.21919920401365
 30
0.0
  0
VERTEX
  5
A5A
  8
CALIFORNIA
 10
88.204171136581209
 20
700.18512757054714
 30
0.0
  0
VERTEX
  5
A5B
  8
CALIFORNIA
 10
88.184121309516087
 20
700.16460292130353
 30
0.0
  0
VERTEX
  5
A5C
  8
CALIFORNIA
 10
88.157569417220117
 20
700.15649377853947
 30
0.0
  0
VERTEX
  5
A5D
  8
CALIFORNIA
 10
88.131929040811784
 20
700.15102461505126
 30
0.0
  0
SEQEND
  5
A5E
  8
CALIFORNIA
  0
POLYLINE
  5
85
  8
CALIFORNIA
 66
     1
 10
0.0
 20
0.0
 30
0.0
 70
     1
1001
DCO15
1071
        4
1071
        3
1000
lotenos--cerámica
1004
0756475F32323500
1071
        2
1000
lotes--períodos
1004
0756475F32323500
1071
        1
1000
lotes--cerámica
1004
0756475F32323500
  0
VERTEX
  5
A5F
  8
CALIFORNIA
 10
88.108849577383296
 20
700.24526596084843
 30
0.0
  0
VERTEX
  5
A60
  8
CALIFORNIA
 10
88.119308649044569
 20
700.24710444482196
 30
0.0
  0
VERTEX
  5
A61
  8
CALIFORNIA
 10
88.192050012376669
 20
700.22493247631076
 30
0.0
  0
VERTEX
  5
A62
  8
CALIFORNIA
 10
88.208024132402556
 20
700.2568461430626
 30
0.0
  0
VERTEX
  5
A63
  8
CALIFORNIA
 10
88.177084517410293
 20
700.30842771378161
 30
0.0
  0
VERTEX
  5
A64
  8
CALIFORNIA
 10
88.080752826834527
 20
700.30140974334097
 30
0.0
  0
VERTEX
  5
A65
  8
CALIFORNIA
 10
88.108849577383296
 20
700.24526596084843
 30
0.0
  0
SEQEND
  5
A66
  8
CALIFORNIA
  0
POLYLINE
  5
86
  8
CALIFORNIA
 66
     1
 10
0.0
 20
0.0
 30
0.0
 70
     1
1001
DCO15
1071
        4
1071
        3
1000
lotenos--cerámica
1004
0756475F36383600
1071
        2
1000
lotes--períodos
1004
0756475F36383600
1071
        1
1000
lotes--cerámica
1004
0756475F36383600
  0
VERTEX
  5
A67
  8
CALIFORNIA
 10
87.729401124208394
 20
698.91839164099804
 30
0.0
  0
VERTEX
  5
A68
  8
CALIFORNIA
 10
87.746136124574733
 20
698.9130997035893
 30
0.0
  0
VERTEX
  5
A69
  8
CALIFORNIA
 10
87.762501037394969
 20
698.90148865448487
 30
0.0
  0
VERTEX
  5
A6A
  8
CALIFORNIA
 10
87.783901628353533
 20
698.88911658847428
 30
0.0
  0
VERTEX
  5
A6B
  8
CALIFORNIA
 10
87.804377420734085
 20
698.88871360972246
 30
0.0
  0
VERTEX
  5
A6C
  8
CALIFORNIA
 10
87.836507078012374
 20
698.88242932639253
 30
0.0
  0
VERTEX
  5
A6D
  8
CALIFORNIA
 10
87.851495054367433
 20
698.86598343309765
 30
0.0
  0
VERTEX
  5
A6E
  8
CALIFORNIA
 10
87.858426222364756
 20
698.85187413686344
 30
0.0
  0
VERTEX
  5
A6F
  8
CALIFORNIA
 10
87.858204729825957
 20
698.83257371530385
 30
0.0
  0
VERTEX
  5
A70
  8
CALIFORNIA
 10
87.852596187354067
 20
698.80090038353148
 30
0.0
  0
VERTEX
  5
A71
  8
CALIFORNIA
 10
87.852596187354067
 20
698.80090038353148
 30
0.0
  0
VERTEX
  5
A72
  8
CALIFORNIA
 10
87.852596187354067
 20
698.80090038353148
 30
0.0
  0
VERTEX
  5
A73
  8
CALIFORNIA
 10
87.722201411231765
 20
698.86883749869389
 30
0.0
  0
SEQEND
  5
A74
  8
CALIFORNIA
  0
POLYLINE
  5
87
  8
CALIFORNIA
 66
     1
 10
0.0
 20
0.0
 30
0.0
 70
     1
1001
DCO15
1071
        4
1071
        3
1000
lotenos--cerámica
1004
0756475F32373100
1071
        2
1000
lotes--períodos
1004
0756475F32373100
1071
        1
1000
lotes--cerámica
1004
0756475F32373100
  0
VERTEX
  5
A75
  8
CALIFORNIA
 10
87.701319612820782
 20
699.8086394973451
 30
0.0
  0
VERTEX
  5
A76
  8
CALIFORNIA
 10
87.76903502247481
 20
699.78034704919105
 30
0.0
  0
VERTEX
  5
A77
  8
CALIFORNIA
 10
87.743191148348643
 20
699.71141302759122
 30
0.0
  0
VERTEX
  5
A78
  8
CALIFORNIA
 10
87.712773817245576
 20
699.70979398070176
 30
0.0
  0
VERTEX
  5
A79
  8
CALIFORNIA
 10
87.690956829316818
 20
699.73806602105333
 30
0.0
  0
VERTEX
  5
A7A
  8
CALIFORNIA
 10
87.658362772343608
 20
699.75238078185305
 30
0.0
  0
SEQEND
  5
A7B
  8
CALIFORNIA
  0
POLYLINE
  5
88
  8
CALIFORNIA
 66
     1
 10
0.0
 20
0.0
 30
0.0
 70
     1
1001
DCO15
1071
        4
1071
        3
1000
lotenos--cerámica
1004
0756475F32343400
1071
        2
1000
lotes--períodos
1004
0756475F32343400
1071
        1
1000
lotes--cerámica
1004
0756475F32343400
  0
VERTEX
  5
A7C
  8
CALIFORNIA
 10
87.586377863222211
 20
701.02953181165265
 30
0.0
  0
VERTEX
  5
A7D
  8
CALIFORNIA
 10
87.601395265564335
 20
701.10133722899286
 30
0.0
  0
VERTEX
  5
A7E
  8
CALIFORNIA
 10
87.638091093297589
 20
701.09548400393248
 30
0.0
  0
VERTEX
  5
A7F
  8
CALIFORNIA
 10
87.651429263354899
 20
701.08743269284196
 30
0.0
  0
VERTEX
  5
A80
  8
CALIFORNIA
 10
87.650506156654231
 20
701.06371086175034
 30
0.0
  0
VERTEX
  5
A81
  8
CALIFORNIA
 10
87.648540181500223
 20
701.04197767831101
 30
0.0
  0
VERTEX
  5
A82
  8
CALIFORNIA
 10
87.649601450556375
 20
701.03108685881625
 30
0.0
  0
VERTEX
  5
A83
  8
CALIFORNIA
 10
87.638401115497246
 20
701.01044914428223
 30
0.0
  0
VERTEX
  5
A84
  8
CALIFORNIA
 10
87.614862112247863
 20
701.00185051085055
 30
0.0
  0
VERTEX
  5
A85
  8
CALIFORNIA
 10
87.606649353615623
 20
701.00789170587268
 30
0.0
  0
VERTEX
  5
A86
  8
CALIFORNIA
 10
87.599453882452082
 20
701.01589512962232
 30
0.0
  0
VERTEX
  5
A87
  8
CALIFORNIA
 10
87.590223508005224
 20
701.01799638838179
 30
0.0
  0
SEQEND
  5
A88
  8
CALIFORNIA
  0
POLYLINE
  5
89
  8
CALIFORNIA
 66
     1
 10
0.0
 20
0.0
 30
0.0
 70
     1
1001
DCO15
1071
        4
1071
        3
1000
lotenos--cerámica
1004
0756475F32343100
1071
        2
1000
lotes--períodos
1004
0756475F32343100
1071
        1
1000
lotes--cerámica
1004
0756475F32343100
  0
VERTEX
  5
A89
  8
CALIFORNIA
 10
87.505283737227344
 20
701.05894039977557
 30
0.0
  0
VERTEX
  5
A8A
  8
CALIFORNIA
 10
87.511189528818264
 20
701.08650245226363
 30
0.0
  0
VERTEX
  5
A8B
  8
CALIFORNIA
 10
87.543954128326376
 20
701.08991554623719
 30
0.0
  0
VERTEX
  5
A8C
  8
CALIFORNIA
 10
87.575632253414625
 20
701.11248561175285
 30
0.0
  0
VERTEX
  5
A8D
  8
CALIFORNIA
 10
87.599607489380958
 20
701.10205171165398
 30
0.0
  0
VERTEX
  5
A8E
  8
CALIFORNIA
 10
87.585815493679547
 20
701.03491391919897
 30
0.0
  0
VERTEX
  5
A8F
  8
CALIFORNIA
 10
87.522213689741804
 20
701.04249119344922
 30
0.0
  0
SEQEND
  5
A90
  8
CALIFORNIA
  0
POLYLINE
  5
8A
  8
CALIFORNIA
 66
     1
 10
0.0
 20
0.0
 30
0.0
 70
     1
1001
DCO15
1071
        4
1071
        3
1000
lotenos--cerámica
1004
0756475F32343000
1071
        2
1000
lotes--períodos
1004
0756475F32343000
1071
        1
1000
lotes--cerámica
1004
0756475F32343000
  0
VERTEX
  5
A91
  8
CALIFORNIA
 10
87.409666450649269
 20
700.97994792152974
 30
0.0
  0
VERTEX
  5
A92
  8
CALIFORNIA
 10
87.426657959753115
 20
701.00040243515048
 30
0.0
  0
VERTEX
  5
A93
  8
CALIFORNIA
 10
87.440627937010817
 20
701.03047123329543
 30
0.0
  0
VERTEX
  5
A94
  8
CALIFORNIA
 10
87.463523845722847
 20
701.04528609932424
 30
0.0
  0
VERTEX
  5
A95
  8
CALIFORNIA
 10
87.479441939991929
 20
701.04979598982334
 30
0.0
  0
VERTEX
  5
A96
  8
CALIFORNIA
 10
87.485546756242442
 20
700.99259339284731
 30
0.0
  0
VERTEX
  5
A97
  8
CALIFORNIA
 10
87.503424607643339
 20
700.97401687211095
 30
0.0
  0
VERTEX
  5
A98
  8
CALIFORNIA
 10
87.462532213523659
 20
700.94171629244806
 30
0.0
  0
SEQEND
  5
A99
  8
CALIFORNIA
  0
POLYLINE
  5
8B
  8
CALIFORNIA
 66
     1
 10
0.0
 20
0.0
 30
0.0
 70
     1
1001
DCO15
1071
        4
1071
        3
1000
lotenos--cerámica
1004
0756475F31373800
1071
        2
1000
lotes--períodos
1004
0756475F31373800
1071
        1
1000
lotes--cerámica
1004
0756475F31373800
  0
VERTEX
  5
A9A
  8
CALIFORNIA
 10
87.660225677949455
 20
700.10252009061435
 30
0.0
  0
VERTEX
  5
A9B
  8
CALIFORNIA
 10
87.604459388880244
 20
700.1001491542703
 30
0.0
  0
VERTEX
  5
A9C
  8
CALIFORNIA
 10
87.571510122422566
 20
700.05625801406461
 30
0.0
  0
VERTEX
  5
A9D
  8
CALIFORNIA
 10
87.622166484837024
 20
700.01494410865575
 30
0.0
  0
VERTEX
  5
A9E
  8
CALIFORNIA
 10
87.658445890569709
 20
700.03731941227932
 30
0.0
  0
SEQEND
  5
A9F
  8
CALIFORNIA
  0
POLYLINE
  5
8C
  8
CALIFORNIA
 66
     1
 10
0.0
 20
0.0
 30
0.0
 70
     1
1001
DCO15
1071
        4
1071
        3
1000
lotenos--cerámica
1004
0756475F31353200
1071
        2
1000
lotes--períodos
1004
0756475F31353200
1071
        1
1000
lotes--cerámica
1004
0756475F31353200
  0
VERTEX
  5
AA0
  8
CALIFORNIA
 10
87.718728574628912
 20
699.86835976642578
 30
0.0
  0
VERTEX
  5
AA1
  8
CALIFORNIA
 10
87.772960694572276
 20
699.88759906458313
 30
0.0
  0
VERTEX
  5
AA2
  8
CALIFORNIA
 10
87.783129922355428
 20
699.84742221276667
 30
0.0
  0
VERTEX
  5
AA3
  8
CALIFORNIA
 10
87.780737109829047
 20
699.79141016917345
 30
0.0
  0
VERTEX
  5
AA4
  8
CALIFORNIA
 10
87.770602770082945
 20
699.78197924060248
 30
0.0
  0
VERTEX
  5
AA5
  8
CALIFORNIA
 10
87.70564246542763
 20
699.80903213859915
 30
0.0
  0
SEQEND
  5
AA6
  8
CALIFORNIA
  0
POLYLINE
  5
8D
  8
CALIFORNIA
 66
     1
 10
0.0
 20
0.0
 30
0.0
 70
     1
1001
DCO15
1071
        4
1071
        3
1000
lotenos--cerámica
1004
0756475F31343100
1071
        2
1000
lotes--períodos
1004
0756475F31343100
1071
        1
1000
lotes--cerámica
1004
0756475F31343100
  0
VERTEX
  5
AA7
  8
CALIFORNIA
 10
87.372103964351325
 20
700.10282130359371
 30
0.0
  0
VERTEX
  5
AA8
  8
CALIFORNIA
 10
87.427279380467169
 20
700.12303167693267
 30
0.0
  0
VERTEX
  5
AA9
  8
CALIFORNIA
 10
87.435900575189123
 20
700.10146492508113
 30
0.0
  0
VERTEX
  5
AAA
  8
CALIFORNIA
 10
87.458399180064944
 20
700.08817449041385
 30
0.0
  0
VERTEX
  5
AAB
  8
CALIFORNIA
 10
87.474089796221548
 20
700.08837853136811
 30
0.0
  0
VERTEX
  5
AAC
  8
CALIFORNIA
 10
87.474055628497453
 20
700.08356807708583
 30
0.0
  0
VERTEX
  5
AAD
  8
CALIFORNIA
 10
87.453974077751994
 20
700.02558636749052
 30
0.0
  0
VERTEX
  5
AAE
  8
CALIFORNIA
 10
87.401168908531005
 20
700.00881618820745
 30
0.0
  0
VERTEX
  5
AAF
  8
CALIFORNIA
 10
87.391513233905215
 20
700.02407398805201
 30
0.0
  0
VERTEX
  5
AB0
  8
CALIFORNIA
 10
87.395544851663672
 20
700.04940879431535
 30
0.0
  0
VERTEX
  5
AB1
  8
CALIFORNIA
 10
87.383880774921337
 20
700.08530413553831
 30
0.0
  0
VERTEX
  5
AB2
  8
CALIFORNIA
 10
87.372103964351325
 20
700.10282130359371
 30
0.0
  0
SEQEND
  5
AB3
  8
CALIFORNIA
  0
POLYLINE
  5
8E
  8
CALIFORNIA
 66
     1
 10
0.0
 20
0.0
 30
0.0
 70
     1
1001
DCO15
1071
        4
1071
        3
1000
lotenos--cerámica
1004
0756475F383100
1071
        2
1000
lotes--períodos
1004
0756475F383100
1071
        1
1000
lotes--cerámica
1004
0756475F383100
  0
VERTEX
  5
AB4
  8
CALIFORNIA
 10
87.636418048027977
 20
699.62473303335491
 30
0.0
  0
VERTEX
  5
AB5
  8
CALIFORNIA
 10
87.623927201678413
 20
699.62425303627401
 30
0.0
  0
VERTEX
  5
AB6
  8
CALIFORNIA
 10
87.596543426587772
 20
699.64249273567327
 30
0.0
  0
VERTEX
  5
AB7
  8
CALIFORNIA
 10
87.545306457709046
 20
699.55570126002192
 30
0.0
  0
VERTEX
  5
AB8
  8
CALIFORNIA
 10
87.577040104144743
 20
699.55089577372235
 30
0.0
  0
VERTEX
  5
AB9
  8
CALIFORNIA
 10
87.613578094308309
 20
699.55495447094677
 30
0.0
  0
VERTEX
  5
ABA
  8
CALIFORNIA
 10
87.646151408588082
 20
699.56238998406559
 30
0.0
  0
VERTEX
  5
ABB
  8
CALIFORNIA
 10
87.654673892117046
 20
699.57097391035074
 30
0.0
  0
SEQEND
  5
ABC
  8
CALIFORNIA
  0
POLYLINE
  5
8F
  8
CALIFORNIA
 66
     1
 10
0.0
 20
0.0
 30
0.0
 70
     1
1001
DCO15
1071
        4
1071
        3
1000
lotenos--cerámica
1004
0756475F373700
1071
        2
1000
lotes--períodos
1004
0756475F373700
1071
        1
1000
lotes--cerámica
1004
0756475F373700
  0
VERTEX
  5
ABD
  8
CALIFORNIA
 10
87.63751472512881
 20
699.62592043267205
 30
0.0
  0
VERTEX
  5
ABE
  8
CALIFORNIA
 10
87.670614906176539
 20
699.66480782210203
 30
0.0
  0
VERTEX
  5
ABF
  8
CALIFORNIA
 10
87.658565157673337
 20
699.68015545059677
 30
0.0
  0
VERTEX
  5
AC0
  8
CALIFORNIA
 10
87.653612187764992
 20
699.71258885924965
 30
0.0
  0
VERTEX
  5
AC1
  8
CALIFORNIA
 10
87.640938683635724
 20
699.7310723247009
 30
0.0
  0
VERTEX
  5
AC2
  8
CALIFORNIA
 10
87.625270856494296
 20
699.73744559917066
 30
0.0
  0
VERTEX
  5
AC3
  8
CALIFORNIA
 10
87.606640075894333
 20
699.73857775468366
 30
0.0
  0
VERTEX
  5
AC4
  8
CALIFORNIA
 10
87.582121116664794
 20
699.73410322339635
 30
0.0
  0
VERTEX
  5
AC5
  8
CALIFORNIA
 10
87.568212351409571
 20
699.67291296602957
 30
0.0
  0
VERTEX
  5
AC6
  8
CALIFORNIA
 10
87.597822203084434
 20
699.64367199716321
 30
0.0
  0
VERTEX
  5
AC7
  8
CALIFORNIA
 10
87.62662474460663
 20
699.62697662560458
 30
0.0
  0
VERTEX
  5
AC8
  8
CALIFORNIA
 10
87.637473247261667
 20
699.62801290995117
 30
0.0
  0
SEQEND
  5
AC9
  8
CALIFORNIA
  0
POLYLINE
  5
90
  8
CALIFORNIA
 66
     1
 10
0.0
 20
0.0
 30
0.0
 70
     1
1001
DCO15
1071
        4
1071
        3
1000
lotenos--cerámica
1004
0756475F36383500
1071
        2
1000
lotes--períodos
1004
0756475F36383500
1071
        1
1000
lotes--cerámica
1004
0756475F36383500
  0
VERTEX
  5
ACA
  8
CALIFORNIA
 10
87.818154700075823
 20
698.63327643314847
 30
0.0
  0
VERTEX
  5
ACB
  8
CALIFORNIA
 10
87.834836764596901
 20
698.61208838760444
 30
0.0
  0
VERTEX
  5
ACC
  8
CALIFORNIA
 10
87.869478756684288
 20
698.59792391833162
 30
0.0
  0
VERTEX
  5
ACD
  8
CALIFORNIA
 10
87.89866654060917
 20
698.60985465665215
 30
0.0
  0
VERTEX
  5
ACE
  8
CALIFORNIA
 10
87.901566943311536
 20
698.61730143146121
 30
0.0
  0
VERTEX
  5
ACF
  8
CALIFORNIA
 10
87.88761191908209
 20
698.6589508594875
 30
0.0
  0
VERTEX
  5
AD0
  8
CALIFORNIA
 10
87.878123360656616
 20
698.68270244088512
 30
0.0
  0
VERTEX
  5
AD1
  8
CALIFORNIA
 10
87.869378670446679
 20
698.7022220533064
 30
0.0
  0
VERTEX
  5
AD2
  8
CALIFORNIA
 10
87.865330173807493
 20
698.72304941889206
 30
0.0
  0
VERTEX
  5
AD3
  8
CALIFORNIA
 10
87.862261439574297
 20
698.74629231680296
 30
0.0
  0
VERTEX
  5
AD4
  8
CALIFORNIA
 10
87.810997847677797
 20
698.76413440970384
 30
0.0
  0
SEQEND
  5
AD5
  8
CALIFORNIA
  0
POLYLINE
  5
91
  8
CALIFORNIA
 66
     1
 10
0.0
 20
0.0
 30
0.0
 70
     1
1001
DCO15
1071
        4
1071
        3
1000
lotenos--cerámica
1004
0756475F32353100
1071
        2
1000
lotes--períodos
1004
0756475F32353100
1071
        1
1000
lotes--cerámica
1004
0756475F32353100
  0
VERTEX
  5
AD6
  8
CALIFORNIA
 10
87.887748113160839
 20
700.9084631669391
 30
0.0
  0
VERTEX
  5
AD7
  8
CALIFORNIA
 10
87.875078237731245
 20
700.90731168044545
 30
0.0
  0
VERTEX
  5
AD8
  8
CALIFORNIA
 10
87.841349382671623
 20
700.90158923556157
 30
0.0
  0
VERTEX
  5
AD9
  8
CALIFORNIA
 10
87.824993432061632
 20
700.89179525863256
 30
0.0
  0
VERTEX
  5
ADA
  8
CALIFORNIA
 10
87.818290742674336
 20
700.88280416862995
 30
0.0
  0
VERTEX
  5
ADB
  8
CALIFORNIA
 10
87.82266830450348
 20
700.84927251449085
 30
0.0
  0
VERTEX
  5
ADC
  8
CALIFORNIA
 10
87.833758136163866
 20
700.82361351618158
 30
0.0
  0
VERTEX
  5
ADD
  8
CALIFORNIA
 10
87.858469597779887
 20
700.822425016701
 30
0.0
  0
VERTEX
  5
ADE
  8
CALIFORNIA
 10
87.883035882061336
 20
700.83717914140345
 30
0.0
  0
VERTEX
  5
ADF
  8
CALIFORNIA
 10
87.901496253886137
 20
700.85289775429442
 30
0.0
  0
VERTEX
  5
AE0
  8
CALIFORNIA
 10
87.902048161606359
 20
700.86210201364543
 30
0.0
  0
SEQEND
  5
AE1
  8
CALIFORNIA
  0
POLYLINE
  5
92
  8
CALIFORNIA
 66
     1
 10
0.0
 20
0.0
 30
0.0
 70
     1
1001
DCO15
1071
        4
1071
        3
1000
lotenos--cerámica
1004
0756475F38353800
1071
        2
1000
lotes--períodos
1004
0756475F38353800
1071
        1
1000
lotes--cerámica
1004
0756475F38353800
  0
VERTEX
  5
AE2
  8
CALIFORNIA
 10
88.869534146570814
 20
699.89656141583339
 30
0.0
  0
VERTEX
  5
AE3
  8
CALIFORNIA
 10
88.85334762682804
 20
699.9362644521367
 30
0.0
  0
VERTEX
  5
AE4
  8
CALIFORNIA
 10
88.853363220421755
 20
699.938669605614
 30
0.0
  0
VERTEX
  5
AE5
  8
CALIFORNIA
 10
88.795394247064195
 20
699.93752015513076
 30
0.0
  0
VERTEX
  5
AE6
  8
CALIFORNIA
 10
88.785799675416712
 20
699.86257437522761
 30
0.0
  0
VERTEX
  5
AE7
  8
CALIFORNIA
 10
88.796477698627584
 20
699.84838622664779
 30
0.0
  0
VERTEX
  5
AE8
  8
CALIFORNIA
 10
88.859349058079019
 20
699.86257610991913
 30
0.0
  0
VERTEX
  5
AE9
  8
CALIFORNIA
 10
88.876512008717214
 20
699.88174655611363
 30
0.0
  0
SEQEND
  5
AEA
  8
CALIFORNIA
  0
POLYLINE
  5
93
  8
CALIFORNIA
 66
     1
 10
0.0
 20
0.0
 30
0.0
 70
     1
1001
DCO15
1071
        4
1071
        3
1000
lotenos--cerámica
1004
0756475F37393700
1071
        2
1000
lotes--períodos
1004
0756475F37393700
1071
        1
1000
lotes--cerámica
1004
0756475F37393700
  0
VERTEX
  5
AEB
  8
CALIFORNIA
 10
88.457726524264586
 20
700.08379899298325
 30
0.0
  0
VERTEX
  5
AEC
  8
CALIFORNIA
 10
88.470604244523329
 20
700.09176134317545
 30
0.0
  0
VERTEX
  5
AED
  8
CALIFORNIA
 10
88.514767802888045
 20
700.08094763773045
 30
0.0
  0
VERTEX
  5
AEE
  8
CALIFORNIA
 10
88.538315442695392
 20
700.05643125861843
 30
0.0
  0
VERTEX
  5
AEF
  8
CALIFORNIA
 10
88.504930993020125
 20
699.99459116646642
 30
0.0
  0
VERTEX
  5
AF0
  8
CALIFORNIA
 10
88.480386437504109
 20
699.97994045871508
 30
0.0
  0
VERTEX
  5
AF1
  8
CALIFORNIA
 10
88.463676360253046
 20
699.98390063652971
 30
0.0
  0
VERTEX
  5
AF2
  8
CALIFORNIA
 10
88.438690708569553
 20
700.05448723643008
 30
0.0
  0
SEQEND
  5
AF3
  8
CALIFORNIA
  0
POLYLINE
  5
94
  8
CALIFORNIA
 66
     1
 10
0.0
 20
0.0
 30
0.0
 70
     1
1001
DCO15
1071
        4
1071
        3
1000
lotenos--cerámica
1004
0756475F35333300
1071
        2
1000
lotes--períodos
1004
0756475F35333300
1071
        1
1000
lotes--cerámica
1004
0756475F35333300
  0
VERTEX
  5
AF4
  8
CALIFORNIA
 10
88.532691524729884
 20
700.20517665434159
 30
0.0
  0
VERTEX
  5
AF5
  8
CALIFORNIA
 10
88.576225949383414
 20
700.20640021787995
 30
0.0
  0
VERTEX
  5
AF6
  8
CALIFORNIA
 10
88.598653171260608
 20
700.18170861128613
 30
0.0
  0
VERTEX
  5
AF7
  8
CALIFORNIA
 10
88.598882650852147
 20
700.15593129765864
 30
0.0
  0
VERTEX
  5
AF8
  8
CALIFORNIA
 10
88.588729439413328
 20
700.12099140647649
 30
0.0
  0
VERTEX
  5
AF9
  8
CALIFORNIA
 10
88.573292650209538
 20
700.09371604607145
 30
0.0
  0
VERTEX
  5
AFA
  8
CALIFORNIA
 10
88.564287559839116
 20
700.07830964849177
 30
0.0
  0
VERTEX
  5
AFB
  8
CALIFORNIA
 10
88.551297328070532
 20
700.07536122299985
 30
0.0
  0
VERTEX
  5
AFC
  8
CALIFORNIA
 10
88.543394791262841
 20
700.08926815899565
 30
0.0
  0
VERTEX
  5
AFD
  8
CALIFORNIA
 10
88.530247239452393
 20
700.10836835201235
 30
0.0
  0
VERTEX
  5
AFE
  8
CALIFORNIA
 10
88.522902353775848
 20
700.11470691605155
 30
0.0
  0
VERTEX
  5
AFF
  8
CALIFORNIA
 10
88.516376245777792
 20
700.1709448637821
 30
0.0
  0
VERTEX
  5
B00
  8
CALIFORNIA
 10
88.532691524729884
 20
700.20517665434159
 30
0.0
  0
SEQEND
  5
B01
  8
CALIFORNIA
  0
POLYLINE
  5
95
  8
CALIFORNIA
 66
     1
 10
0.0
 20
0.0
 30
0.0
 70
     1
1001
DCO15
1071
        4
1071
        3
1000
lotenos--cerámica
1004
0756475F34383000
1071
        2
1000
lotes--períodos
1004
0756475F34383000
1071
        1
1000
lotes--cerámica
1004
0756475F34383000
  0
VERTEX
  5
B02
  8
CALIFORNIA
 10
88.572966630575692
 20
701.49301210398585
 30
0.0
  0
VERTEX
  5
B03
  8
CALIFORNIA
 10
88.560955717027568
 20
701.52181281084245
 30
0.0
  0
VERTEX
  5
B04
  8
CALIFORNIA
 10
88.512431610528949
 20
701.53669317557785
 30
0.0
  0
VERTEX
  5
B05
  8
CALIFORNIA
 10
88.472343894629745
 20
701.47709866290757
 30
0.0
  0
VERTEX
  5
B06
  8
CALIFORNIA
 10
88.506185927601791
 20
701.39076962451827
 30
0.0
  0
VERTEX
  5
B07
  8
CALIFORNIA
 10
88.584497109731544
 20
701.44981105792635
 30
0.0
  0
SEQEND
  5
B08
  8
CALIFORNIA
  0
POLYLINE
  5
96
  8
CALIFORNIA
 66
     1
 10
0.0
 20
0.0
 30
0.0
 70
     1
1001
DCO15
1071
        4
1071
        3
1000
lotenos--cerámica
1004
0756475F34313200
1071
        2
1000
lotes--períodos
1004
0756475F34313200
1071
        1
1000
lotes--cerámica
1004
0756475F34313200
  0
VERTEX
  5
B09
  8
CALIFORNIA
 10
88.4234632008679
 20
700.88990639367557
 30
0.0
  0
VERTEX
  5
B0A
  8
CALIFORNIA
 10
88.441780651052525
 20
700.91562708448885
 30
0.0
  0
VERTEX
  5
B0B
  8
CALIFORNIA
 10
88.47395997431309
 20
700.9329390822669
 30
0.0
  0
VERTEX
  5
B0C
  8
CALIFORNIA
 10
88.542774215856852
 20
700.8503361103302
 30
0.0
  0
VERTEX
  5
B0D
  8
CALIFORNIA
 10
88.432869461007456
 20
700.8513253716817
 30
0.0
  0
SEQEND
  5
B0E
  8
CALIFORNIA
  0
POLYLINE
  5
97
  8
CALIFORNIA
 66
     1
 10
0.0
 20
0.0
 30
0.0
 70
     1
1001
DCO15
1071
        4
1071
        3
1000
lotenos--cerámica
1004
0756475F32333300
1071
        2
1000
lotes--períodos
1004
0756475F32333300
1071
        1
1000
lotes--cerámica
1004
0756475F32333300
  0
VERTEX
  5
B0F
  8
CALIFORNIA
 10
88.426433603520906
 20
700.78207737108551
 30
0.0
  0
VERTEX
  5
B10
  8
CALIFORNIA
 10
88.463563591898534
 20
700.76674388652646
 30
0.0
  0
VERTEX
  5
B11
  8
CALIFORNIA
 10
88.464553714173562
 20
700.72123806352442
 30
0.0
  0
VERTEX
  5
B12
  8
CALIFORNIA
 10
88.439274817550086
 20
700.68733563407659
 30
0.0
  0
VERTEX
  5
B13
  8
CALIFORNIA
 10
88.401680277935867
 20
700.68067851882779
 30
0.0
  0
VERTEX
  5
B14
  8
CALIFORNIA
 10
88.375441759981214
 20
700.74844262739703
 30
0.0
  0
SEQEND
  5
B15
  8
CALIFORNIA
  0
POLYLINE
  5
98
  8
CALIFORNIA
 66
     1
 10
0.0
 20
0.0
 30
0.0
 70
     1
1001
DCO15
1071
        4
1071
        3
1000
lotenos--cerámica
1004
0756475F32323900
1071
        2
1000
lotes--períodos
1004
0756475F32323900
1071
        1
1000
lotes--cerámica
1004
0756475F32323900
  0
VERTEX
  5
B16
  8
CALIFORNIA
 10
88.313905439350776
 20
700.62399471590948
 30
0.0
  0
VERTEX
  5
B17
  8
CALIFORNIA
 10
88.276775450973133
 20
700.59827402509643
 30
0.0
  0
VERTEX
  5
B18
  8
CALIFORNIA
 10
88.28755587415516
 20
700.57057197280415
 30
0.0
  0
VERTEX
  5
B19
  8
CALIFORNIA
 10
88.306885162474543
 20
700.55761329509505
 30
0.0
  0
VERTEX
  5
B1A
  8
CALIFORNIA
 10
88.348188864892563
 20
700.55090222972365
 30
0.0
  0
VERTEX
  5
B1B
  8
CALIFORNIA
 10
88.379189631465422
 20
700.55308510961527
 30
0.0
  0
VERTEX
  5
B1C
  8
CALIFORNIA
 10
88.394555948749598
 20
700.59367645145664
 30
0.0
  0
VERTEX
  5
B1D
  8
CALIFORNIA
 10
88.37255708109106
 20
700.62624205263239
 30
0.0
  0
VERTEX
  5
B1E
  8
CALIFORNIA
 10
88.344231493341809
 20
700.61662138144743
 30
0.0
  0
SEQEND
  5
B1F
  8
CALIFORNIA
  0
POLYLINE
  5
99
  8
CALIFORNIA
 66
     1
 10
0.0
 20
0.0
 30
0.0
 70
     1
1001
DCO15
1071
        4
1071
        3
1000
lotenos--cerámica
1004
0743415F33323300
1071
        2
1000
lotes--períodos
1004
0743415F33323300
1071
        1
1000
lotes--cerámica
1004
0743415F33323300
  0
VERTEX
  5
B20
  8
CALIFORNIA
 10
91.359704897681354
 20
702.73237486332414
 30
0.0
  0
VERTEX
  5
B21
  8
CALIFORNIA
 10
91.293932390967626
 20
702.73676585446549
 30
0.0
  0
VERTEX
  5
B22
  8
CALIFORNIA
 10
91.287563596929644
 20
702.71364524446756
 30
0.0
  0
VERTEX
  5
B23
  8
CALIFORNIA
 10
91.329860846258754
 20
702.66386334904973
 30
0.0
  0
VERTEX
  5
B24
  8
CALIFORNIA
 10
91.356566316974238
 20
702.66290096819523
 30
0.0
  0
VERTEX
  5
B25
  8
CALIFORNIA
 10
91.363963883347296
 20
702.68143926759126
 30
0.0
  0
VERTEX
  5
B26
  8
CALIFORNIA
 10
91.360454247441027
 20
702.72058532030462
 30
0.0
  0
SEQEND
  5
B27
  8
CALIFORNIA
  0
POLYLINE
  5
9A
  8
CALIFORNIA
 66
     1
 10
0.0
 20
0.0
 30
0.0
 70
     1
1001
DCO15
1071
        4
1071
        3
1000
lotenos--cerámica
1004
0756475F37373300
1071
        2
1000
lotes--períodos
1004
0756475F37373300
1071
        1
1000
lotes--cerámica
1004
0756475F37373300
  0
VERTEX
  5
B28
  8
CALIFORNIA
 10
89.557783992003806
 20
700.67513515571625
 30
0.0
  0
VERTEX
  5
B29
  8
CALIFORNIA
 10
89.636741061825617
 20
700.64262405966372
 30
0.0
  0
VERTEX
  5
B2A
  8
CALIFORNIA
 10
89.626915226260564
 20
700.6095323081073
 30
0.0
  0
VERTEX
  5
B2B
  8
CALIFORNIA
 10
89.607342112883799
 20
700.59681996502206
 30
0.0
  0
VERTEX
  5
B2C
  8
CALIFORNIA
 10
89.587119326297326
 20
700.59164944406962
 30
0.0
  0
VERTEX
  5
B2D
  8
CALIFORNIA
 10
89.546899893102804
 20
700.60684176227971
 30
0.0
  0
VERTEX
  5
B2E
  8
CALIFORNIA
 10
89.534840978613943
 20
700.62458524823865
 30
0.0
  0
VERTEX
  5
B2F
  8
CALIFORNIA
 10
89.521838362357343
 20
700.63850822056111
 30
0.0
  0
VERTEX
  5
B30
  8
CALIFORNIA
 10
89.520108772879411
 20
700.65598627426061
 30
0.0
  0
VERTEX
  5
B31
  8
CALIFORNIA
 10
89.51950177796121
 20
700.66796359417606
 30
0.0
  0
SEQEND
  5
B32
  8
CALIFORNIA
  0
POLYLINE
  5
9B
  8
CALIFORNIA
 66
     1
 10
0.0
 20
0.0
 30
0.0
 70
     1
1001
DCO15
1071
        4
1071
        3
1000
lotenos--cerámica
1004
0743415F34323300
1071
        2
1000
lotes--períodos
1004
0743415F34323300
1071
        1
1000
lotes--cerámica
1004
0743415F34323300
  0
VERTEX
  5
B33
  8
CALIFORNIA
 10
91.112921381551871
 20
701.85952968010008
 30
0.0
  0
VERTEX
  5
B34
  8
CALIFORNIA
 10
91.136869409878926
 20
701.83766131966877
 30
0.0
  0
VERTEX
  5
B35
  8
CALIFORNIA
 10
91.149200850003183
 20
701.81932733400117
 30
0.0
  0
VERTEX
  5
B36
  8
CALIFORNIA
 10
91.161355326718237
 20
701.80450069151846
 30
0.0
  0
VERTEX
  5
B37
  8
CALIFORNIA
 10
91.186397411913745
 20
701.81710020074115
 30
0.0
  0
VERTEX
  5
B38
  8
CALIFORNIA
 10
91.209646918911517
 20
701.82725791364453
 30
0.0
  0
VERTEX
  5
B39
  8
CALIFORNIA
 10
91.226109406796354
 20
701.83532798063641
 30
0.0
  0
VERTEX
  5
B3A
  8
CALIFORNIA
 10
91.240673950121206
 20
701.84335790670184
 30
0.0
  0
VERTEX
  5
B3B
  8
CALIFORNIA
 10
91.229892201567594
 20
701.9085368538083
 30
0.0
  0
VERTEX
  5
B3C
  8
CALIFORNIA
 10
91.205622022892484
 20
701.90984696404485
 30
0.0
  0
SEQEND
  5
B3D
  8
CALIFORNIA
  0
POLYLINE
  5
9C
  8
CALIFORNIA
 66
     1
 10
0.0
 20
0.0
 30
0.0
 70
     1
1001
DCO15
1071
        4
1071
        3
1000
lotenos--cerámica
1004
0743415F34323200
1071
        2
1000
lotes--períodos
1004
0743415F34323200
1071
        1
1000
lotes--cerámica
1004
0743415F34323200
  0
VERTEX
  5
B3E
  8
CALIFORNIA
 10
91.183269996506482
 20
702.00780412272638
 30
0.0
  0
VERTEX
  5
B3F
  8
CALIFORNIA
 10
91.148726075885278
 20
701.97887376472374
 30
0.0
  0
VERTEX
  5
B40
  8
CALIFORNIA
 10
91.116091657522617
 20
701.95774515082439
 30
0.0
  0
VERTEX
  5
B41
  8
CALIFORNIA
 10
91.098741621422505
 20
701.93359662228897
 30
0.0
  0
VERTEX
  5
B42
  8
CALIFORNIA
 10
91.100974115640966
 20
701.91746022904044
 30
0.0
  0
VERTEX
  5
B43
  8
CALIFORNIA
 10
91.100974115640966
 20
701.91746022904044
 30
0.0
  0
VERTEX
  5
B44
  8
CALIFORNIA
 10
91.124342089155576
 20
701.91441493003936
 30
0.0
  0
VERTEX
  5
B45
  8
CALIFORNIA
 10
91.20968600966637
 20
701.9651699017262
 30
0.0
  0
VERTEX
  5
B46
  8
CALIFORNIA
 10
91.183269996506482
 20
702.00780412272638
 30
0.0
  0
SEQEND
  5
B47
  8
CALIFORNIA
  0
POLYLINE
  5
9D
  8
CALIFORNIA
 66
     1
 10
0.0
 20
0.0
 30
0.0
 70
     1
1001
DCO15
1071
        4
1071
        3
1000
lotenos--cerámica
1004
07545A5F34343600
1071
        2
1000
lotes--períodos
1004
07545A5F34343600
1071
        1
1000
lotes--cerámica
1004
07545A5F34343600
  0
VERTEX
  5
B48
  8
CALIFORNIA
 10
92.098265508979836
 20
697.30235881701844
 30
0.0
  0
VERTEX
  5
B49
  8
CALIFORNIA
 10
92.097727362856048
 20
697.31096232067011
 30
0.0
  0
VERTEX
  5
B4A
  8
CALIFORNIA
 10
92.108887524150603
 20
697.33063094780323
 30
0.0
  0
VERTEX
  5
B4B
  8
CALIFORNIA
 10
92.124313098336884
 20
697.34578408789116
 30
0.0
  0
VERTEX
  5
B4C
  8
CALIFORNIA
 10
92.136040060390869
 20
697.36013379470944
 30
0.0
  0
VERTEX
  5
B4D
  8
CALIFORNIA
 10
92.154283881058561
 20
697.37758747935095
 30
0.0
  0
VERTEX
  5
B4E
  8
CALIFORNIA
 10
92.149254624979207
 20
697.39537944088534
 30
0.0
  0
VERTEX
  5
B4F
  8
CALIFORNIA
 10
92.139642462584433
 20
697.41458433088314
 30
0.0
  0
VERTEX
  5
B50
  8
CALIFORNIA
 10
92.127693558833926
 20
697.42479890067591
 30
0.0
  0
VERTEX
  5
B51
  8
CALIFORNIA
 10
92.102570440482907
 20
697.44592982824292
 30
0.0
  0
VERTEX
  5
B52
  8
CALIFORNIA
 10
92.036920254851665
 20
697.35881933956523
 30
0.0
  0
VERTEX
  5
B53
  8
CALIFORNIA
 10
92.077665055826245
 20
697.28402289609755
 30
0.0
  0
SEQEND
  5
B54
  8
CALIFORNIA
  0
POLYLINE
  5
9E
  8
CALIFORNIA
 66
     1
 10
0.0
 20
0.0
 30
0.0
 70
     1
1001
DCO15
1071
        4
1071
        3
1000
lotenos--cerámica
1004
0743415F32373000
1071
        2
1000
lotes--períodos
1004
0743415F32373000
1071
        1
1000
lotes--cerámica
1004
0743415F32373000
  0
VERTEX
  5
B55
  8
CALIFORNIA
 10
91.787142744416727
 20
702.77553463339621
 30
0.0
  0
VERTEX
  5
B56
  8
CALIFORNIA
 10
91.782946933535285
 20
702.75488407875525
 30
0.0
  0
VERTEX
  5
B57
  8
CALIFORNIA
 10
91.780441761323928
 20
702.7415086373062
 30
0.0
  0
VERTEX
  5
B58
  8
CALIFORNIA
 10
91.77961558321735
 20
702.73248561281082
 30
0.0
  0
VERTEX
  5
B59
  8
CALIFORNIA
 10
91.713333858894089
 20
702.71341261225984
 30
0.0
  0
VERTEX
  5
B5A
  8
CALIFORNIA
 10
91.712202741245704
 20
702.73346068582146
 30
0.0
  0
VERTEX
  5
B5B
  8
CALIFORNIA
 10
91.713692929813973
 20
702.75053433239339
 30
0.0
  0
VERTEX
  5
B5C
  8
CALIFORNIA
 10
91.713360715930946
 20
702.7594610693767
 30
0.0
  0
SEQEND
  5
B5D
  8
CALIFORNIA
  0
POLYLINE
  5
9F
  8
CALIFORNIA
 66
     1
 10
0.0
 20
0.0
 30
0.0
 70
     1
1001
DCO15
1071
        4
1071
        3
1000
lotenos--cerámica
1004
0743415F33393300
1071
        2
1000
lotes--períodos
1004
0743415F33393300
1071
        1
1000
lotes--cerámica
1004
0743415F33393300
  0
VERTEX
  5
B5E
  8
CALIFORNIA
 10
91.434039851661495
 20
702.03592431308596
 30
0.0
  0
VERTEX
  5
B5F
  8
CALIFORNIA
 10
91.4362823506128
 20
702.06486397535355
 30
0.0
  0
VERTEX
  5
B60
  8
CALIFORNIA
 10
91.439415982807674
 20
702.07687702625208
 30
0.0
  0
VERTEX
  5
B61
  8
CALIFORNIA
 10
91.447083899582665
 20
702.0952773104575
 30
0.0
  0
VERTEX
  5
B62
  8
CALIFORNIA
 10
91.449751689813795
 20
702.11786573269808
 30
0.0
  0
VERTEX
  5
B63
  8
CALIFORNIA
 10
91.446413652284946
 20
702.12880347589351
 30
0.0
  0
VERTEX
  5
B64
  8
CALIFORNIA
 10
91.446413652284946
 20
702.12880347589351
 30
0.0
  0
VERTEX
  5
B65
  8
CALIFORNIA
 10
91.382913751552664
 20
702.12626573255704
 30
0.0
  0
VERTEX
  5
B66
  8
CALIFORNIA
 10
91.355337520337144
 20
702.12158145329738
 30
0.0
  0
SEQEND
  5
B67
  8
CALIFORNIA
  0
POLYLINE
  5
A0
  8
CALIFORNIA
 66
     1
 10
0.0
 20
0.0
 30
0.0
 70
     1
1001
DCO15
1071
        4
1071
        3
1000
lotenos--cerámica
1004
07545A5F31373900
1071
        2
1000
lotes--períodos
1004
07545A5F31373900
1071
        1
1000
lotes--cerámica
1004
07545A5F31373900
  0
VERTEX
  5
B68
  8
CALIFORNIA
 10
93.111931291455136
 20
696.97038785218717
 30
0.0
  0
VERTEX
  5
B69
  8
CALIFORNIA
 10
93.135484431506114
 20
696.96242690745066
 30
0.0
  0
VERTEX
  5
B6A
  8
CALIFORNIA
 10
93.147941187734986
 20
696.93663064473799
 30
0.0
  0
VERTEX
  5
B6B
  8
CALIFORNIA
 10
93.168038796054006
 20
696.92271115288816
 30
0.0
  0
VERTEX
  5
B6C
  8
CALIFORNIA
 10
93.179989807130866
 20
696.91316853226385
 30
0.0
  0
VERTEX
  5
B6D
  8
CALIFORNIA
 10
93.194925300178525
 20
696.90141822297551
 30
0.0
  0
VERTEX
  5
B6E
  8
CALIFORNIA
 10
93.181719832599924
 20
696.85534866329806
 30
0.0
  0
VERTEX
  5
B6F
  8
CALIFORNIA
 10
93.143228333131987
 20
696.87735176009801
 30
0.0
  0
VERTEX
  5
B70
  8
CALIFORNIA
 10
93.106259963145789
 20
696.92154169376818
 30
0.0
  0
SEQEND
  5
B71
  8
CALIFORNIA
  0
POLYLINE
  5
A1
  8
CALIFORNIA
 66
     1
 10
0.0
 20
0.0
 30
0.0
 70
     1
1001
DCO15
1071
        4
1071
        3
1000
lotenos--cerámica
1004
0743415F3135383100
1071
        2
1000
lotes--períodos
1004
0743415F3135383100
1071
        1
1000
lotes--cerámica
1004
0743415F3135383100
  0
VERTEX
  5
B72
  8
CALIFORNIA
 10
92.050683825122206
 20
705.43716774389281
 30
0.0
  0
VERTEX
  5
B73
  8
CALIFORNIA
 10
92.069035083536761
 20
705.43857261916401
 30
0.0
  0
VERTEX
  5
B74
  8
CALIFORNIA
 10
92.092438075117798
 20
705.43902224908049
 30
0.0
  0
VERTEX
  5
B75
  8
CALIFORNIA
 10
92.104260988005507
 20
705.4217147735942
 30
0.0
  0
VERTEX
  5
B76
  8
CALIFORNIA
 10
92.101024188140812
 20
705.40263397485376
 30
0.0
  0
VERTEX
  5
B77
  8
CALIFORNIA
 10
92.087064012497592
 20
705.38823028293643
 30
0.0
  0
VERTEX
  5
B78
  8
CALIFORNIA
 10
92.069695101197141
 20
705.38340576545045
 30
0.0
  0
VERTEX
  5
B79
  8
CALIFORNIA
 10
92.064087764044004
 20
705.37993010119578
 30
0.0
  0
SEQEND
  5
B7A
  8
CALIFORNIA
  0
POLYLINE
  5
A2
  8
CALIFORNIA
 66
     1
 10
0.0
 20
0.0
 30
0.0
 70
     1
1001
DCO15
1071
        4
1071
        3
1000
lotenos--cerámica
1004
0743415F33303800
1071
        2
1000
lotes--períodos
1004
0743415F33303800
1071
        1
1000
lotes--cerámica
1004
0743415F33303800
  0
VERTEX
  5
B7B
  8
CALIFORNIA
 10
92.220576793547153
 20
705.9239047686433
 30
0.0
  0
VERTEX
  5
B7C
  8
CALIFORNIA
 10
92.208373178665298
 20
705.88708386023404
 30
0.0
  0
VERTEX
  5
B7D
  8
CALIFORNIA
 10
92.203845509735871
 20
705.85677038443885
 30
0.0
  0
VERTEX
  5
B7E
  8
CALIFORNIA
 10
92.207254132758067
 20
705.82682092641141
 30
0.0
  0
VERTEX
  5
B7F
  8
CALIFORNIA
 10
92.212477896268197
 20
705.81326365919676
 30
0.0
  0
VERTEX
  5
B80
  8
CALIFORNIA
 10
92.223941630011552
 20
705.80638676538877
 30
0.0
  0
VERTEX
  5
B81
  8
CALIFORNIA
 10
92.243391932646944
 20
705.82158187951563
 30
0.0
  0
VERTEX
  5
B82
  8
CALIFORNIA
 10
92.259471954110069
 20
705.85086739805467
 30
0.0
  0
VERTEX
  5
B83
  8
CALIFORNIA
 10
92.263649124399791
 20
705.87055470189068
 30
0.0
  0
VERTEX
  5
B84
  8
CALIFORNIA
 10
92.271923902586295
 20
705.88121722248229
 30
0.0
  0
SEQEND
  5
B85
  8
CALIFORNIA
  0
POLYLINE
  5
A3
  8
CALIFORNIA
 66
     1
 10
0.0
 20
0.0
 30
0.0
 70
     1
1001
DCO15
1071
        4
1071
        3
1000
lotenos--cerámica
1004
0743415F33373500
1071
        2
1000
lotes--períodos
1004
0743415F33373500
1071
        1
1000
lotes--cerámica
1004
0743415F33373500
  0
VERTEX
  5
B86
  8
CALIFORNIA
 10
91.621141358522934
 20
704.64737469902605
 30
0.0
  0
VERTEX
  5
B87
  8
CALIFORNIA
 10
91.587872354160297
 20
704.66282834073775
 30
0.0
  0
VERTEX
  5
B88
  8
CALIFORNIA
 10
91.570980653329244
 20
704.66968049369575
 30
0.0
  0
VERTEX
  5
B89
  8
CALIFORNIA
 10
91.551353132076812
 20
704.68967868280674
 30
0.0
  0
VERTEX
  5
B8A
  8
CALIFORNIA
 10
91.560982966890364
 20
704.72351704227162
 30
0.0
  0
VERTEX
  5
B8B
  8
CALIFORNIA
 10
91.59286459970005
 20
704.74815652628354
 30
0.0
  0
VERTEX
  5
B8C
  8
CALIFORNIA
 10
91.618356956966423
 20
704.74916456606525
 30
0.0
  0
VERTEX
  5
B8D
  8
CALIFORNIA
 10
91.651968629974206
 20
704.74362461574685
 30
0.0
  0
VERTEX
  5
B8E
  8
CALIFORNIA
 10
91.675917986578426
 20
704.73445451160603
 30
0.0
  0
VERTEX
  5
B8F
  8
CALIFORNIA
 10
91.687715806209184
 20
704.72709488490898
 30
0.0
  0
VERTEX
  5
B90
  8
CALIFORNIA
 10
91.693304929636724
 20
704.71859514640119
 30
0.0
  0
SEQEND
  5
B91
  8
CALIFORNIA
  0
POLYLINE
  5
A4
  8
CALIFORNIA
 66
     1
 10
0.0
 20
0.0
 30
0.0
 70
     1
1001
DCO15
1071
        4
1071
        3
1000
lotenos--cerámica
1004
0752445F3136393800
1071
        2
1000
lotes--períodos
1004
0752445F3136393800
1071
        1
1000
lotes--cerámica
1004
0752445F3136393800
  0
VERTEX
  5
B92
  8
CALIFORNIA
 10
93.127893954703126
 20
710.28521506486277
 30
0.0
  0
VERTEX
  5
B93
  8
CALIFORNIA
 10
93.139574800405171
 20
710.25857377420061
 30
0.0
  0
VERTEX
  5
B94
  8
CALIFORNIA
 10
93.158359789562766
 20
710.24065676885425
 30
0.0
  0
VERTEX
  5
B95
  8
CALIFORNIA
 10
93.173658764059908
 20
710.22348512695294
 30
0.0
  0
VERTEX
  5
B96
  8
CALIFORNIA
 10
93.191024652215518
 20
710.1963665071288
 30
0.0
  0
VERTEX
  5
B97
  8
CALIFORNIA
 10
93.212526492411044
 20
710.15076847068917
 30
0.0
  0
VERTEX
  5
B98
  8
CALIFORNIA
 10
93.206909064369285
 20
710.1338052294351
 30
0.0
  0
VERTEX
  5
B99
  8
CALIFORNIA
 10
93.202676376727851
 20
710.11328096856869
 30
0.0
  0
VERTEX
  5
B9A
  8
CALIFORNIA
 10
93.185214226488469
 20
710.09927110076399
 30
0.0
  0
VERTEX
  5
B9B
  8
CALIFORNIA
 10
93.165015953164996
 20
710.10656746306586
 30
0.0
  0
VERTEX
  5
B9C
  8
CALIFORNIA
 10
93.151098122151012
 20
710.11663901966097
 30
0.0
  0
VERTEX
  5
B9D
  8
CALIFORNIA
 10
93.116361398447054
 20
710.16735582130764
 30
0.0
  0
VERTEX
  5
B9E
  8
CALIFORNIA
 10
93.093426923216299
 20
710.19987067855266
 30
0.0
  0
SEQEND
  5
B9F
  8
CALIFORNIA
  0
POLYLINE
  5
A5
  8
CALIFORNIA
 66
     1
 10
0.0
 20
0.0
 30
0.0
 70
     1
1001
DCO15
1071
        4
1071
        3
1000
lotenos--cerámica
1004
0743415F31303900
1071
        2
1000
lotes--períodos
1004
0743415F31303900
1071
        1
1000
lotes--cerámica
1004
0743415F31303900
  0
VERTEX
  5
BA0
  8
CALIFORNIA
 10
93.073831026364346
 20
704.33000077518591
 30
0.0
  0
VERTEX
  5
BA1
  8
CALIFORNIA
 10
93.056792549512153
 20
704.28368134389325
 30
0.0
  0
VERTEX
  5
BA2
  8
CALIFORNIA
 10
93.024300613431635
 20
704.29476632882086
 30
0.0
  0
VERTEX
  5
BA3
  8
CALIFORNIA
 10
92.985865059520705
 20
704.38978052532605
 30
0.0
  0
VERTEX
  5
BA4
  8
CALIFORNIA
 10
93.002438379467634
 20
704.39096259593884
 30
0.0
  0
VERTEX
  5
BA5
  8
CALIFORNIA
 10
93.031318082375847
 20
704.38670232914899
 30
0.0
  0
VERTEX
  5
BA6
  8
CALIFORNIA
 10
93.049621259236787
 20
704.37750729282391
 30
0.0
  0
VERTEX
  5
BA7
  8
CALIFORNIA
 10
93.074827799431034
 20
704.33932134979034
 30
0.0
  0
SEQEND
  5
BA8
  8
CALIFORNIA
  0
POLYLINE
  5
A6
  8
CALIFORNIA
 66
     1
 10
0.0
 20
0.0
 30
0.0
 70
     1
1001
DCO15
1071
        4
1071
        3
1000
lotenos--cerámica
1004
0743415F313500
1071
        2
1000
lotes--períodos
1004
0743415F313500
1071
        1
1000
lotes--cerámica
1004
0743415F313500
  0
VERTEX
  5
BA9
  8
CALIFORNIA
 10
92.342755623054316
 20
703.36537932113322
 30
0.0
  0
VERTEX
  5
BAA
  8
CALIFORNIA
 10
92.346679808575303
 20
703.33193368645243
 30
0.0
  0
VERTEX
  5
BAB
  8
CALIFORNIA
 10
92.367229291051444
 20
703.31993026434895
 30
0.0
  0
VERTEX
  5
BAC
  8
CALIFORNIA
 10
92.392777528326221
 20
703.31243561862243
 30
0.0
  0
VERTEX
  5
BAD
  8
CALIFORNIA
 10
92.414193831779002
 20
703.32355327125913
 30
0.0
  0
VERTEX
  5
BAE
  8
CALIFORNIA
 10
92.417424839147756
 20
703.34963321063663
 30
0.0
  0
VERTEX
  5
BAF
  8
CALIFORNIA
 10
92.40755200323288
 20
703.37929764404032
 30
0.0
  0
VERTEX
  5
BB0
  8
CALIFORNIA
 10
92.389009626338805
 20
703.38926315172762
 30
0.0
  0
VERTEX
  5
BB1
  8
CALIFORNIA
 10
92.369196375648556
 20
703.38270259048375
 30
0.0
  0
SEQEND
  5
BB2
  8
CALIFORNIA
  0
POLYLINE
  5
A7
  8
CALIFORNIA
 66
     1
 10
0.0
 20
0.0
 30
0.0
 70
     1
1001
DCO15
1071
        4
1071
        3
1000
lotenos--cerámica
1004
07545A5F34313300
1071
        2
1000
lotes--períodos
1004
07545A5F34313300
1071
        1
1000
lotes--cerámica
1004
07545A5F34313300
  0
VERTEX
  5
BB3
  8
CALIFORNIA
 10
93.416462034980427
 20
697.81289251552232
 30
0.0
  0
VERTEX
  5
BB4
  8
CALIFORNIA
 10
93.411415911808675
 20
697.75765144581601
 30
0.0
  0
VERTEX
  5
BB5
  8
CALIFORNIA
 10
93.419250501933945
 20
697.71984717107534
 30
0.0
  0
VERTEX
  5
BB6
  8
CALIFORNIA
 10
93.439518605656858
 20
697.69181328966067
 30
0.0
  0
VERTEX
  5
BB7
  8
CALIFORNIA
 10
93.459611418557145
 20
697.67791070396913
 30
0.0
  0
VERTEX
  5
BB8
  8
CALIFORNIA
 10
93.477975599352916
 20
697.66932674935686
 30
0.0
  0
VERTEX
  5
BB9
  8
CALIFORNIA
 10
93.494538864894835
 20
697.66755481565031
 30
0.0
  0
VERTEX
  5
BBA
  8
CALIFORNIA
 10
93.478272218989773
 20
697.80683452433925
 30
0.0
  0
SEQEND
  5
BBB
  8
CALIFORNIA
  0
POLYLINE
  5
A8
  8
CALIFORNIA
 66
     1
 10
0.0
 20
0.0
 30
0.0
 70
     1
1001
DCO15
1071
        4
1071
        3
1000
lotenos--cerámica
1004
07545A5F32363300
1071
        2
1000
lotes--períodos
1004
07545A5F32363300
1071
        1
1000
lotes--cerámica
1004
07545A5F32363300
  0
VERTEX
  5
BBC
  8
CALIFORNIA
 10
94.55774524696902
 20
696.45239730658295
 30
0.0
  0
VERTEX
  5
BBD
  8
CALIFORNIA
 10
94.603460152717375
 20
696.4388284491356
 30
0.0
  0
VERTEX
  5
BBE
  8
CALIFORNIA
 10
94.63241636737969
 20
696.4345028794221
 30
0.0
  0
VERTEX
  5
BBF
  8
CALIFORNIA
 10
94.646118920644597
 20
696.44032836501833
 30
0.0
  0
VERTEX
  5
BC0
  8
CALIFORNIA
 10
94.650239559914397
 20
696.45620937534636
 30
0.0
  0
VERTEX
  5
BC1
  8
CALIFORNIA
 10
94.648979278272918
 20
696.4684236129317
 30
0.0
  0
VERTEX
  5
BC2
  8
CALIFORNIA
 10
94.640569959393886
 20
696.48461278593913
 30
0.0
  0
VERTEX
  5
BC3
  8
CALIFORNIA
 10
94.629655899127826
 20
696.49398603313421
 30
0.0
  0
VERTEX
  5
BC4
  8
CALIFORNIA
 10
94.585962493285592
 20
696.50802804912826
 30
0.0
  0
SEQEND
  5
BC5
  8
CALIFORNIA
  0
POLYLINE
  5
A9
  8
CALIFORNIA
 66
     1
 10
0.0
 20
0.0
 30
0.0
 70
     1
1001
DCO15
1071
        4
1071
        3
1000
lotenos--cerámica
1004
0743415F3231353000
1071
        2
1000
lotes--períodos
1004
0743415F3231353000
1071
        1
1000
lotes--cerámica
1004
0743415F3231353000
  0
VERTEX
  5
BC6
  8
CALIFORNIA
 10
94.423692277951588
 20
699.46670511411105
 30
0.0
  0
VERTEX
  5
BC7
  8
CALIFORNIA
 10
94.43179181337679
 20
699.4463117118778
 30
0.0
  0
VERTEX
  5
BC8
  8
CALIFORNIA
 10
94.434724318516487
 20
699.41651900288525
 30
0.0
  0
VERTEX
  5
BC9
  8
CALIFORNIA
 10
94.423680459115346
 20
699.38198462747755
 30
0.0
  0
VERTEX
  5
BCA
  8
CALIFORNIA
 10
94.405640520748634
 20
699.37740497881157
 30
0.0
  0
VERTEX
  5
BCB
  8
CALIFORNIA
 10
94.377818661137084
 20
699.39978906746762
 30
0.0
  0
VERTEX
  5
BCC
  8
CALIFORNIA
 10
94.37173616805859
 20
699.42027635977922
 30
0.0
  0
VERTEX
  5
BCD
  8
CALIFORNIA
 10
94.370405912841278
 20
699.43588681197423
 30
0.0
  0
SEQEND
  5
BCE
  8
CALIFORNIA
  0
POLYLINE
  5
AA
  8
CALIFORNIA
 66
     1
 10
0.0
 20
0.0
 30
0.0
 70
     1
1001
DCO15
1071
        4
1071
        3
1000
lotenos--cerámica
1004
0743415F3131303300
1071
        2
1000
lotes--períodos
1004
0743415F3131303300
1071
        1
1000
lotes--cerámica
1004
0743415F3131303300
  0
VERTEX
  5
BCF
  8
CALIFORNIA
 10
94.67652584943994
 20
701.66273028843364
 30
0.0
  0
VERTEX
  5
BD0
  8
CALIFORNIA
 10
94.664209360687806
 20
701.636958008443
 30
0.0
  0
VERTEX
  5
BD1
  8
CALIFORNIA
 10
94.650664072664739
 20
701.61644619322283
 30
0.0
  0
VERTEX
  5
BD2
  8
CALIFORNIA
 10
94.635828539135233
 20
701.60490637894611
 30
0.0
  0
VERTEX
  5
BD3
  8
CALIFORNIA
 10
94.614793936563956
 20
701.60605959218958
 30
0.0
  0
VERTEX
  5
BD4
  8
CALIFORNIA
 10
94.600281411836676
 20
701.60997845829536
 30
0.0
  0
VERTEX
  5
BD5
  8
CALIFORNIA
 10
94.588546775564311
 20
701.62191476272722
 30
0.0
  0
VERTEX
  5
BD6
  8
CALIFORNIA
 10
94.581349530501285
 20
701.63615837027055
 30
0.0
  0
VERTEX
  5
BD7
  8
CALIFORNIA
 10
94.582672830766697
 20
701.66429046827182
 30
0.0
  0
VERTEX
  5
BD8
  8
CALIFORNIA
 10
94.587462978567714
 20
701.68390365630205
 30
0.0
  0
VERTEX
  5
BD9
  8
CALIFORNIA
 10
94.592398450827233
 20
701.68898230755701
 30
0.0
  0
SEQEND
  5
BDA
  8
CALIFORNIA
  0
POLYLINE
  5
AB
  8
CALIFORNIA
 66
     1
 10
0.0
 20
0.0
 30
0.0
 70
     1
1001
DCO15
1071
        4
1071
        3
1000
lotenos--cerámica
1004
0743415F36323500
1071
        2
1000
lotes--períodos
1004
0743415F36323500
1071
        1
1000
lotes--cerámica
1004
0743415F36323500
  0
VERTEX
  5
BDB
  8
CALIFORNIA
 10
94.094159356764607
 20
704.76453671864795
 30
0.0
  0
VERTEX
  5
BDC
  8
CALIFORNIA
 10
94.087208767200934
 20
704.77115471431853
 30
0.0
  0
VERTEX
  5
BDD
  8
CALIFORNIA
 10
94.094564293064593
 20
704.84009091049154
 30
0.0
  0
VERTEX
  5
BDE
  8
CALIFORNIA
 10
94.033825444750022
 20
704.86049590089067
 30
0.0
  0
VERTEX
  5
BDF
  8
CALIFORNIA
 10
94.011905657574843
 20
704.85230127533634
 30
0.0
  0
VERTEX
  5
BE0
  8
CALIFORNIA
 10
94.003628502996236
 20
704.83509398563945
 30
0.0
  0
VERTEX
  5
BE1
  8
CALIFORNIA
 10
94.008202724552305
 20
704.81957408026187
 30
0.0
  0
VERTEX
  5
BE2
  8
CALIFORNIA
 10
94.020197657602026
 20
704.80402330512538
 30
0.0
  0
VERTEX
  5
BE3
  8
CALIFORNIA
 10
94.037786853063452
 20
704.79187179189205
 30
0.0
  0
VERTEX
  5
BE4
  8
CALIFORNIA
 10
94.043203234759346
 20
704.7674168855425
 30
0.0
  0
VERTEX
  5
BE5
  8
CALIFORNIA
 10
94.053048264373416
 20
704.75393234904357
 30
0.0
  0
VERTEX
  5
BE6
  8
CALIFORNIA
 10
94.053543147978019
 20
704.74772486003735
 30
0.0
  0
SEQEND
  5
BE7
  8
CALIFORNIA
  0
POLYLINE
  5
AC
  8
CALIFORNIA
 66
     1
 10
0.0
 20
0.0
 30
0.0
 70
     1
1001
DCO15
1071
        4
1071
        3
1000
lotenos--cerámica
1004
0743415F35333300
1071
        2
1000
lotes--períodos
1004
0743415F35333300
1071
        1
1000
lotes--cerámica
1004
0743415F35333300
  0
VERTEX
  5
BE8
  8
CALIFORNIA
 10
94.08368618000604
 20
705.33131697756073
 30
0.0
  0
VERTEX
  5
BE9
  8
CALIFORNIA
 10
94.107237728936155
 20
705.3084548071588
 30
0.0
  0
VERTEX
  5
BEA
  8
CALIFORNIA
 10
94.109592401959091
 20
705.28432590594696
 30
0.0
  0
VERTEX
  5
BEB
  8
CALIFORNIA
 10
94.109203081939995
 20
705.25383699173244
 30
0.0
  0
VERTEX
  5
BEC
  8
CALIFORNIA
 10
94.103763702388306
 20
705.24293087306285
 30
0.0
  0
VERTEX
  5
BED
  8
CALIFORNIA
 10
94.098274560543913
 20
705.24082752114157
 30
0.0
  0
VERTEX
  5
BEE
  8
CALIFORNIA
 10
94.098274560543913
 20
705.24082752114157
 30
0.0
  0
VERTEX
  5
BEF
  8
CALIFORNIA
 10
94.050508920402635
 20
705.24774395108045
 30
0.0
  0
SEQEND
  5
BF0
  8
CALIFORNIA
  0
POLYLINE
  5
AD
  8
CALIFORNIA
 66
     1
 10
0.0
 20
0.0
 30
0.0
 70
     1
1001
DCO15
1071
        4
1071
        3
1000
lotenos--cerámica
1004
0743415F31333300
1071
        2
1000
lotes--períodos
1004
0743415F31333300
1071
        1
1000
lotes--cerámica
1004
0743415F31333300
  0
VERTEX
  5
BF1
  8
CALIFORNIA
 10
93.865255527218835
 20
705.03860527888241
 30
0.0
  0
VERTEX
  5
BF2
  8
CALIFORNIA
 10
93.882063590912054
 20
704.99846323712381
 30
0.0
  0
VERTEX
  5
BF3
  8
CALIFORNIA
 10
93.892607850296386
 20
704.98868199391973
 30
0.0
  0
VERTEX
  5
BF4
  8
CALIFORNIA
 10
93.913321196999391
 20
704.99070539428396
 30
0.0
  0
VERTEX
  5
BF5
  8
CALIFORNIA
 10
93.93206806064741
 20
705.00005445616239
 30
0.0
  0
VERTEX
  5
BF6
  8
CALIFORNIA
 10
93.943421699068395
 20
705.01813654159946
 30
0.0
  0
VERTEX
  5
BF7
  8
CALIFORNIA
 10
93.942676299898949
 20
705.03520869742022
 30
0.0
  0
VERTEX
  5
BF8
  8
CALIFORNIA
 10
93.941296835996653
 20
705.04880809649978
 30
0.0
  0
SEQEND
  5
BF9
  8
CALIFORNIA
  0
POLYLINE
  5
AE
  8
CALIFORNIA
 66
     1
 10
0.0
 20
0.0
 30
0.0
 70
     1
1001
DCO15
1071
        4
1071
        3
1000
lotenos--cerámica
1004
0743415F31323900
1071
        2
1000
lotes--períodos
1004
0743415F31323900
1071
        1
1000
lotes--cerámica
1004
0743415F31323900
  0
VERTEX
  5
BFA
  8
CALIFORNIA
 10
93.899284205356764
 20
704.77613196825962
 30
0.0
  0
VERTEX
  5
BFB
  8
CALIFORNIA
 10
93.898730021207797
 20
704.79736615477395
 30
0.0
  0
VERTEX
  5
BFC
  8
CALIFORNIA
 10
93.902686895095712
 20
704.82101826253449
 30
0.0
  0
VERTEX
  5
BFD
  8
CALIFORNIA
 10
93.90900031483045
 20
704.84058294583485
 30
0.0
  0
VERTEX
  5
BFE
  8
CALIFORNIA
 10
93.914586051249003
 20
704.86018479313998
 30
0.0
  0
VERTEX
  5
BFF
  8
CALIFORNIA
 10
93.915884525945714
 20
704.87057022957822
 30
0.0
  0
VERTEX
  5
C00
  8
CALIFORNIA
 10
93.984075111339166
 20
704.82421934501872
 30
0.0
  0
VERTEX
  5
C01
  8
CALIFORNIA
 10
93.984075111339166
 20
704.82421934501872
 30
0.0
  0
VERTEX
  5
C02
  8
CALIFORNIA
 10
93.984075111339166
 20
704.82421934501872
 30
0.0
  0
VERTEX
  5
C03
  8
CALIFORNIA
 10
93.946626162169224
 20
704.78345290227435
 30
0.0
  0
SEQEND
  5
C04
  8
CALIFORNIA
  0
POLYLINE
  5
AF
  8
CALIFORNIA
 66
     1
 10
0.0
 20
0.0
 30
0.0
 70
     1
1001
DCO15
1071
        4
1071
        3
1000
lotenos--cerámica
1004
0743415F3138313000
1071
        2
1000
lotes--períodos
1004
0743415F3138313000
1071
        1
1000
lotes--cerámica
1004
0743415F3138313000
  0
VERTEX
  5
C05
  8
CALIFORNIA
 10
95.250488992987428
 20
706.26546733599093
 30
0.0
  0
VERTEX
  5
C06
  8
CALIFORNIA
 10
95.252860447725624
 20
706.23282728068125
 30
0.0
  0
VERTEX
  5
C07
  8
CALIFORNIA
 10
95.247261891120942
 20
706.20595860528385
 30
0.0
  0
VERTEX
  5
C08
  8
CALIFORNIA
 10
95.238433810617224
 20
706.18877152228242
 30
0.0
  0
VERTEX
  5
C09
  8
CALIFORNIA
 10
95.218674720271025
 20
706.17880660975004
 30
0.0
  0
VERTEX
  5
C0A
  8
CALIFORNIA
 10
95.203296785047741
 20
706.1758814695354
 30
0.0
  0
VERTEX
  5
C0B
  8
CALIFORNIA
 10
95.197903403071919
 20
706.26412019851853
 30
0.0
  0
SEQEND
  5
C0C
  8
CALIFORNIA
  0
POLYLINE
  5
B0
  8
CALIFORNIA
 66
     1
 10
0.0
 20
0.0
 30
0.0
 70
     1
1001
DCO15
1071
        4
1071
        3
1000
lotenos--cerámica
1004
0743415F3130323300
1071
        2
1000
lotes--períodos
1004
0743415F3130323300
1071
        1
1000
lotes--cerámica
1004
0743415F3130323300
  0
VERTEX
  5
C0D
  8
CALIFORNIA
 10
95.04141278776838
 20
704.59563247330948
 30
0.0
  0
VERTEX
  5
C0E
  8
CALIFORNIA
 10
95.088610686609286
 20
704.58816104379832
 30
0.0
  0
VERTEX
  5
C0F
  8
CALIFORNIA
 10
95.092965227444509
 20
704.60802632956916
 30
0.0
  0
VERTEX
  5
C10
  8
CALIFORNIA
 10
95.098740443997855
 20
704.63301172670549
 30
0.0
  0
VERTEX
  5
C11
  8
CALIFORNIA
 10
95.10536407991043
 20
704.67664894313646
 30
0.0
  0
VERTEX
  5
C12
  8
CALIFORNIA
 10
95.035392534734285
 20
704.66630106896434
 30
0.0
  0
VERTEX
  5
C13
  8
CALIFORNIA
 10
95.03758500841387
 20
704.63117431451644
 30
0.0
  0
VERTEX
  5
C14
  8
CALIFORNIA
 10
95.041239430203717
 20
704.61539850066561
 30
0.0
  0
SEQEND
  5
C15
  8
CALIFORNIA
  0
POLYLINE
  5
B1
  8
CALIFORNIA
 66
     1
 10
0.0
 20
0.0
 30
0.0
 70
     1
1001
DCO15
1071
        4
1071
        3
1000
lotenos--cerámica
1004
0743415F3130323100
1071
        2
1000
lotes--períodos
1004
0743415F3130323100
1071
        1
1000
lotes--cerámica
1004
0743415F3130323100
  0
VERTEX
  5
C16
  8
CALIFORNIA
 10
94.939821837852094
 20
704.60940689729443
 30
0.0
  0
VERTEX
  5
C17
  8
CALIFORNIA
 10
94.929217078714927
 20
704.66445658181703
 30
0.0
  0
VERTEX
  5
C18
  8
CALIFORNIA
 10
94.94154558108734
 20
704.68160120327013
 30
0.0
  0
VERTEX
  5
C19
  8
CALIFORNIA
 10
94.960793629421715
 20
704.68797662867053
 30
0.0
  0
VERTEX
  5
C1A
  8
CALIFORNIA
 10
94.979372339533086
 20
704.68117517515441
 30
0.0
  0
VERTEX
  5
C1B
  8
CALIFORNIA
 10
94.993437579678229
 20
704.66105540229512
 30
0.0
  0
VERTEX
  5
C1C
  8
CALIFORNIA
 10
95.00330324253656
 20
704.63559524456866
 30
0.0
  0
VERTEX
  5
C1D
  8
CALIFORNIA
 10
95.009668525829284
 20
704.60857726053393
 30
0.0
  0
VERTEX
  5
C1E
  8
CALIFORNIA
 10
95.008630133374425
 20
704.60367795938123
 30
0.0
  0
SEQEND
  5
C1F
  8
CALIFORNIA
  0
POLYLINE
  5
B2
  8
CALIFORNIA
 66
     1
 10
0.0
 20
0.0
 30
0.0
 70
     1
1001
DCO15
1071
        4
1071
        3
1000
lotenos--cerámica
1004
0743415F35383700
1071
        2
1000
lotes--períodos
1004
0743415F35383700
1071
        1
1000
lotes--cerámica
1004
0743415F35383700
  0
VERTEX
  5
C20
  8
CALIFORNIA
 10
94.971951421879879
 20
704.97722363926516
 30
0.0
  0
VERTEX
  5
C21
  8
CALIFORNIA
 10
94.99705005952076
 20
704.95833541931563
 30
0.0
  0
VERTEX
  5
C22
  8
CALIFORNIA
 10
95.024983802129029
 20
704.99109425419647
 30
0.0
  0
VERTEX
  5
C23
  8
CALIFORNIA
 10
95.037283319588354
 20
705.01483410602032
 30
0.0
  0
VERTEX
  5
C24
  8
CALIFORNIA
 10
95.041188920808423
 20
705.03445561847172
 30
0.0
  0
VERTEX
  5
C25
  8
CALIFORNIA
 10
95.029561876527367
 20
705.04789533500082
 30
0.0
  0
VERTEX
  5
C26
  8
CALIFORNIA
 10
95.025453432717299
 20
705.05224776274122
 30
0.0
  0
SEQEND
  5
C27
  8
CALIFORNIA
  0
POLYLINE
  5
B3
  8
CALIFORNIA
 66
     1
 10
0.0
 20
0.0
 30
0.0
 70
     1
1001
DCO15
1071
        4
1071
        3
1000
lotenos--cerámica
1004
0743415F3139383600
1071
        2
1000
lotes--períodos
1004
0743415F3139383600
1071
        1
1000
lotes--cerámica
1004
0743415F3139383600
  0
VERTEX
  5
C28
  8
CALIFORNIA
 10
94.720349567842959
 20
706.89925265772615
 30
0.0
  0
VERTEX
  5
C29
  8
CALIFORNIA
 10
94.721367810936584
 20
706.92085867225376
 30
0.0
  0
VERTEX
  5
C2A
  8
CALIFORNIA
 10
94.714419397141825
 20
706.94240685546674
 30
0.0
  0
VERTEX
  5
C2B
  8
CALIFORNIA
 10
94.701399044902644
 20
706.95771539220891
 30
0.0
  0
VERTEX
  5
C2C
  8
CALIFORNIA
 10
94.680738953775204
 20
706.97101515932786
 30
0.0
  0
VERTEX
  5
C2D
  8
CALIFORNIA
 10
94.649862761068363
 20
706.98107372786535
 30
0.0
  0
VERTEX
  5
C2E
  8
CALIFORNIA
 10
94.63341909000529
 20
706.98084353966715
 30
0.0
  0
VERTEX
  5
C2F
  8
CALIFORNIA
 10
94.629069580818864
 20
706.97624982746413
 30
0.0
  0
VERTEX
  5
C30
  8
CALIFORNIA
 10
94.683283193182064
 20
706.88457899149785
 30
0.0
  0
SEQEND
  5
C31
  8
CALIFORNIA
  0
POLYLINE
  5
B4
  8
CALIFORNIA
 66
     1
 10
0.0
 20
0.0
 30
0.0
 70
     1
1001
DCO15
1071
        4
1071
        3
1000
lotenos--cerámica
1004
0743415F3130323800
1071
        2
1000
lotes--períodos
1004
0743415F3130323800
1071
        1
1000
lotes--cerámica
1004
0743415F3130323800
  0
VERTEX
  5
C32
  8
CALIFORNIA
 10
94.86647485652351
 20
704.57392183941602
 30
0.0
  0
VERTEX
  5
C33
  8
CALIFORNIA
 10
94.862180690614238
 20
704.64072959287444
 30
0.0
  0
VERTEX
  5
C34
  8
CALIFORNIA
 10
94.884023430315494
 20
704.63733324394434
 30
0.0
  0
VERTEX
  5
C35
  8
CALIFORNIA
 10
94.902550586598906
 20
704.62639122754365
 30
0.0
  0
VERTEX
  5
C36
  8
CALIFORNIA
 10
94.909412076212604
 20
704.61146431135899
 30
0.0
  0
VERTEX
  5
C37
  8
CALIFORNIA
 10
94.916927526371836
 20
704.59059828543695
 30
0.0
  0
VERTEX
  5
C38
  8
CALIFORNIA
 10
94.912113826701415
 20
704.56819346252234
 30
0.0
  0
VERTEX
  5
C39
  8
CALIFORNIA
 10
94.908190017030776
 20
704.54940525992572
 30
0.0
  0
VERTEX
  5
C3A
  8
CALIFORNIA
 10
94.908190017030776
 20
704.54940525992572
 30
0.0
  0
SEQEND
  5
C3B
  8
CALIFORNIA
  0
POLYLINE
  5
B5
  8
CALIFORNIA
 66
     1
 10
0.0
 20
0.0
 30
0.0
 70
     1
1001
DCO15
1071
        4
1071
        3
1000
lotenos--cerámica
1004
0743415F36303000
1071
        2
1000
lotes--períodos
1004
0743415F36303000
1071
        1
1000
lotes--cerámica
1004
0743415F36303000
  0
VERTEX
  5
C3C
  8
CALIFORNIA
 10
94.724152711364596
 20
704.56840562215075
 30
0.0
  0
VERTEX
  5
C3D
  8
CALIFORNIA
 10
94.699614412753945
 20
704.58679304802172
 30
0.0
  0
VERTEX
  5
C3E
  8
CALIFORNIA
 10
94.707387831759945
 20
704.61292757022568
 30
0.0
  0
VERTEX
  5
C3F
  8
CALIFORNIA
 10
94.707810217974227
 20
704.63874199021404
 30
0.0
  0
VERTEX
  5
C40
  8
CALIFORNIA
 10
94.707576006360384
 20
704.65794986243839
 30
0.0
  0
VERTEX
  5
C41
  8
CALIFORNIA
 10
94.712840086506105
 20
704.67446153605601
 30
0.0
  0
VERTEX
  5
C42
  8
CALIFORNIA
 10
94.732385288857046
 20
704.67600991586914
 30
0.0
  0
VERTEX
  5
C43
  8
CALIFORNIA
 10
94.744578701017915
 20
704.66254004263305
 30
0.0
  0
VERTEX
  5
C44
  8
CALIFORNIA
 10
94.758781440439563
 20
704.6510740231605
 30
0.0
  0
VERTEX
  5
C45
  8
CALIFORNIA
 10
94.764646147303438
 20
704.64801449941478
 30
0.0
  0
SEQEND
  5
C46
  8
CALIFORNIA
  0
POLYLINE
  5
B6
  8
CALIFORNIA
 66
     1
 10
0.0
 20
0.0
 30
0.0
 70
     1
1001
DCO15
1071
        4
1071
        3
1000
lotenos--cerámica
1004
0743415F35393900
1071
        2
1000
lotes--períodos
1004
0743415F35393900
1071
        1
1000
lotes--cerámica
1004
0743415F35393900
  0
VERTEX
  5
C47
  8
CALIFORNIA
 10
94.768321662081036
 20
704.64624581013993
 30
0.0
  0
VERTEX
  5
C48
  8
CALIFORNIA
 10
94.795313816987303
 20
704.62724544791445
 30
0.0
  0
VERTEX
  5
C49
  8
CALIFORNIA
 10
94.791633065587064
 20
704.60763218432226
 30
0.0
  0
VERTEX
  5
C4A
  8
CALIFORNIA
 10
94.781204291981865
 20
704.57882515531401
 30
0.0
  0
VERTEX
  5
C4B
  8
CALIFORNIA
 10
94.767322155043786
 20
704.56551273074751
 30
0.0
  0
VERTEX
  5
C4C
  8
CALIFORNIA
 10
94.757279407880304
 20
704.54450190904072
 30
0.0
  0
VERTEX
  5
C4D
  8
CALIFORNIA
 10
94.757279407880304
 20
704.54450190904072
 30
0.0
  0
VERTEX
  5
C4E
  8
CALIFORNIA
 10
94.727219982169316
 20
704.56717978442953
 30
0.0
  0
SEQEND
  5
C4F
  8
CALIFORNIA
  0
POLYLINE
  5
B7
  8
CALIFORNIA
 66
     1
 10
0.0
 20
0.0
 30
0.0
 70
     1
1001
DCO15
1071
        4
1071
        3
1000
lotenos--cerámica
1004
0743415F35393200
1071
        2
1000
lotes--períodos
1004
0743415F35393200
1071
        1
1000
lotes--cerámica
1004
0743415F35393200
  0
VERTEX
  5
C50
  8
CALIFORNIA
 10
94.883922865307184
 20
704.4801818844951
 30
0.0
  0
VERTEX
  5
C51
  8
CALIFORNIA
 10
94.918482756657312
 20
704.53310624524215
 30
0.0
  0
VERTEX
  5
C52
  8
CALIFORNIA
 10
94.910689292927074
 20
704.54388767062255
 30
0.0
  0
VERTEX
  5
C53
  8
CALIFORNIA
 10
94.865861442014491
 20
704.57085726260641
 30
0.0
  0
VERTEX
  5
C54
  8
CALIFORNIA
 10
94.851138436413478
 20
704.55859895536776
 30
0.0
  0
VERTEX
  5
C55
  8
CALIFORNIA
 10
94.883922865307184
 20
704.4801818844951
 30
0.0
  0
SEQEND
  5
C56
  8
CALIFORNIA
  0
POLYLINE
  5
B8
  8
CALIFORNIA
 66
     1
 10
0.0
 20
0.0
 30
0.0
 70
     1
1001
DCO15
1071
        4
1071
        3
1000
lotenos--cerámica
1004
0743415F35383300
1071
        2
1000
lotes--períodos
1004
0743415F35383300
1071
        1
1000
lotes--cerámica
1004
0743415F35383300
  0
VERTEX
  5
C57
  8
CALIFORNIA
 10
94.729978298779869
 20
704.94141390250309
 30
0.0
  0
VERTEX
  5
C58
  8
CALIFORNIA
 10
94.755963520602705
 20
704.94412563705873
 30
0.0
  0
VERTEX
  5
C59
  8
CALIFORNIA
 10
94.775526792215402
 20
704.94608647006351
 30
0.0
  0
VERTEX
  5
C5A
  8
CALIFORNIA
 10
94.801087229465352
 20
704.91975392769405
 30
0.0
  0
VERTEX
  5
C5B
  8
CALIFORNIA
 10
94.801391487234483
 20
704.88964824831589
 30
0.0
  0
VERTEX
  5
C5C
  8
CALIFORNIA
 10
94.790354178518584
 20
704.86178265997205
 30
0.0
  0
VERTEX
  5
C5D
  8
CALIFORNIA
 10
94.780067756527629
 20
704.84961630167982
 30
0.0
  0
VERTEX
  5
C5E
  8
CALIFORNIA
 10
94.757519912190645
 20
704.84912460367264
 30
0.0
  0
VERTEX
  5
C5F
  8
CALIFORNIA
 10
94.731687342450869
 20
704.86800515752486
 30
0.0
  0
VERTEX
  5
C60
  8
CALIFORNIA
 10
94.724023819378075
 20
704.86865941120743
 30
0.0
  0
SEQEND
  5
C61
  8
CALIFORNIA
  0
POLYLINE
  5
B9
  8
CALIFORNIA
 66
     1
 10
0.0
 20
0.0
 30
0.0
 70
     1
1001
DCO15
1071
        4
1071
        3
1000
lotenos--cerámica
1004
0743415F35383100
1071
        2
1000
lotes--períodos
1004
0743415F35383100
1071
        1
1000
lotes--cerámica
1004
0743415F35383100
  0
VERTEX
  5
C62
  8
CALIFORNIA
 10
94.898023937098628
 20
705.08036138541354
 30
0.0
  0
VERTEX
  5
C63
  8
CALIFORNIA
 10
94.875986548342198
 20
705.12292941110661
 30
0.0
  0
VERTEX
  5
C64
  8
CALIFORNIA
 10
94.843232846770007
 20
705.11650975115708
 30
0.0
  0
VERTEX
  5
C65
  8
CALIFORNIA
 10
94.826848413136361
 20
705.10931034533144
 30
0.0
  0
VERTEX
  5
C66
  8
CALIFORNIA
 10
94.817052047473567
 20
705.10245254140375
 30
0.0
  0
VERTEX
  5
C67
  8
CALIFORNIA
 10
94.80717859485253
 20
705.07977665218709
 30
0.0
  0
VERTEX
  5
C68
  8
CALIFORNIA
 10
94.801059241528264
 20
705.06348095238332
 30
0.0
  0
VERTEX
  5
C69
  8
CALIFORNIA
 10
94.839257478966232
 20
705.04513267690777
 30
0.0
  0
SEQEND
  5
C6A
  8
CALIFORNIA
  0
POLYLINE
  5
BA
  8
CALIFORNIA
 66
     1
 10
0.0
 20
0.0
 30
0.0
 70
   129
1001
DCO15
1071
        4
1071
        3
1000
lotenos--cerámica
1004
07545A5F32333700
1071
        2
1000
lotes--períodos
1004
07545A5F32333700
1071
        1
1000
lotes--cerámica
1004
07545A5F32333700
  0
VERTEX
  5
C6B
  8
CALIFORNIA
 10
95.684161731798554
 20
696.82399898065273
 30
0.0
  0
VERTEX
  5
C6C
  8
CALIFORNIA
 10
95.698967972297027
 20
696.81032154058789
 30
0.0
  0
VERTEX
  5
C6D
  8
CALIFORNIA
 10
95.705823535204274
 20
696.78847257454345
 30
0.0
  0
VERTEX
  5
C6E
  8
CALIFORNIA
 10
95.702333810393597
 20
696.76056625579122
 30
0.0
  0
VERTEX
  5
C6F
  8
CALIFORNIA
 10
95.688847413032775
 20
696.74376016717974
 30
0.0
  0
VERTEX
  5
C70
  8
CALIFORNIA
 10
95.665764187828714
 20
696.74244055593408
 30
0.0
  0
VERTEX
  5
C71
  8
CALIFORNIA
 10
95.655241071677068
 20
696.75928092973629
 30
0.0
  0
VERTEX
  5
C72
  8
CALIFORNIA
 10
95.654719530866188
 20
696.77707175740773
 30
0.0
  0
VERTEX
  5
C73
  8
CALIFORNIA
 10
95.646587436981122
 20
696.79504481029335
 30
0.0
  0
VERTEX
  5
C74
  8
CALIFORNIA
 10
95.645458006783187
 20
696.81297467615525
 30
0.0
  0
VERTEX
  5
C75
  8
CALIFORNIA
 10
95.663337001838869
 20
696.82284492464839
 30
0.0
  0
SEQEND
  5
C76
  8
CALIFORNIA
  0
POLYLINE
  5
BB
  8
CALIFORNIA
 66
     1
 10
0.0
 20
0.0
 30
0.0
 70
     1
1001
DCO15
1071
        4
1071
        3
1000
lotenos--cerámica
1004
07545A5F32343100
1071
        2
1000
lotes--períodos
1004
07545A5F32343100
1071
        1
1000
lotes--cerámica
1004
07545A5F32343100
  0
VERTEX
  5
C77
  8
CALIFORNIA
 10
95.45908857305507
 20
696.72904889848235
 30
0.0
  0
VERTEX
  5
C78
  8
CALIFORNIA
 10
95.519993955811529
 20
696.72157115366633
 30
0.0
  0
VERTEX
  5
C79
  8
CALIFORNIA
 10
95.543742078380916
 20
696.78475403199297
 30
0.0
  0
VERTEX
  5
C7A
  8
CALIFORNIA
 10
95.49822640187864
 20
696.7965938266583
 30
0.0
  0
VERTEX
  5
C7B
  8
CALIFORNIA
 10
95.463832546305696
 20
696.78711382392578
 30
0.0
  0
SEQEND
  5
C7C
  8
CALIFORNIA
  0
POLYLINE
  5
BC
  8
CALIFORNIA
 66
     1
 10
0.0
 20
0.0
 30
0.0
 70
     1
1001
DCO15
1071
        4
1071
        3
1000
lotenos--cerámica
1004
0743415F3234313300
1071
        2
1000
lotes--períodos
1004
0743415F3234313300
1071
        1
1000
lotes--cerámica
1004
0743415F3234313300
  0
VERTEX
  5
C7D
  8
CALIFORNIA
 10
95.968627523435501
 20
701.40431408500035
 30
0.0
  0
VERTEX
  5
C7E
  8
CALIFORNIA
 10
95.975744221109693
 20
701.39143889643901
 30
0.0
  0
VERTEX
  5
C7F
  8
CALIFORNIA
 10
95.990983131869186
 20
701.38117682708605
 30
0.0
  0
VERTEX
  5
C80
  8
CALIFORNIA
 10
96.014514014258907
 20
701.36885412238394
 30
0.0
  0
VERTEX
  5
C81
  8
CALIFORNIA
 10
96.014841711538921
 20
701.36817899232051
 30
0.0
  0
VERTEX
  5
C82
  8
CALIFORNIA
 10
95.958306818816325
 20
701.30425815571562
 30
0.0
  0
VERTEX
  5
C83
  8
CALIFORNIA
 10
95.928789390804212
 20
701.32306989671349
 30
0.0
  0
VERTEX
  5
C84
  8
CALIFORNIA
 10
95.915518659191434
 20
701.33449689193606
 30
0.0
  0
VERTEX
  5
C85
  8
CALIFORNIA
 10
95.903286402775862
 20
701.34484032239322
 30
0.0
  0
VERTEX
  5
C86
  8
CALIFORNIA
 10
95.903286402775862
 20
701.34484032239322
 30
0.0
  0
SEQEND
  5
C87
  8
CALIFORNIA
  0
POLYLINE
  5
BD
  8
CALIFORNIA
 66
     1
 10
0.0
 20
0.0
 30
0.0
 70
     1
1001
DCO15
1071
        4
1071
        3
1000
lotenos--cerámica
1004
0743415F3231303000
1071
        2
1000
lotes--períodos
1004
0743415F3231303000
1071
        1
1000
lotes--cerámica
1004
0743415F3231303000
  0
VERTEX
  5
C88
  8
CALIFORNIA
 10
96.553104593761944
 20
700.00129592754536
 30
0.0
  0
VERTEX
  5
C89
  8
CALIFORNIA
 10
96.557039196144885
 20
700.02747200581427
 30
0.0
  0
VERTEX
  5
C8A
  8
CALIFORNIA
 10
96.581634663143788
 20
700.04896152473145
 30
0.0
  0
VERTEX
  5
C8B
  8
CALIFORNIA
 10
96.569366261536445
 20
700.06773184338454
 30
0.0
  0
VERTEX
  5
C8C
  8
CALIFORNIA
 10
96.550619222201504
 20
700.07503560997145
 30
0.0
  0
VERTEX
  5
C8D
  8
CALIFORNIA
 10
96.52712202763837
 20
700.08024552544384
 30
0.0
  0
VERTEX
  5
C8E
  8
CALIFORNIA
 10
96.501588370002921
 20
700.06786721430285
 30
0.0
  0
VERTEX
  5
C8F
  8
CALIFORNIA
 10
96.49125867718908
 20
700.0572653292636
 30
0.0
  0
VERTEX
  5
C90
  8
CALIFORNIA
 10
96.486977049583231
 20
700.03033049151475
 30
0.0
  0
VERTEX
  5
C91
  8
CALIFORNIA
 10
96.487913581602342
 20
700.01126190550917
 30
0.0
  0
VERTEX
  5
C92
  8
CALIFORNIA
 10
96.490999894704913
 20
699.99819076273423
 30
0.0
  0
VERTEX
  5
C93
  8
CALIFORNIA
 10
96.493216111614146
 20
699.99161998789441
 30
0.0
  0
SEQEND
  5
C94
  8
CALIFORNIA
  0
POLYLINE
  5
BE
  8
CALIFORNIA
 66
     1
 10
0.0
 20
0.0
 30
0.0
 70
     1
1001
DCO15
1071
        4
1071
        3
1000
lotenos--cerámica
1004
0743415F3131373600
1071
        2
1000
lotes--períodos
1004
0743415F3131373600
1071
        1
1000
lotes--cerámica
1004
0743415F3131373600
  0
VERTEX
  5
C95
  8
CALIFORNIA
 10
96.158939293215425
 20
704.73173813362462
 30
0.0
  0
VERTEX
  5
C96
  8
CALIFORNIA
 10
96.137198434398911
 20
704.71301262886846
 30
0.0
  0
VERTEX
  5
C97
  8
CALIFORNIA
 10
96.041238979950847
 20
704.75645581809601
 30
0.0
  0
VERTEX
  5
C98
  8
CALIFORNIA
 10
96.044042105744495
 20
704.77543524972305
 30
0.0
  0
VERTEX
  5
C99
  8
CALIFORNIA
 10
96.056365016705996
 20
704.79775046378666
 30
0.0
  0
VERTEX
  5
C9A
  8
CALIFORNIA
 10
96.090726784096304
 20
704.80518472975439
 30
0.0
  0
VERTEX
  5
C9B
  8
CALIFORNIA
 10
96.116926778875566
 20
704.79074414428476
 30
0.0
  0
VERTEX
  5
C9C
  8
CALIFORNIA
 10
96.130392328948545
 20
704.7548142454408
 30
0.0
  0
VERTEX
  5
C9D
  8
CALIFORNIA
 10
96.14149389033922
 20
704.74324893364428
 30
0.0
  0
VERTEX
  5
C9E
  8
CALIFORNIA
 10
96.158939293215425
 20
704.73173813362462
 30
0.0
  0
SEQEND
  5
C9F
  8
CALIFORNIA
  0
POLYLINE
  5
BF
  8
CALIFORNIA
 66
     1
 10
0.0
 20
0.0
 30
0.0
 70
     1
1001
DCO15
1071
        4
1071
        3
1000
lotenos--cerámica
1004
0743415F3131373500
1071
        2
1000
lotes--períodos
1004
0743415F3131373500
1071
        1
1000
lotes--cerámica
1004
0743415F3131373500
  0
VERTEX
  5
CA0
  8
CALIFORNIA
 10
96.193424727320703
 20
704.66133018815867
 30
0.0
  0
VERTEX
  5
CA1
  8
CALIFORNIA
 10
96.136448749612128
 20
704.70776948473747
 30
0.0
  0
VERTEX
  5
CA2
  8
CALIFORNIA
 10
96.159571412957305
 20
704.72760637572753
 30
0.0
  0
VERTEX
  5
CA3
  8
CALIFORNIA
 10
96.214415901350492
 20
704.68230276468159
 30
0.0
  0
SEQEND
  5
CA4
  8
CALIFORNIA
  0
POLYLINE
  5
C0
  8
CALIFORNIA
 66
     1
 10
0.0
 20
0.0
 30
0.0
 70
     1
1001
DCO15
1071
        4
1071
        3
1000
lotenos--cerámica
1004
0743415F3138313700
1071
        2
1000
lotes--períodos
1004
0743415F3138313700
1071
        1
1000
lotes--cerámica
1004
0743415F3138313700
  0
VERTEX
  5
CA5
  8
CALIFORNIA
 10
95.534754083391761
 20
706.97626708306302
 30
0.0
  0
VERTEX
  5
CA6
  8
CALIFORNIA
 10
95.518525550404746
 20
706.98146745918973
 30
0.0
  0
VERTEX
  5
CA7
  8
CALIFORNIA
 10
95.500011299757844
 20
706.97753720391358
 30
0.0
  0
VERTEX
  5
CA8
  8
CALIFORNIA
 10
95.491162941795423
 20
706.97514925707594
 30
0.0
  0
VERTEX
  5
CA9
  8
CALIFORNIA
 10
95.482295826953091
 20
706.97192815385961
 30
0.0
  0
VERTEX
  5
CAA
  8
CALIFORNIA
 10
95.447470430758287
 20
707.04525157460284
 30
0.0
  0
VERTEX
  5
CAB
  8
CALIFORNIA
 10
95.458231298161351
 20
707.058877918603
 30
0.0
  0
VERTEX
  5
CAC
  8
CALIFORNIA
 10
95.476485611881174
 20
707.07115889365127
 30
0.0
  0
VERTEX
  5
CAD
  8
CALIFORNIA
 10
95.49841947943537
 20
707.09966061699231
 30
0.0
  0
VERTEX
  5
CAE
  8
CALIFORNIA
 10
95.511260680669437
 20
707.11409786464606
 30
0.0
  0
VERTEX
  5
CAF
  8
CALIFORNIA
 10
95.524756821525216
 20
707.12017932170647
 30
0.0
  0
VERTEX
  5
CB0
  8
CALIFORNIA
 10
95.549857233268426
 20
707.12192935126484
 30
0.0
  0
SEQEND
  5
CB1
  8
CALIFORNIA
  0
POLYLINE
  5
C1
  8
CALIFORNIA
 66
     1
 10
0.0
 20
0.0
 30
0.0
 70
     1
1001
DCO15
1071
        4
1071
        3
1000
lotenos--cerámica
1004
0743415F39363400
1071
        2
1000
lotes--períodos
1004
0743415F39363400
1071
        1
1000
lotes--cerámica
1004
0743415F39363400
  0
VERTEX
  5
CB2
  8
CALIFORNIA
 10
95.471502399211985
 20
704.51773661339701
 30
0.0
  0
VERTEX
  5
CB3
  8
CALIFORNIA
 10
95.482256747987776
 20
704.53263842247952
 30
0.0
  0
VERTEX
  5
CB4
  8
CALIFORNIA
 10
95.495630403292921
 20
704.55380864706035
 30
0.0
  0
VERTEX
  5
CB5
  8
CALIFORNIA
 10
95.495425541797403
 20
704.57421713739836
 30
0.0
  0
VERTEX
  5
CB6
  8
CALIFORNIA
 10
95.476752185304505
 20
704.59589956432046
 30
0.0
  0
VERTEX
  5
CB7
  8
CALIFORNIA
 10
95.449696137348695
 20
704.60357917404235
 30
0.0
  0
VERTEX
  5
CB8
  8
CALIFORNIA
 10
95.429731151342935
 20
704.59277920751936
 30
0.0
  0
VERTEX
  5
CB9
  8
CALIFORNIA
 10
95.392534896749225
 20
704.57296494636932
 30
0.0
  0
SEQEND
  5
CBA
  8
CALIFORNIA
  0
POLYLINE
  5
C2
  8
CALIFORNIA
 66
     1
 10
0.0
 20
0.0
 30
0.0
 70
     1
1001
DCO15
1071
        4
1071
        3
1000
lotenos--cerámica
1004
0743415F39353400
1071
        2
1000
lotes--períodos
1004
0743415F39353400
1071
        1
1000
lotes--cerámica
1004
0743415F39353400
  0
VERTEX
  5
CBB
  8
CALIFORNIA
 10
95.641753793821394
 20
704.75687585750654
 30
0.0
  0
VERTEX
  5
CBC
  8
CALIFORNIA
 10
95.65573375750192
 20
704.8123905959169
 30
0.0
  0
VERTEX
  5
CBD
  8
CALIFORNIA
 10
95.671707619292789
 20
704.83280575195317
 30
0.0
  0
VERTEX
  5
CBE
  8
CALIFORNIA
 10
95.691371695878004
 20
704.84010293982749
 30
0.0
  0
VERTEX
  5
CBF
  8
CALIFORNIA
 10
95.702495862438923
 20
704.82516769181814
 30
0.0
  0
VERTEX
  5
CC0
  8
CALIFORNIA
 10
95.708196389024309
 20
704.80000586225606
 30
0.0
  0
VERTEX
  5
CC1
  8
CALIFORNIA
 10
95.708623663638036
 20
704.77824561899126
 30
0.0
  0
VERTEX
  5
CC2
  8
CALIFORNIA
 10
95.706581811973052
 20
704.75694635787158
 30
0.0
  0
SEQEND
  5
CC3
  8
CALIFORNIA
  0
POLYLINE
  5
C3
  8
CALIFORNIA
 66
     1
 10
0.0
 20
0.0
 30
0.0
 70
     1
1001
DCO15
1071
        4
1071
        3
1000
lotenos--cerámica
1004
0743415F39343700
1071
        2
1000
lotes--períodos
1004
0743415F39343700
1071
        1
1000
lotes--cerámica
1004
0743415F39343700
  0
VERTEX
  5
CC4
  8
CALIFORNIA
 10
95.772506520591293
 20
704.79023457303776
 30
0.0
  0
VERTEX
  5
CC5
  8
CALIFORNIA
 10
95.739192280263396
 20
704.73788814618206
 30
0.0
  0
VERTEX
  5
CC6
  8
CALIFORNIA
 10
95.726478498478983
 20
704.7106654750296
 30
0.0
  0
VERTEX
  5
CC7
  8
CALIFORNIA
 10
95.730257851841642
 20
704.68511203584467
 30
0.0
  0
VERTEX
  5
CC8
  8
CALIFORNIA
 10
95.754182554665846
 20
704.6892531800903
 30
0.0
  0
VERTEX
  5
CC9
  8
CALIFORNIA
 10
95.783156914107678
 20
704.71338382096849
 30
0.0
  0
VERTEX
  5
CCA
  8
CALIFORNIA
 10
95.802409725976048
 20
704.73094882004796
 30
0.0
  0
VERTEX
  5
CCB
  8
CALIFORNIA
 10
95.819576472409139
 20
704.73945717707841
 30
0.0
  0
VERTEX
  5
CCC
  8
CALIFORNIA
 10
95.823893504353521
 20
704.74216158532613
 30
0.0
  0
SEQEND
  5
CCD
  8
CALIFORNIA
  0
POLYLINE
  5
C4
  8
CALIFORNIA
 66
     1
 10
0.0
 20
0.0
 30
0.0
 70
     1
1001
DCO15
1071
        4
1071
        3
1000
lotenos--cerámica
1004
0752445F3133373600
1071
        2
1000
lotes--períodos
1004
0752445F3133373600
1071
        1
1000
lotes--cerámica
1004
0752445F3133373600
  0
VERTEX
  5
CCE
  8
CALIFORNIA
 10
96.929233355162594
 20
709.6793709611826
 30
0.0
  0
VERTEX
  5
CCF
  8
CALIFORNIA
 10
96.895825992836649
 20
709.67032851197382
 30
0.0
  0
VERTEX
  5
CD0
  8
CALIFORNIA
 10
96.888933273383088
 20
709.64182015343317
 30
0.0
  0
VERTEX
  5
CD1
  8
CALIFORNIA
 10
96.94011552689399
 20
709.53395543920146
 30
0.0
  0
VERTEX
  5
CD2
  8
CALIFORNIA
 10
96.981751794036526
 20
709.55389922982386
 30
0.0
  0
VERTEX
  5
CD3
  8
CALIFORNIA
 10
96.994436176195663
 20
709.5617397475603
 30
0.0
  0
VERTEX
  5
CD4
  8
CALIFORNIA
 10
96.990840939919011
 20
709.60511171371036
 30
0.0
  0
VERTEX
  5
CD5
  8
CALIFORNIA
 10
96.970372442333684
 20
709.64996336440515
 30
0.0
  0
SEQEND
  5
CD6
  8
CALIFORNIA
  0
POLYLINE
  5
C5
  8
CALIFORNIA
 66
     1
 10
0.0
 20
0.0
 30
0.0
 70
     1
1001
DCO15
1071
        4
1071
        3
1000
lotenos--cerámica
1004
0743415F3132393800
1071
        2
1000
lotes--períodos
1004
0743415F3132393800
1071
        1
1000
lotes--cerámica
1004
0743415F3132393800
  0
VERTEX
  5
CD7
  8
CALIFORNIA
 10
96.924591361436484
 20
704.50060749313559
 30
0.0
  0
VERTEX
  5
CD8
  8
CALIFORNIA
 10
96.916348706567064
 20
704.53059860788494
 30
0.0
  0
VERTEX
  5
CD9
  8
CALIFORNIA
 10
96.919347283432131
 20
704.56022572942857
 30
0.0
  0
VERTEX
  5
CDA
  8
CALIFORNIA
 10
96.940785370010488
 20
704.57248472708682
 30
0.0
  0
VERTEX
  5
CDB
  8
CALIFORNIA
 10
96.959000589992925
 20
704.56554340698153
 30
0.0
  0
VERTEX
  5
CDC
  8
CALIFORNIA
 10
96.974028179253764
 20
704.55188197907046
 30
0.0
  0
VERTEX
  5
CDD
  8
CALIFORNIA
 10
96.983038621973705
 20
704.53875299357946
 30
0.0
  0
SEQEND
  5
CDE
  8
CALIFORNIA
  0
POLYLINE
  5
C6
  8
CALIFORNIA
 66
     1
 10
0.0
 20
0.0
 30
0.0
 70
     1
1001
DCO15
1071
        4
1071
        3
1000
lotenos--cerámica
1004
0743415F3234373100
1071
        2
1000
lotes--períodos
1004
0743415F3234373100
1071
        1
1000
lotes--cerámica
1004
0743415F3234373100
  0
VERTEX
  5
CDF
  8
CALIFORNIA
 10
96.694256081889307
 20
704.06297643950245
 30
0.0
  0
VERTEX
  5
CE0
  8
CALIFORNIA
 10
96.744718420029074
 20
704.08131204194615
 30
0.0
  0
VERTEX
  5
CE1
  8
CALIFORNIA
 10
96.73420872276246
 20
704.1036516629091
 30
0.0
  0
VERTEX
  5
CE2
  8
CALIFORNIA
 10
96.732281866491206
 20
704.13036687543547
 30
0.0
  0
VERTEX
  5
CE3
  8
CALIFORNIA
 10
96.721751303731082
 20
704.15894777936421
 30
0.0
  0
VERTEX
  5
CE4
  8
CALIFORNIA
 10
96.695831857885281
 20
704.17927873081135
 30
0.0
  0
VERTEX
  5
CE5
  8
CALIFORNIA
 10
96.675215614282365
 20
704.17792516464067
 30
0.0
  0
VERTEX
  5
CE6
  8
CALIFORNIA
 10
96.670758515551228
 20
704.1541614541876
 30
0.0
  0
VERTEX
  5
CE7
  8
CALIFORNIA
 10
96.678344405181335
 20
704.13076789439663
 30
0.0
  0
VERTEX
  5
CE8
  8
CALIFORNIA
 10
96.689948659102043
 20
704.11014029241596
 30
0.0
  0
VERTEX
  5
CE9
  8
CALIFORNIA
 10
96.691832056518834
 20
704.08344248031642
 30
0.0
  0
SEQEND
  5
CEA
  8
CALIFORNIA
  0
POLYLINE
  5
C7
  8
CALIFORNIA
 66
     1
 10
0.0
 20
0.0
 30
0.0
 70
     1
1001
DCO15
1071
        4
1071
        3
1000
lotenos--cerámica
1004
0743415F3135343600
1071
        2
1000
lotes--períodos
1004
0743415F3135343600
1071
        1
1000
lotes--cerámica
1004
0743415F3135343600
  0
VERTEX
  5
CEB
  8
CALIFORNIA
 10
96.675573421845783
 20
705.75307941393805
 30
0.0
  0
VERTEX
  5
CEC
  8
CALIFORNIA
 10
96.706878822916181
 20
705.75588000433186
 30
0.0
  0
VERTEX
  5
CED
  8
CALIFORNIA
 10
96.760086694962581
 20
705.77097179868792
 30
0.0
  0
VERTEX
  5
CEE
  8
CALIFORNIA
 10
96.785088260228562
 20
705.79261667089611
 30
0.0
  0
VERTEX
  5
CEF
  8
CALIFORNIA
 10
96.786526753073744
 20
705.82724452721004
 30
0.0
  0
VERTEX
  5
CF0
  8
CALIFORNIA
 10
96.761264346314491
 20
705.84737749561509
 30
0.0
  0
VERTEX
  5
CF1
  8
CALIFORNIA
 10
96.716671772309795
 20
705.84761909055555
 30
0.0
  0
VERTEX
  5
CF2
  8
CALIFORNIA
 10
96.681934586396039
 20
705.83405444241885
 30
0.0
  0
VERTEX
  5
CF3
  8
CALIFORNIA
 10
96.660916106184715
 20
705.81932772608695
 30
0.0
  0
SEQEND
  5
CF4
  8
CALIFORNIA
  0
POLYLINE
  5
C8
  8
CALIFORNIA
 66
     1
 10
0.0
 20
0.0
 30
0.0
 70
     1
1001
DCO15
1071
        4
1071
        3
1000
lotenos--cerámica
1004
0743415F3131353700
1071
        2
1000
lotes--períodos
1004
0743415F3131353700
1071
        1
1000
lotes--cerámica
1004
0743415F3131353700
  0
VERTEX
  5
CF5
  8
CALIFORNIA
 10
96.680505784686162
 20
704.36362032896045
 30
0.0
  0
VERTEX
  5
CF6
  8
CALIFORNIA
 10
96.681238286993704
 20
704.30507201445278
 30
0.0
  0
VERTEX
  5
CF7
  8
CALIFORNIA
 10
96.698760141486403
 20
704.30522827526215
 30
0.0
  0
VERTEX
  5
CF8
  8
CALIFORNIA
 10
96.719154594082596
 20
704.30905497773529
 30
0.0
  0
VERTEX
  5
CF9
  8
CALIFORNIA
 10
96.751044817352962
 20
704.32681750263555
 30
0.0
  0
VERTEX
  5
CFA
  8
CALIFORNIA
 10
96.763644775394951
 20
704.35415110264364
 30
0.0
  0
VERTEX
  5
CFB
  8
CALIFORNIA
 10
96.762575817377495
 20
704.3578463848163
 30
0.0
  0
SEQEND
  5
CFC
  8
CALIFORNIA
  0
POLYLINE
  5
C9
  8
CALIFORNIA
 66
     1
 10
0.0
 20
0.0
 30
0.0
 70
     1
1001
DCO15
1071
        4
1071
        3
1000
lotenos--cerámica
1004
0743415F3131353500
1071
        2
1000
lotes--períodos
1004
0743415F3131353500
1071
        1
1000
lotes--cerámica
1004
0743415F3131353500
  0
VERTEX
  5
CFD
  8
CALIFORNIA
 10
96.599512072897426
 20
704.38257786463737
 30
0.0
  0
VERTEX
  5
CFE
  8
CALIFORNIA
 10
96.588303123588162
 20
704.39502615000265
 30
0.0
  0
VERTEX
  5
CFF
  8
CALIFORNIA
 10
96.562815396641625
 20
704.40286029411402
 30
0.0
  0
VERTEX
  5
D00
  8
CALIFORNIA
 10
96.553944577748979
 20
704.41629294935535
 30
0.0
  0
VERTEX
  5
D01
  8
CALIFORNIA
 10
96.562996391882862
 20
704.43466508068025
 30
0.0
  0
VERTEX
  5
D02
  8
CALIFORNIA
 10
96.590209576565059
 20
704.46233089480245
 30
0.0
  0
VERTEX
  5
D03
  8
CALIFORNIA
 10
96.621092103223361
 20
704.47087237371977
 30
0.0
  0
VERTEX
  5
D04
  8
CALIFORNIA
 10
96.636542536620311
 20
704.4660859864556
 30
0.0
  0
VERTEX
  5
D05
  8
CALIFORNIA
 10
96.660686542484683
 20
704.44313437692472
 30
0.0
  0
VERTEX
  5
D06
  8
CALIFORNIA
 10
96.677239209565954
 20
704.43363234033416
 30
0.0
  0
VERTEX
  5
D07
  8
CALIFORNIA
 10
96.675072971489854
 20
704.40449732322713
 30
0.0
  0
SEQEND
  5
D08
  8
CALIFORNIA
  0
POLYLINE
  5
CA
  8
CALIFORNIA
 66
     1
 10
0.0
 20
0.0
 30
0.0
 70
     1
1001
DCO15
1071
        4
1071
        3
1000
lotenos--cerámica
1004
0752445F31363700
1071
        2
1000
lotes--períodos
1004
0752445F31363700
1071
        1
1000
lotes--cerámica
1004
0752445F31363700
  0
VERTEX
  5
D09
  8
CALIFORNIA
 10
98.462183462624665
 20
701.01059237661025
 30
0.0
  0
VERTEX
  5
D0A
  8
CALIFORNIA
 10
98.529978568726193
 20
701.00567120855715
 30
0.0
  0
VERTEX
  5
D0B
  8
CALIFORNIA
 10
98.562766836915642
 20
700.98472452375563
 30
0.0
  0
VERTEX
  5
D0C
  8
CALIFORNIA
 10
98.591920609721484
 20
700.92390021232302
 30
0.0
  0
VERTEX
  5
D0D
  8
CALIFORNIA
 10
98.555586090491246
 20
700.88159716310804
 30
0.0
  0
VERTEX
  5
D0E
  8
CALIFORNIA
 10
98.532269149435763
 20
700.88564196951131
 30
0.0
  0
VERTEX
  5
D0F
  8
CALIFORNIA
 10
98.51125625495159
 20
700.89752167778624
 30
0.0
  0
VERTEX
  5
D10
  8
CALIFORNIA
 10
98.470297842774244
 20
700.90494386698833
 30
0.0
  0
VERTEX
  5
D11
  8
CALIFORNIA
 10
98.453930462632556
 20
700.93246701831436
 30
0.0
  0
VERTEX
  5
D12
  8
CALIFORNIA
 10
98.445767298070237
 20
701.00473800603459
 30
0.0
  0
SEQEND
  5
D13
  8
CALIFORNIA
  0
POLYLINE
  5
CB
  8
CALIFORNIA
 66
     1
 10
0.0
 20
0.0
 30
0.0
 70
     1
1001
DCO15
1071
        4
1071
        3
1000
lotenos--cerámica
1004
0752445F39363100
1071
        2
1000
lotes--períodos
1004
0752445F39363100
1071
        1
1000
lotes--cerámica
1004
0752445F39363100
  0
VERTEX
  5
D14
  8
CALIFORNIA
 10
98.458860749267274
 20
706.79281968999896
 30
0.0
  0
VERTEX
  5
D15
  8
CALIFORNIA
 10
98.558012526317086
 20
706.84139215642119
 30
0.0
  0
VERTEX
  5
D16
  8
CALIFORNIA
 10
98.565817015926129
 20
706.90653823113485
 30
0.0
  0
VERTEX
  5
D17
  8
CALIFORNIA
 10
98.483212880592632
 20
706.87546244902558
 30
0.0
  0
VERTEX
  5
D18
  8
CALIFORNIA
 10
98.432224767701214
 20
706.84558975436926
 30
0.0
  0
SEQEND
  5
D19
  8
CALIFORNIA
  0
POLYLINE
  5
CC
  8
CALIFORNIA
 66
     1
 10
0.0
 20
0.0
 30
0.0
 70
     1
1001
DCO15
1071
        4
1071
        3
1000
lotenos--cerámica
1004
0752445F38313700
1071
        2
1000
lotes--períodos
1004
0752445F38313700
1071
        1
1000
lotes--cerámica
1004
0752445F38313700
  0
VERTEX
  5
D1A
  8
CALIFORNIA
 10
98.18825521647905
 20
705.87936536467555
 30
0.0
  0
VERTEX
  5
D1B
  8
CALIFORNIA
 10
98.201635356961035
 20
705.94562182473908
 30
0.0
  0
VERTEX
  5
D1C
  8
CALIFORNIA
 10
98.170076471620291
 20
705.95351077733949
 30
0.0
  0
VERTEX
  5
D1D
  8
CALIFORNIA
 10
98.120295841176954
 20
705.93714230570401
 30
0.0
  0
VERTEX
  5
D1E
  8
CALIFORNIA
 10
98.103445597804736
 20
705.90052994588007
 30
0.0
  0
VERTEX
  5
D1F
  8
CALIFORNIA
 10
98.123379985262673
 20
705.87436658707668
 30
0.0
  0
VERTEX
  5
D20
  8
CALIFORNIA
 10
98.162323294884345
 20
705.88916179153659
 30
0.0
  0
SEQEND
  5
D21
  8
CALIFORNIA
  0
POLYLINE
  5
CD
  8
CALIFORNIA
 66
     1
 10
0.0
 20
0.0
 30
0.0
 70
     1
1001
DCO15
1071
        4
1071
        3
1000
lotenos--cerámica
1004
0752445F38333000
1071
        2
1000
lotes--períodos
1004
0752445F38333000
1071
        1
1000
lotes--cerámica
1004
0752445F38333000
  0
VERTEX
  5
D22
  8
CALIFORNIA
 10
97.904873073331643
 20
705.70111933904786
 30
0.0
  0
VERTEX
  5
D23
  8
CALIFORNIA
 10
97.863795886699194
 20
705.67343447164012
 30
0.0
  0
VERTEX
  5
D24
  8
CALIFORNIA
 10
97.837853217008757
 20
705.69067912415926
 30
0.0
  0
VERTEX
  5
D25
  8
CALIFORNIA
 10
97.829992961239725
 20
705.7066109555733
 30
0.0
  0
VERTEX
  5
D26
  8
CALIFORNIA
 10
97.822232558315406
 20
705.72224725314641
 30
0.0
  0
VERTEX
  5
D27
  8
CALIFORNIA
 10
97.866469568621284
 20
705.75478911912501
 30
0.0
  0
SEQEND
  5
D28
  8
CALIFORNIA
  0
POLYLINE
  5
CE
  8
CALIFORNIA
 66
     1
 10
0.0
 20
0.0
 30
0.0
 70
     1
1001
DCO15
1071
        4
1071
        3
1000
lotenos--cerámica
1004
0752445F37343800
1071
        2
1000
lotes--períodos
1004
0752445F37343800
1071
        1
1000
lotes--cerámica
1004
0752445F37343800
  0
VERTEX
  5
D29
  8
CALIFORNIA
 10
99.300188425334213
 20
705.5850991656398
 30
0.0
  0
VERTEX
  5
D2A
  8
CALIFORNIA
 10
99.317413006998635
 20
705.73387175902883
 30
0.0
  0
VERTEX
  5
D2B
  8
CALIFORNIA
 10
99.332981803653922
 20
705.71873185756886
 30
0.0
  0
VERTEX
  5
D2C
  8
CALIFORNIA
 10
99.332473180451771
 20
705.69582516304331
 30
0.0
  0
VERTEX
  5
D2D
  8
CALIFORNIA
 10
99.324232008012885
 20
705.67584098097382
 30
0.0
  0
VERTEX
  5
D2E
  8
CALIFORNIA
 10
99.364202359234213
 20
705.65348170208176
 30
0.0
  0
VERTEX
  5
D2F
  8
CALIFORNIA
 10
99.366065210149557
 20
705.62775296898485
 30
0.0
  0
VERTEX
  5
D30
  8
CALIFORNIA
 10
99.339612273455614
 20
705.59930236334537
 30
0.0
  0
VERTEX
  5
D31
  8
CALIFORNIA
 10
99.310892634099446
 20
705.58303267146596
 30
0.0
  0
SEQEND
  5
D32
  8
CALIFORNIA
  0
POLYLINE
  5
CF
  8
CALIFORNIA
 66
     1
 10
0.0
 20
0.0
 30
0.0
 70
     1
1001
DCO15
1071
        4
1071
        3
1000
lotenos--cerámica
1004
0752445F36303500
1071
        2
1000
lotes--períodos
1004
0752445F36303500
1071
        1
1000
lotes--cerámica
1004
0752445F36303500
  0
VERTEX
  5
D33
  8
CALIFORNIA
 10
99.144989999978165
 20
706.42852883662874
 30
0.0
  0
VERTEX
  5
D34
  8
CALIFORNIA
 10
99.094622499444128
 20
706.43445522157299
 30
0.0
  0
VERTEX
  5
D35
  8
CALIFORNIA
 10
99.06949309144224
 20
706.40036225426024
 30
0.0
  0
VERTEX
  5
D36
  8
CALIFORNIA
 10
99.067092868326554
 20
706.46489323462811
 30
0.0
  0
VERTEX
  5
D37
  8
CALIFORNIA
 10
99.142153402268846
 20
706.47431093149305
 30
0.0
  0
SEQEND
  5
D38
  8
CALIFORNIA
  0
POLYLINE
  5
D0
  8
CALIFORNIA
 66
     1
 10
0.0
 20
0.0
 30
0.0
 70
     1
1001
DCO15
1071
        4
1071
        3
1000
lotenos--cerámica
1004
0752445F35383900
1071
        2
1000
lotes--períodos
1004
0752445F35383900
1071
        1
1000
lotes--cerámica
1004
0752445F35383900
  0
VERTEX
  5
D39
  8
CALIFORNIA
 10
99.375336833485605
 20
706.68138399853501
 30
0.0
  0
VERTEX
  5
D3A
  8
CALIFORNIA
 10
99.389291260545875
 20
706.69898120150481
 30
0.0
  0
VERTEX
  5
D3B
  8
CALIFORNIA
 10
99.379533043647555
 20
706.72825604979494
 30
0.0
  0
VERTEX
  5
D3C
  8
CALIFORNIA
 10
99.335483886184164
 20
706.73999615894138
 30
0.0
  0
VERTEX
  5
D3D
  8
CALIFORNIA
 10
99.323642703050808
 20
706.76287166863119
 30
0.0
  0
VERTEX
  5
D3E
  8
CALIFORNIA
 10
99.321999533605876
 20
706.68138399853501
 30
0.0
  0
SEQEND
  5
D3F
  8
CALIFORNIA
  0
POLYLINE
  5
D1
  8
BOUNDARY
 66
     1
 10
0.0
 20
0.0
 30
0.0
 70
     1
  0
VERTEX
  5
D40
  8
BOUNDARY
 10
94.701787370118154
 20
695.82545378322004
 30
0.0
  0
VERTEX
  5
D41
  8
BOUNDARY
 10
94.683337357912919
 20
695.88351785296436
 30
0.0
  0
VERTEX
  5
D42
  8
BOUNDARY
 10
94.673841062329771
 20
695.95271677241476
 30
0.0
  0
VERTEX
  5
D43
  8
BOUNDARY
 10
94.698712997658717
 20
696.08282272401493
 30
0.0
  0
VERTEX
  5
D44
  8
BOUNDARY
 10
94.743339970966204
 20
696.08196711285962
 30
0.0
  0
VERTEX
  5
D45
  8
BOUNDARY
 10
94.811862154800565
 20
696.11824257368653
 30
0.0
  0
VERTEX
  5
D46
  8
BOUNDARY
 10
94.829090989141591
 20
696.16654762439896
 30
0.0
  0
VERTEX
  5
D47
  8
BOUNDARY
 10
94.893163332324775
 20
696.20804096254915
 30
0.0
  0
VERTEX
  5
D48
  8
BOUNDARY
 10
94.905176152628627
 20
696.25263998655362
 30
0.0
  0
VERTEX
  5
D49
  8
BOUNDARY
 10
95.011660796871411
 20
696.29997762889866
 30
0.0
  0
VERTEX
  5
D4A
  8
BOUNDARY
 10
95.191725259601768
 20
696.32407257360319
 30
0.0
  0
VERTEX
  5
D4B
  8
BOUNDARY
 10
95.323296479645919
 20
696.29027114438145
 30
0.0
  0
VERTEX
  5
D4C
  8
BOUNDARY
 10
95.393296974932582
 20
696.32282380891866
 30
0.0
  0
VERTEX
  5
D4D
  8
BOUNDARY
 10
95.629020779898838
 20
696.29619965896745
 30
0.0
  0
VERTEX
  5
D4E
  8
BOUNDARY
 10
95.776193459882279
 20
696.25492096128937
 30
0.0
  0
VERTEX
  5
D4F
  8
BOUNDARY
 10
95.963535819374357
 20
696.21502927400684
 30
0.0
  0
VERTEX
  5
D50
  8
BOUNDARY
 10
96.161977626121811
 20
696.15205140518083
 30
0.0
  0
VERTEX
  5
D51
  8
BOUNDARY
 10
96.214057645156799
 20
696.15712767270225
 30
0.0
  0
VERTEX
  5
D52
  8
BOUNDARY
 10
96.277453252723944
 20
696.2254001760964
 30
0.0
  0
VERTEX
  5
D53
  8
BOUNDARY
 10
96.339890768358131
 20
696.20813593930529
 30
0.0
  0
VERTEX
  5
D54
  8
BOUNDARY
 10
96.462683420745876
 20
696.23311817104195
 30
0.0
  0
VERTEX
  5
D55
  8
BOUNDARY
 10
96.610077831866647
 20
696.28035333260891
 30
0.0
  0
VERTEX
  5
D56
  8
BOUNDARY
 10
96.680810961375528
 20
696.30844125019917
 30
0.0
  0
VERTEX
  5
D57
  8
BOUNDARY
 10
96.75067730000751
 20
696.28743931082295
 30
0.0
  0
VERTEX
  5
D58
  8
BOUNDARY
 10
96.856440489749502
 20
696.34370458377384
 30
0.0
  0
VERTEX
  5
D59
  8
BOUNDARY
 10
96.980676051138985
 20
696.35083155429868
 30
0.0
  0
VERTEX
  5
D5A
  8
BOUNDARY
 10
97.069296117735803
 20
696.39300721792586
 30
0.0
  0
VERTEX
  5
D5B
  8
BOUNDARY
 10
97.125339297066574
 20
696.49551379557795
 30
0.0
  0
VERTEX
  5
D5C
  8
BOUNDARY
 10
97.1709169091598
 20
696.5772196688348
 30
0.0
  0
VERTEX
  5
D5D
  8
BOUNDARY
 10
97.280930567858164
 20
696.54867897253519
 30
0.0
  0
VERTEX
  5
D5E
  8
BOUNDARY
 10
97.358510812379095
 20
696.63774286388934
 30
0.0
  0
VERTEX
  5
D5F
  8
BOUNDARY
 10
97.401169067305545
 20
696.74177060859131
 30
0.0
  0
VERTEX
  5
D60
  8
BOUNDARY
 10
97.452561171003225
 20
696.76916315769745
 30
0.0
  0
VERTEX
  5
D61
  8
BOUNDARY
 10
97.499527656778824
 20
696.81144316538894
 30
0.0
  0
VERTEX
  5
D62
  8
BOUNDARY
 10
97.507101816152499
 20
696.86572295037695
 30
0.0
  0
VERTEX
  5
D63
  8
BOUNDARY
 10
97.536943811651781
 20
696.90135148817762
 30
0.0
  0
VERTEX
  5
D64
  8
BOUNDARY
 10
97.465861885016025
 20
697.03095398984055
 30
0.0
  0
VERTEX
  5
D65
  8
BOUNDARY
 10
97.491951271635585
 20
697.05320319309715
 30
0.0
  0
VERTEX
  5
D66
  8
BOUNDARY
 10
97.551471293389582
 20
697.05900464169326
 30
0.0
  0
VERTEX
  5
D67
  8
BOUNDARY
 10
97.596303228252523
 20
697.13996856429435
 30
0.0
  0
VERTEX
  5
D68
  8
BOUNDARY
 10
97.679679331509561
 20
697.16728099206466
 30
0.0
  0
VERTEX
  5
D69
  8
BOUNDARY
 10
97.724466547487722
 20
697.23039338002798
 30
0.0
  0
VERTEX
  5
D6A
  8
BOUNDARY
 10
97.778873035982571
 20
697.27339856879439
 30
0.0
  0
VERTEX
  5
D6B
  8
BOUNDARY
 10
97.812956184003696
 20
697.22050206762833
 30
0.0
  0
VERTEX
  5
D6C
  8
BOUNDARY
 10
97.870134830002598
 20
697.1824240834344
 30
0.0
  0
VERTEX
  5
D6D
  8
BOUNDARY
 10
97.930519779346696
 20
697.23657157505443
 30
0.0
  0
VERTEX
  5
D6E
  8
BOUNDARY
 10
97.929278105327057
 20
697.33475874213559
 30
0.0
  0
VERTEX
  5
D6F
  8
BOUNDARY
 10
97.894536854558524
 20
697.4218725479775
 30
0.0
  0
VERTEX
  5
D70
  8
BOUNDARY
 10
97.917718063732067
 20
697.47090650633822
 30
0.0
  0
VERTEX
  5
D71
  8
BOUNDARY
 10
98.021947043415807
 20
697.50858015728159
 30
0.0
  0
VERTEX
  5
D72
  8
BOUNDARY
 10
98.106969153943041
 20
697.59911304365346
 30
0.0
  0
VERTEX
  5
D73
  8
BOUNDARY
 10
98.142088651946082
 20
697.66299346828907
 30
0.0
  0
VERTEX
  5
D74
  8
BOUNDARY
 10
98.220196569133563
 20
697.66577307894124
 30
0.0
  0
VERTEX
  5
D75
  8
BOUNDARY
 10
98.328802721280695
 20
697.66922010877397
 30
0.0
  0
VERTEX
  5
D76
  8
BOUNDARY
 10
98.442084171790384
 20
697.75745074841564
 30
0.0
  0
VERTEX
  5
D77
  8
BOUNDARY
 10
98.617156214907951
 20
697.86709733960026
 30
0.0
  0
VERTEX
  5
D78
  8
BOUNDARY
 10
98.829952217714663
 20
697.89259792756923
 30
0.0
  0
VERTEX
  5
D79
  8
BOUNDARY
 10
99.120967934921055
 20
697.96550696278405
 30
0.0
  0
VERTEX
  5
D7A
  8
BOUNDARY
 10
99.359842144625645
 20
698.00879387035025
 30
0.0
  0
VERTEX
  5
D7B
  8
BOUNDARY
 10
99.615799852295837
 20
698.04236834105609
 30
0.0
  0
VERTEX
  5
D7C
  8
BOUNDARY
 10
100.069080669627
 20
698.16024383027116
 30
0.0
  0
VERTEX
  5
D7D
  8
BOUNDARY
 10
100.2322032441943
 20
698.25058107152165
 30
0.0
  0
VERTEX
  5
D7E
  8
BOUNDARY
 10
100.1985002066944
 20
698.45521561710825
 30
0.0
  0
VERTEX
  5
D7F
  8
BOUNDARY
 10
100.2179753891603
 20
698.50946558950602
 30
0.0
  0
VERTEX
  5
D80
  8
BOUNDARY
 10
100.2723352954833
 20
698.53387542969131
 30
0.0
  0
VERTEX
  5
D81
  8
BOUNDARY
 10
100.3414540935982
 20
698.51138772571551
 30
0.0
  0
VERTEX
  5
D82
  8
BOUNDARY
 10
100.4662191909412
 20
698.43297422948126
 30
0.0
  0
VERTEX
  5
D83
  8
BOUNDARY
 10
100.6203060642642
 20
698.47944880752368
 30
0.0
  0
VERTEX
  5
D84
  8
BOUNDARY
 10
100.8962442676238
 20
698.47206320260602
 30
0.0
  0
VERTEX
  5
D85
  8
BOUNDARY
 10
100.93611023137279
 20
698.35220854025317
 30
0.0
  0
VERTEX
  5
D86
  8
BOUNDARY
 10
101.06820167093591
 20
698.22914757455635
 30
0.0
  0
VERTEX
  5
D87
  8
BOUNDARY
 10
101.2264402590112
 20
698.15139404435649
 30
0.0
  0
VERTEX
  5
D88
  8
BOUNDARY
 10
101.3053907443461
 20
698.19359393071295
 30
0.0
  0
VERTEX
  5
D89
  8
BOUNDARY
 10
101.41805322113279
 20
698.33166196783804
 30
0.0
  0
VERTEX
  5
D8A
  8
BOUNDARY
 10
101.52725003521751
 20
698.57089801767802
 30
0.0
  0
VERTEX
  5
D8B
  8
BOUNDARY
 10
101.5800474196971
 20
698.86234265334645
 30
0.0
  0
VERTEX
  5
D8C
  8
BOUNDARY
 10
101.580317596293
 20
698.97019567511597
 30
0.0
  0
VERTEX
  5
D8D
  8
BOUNDARY
 10
101.5977197163128
 20
699.08767542254964
 30
0.0
  0
VERTEX
  5
D8E
  8
BOUNDARY
 10
101.72840328684219
 20
699.29338580962485
 30
0.0
  0
VERTEX
  5
D8F
  8
BOUNDARY
 10
101.8096802416371
 20
699.37351461722596
 30
0.0
  0
VERTEX
  5
D90
  8
BOUNDARY
 10
101.831926419963
 20
699.3865820979895
 30
0.0
  0
VERTEX
  5
D91
  8
BOUNDARY
 10
101.8412567233437
 20
699.39549811431391
 30
0.0
  0
VERTEX
  5
D92
  8
BOUNDARY
 10
101.8522095521394
 20
699.40725100301711
 30
0.0
  0
VERTEX
  5
D93
  8
BOUNDARY
 10
101.85217452731899
 20
699.41208673492247
 30
0.0
  0
VERTEX
  5
D94
  8
BOUNDARY
 10
101.85158163961199
 20
699.4723375276119
 30
0.0
  0
VERTEX
  5
D95
  8
BOUNDARY
 10
101.8390560529367
 20
699.51997329585583
 30
0.0
  0
VERTEX
  5
D96
  8
BOUNDARY
 10
101.6490291104233
 20
699.67590741143135
 30
0.0
  0
VERTEX
  5
D97
  8
BOUNDARY
 10
101.60525402169741
 20
699.71990236800775
 30
0.0
  0
VERTEX
  5
D98
  8
BOUNDARY
 10
101.6537514200333
 20
699.95661783314085
 30
0.0
  0
VERTEX
  5
D99
  8
BOUNDARY
 10
101.65063142003351
 20
699.96597783314053
 30
0.0
  0
VERTEX
  5
D9A
  8
BOUNDARY
 10
101.6568714200334
 20
700.01277783314015
 30
0.0
  0
VERTEX
  5
D9B
  8
BOUNDARY
 10
101.6537514200333
 20
700.06893783314035
 30
0.0
  0
VERTEX
  5
D9C
  8
BOUNDARY
 10
101.65063142003351
 20
700.10949783314015
 30
0.0
  0
VERTEX
  5
D9D
  8
BOUNDARY
 10
101.6568714200334
 20
700.13757783314043
 30
0.0
  0
VERTEX
  5
D9E
  8
BOUNDARY
 10
101.65999142003351
 20
700.16565783314013
 30
0.0
  0
VERTEX
  5
D9F
  8
BOUNDARY
 10
101.6568714200334
 20
700.17189783314052
 30
0.0
  0
VERTEX
  5
DA0
  8
BOUNDARY
 10
101.6662314200334
 20
700.19685783314014
 30
0.0
  0
VERTEX
  5
DA1
  8
BOUNDARY
 10
101.68807142003349
 20
700.23741783314051
 30
0.0
  0
VERTEX
  5
DA2
  8
BOUNDARY
 10
101.6787114200333
 20
700.26237783314025
 30
0.0
  0
VERTEX
  5
DA3
  8
BOUNDARY
 10
101.6724714200334
 20
700.27173783314038
 30
0.0
  0
VERTEX
  5
DA4
  8
BOUNDARY
 10
101.6568714200334
 20
700.27485783314035
 30
0.0
  0
VERTEX
  5
DA5
  8
BOUNDARY
 10
101.60071142003331
 20
700.25613783314077
 30
0.0
  0
VERTEX
  5
DA6
  8
BOUNDARY
 10
101.5476714200335
 20
700.25613783314077
 30
0.0
  0
VERTEX
  5
DA7
  8
BOUNDARY
 10
101.4727914200334
 20
700.29669783314046
 30
0.0
  0
VERTEX
  5
DA8
  8
BOUNDARY
 10
101.43847142003339
 20
700.32789783314058
 30
0.0
  0
VERTEX
  5
DA9
  8
BOUNDARY
 10
101.4322314200333
 20
700.34973783314035
 30
0.0
  0
VERTEX
  5
DAA
  8
BOUNDARY
 10
101.42911142003339
 20
700.37781783314051
 30
0.0
  0
VERTEX
  5
DAB
  8
BOUNDARY
 10
101.4322314200333
 20
700.38093783314071
 30
0.0
  0
VERTEX
  5
DAC
  8
BOUNDARY
 10
101.43847142003339
 20
700.39029783314015
 30
0.0
  0
VERTEX
  5
DAD
  8
BOUNDARY
 10
101.4759114200333
 20
700.40589783314044
 30
0.0
  0
VERTEX
  5
DAE
  8
BOUNDARY
 10
101.5320714200334
 20
700.43397783314072
 30
0.0
  0
VERTEX
  5
DAF
  8
BOUNDARY
 10
101.65063142003351
 20
700.48077783314045
 30
0.0
  0
VERTEX
  5
DB0
  8
BOUNDARY
 10
101.6631114200336
 20
700.49325783314043
 30
0.0
  0
VERTEX
  5
DB1
  8
BOUNDARY
 10
101.66935142003349
 20
700.49325783314043
 30
0.0
  0
VERTEX
  5
DB2
  8
BOUNDARY
 10
101.7161514200336
 20
700.54941783314052
 30
0.0
  0
VERTEX
  5
DB3
  8
BOUNDARY
 10
101.7411114200335
 20
700.58685783314058
 30
0.0
  0
VERTEX
  5
DB4
  8
BOUNDARY
 10
101.76919142003359
 20
700.65237783314058
 30
0.0
  0
VERTEX
  5
DB5
  8
BOUNDARY
 10
101.8066314200334
 20
700.74909783314047
 30
0.0
  0
VERTEX
  5
DB6
  8
BOUNDARY
 10
101.8284714200333
 20
700.79277783314058
 30
0.0
  0
VERTEX
  5
DB7
  8
BOUNDARY
 10
101.8471914200334
 20
700.83645783314068
 30
0.0
  0
VERTEX
  5
DB8
  8
BOUNDARY
 10
101.8471914200334
 20
700.89885783314026
 30
0.0
  0
VERTEX
  5
DB9
  8
BOUNDARY
 10
101.85031142003341
 20
700.9082178331405
 30
0.0
  0
VERTEX
  5
DBA
  8
BOUNDARY
 10
101.8534314200333
 20
700.94877783314041
 30
0.0
  0
VERTEX
  5
DBB
  8
BOUNDARY
 10
101.85967142003319
 20
700.9706178331403
 30
0.0
  0
VERTEX
  5
DBC
  8
BOUNDARY
 10
101.8752714200334
 20
700.98933783314044
 30
0.0
  0
VERTEX
  5
DBD
  8
BOUNDARY
 10
101.88151142003331
 20
700.99245783314052
 30
0.0
  0
VERTEX
  5
DBE
  8
BOUNDARY
 10
102.0063114200334
 20
701.03925783314025
 30
0.0
  0
VERTEX
  5
DBF
  8
BOUNDARY
 10
102.0655914200335
 20
701.04549783314042
 30
0.0
  0
VERTEX
  5
DC0
  8
BOUNDARY
 10
102.1467114200334
 20
701.03301783314066
 30
0.0
  0
VERTEX
  5
DC1
  8
BOUNDARY
 10
102.1623114200336
 20
701.0361378331404
 30
0.0
  0
VERTEX
  5
DC2
  8
BOUNDARY
 10
102.1779114200333
 20
701.02989783314047
 30
0.0
  0
VERTEX
  5
DC3
  8
BOUNDARY
 10
102.2122314200335
 20
701.01117783314089
 30
0.0
  0
VERTEX
  5
DC4
  8
BOUNDARY
 10
102.2590314200333
 20
701.01741783314026
 30
0.0
  0
VERTEX
  5
DC5
  8
BOUNDARY
 10
102.3058314200334
 20
701.03301783314066
 30
0.0
  0
VERTEX
  5
DC6
  8
BOUNDARY
 10
102.34015142003339
 20
701.02989783314047
 30
0.0
  0
VERTEX
  5
DC7
  8
BOUNDARY
 10
102.38071142003329
 20
701.04237783314045
 30
0.0
  0
VERTEX
  5
DC8
  8
BOUNDARY
 10
102.43999142003349
 20
701.07669783314043
 30
0.0
  0
VERTEX
  5
DC9
  8
BOUNDARY
 10
102.4930314200335
 20
701.12973783314055
 30
0.0
  0
VERTEX
  5
DCA
  8
BOUNDARY
 10
102.5148714200336
 20
701.16093783314068
 30
0.0
  0
VERTEX
  5
DCB
  8
BOUNDARY
 10
102.5647914200335
 20
701.20461783314067
 30
0.0
  0
VERTEX
  5
DCC
  8
BOUNDARY
 10
102.6084714200333
 20
701.20773783314041
 30
0.0
  0
VERTEX
  5
DCD
  8
BOUNDARY
 10
102.6490314200334
 20
701.20461783314067
 30
0.0
  0
VERTEX
  5
DCE
  8
BOUNDARY
 10
102.6833514200334
 20
701.21085783314061
 30
0.0
  0
VERTEX
  5
DCF
  8
BOUNDARY
 10
102.6989514200334
 20
701.20461783314067
 30
0.0
  0
VERTEX
  5
DD0
  8
BOUNDARY
 10
102.7145514200335
 20
701.21397783314046
 30
0.0
  0
VERTEX
  5
DD1
  8
BOUNDARY
 10
102.7457514200334
 20
701.22957783314041
 30
0.0
  0
VERTEX
  5
DD2
  8
BOUNDARY
 10
102.7738314200335
 20
701.23581783314046
 30
0.0
  0
VERTEX
  5
DD3
  8
BOUNDARY
 10
102.7894314200334
 20
701.23269783314049
 30
0.0
  0
VERTEX
  5
DD4
  8
BOUNDARY
 10
102.80191142003331
 20
701.23581783314046
 30
0.0
  0
VERTEX
  5
DD5
  8
BOUNDARY
 10
102.81127142003329
 20
701.24205783314005
 30
0.0
  0
VERTEX
  5
DD6
  8
BOUNDARY
 10
102.8580714200334
 20
701.28261783314065
 30
0.0
  0
VERTEX
  5
DD7
  8
BOUNDARY
 10
102.9079914200333
 20
701.31693783314029
 30
0.0
  0
VERTEX
  5
DD8
  8
BOUNDARY
 10
102.93295142003331
 20
701.35125783314015
 30
0.0
  0
VERTEX
  5
DD9
  8
BOUNDARY
 10
102.9485514200334
 20
701.39493783314015
 30
0.0
  0
VERTEX
  5
DDA
  8
BOUNDARY
 10
102.95167142003351
 20
701.41053783314055
 30
0.0
  0
VERTEX
  5
DDB
  8
BOUNDARY
 10
102.9391914200334
 20
701.47917783314006
 30
0.0
  0
VERTEX
  5
DDC
  8
BOUNDARY
 10
102.9485514200334
 20
701.56653783314061
 30
0.0
  0
VERTEX
  5
DDD
  8
BOUNDARY
 10
102.92983142003339
 20
701.65077783314052
 30
0.0
  0
VERTEX
  5
DDE
  8
BOUNDARY
 10
102.92983142003339
 20
701.65077783314052
 30
0.0
  0
VERTEX
  5
DDF
  8
BOUNDARY
 10
102.92983142003339
 20
701.65077783314052
 30
0.0
  0
VERTEX
  5
DE0
  8
BOUNDARY
 10
102.8799114200333
 20
701.73189783314069
 30
0.0
  0
VERTEX
  5
DE1
  8
BOUNDARY
 10
102.84247142003341
 20
701.76309783314025
 30
0.0
  0
VERTEX
  5
DE2
  8
BOUNDARY
 10
102.8175114200335
 20
701.78805783314056
 30
0.0
  0
VERTEX
  5
DE3
  8
BOUNDARY
 10
102.81127142003329
 20
701.80677783314047
 30
0.0
  0
VERTEX
  5
DE4
  8
BOUNDARY
 10
102.86119142003319
 20
701.87229783314069
 30
0.0
  0
VERTEX
  5
DE5
  8
BOUNDARY
 10
102.86119142003319
 20
701.87229783314069
 30
0.0
  0
VERTEX
  5
DE6
  8
BOUNDARY
 10
102.86119142003319
 20
701.87229783314069
 30
0.0
  0
VERTEX
  5
DE7
  8
BOUNDARY
 10
102.9641514200336
 20
701.9284578331401
 30
0.0
  0
VERTEX
  5
DE8
  8
BOUNDARY
 10
102.97039142003359
 20
701.93469783314026
 30
0.0
  0
VERTEX
  5
DE9
  8
BOUNDARY
 10
102.9953514200335
 20
701.96277783314054
 30
0.0
  0
VERTEX
  5
DEA
  8
BOUNDARY
 10
103.0359114200332
 20
702.04077783314051
 30
0.0
  0
VERTEX
  5
DEB
  8
BOUNDARY
 10
103.0390314200335
 20
702.05013783314052
 30
0.0
  0
VERTEX
  5
DEC
  8
BOUNDARY
 10
103.0483914200335
 20
702.09381783314029
 30
0.0
  0
VERTEX
  5
DED
  8
BOUNDARY
 10
103.0483914200335
 20
702.16869783314041
 30
0.0
  0
VERTEX
  5
DEE
  8
BOUNDARY
 10
103.0296714200333
 20
702.24045783314045
 30
0.0
  0
VERTEX
  5
DEF
  8
BOUNDARY
 10
102.9423114200335
 20
702.40893783314073
 30
0.0
  0
VERTEX
  5
DF0
  8
BOUNDARY
 10
102.8892714200335
 20
702.49005783314044
 30
0.0
  0
VERTEX
  5
DF1
  8
BOUNDARY
 10
102.8487114200334
 20
702.55869783314029
 30
0.0
  0
VERTEX
  5
DF2
  8
BOUNDARY
 10
102.7831914200333
 20
702.63669783314026
 30
0.0
  0
VERTEX
  5
DF3
  8
BOUNDARY
 10
102.7675914200335
 20
702.66477783314053
 30
0.0
  0
VERTEX
  5
DF4
  8
BOUNDARY
 10
102.7582314200333
 20
702.75525783314038
 30
0.0
  0
VERTEX
  5
DF5
  8
BOUNDARY
 10
102.75199142003341
 20
702.78645783314073
 30
0.0
  0
VERTEX
  5
DF6
  8
BOUNDARY
 10
102.7488714200335
 20
702.79581783314052
 30
0.0
  0
VERTEX
  5
DF7
  8
BOUNDARY
 10
102.7551114200335
 20
702.81453783314055
 30
0.0
  0
VERTEX
  5
DF8
  8
BOUNDARY
 10
102.7738314200335
 20
702.8488578331403
 30
0.0
  0
VERTEX
  5
DF9
  8
BOUNDARY
 10
102.7894314200334
 20
702.90813783314081
 30
0.0
  0
VERTEX
  5
DFA
  8
BOUNDARY
 10
102.7956714200336
 20
702.95493783314009
 30
0.0
  0
VERTEX
  5
DFB
  8
BOUNDARY
 10
102.8143914200334
 20
703.0017378331404
 30
0.0
  0
VERTEX
  5
DFC
  8
BOUNDARY
 10
102.8331114200334
 20
703.03917783314057
 30
0.0
  0
VERTEX
  5
DFD
  8
BOUNDARY
 10
102.8331114200334
 20
703.05165783314044
 30
0.0
  0
VERTEX
  5
DFE
  8
BOUNDARY
 10
102.8268714200335
 20
703.07973783314037
 30
0.0
  0
VERTEX
  5
DFF
  8
BOUNDARY
 10
102.82999142003329
 20
703.12029783313994
 30
0.0
  0
VERTEX
  5
E00
  8
BOUNDARY
 10
102.8237514200334
 20
703.14837783314044
 30
0.0
  0
VERTEX
  5
E01
  8
BOUNDARY
 10
102.82063142003349
 20
703.17333783314052
 30
0.0
  0
VERTEX
  5
E02
  8
BOUNDARY
 10
102.8455914200335
 20
703.22013783314048
 30
0.0
  0
VERTEX
  5
E03
  8
BOUNDARY
 10
102.85183142003341
 20
703.24509783314045
 30
0.0
  0
VERTEX
  5
E04
  8
BOUNDARY
 10
102.8767914200334
 20
703.32309783314031
 30
0.0
  0
VERTEX
  5
E05
  8
BOUNDARY
 10
102.8892714200335
 20
703.36989783314016
 30
0.0
  0
VERTEX
  5
E06
  8
BOUNDARY
 10
102.8892714200335
 20
703.37613783314055
 30
0.0
  0
VERTEX
  5
E07
  8
BOUNDARY
 10
102.8923914200336
 20
703.40421783314048
 30
0.0
  0
VERTEX
  5
E08
  8
BOUNDARY
 10
102.92047142003339
 20
703.48533783314076
 30
0.0
  0
VERTEX
  5
E09
  8
BOUNDARY
 10
102.9267114200334
 20
703.49781783313995
 30
0.0
  0
VERTEX
  5
E0A
  8
BOUNDARY
 10
102.92983142003339
 20
703.51341783314047
 30
0.0
  0
VERTEX
  5
E0B
  8
BOUNDARY
 10
102.9391914200334
 20
703.52589783314045
 30
0.0
  0
VERTEX
  5
E0C
  8
BOUNDARY
 10
102.9984714200334
 20
703.61325783314055
 30
0.0
  0
VERTEX
  5
E0D
  8
BOUNDARY
 10
103.0171914200334
 20
703.63197783314035
 30
0.0
  0
VERTEX
  5
E0E
  8
BOUNDARY
 10
103.0359114200332
 20
703.66317783314105
 30
0.0
  0
VERTEX
  5
E0F
  8
BOUNDARY
 10
103.0577514200333
 20
703.67877783314043
 30
0.0
  0
VERTEX
  5
E10
  8
BOUNDARY
 10
103.08271142003331
 20
703.69125783314053
 30
0.0
  0
VERTEX
  5
E11
  8
BOUNDARY
 10
103.1887914200335
 20
703.69125783314053
 30
0.0
  0
VERTEX
  5
E12
  8
BOUNDARY
 10
103.24183142003361
 20
703.68501783314059
 30
0.0
  0
VERTEX
  5
E13
  8
BOUNDARY
 10
103.2855114200333
 20
703.67253783314027
 30
0.0
  0
VERTEX
  5
E14
  8
BOUNDARY
 10
103.3260714200335
 20
703.63821783314052
 30
0.0
  0
VERTEX
  5
E15
  8
BOUNDARY
 10
103.3635114200333
 20
703.61637783314052
 30
0.0
  0
VERTEX
  5
E16
  8
BOUNDARY
 10
103.4259114200333
 20
703.61637783314052
 30
0.0
  0
VERTEX
  5
E17
  8
BOUNDARY
 10
103.4477514200334
 20
703.61013783314036
 30
0.0
  0
VERTEX
  5
E18
  8
BOUNDARY
 10
103.4851914200333
 20
703.61637783314052
 30
0.0
  0
VERTEX
  5
E19
  8
BOUNDARY
 10
103.54135142003361
 20
703.60701783314062
 30
0.0
  0
VERTEX
  5
E1A
  8
BOUNDARY
 10
103.63183142003339
 20
703.63821783314052
 30
0.0
  0
VERTEX
  5
E1B
  8
BOUNDARY
 10
103.6567914200334
 20
703.65069783314016
 30
0.0
  0
VERTEX
  5
E1C
  8
BOUNDARY
 10
103.7098314200334
 20
703.67253783314027
 30
0.0
  0
VERTEX
  5
E1D
  8
BOUNDARY
 10
103.7691114200335
 20
703.7006178331402
 30
0.0
  0
VERTEX
  5
E1E
  8
BOUNDARY
 10
103.83151142003339
 20
703.75677783314029
 30
0.0
  0
VERTEX
  5
E1F
  8
BOUNDARY
 10
103.8876714200332
 20
703.78485783314068
 30
0.0
  0
VERTEX
  5
E20
  8
BOUNDARY
 10
103.9063914200333
 20
703.8004578331404
 30
0.0
  0
VERTEX
  5
E21
  8
BOUNDARY
 10
103.96255142003341
 20
703.81293783314072
 30
0.0
  0
VERTEX
  5
E22
  8
BOUNDARY
 10
104.0062314200334
 20
703.80981783314041
 30
0.0
  0
VERTEX
  5
E23
  8
BOUNDARY
 10
104.04055142003359
 20
703.81293783314072
 30
0.0
  0
VERTEX
  5
E24
  8
BOUNDARY
 10
104.2558314200334
 20
703.77861783313995
 30
0.0
  0
VERTEX
  5
E25
  8
BOUNDARY
 10
104.2651914200332
 20
703.78173783314048
 30
0.0
  0
VERTEX
  5
E26
  8
BOUNDARY
 10
104.2745514200335
 20
703.77861783313995
 30
0.0
  0
VERTEX
  5
E27
  8
BOUNDARY
 10
104.3868714200334
 20
703.81605783314035
 30
0.0
  0
VERTEX
  5
E28
  8
BOUNDARY
 10
104.4492714200335
 20
703.82541783314036
 30
0.0
  0
VERTEX
  5
E29
  8
BOUNDARY
 10
104.4804714200334
 20
703.85349783314041
 30
0.0
  0
VERTEX
  5
E2A
  8
BOUNDARY
 10
104.4960714200335
 20
703.8784578331406
 30
0.0
  0
VERTEX
  5
E2B
  8
BOUNDARY
 10
104.5147914200333
 20
703.9002978331406
 30
0.0
  0
VERTEX
  5
E2C
  8
BOUNDARY
 10
104.5303914200335
 20
703.96893783314067
 30
0.0
  0
VERTEX
  5
E2D
  8
BOUNDARY
 10
104.5553514200335
 20
704.02821783314039
 30
0.0
  0
VERTEX
  5
E2E
  8
BOUNDARY
 10
104.6551914200333
 20
704.09997783314066
 30
0.0
  0
VERTEX
  5
E2F
  8
BOUNDARY
 10
104.6676714200334
 20
704.11245783314075
 30
0.0
  0
VERTEX
  5
E30
  8
BOUNDARY
 10
104.7051114200335
 20
704.11869783314091
 30
0.0
  0
VERTEX
  5
E31
  8
BOUNDARY
 10
104.7456714200336
 20
704.14677783314005
 30
0.0
  0
VERTEX
  5
E32
  8
BOUNDARY
 10
104.84239142003359
 20
704.25909783314012
 30
0.0
  0
VERTEX
  5
E33
  8
BOUNDARY
 10
104.8673514200334
 20
704.27781783314038
 30
0.0
  0
VERTEX
  5
E34
  8
BOUNDARY
 10
104.8211096296732
 20
704.86945924887618
 30
0.0
  0
VERTEX
  5
E35
  8
BOUNDARY
 10
104.7419449946343
 20
705.35728091792521
 30
0.0
  0
VERTEX
  5
E36
  8
BOUNDARY
 10
104.6231981216286
 20
705.96376186248858
 30
0.0
  0
VERTEX
  5
E37
  8
BOUNDARY
 10
104.53083938075
 20
706.5306896999856
 30
0.0
  0
VERTEX
  5
E38
  8
BOUNDARY
 10
104.4120924281917
 20
707.08443319891694
 30
0.0
  0
VERTEX
  5
E39
  8
BOUNDARY
 10
104.1877927084676
 20
707.70409852773105
 30
0.0
  0
VERTEX
  5
E3A
  8
BOUNDARY
 10
103.9634929091909
 20
708.16555142827906
 30
0.0
  0
VERTEX
  5
E3B
  8
BOUNDARY
 10
103.3961464376318
 20
708.62700432882696
 30
0.0
  0
VERTEX
  5
E3C
  8
BOUNDARY
 10
102.90796468066399
 20
708.90387603260763
 30
0.0
  0
VERTEX
  5
E3D
  8
BOUNDARY
 10
102.3406182091049
 20
709.1148259521907
 30
0.0
  0
VERTEX
  5
E3E
  8
BOUNDARY
 10
101.6149424674681
 20
709.2598539962064
 30
0.0
  0
VERTEX
  5
E3F
  8
BOUNDARY
 10
101.15314892217999
 20
709.28622276470719
 30
0.0
  0
VERTEX
  5
E40
  8
BOUNDARY
 10
100.7309375353062
 20
709.29940710327287
 30
0.0
  0
VERTEX
  5
E41
  8
BOUNDARY
 10
100.68348547490061
 20
709.30994423036498
 30
0.0
  0
VERTEX
  5
E42
  8
BOUNDARY
 10
100.612285060779
 20
709.35497769179244
 30
0.0
  0
VERTEX
  5
E43
  8
BOUNDARY
 10
100.5001201801141
 20
709.48530013856077
 30
0.0
  0
VERTEX
  5
E44
  8
BOUNDARY
 10
100.3879732721533
 20
709.61671102018386
 30
0.0
  0
VERTEX
  5
E45
  8
BOUNDARY
 10
100.3230943126557
 20
709.69541486057176
 30
0.0
  0
VERTEX
  5
E46
  8
BOUNDARY
 10
100.3569377678846
 20
709.76868820912694
 30
0.0
  0
VERTEX
  5
E47
  8
BOUNDARY
 10
100.4151331506997
 20
709.87604665564595
 30
0.0
  0
VERTEX
  5
E48
  8
BOUNDARY
 10
100.5225708355871
 20
710.05497736938776
 30
0.0
  0
VERTEX
  5
E49
  8
BOUNDARY
 10
100.5807662979547
 20
710.16233577022183
 30
0.0
  0
VERTEX
  5
E4A
  8
BOUNDARY
 10
100.64343826091751
 20
710.32337341715834
 30
0.0
  0
VERTEX
  5
E4B
  8
BOUNDARY
 10
100.665821161656
 20
710.47546453069162
 30
0.0
  0
VERTEX
  5
E4C
  8
BOUNDARY
 10
100.65686800136061
 20
710.59176951061374
 30
0.0
  0
VERTEX
  5
E4D
  8
BOUNDARY
 10
100.6389616807698
 20
710.68123489032735
 30
0.0
  0
VERTEX
  5
E4E
  8
BOUNDARY
 10
100.5718131376593
 20
710.72149429063995
 30
0.0
  0
VERTEX
  5
E4F
  8
BOUNDARY
 10
100.44646913218121
 20
710.74833389084858
 30
0.0
  0
VERTEX
  5
E50
  8
BOUNDARY
 10
100.28083606447871
 20
710.66781504453775
 30
0.0
  0
VERTEX
  5
E51
  8
BOUNDARY
 10
100.1733983795914
 20
710.53361704349516
 30
0.0
  0
VERTEX
  5
E52
  8
BOUNDARY
 10
100.10624975692831
 20
710.44862493048322
 30
0.0
  0
VERTEX
  5
E53
  8
BOUNDARY
 10
100.0167183926318
 20
710.34126648396386
 30
0.0
  0
VERTEX
  5
E54
  8
BOUNDARY
 10
99.904804127596805
 20
710.25180114993555
 30
0.0
  0
VERTEX
  5
E55
  8
BOUNDARY
 10
99.87669226373292
 20
710.23494649624399
 30
0.0
  0
VERTEX
  5
E56
  8
BOUNDARY
 10
99.692737800388187
 20
710.24947429066958
 30
0.0
  0
VERTEX
  5
E57
  8
BOUNDARY
 10
99.546113253305762
 20
710.29334616439735
 30
0.0
  0
VERTEX
  5
E58
  8
BOUNDARY
 10
99.460727032849235
 20
710.37878396426117
 30
0.0
  0
VERTEX
  5
E59
  8
BOUNDARY
 10
99.375979434590917
 20
710.48738159270965
 30
0.0
  0
VERTEX
  5
E5A
  8
BOUNDARY
 10
99.299196821805324
 20
710.59194600526121
 30
0.0
  0
VERTEX
  5
E5B
  8
BOUNDARY
 10
99.223508643556002
 20
710.69759378547735
 30
0.0
  0
VERTEX
  5
E5C
  8
BOUNDARY
 10
99.169242898197552
 20
710.80458460959164
 30
0.0
  0
VERTEX
  5
E5D
  8
BOUNDARY
 10
99.039364202965913
 20
710.9605985122173
 30
0.0
  0
VERTEX
  5
E5E
  8
BOUNDARY
 10
98.886194749797141
 20
711.1047525493658
 30
0.0
  0
VERTEX
  5
E5F
  8
BOUNDARY
 10
98.788710104751871
 20
711.20688132796147
 30
0.0
  0
VERTEX
  5
E60
  8
BOUNDARY
 10
98.628102396491485
 20
711.31586445243158
 30
0.0
  0
VERTEX
  5
E61
  8
BOUNDARY
 10
98.438949010839082
 20
711.37889463297563
 30
0.0
  0
VERTEX
  5
E62
  8
BOUNDARY
 10
98.280874693898866
 20
711.48641297796223
 30
0.0
  0
VERTEX
  5
E63
  8
BOUNDARY
 10
98.15130692505528
 20
711.56075560909244
 30
0.0
  0
VERTEX
  5
E64
  8
BOUNDARY
 10
97.952373718762587
 20
711.62782822792633
 30
0.0
  0
VERTEX
  5
E65
  8
BOUNDARY
 10
97.834221691305174
 20
711.66291139612395
 30
0.0
  0
VERTEX
  5
E66
  8
BOUNDARY
 10
97.687019389817507
 20
711.69560135337292
 30
0.0
  0
VERTEX
  5
E67
  8
BOUNDARY
 10
97.605005835798465
 20
711.77079125891055
 30
0.0
  0
VERTEX
  5
E68
  8
BOUNDARY
 10
97.403955299852285
 20
711.77834650664306
 30
0.0
  0
VERTEX
  5
E69
  8
BOUNDARY
 10
97.319844310198604
 20
711.72650532836917
 30
0.0
  0
VERTEX
  5
E6A
  8
BOUNDARY
 10
97.237218389293275
 20
711.68119017878405
 30
0.0
  0
VERTEX
  5
E6B
  8
BOUNDARY
 10
97.036471797066227
 20
711.6771286369659
 30
0.0
  0
VERTEX
  5
E6C
  8
BOUNDARY
 10
96.905505254721845
 20
711.69049833990346
 30
0.0
  0
VERTEX
  5
E6D
  8
BOUNDARY
 10
96.772226263240569
 20
711.67738251626668
 30
0.0
  0
VERTEX
  5
E6E
  8
BOUNDARY
 10
96.628133744882206
 20
711.56316402484936
 30
0.0
  0
VERTEX
  5
E6F
  8
BOUNDARY
 10
96.564840582814625
 20
711.55296298432404
 30
0.0
  0
VERTEX
  5
E70
  8
BOUNDARY
 10
96.417643814679167
 20
711.53854258689273
 30
0.0
  0
VERTEX
  5
E71
  8
BOUNDARY
 10
96.264674714735321
 20
711.54719481621441
 30
0.0
  0
VERTEX
  5
E72
  8
BOUNDARY
 10
96.134795260234867
 20
711.56738338175546
 30
0.0
  0
VERTEX
  5
E73
  8
BOUNDARY
 10
96.007801971638642
 20
711.5904560085088
 30
0.0
  0
VERTEX
  5
E74
  8
BOUNDARY
 10
95.860605283055691
 20
711.59622417661853
 30
0.0
  0
VERTEX
  5
E75
  8
BOUNDARY
 10
95.701863692198486
 20
711.5241221437758
 30
0.0
  0
VERTEX
  5
E76
  8
BOUNDARY
 10
95.629708430859054
 20
711.46644055405011
 30
0.0
  0
VERTEX
  5
E77
  8
BOUNDARY
 10
95.514260044537068
 20
711.3914544599952
 30
0.0
  0
VERTEX
  5
E78
  8
BOUNDARY
 10
95.375721933219054
 20
711.35107732891311
 30
0.0
  0
VERTEX
  5
E79
  8
BOUNDARY
 10
95.268932124162035
 20
711.3280046564746
 30
0.0
  0
VERTEX
  5
E7A
  8
BOUNDARY
 10
95.115963024218232
 20
711.27320712796086
 30
0.0
  0
VERTEX
  5
E7B
  8
BOUNDARY
 10
95.000514637896188
 20
711.19245286579655
 30
0.0
  0
VERTEX
  5
E7C
  8
BOUNDARY
 10
94.919700719739268
 20
711.11746677174165
 30
0.0
  0
VERTEX
  5
E7D
  8
BOUNDARY
 10
94.818683322043071
 20
711.03094438715266
 30
0.0
  0
VERTEX
  5
E7E
  8
BOUNDARY
 10
94.800957527305428
 20
711.01765983654718
 30
0.0
  0
VERTEX
  5
E7F
  8
BOUNDARY
 10
94.675864905646307
 20
711.00055821826538
 30
0.0
  0
VERTEX
  5
E80
  8
BOUNDARY
 10
94.49014896931196
 20
710.95431503246084
 30
0.0
  0
VERTEX
  5
E81
  8
BOUNDARY
 10
94.307998146562525
 20
710.89534955569786
 30
0.0
  0
VERTEX
  5
E82
  8
BOUNDARY
 10
94.165276083529065
 20
710.80968643732513
 30
0.0
  0
VERTEX
  5
E83
  8
BOUNDARY
 10
93.9921238129957
 20
710.73579320022418
 30
0.0
  0
VERTEX
  5
E84
  8
BOUNDARY
 10
93.947283851662846
 20
710.71482396152362
 30
0.0
  0
VERTEX
  5
E85
  8
BOUNDARY
 10
93.775823698409695
 20
710.68680164785565
 30
0.0
  0
VERTEX
  5
E86
  8
BOUNDARY
 10
93.547367200447255
 20
710.64636002288705
 30
0.0
  0
VERTEX
  5
E87
  8
BOUNDARY
 10
93.278113334562875
 20
710.57215351200387
 30
0.0
  0
VERTEX
  5
E88
  8
BOUNDARY
 10
93.155939766106869
 20
710.55524706426775
 30
0.0
  0
VERTEX
  5
E89
  8
BOUNDARY
 10
92.955440178123325
 20
710.52475430518496
 30
0.0
  0
VERTEX
  5
E8A
  8
BOUNDARY
 10
92.7294067199214
 20
710.46799756331814
 30
0.0
  0
VERTEX
  5
E8B
  8
BOUNDARY
 10
92.526426769289927
 20
710.44549000050085
 30
0.0
  0
VERTEX
  5
E8C
  8
BOUNDARY
 10
92.358877216474056
 20
710.4136839307813
 30
0.0
  0
VERTEX
  5
E8D
  8
BOUNDARY
 10
92.222731817298182
 20
710.36644987159411
 30
0.0
  0
VERTEX
  5
E8E
  8
BOUNDARY
 10
92.050293815870489
 20
710.36111713781156
 30
0.0
  0
VERTEX
  5
E8F
  8
BOUNDARY
 10
91.796557662233596
 20
710.33135291721021
 30
0.0
  0
VERTEX
  5
E90
  8
BOUNDARY
 10
91.751680408919697
 20
710.31903919449292
 30
0.0
  0
VERTEX
  5
E91
  8
BOUNDARY
 10
91.682807425772225
 20
710.33998505969066
 30
0.0
  0
VERTEX
  5
E92
  8
BOUNDARY
 10
91.466701457861632
 20
710.35540984632155
 30
0.0
  0
VERTEX
  5
E93
  8
BOUNDARY
 10
91.281467680163985
 20
710.41710885578811
 30
0.0
  0
VERTEX
  5
E94
  8
BOUNDARY
 10
91.163123899843924
 20
710.53022372931946
 30
0.0
  0
VERTEX
  5
E95
  8
BOUNDARY
 10
91.019053228052698
 20
710.66390493934
 30
0.0
  0
VERTEX
  5
E96
  8
BOUNDARY
 10
90.880127934555702
 20
710.70503761231782
 30
0.0
  0
VERTEX
  5
E97
  8
BOUNDARY
 10
90.581695834384732
 20
710.7204623532632
 30
0.0
  0
VERTEX
  5
E98
  8
BOUNDARY
 10
90.396462136239563
 20
710.65876334379652
 30
0.0
  0
VERTEX
  5
E99
  8
BOUNDARY
 10
90.226664572977157
 20
710.5250821337761
 30
0.0
  0
VERTEX
  5
E9A
  8
BOUNDARY
 10
90.103175414362866
 20
710.38625932821185
 30
0.0
  0
VERTEX
  5
E9B
  8
BOUNDARY
 10
90.09803003606865
 20
710.24229497278975
 30
0.0
  0
VERTEX
  5
E9C
  8
BOUNDARY
 10
90.200937681505934
 20
710.07262263964969
 30
0.0
  0
VERTEX
  5
E9D
  8
BOUNDARY
 10
90.391316757945305
 20
709.93894147531444
 30
0.0
  0
VERTEX
  5
E9E
  8
BOUNDARY
 10
90.437625162593491
 20
709.78469392880527
 30
0.0
  0
VERTEX
  5
E9F
  8
BOUNDARY
 10
90.417043649416541
 20
709.63044638229564
 30
0.0
  0
VERTEX
  5
EA0
  8
BOUNDARY
 10
90.366909520466919
 20
709.53025202983122
 30
0.0
  0
VERTEX
  5
EA1
  8
BOUNDARY
 10
90.261863756185519
 20
709.48388475234685
 30
0.0
  0
VERTEX
  5
EA2
  8
BOUNDARY
 10
90.181789760902745
 20
709.44337603477754
 30
0.0
  0
VERTEX
  5
EA3
  8
BOUNDARY
 10
90.098850298293456
 20
709.41959580076764
 30
0.0
  0
VERTEX
  5
EA4
  8
BOUNDARY
 10
90.028651164602223
 20
709.41330993380257
 30
0.0
  0
VERTEX
  5
EA5
  8
BOUNDARY
 10
89.939295768996843
 20
709.42522504201202
 30
0.0
  0
VERTEX
  5
EA6
  8
BOUNDARY
 10
89.796327136028296
 20
709.43714015022124
 30
0.0
  0
VERTEX
  5
EA7
  8
BOUNDARY
 10
89.651300794241664
 20
709.42449268341841
 30
0.0
  0
VERTEX
  5
EA8
  8
BOUNDARY
 10
89.523746427863145
 20
709.40365396681932
 30
0.0
  0
VERTEX
  5
EA9
  8
BOUNDARY
 10
89.395053789309713
 20
709.3939887317166
 30
0.0
  0
VERTEX
  5
EAA
  8
BOUNDARY
 10
89.262613032325589
 20
709.41243295436425
 30
0.0
  0
VERTEX
  5
EAB
  8
BOUNDARY
 10
89.122195137017243
 20
709.43949178936828
 30
0.0
  0
VERTEX
  5
EAC
  8
BOUNDARY
 10
88.961892655459053
 20
709.47654760085697
 30
0.0
  0
VERTEX
  5
EAD
  8
BOUNDARY
 10
88.803945004535279
 20
709.47575017312045
 30
0.0
  0
VERTEX
  5
EAE
  8
BOUNDARY
 10
88.672708061731697
 20
709.47003891556596
 30
0.0
  0
VERTEX
  5
EAF
  8
BOUNDARY
 10
88.517424875401915
 20
709.44148717932057
 30
0.0
  0
VERTEX
  5
EB0
  8
BOUNDARY
 10
88.420720897041164
 20
709.38149660748581
 30
0.0
  0
VERTEX
  5
EB1
  8
BOUNDARY
 10
88.324976770950855
 20
709.34567243952165
 30
0.0
  0
VERTEX
  5
EB2
  8
BOUNDARY
 10
88.216527509111174
 20
709.32637265962035
 30
0.0
  0
VERTEX
  5
EB3
  8
BOUNDARY
 10
88.173658991861387
 20
709.30709352215808
 30
0.0
  0
VERTEX
  5
EB4
  8
BOUNDARY
 10
88.132512631463797
 20
709.30467492703372
 30
0.0
  0
VERTEX
  5
EB5
  8
BOUNDARY
 10
87.985728263660334
 20
709.31515182338353
 30
0.0
  0
VERTEX
  5
EB6
  8
BOUNDARY
 10
87.854670715695903
 20
709.36229771990236
 30
0.0
  0
VERTEX
  5
EB7
  8
BOUNDARY
 10
87.760309319346732
 20
709.48278166244518
 30
0.0
  0
VERTEX
  5
EB8
  8
BOUNDARY
 10
87.608282598711071
 20
709.59278870863773
 30
0.0
  0
VERTEX
  5
EB9
  8
BOUNDARY
 10
87.477225130299161
 20
709.7132726511802
 30
0.0
  0
VERTEX
  5
EBA
  8
BOUNDARY
 10
87.382863733950018
 20
709.76041854769915
 30
0.0
  0
VERTEX
  5
EBB
  8
BOUNDARY
 10
87.209867840643199
 20
709.75518009952395
 30
0.0
  0
VERTEX
  5
EBC
  8
BOUNDARY
 10
87.063083472839736
 20
709.66088835217136
 30
0.0
  0
VERTEX
  5
EBD
  8
BOUNDARY
 10
86.816695355854904
 20
709.49325851310971
 30
0.0
  0
VERTEX
  5
EBE
  8
BOUNDARY
 10
86.659426361939623
 20
709.32039022587321
 30
0.0
  0
VERTEX
  5
EBF
  8
BOUNDARY
 10
86.554580339478576
 20
709.17895258200144
 30
0.0
  0
VERTEX
  5
EC0
  8
BOUNDARY
 10
86.454976669849714
 20
709.02179959360444
 30
0.0
  0
VERTEX
  5
EC1
  8
BOUNDARY
 10
86.440382795024377
 20
708.99680003072569
 30
0.0
  0
VERTEX
  5
EC2
  8
BOUNDARY
 10
86.407619778340575
 20
708.97645390439834
 30
0.0
  0
VERTEX
  5
EC3
  8
BOUNDARY
 10
86.332426712268656
 20
708.87005191993205
 30
0.0
  0
VERTEX
  5
EC4
  8
BOUNDARY
 10
86.259759744334161
 20
708.76330206866942
 30
0.0
  0
VERTEX
  5
EC5
  8
BOUNDARY
 10
86.207323408834512
 20
708.6494419501347
 30
0.0
  0
VERTEX
  5
EC6
  8
BOUNDARY
 10
86.110859751161456
 20
708.54185071637801
 30
0.0
  0
VERTEX
  5
EC7
  8
BOUNDARY
 10
86.029081013950417
 20
708.45416773681745
 30
0.0
  0
VERTEX
  5
EC8
  8
BOUNDARY
 10
85.934792076439635
 20
708.41582657377216
 30
0.0
  0
VERTEX
  5
EC9
  8
BOUNDARY
 10
85.789822652955735
 20
708.34441309669694
 30
0.0
  0
VERTEX
  5
ECA
  8
BOUNDARY
 10
85.653766552119876
 20
708.29323935511354
 30
0.0
  0
VERTEX
  5
ECB
  8
BOUNDARY
 10
85.527774790385877
 20
708.2486075899983
 30
0.0
  0
VERTEX
  5
ECC
  8
BOUNDARY
 10
85.379104584364185
 20
708.19592768271934
 30
0.0
  0
VERTEX
  5
ECD
  8
BOUNDARY
 10
85.179967033931661
 20
708.13938677911119
 30
0.0
  0
VERTEX
  5
ECE
  8
BOUNDARY
 10
85.01980825062013
 20
708.07655150216669
 30
0.0
  0
VERTEX
  5
ECF
  8
BOUNDARY
 10
84.845995402956547
 20
708.00391054296483
 30
0.0
  0
VERTEX
  5
ED0
  8
BOUNDARY
 10
84.760572322157145
 20
707.92378218987005
 30
0.0
  0
VERTEX
  5
ED1
  8
BOUNDARY
 10
84.660098247986753
 20
707.8248255951936
 30
0.0
  0
VERTEX
  5
ED2
  8
BOUNDARY
 10
84.582056223154225
 20
707.80731576413882
 30
0.0
  0
VERTEX
  5
ED3
  8
BOUNDARY
 10
84.529186502045846
 20
707.79906132216718
 30
0.0
  0
VERTEX
  5
ED4
  8
BOUNDARY
 10
84.39370797709006
 20
707.76439254880052
 30
0.0
  0
VERTEX
  5
ED5
  8
BOUNDARY
 10
84.183881464489346
 20
707.64222656444235
 30
0.0
  0
VERTEX
  5
ED6
  8
BOUNDARY
 10
83.971864072865344
 20
707.56728125691575
 30
0.0
  0
VERTEX
  5
ED7
  8
BOUNDARY
 10
83.718054261401576
 20
707.60818810793285
 30
0.0
  0
VERTEX
  5
ED8
  8
BOUNDARY
 10
83.382370335171004
 20
707.58364400645962
 30
0.0
  0
VERTEX
  5
ED9
  8
BOUNDARY
 10
83.194059863252207
 20
707.44456065817997
 30
0.0
  0
VERTEX
  5
EDA
  8
BOUNDARY
 10
82.989374536558998
 20
707.31365875320034
 30
0.0
  0
VERTEX
  5
EDB
  8
BOUNDARY
 10
82.702815095099027
 20
707.30547735558582
 30
0.0
  0
VERTEX
  5
EDC
  8
BOUNDARY
 10
82.506317235569242
 20
707.32184010512947
 30
0.0
  0
VERTEX
  5
EDD
  8
BOUNDARY
 10
82.342568926483182
 20
707.28911460604195
 30
0.0
  0
VERTEX
  5
EDE
  8
BOUNDARY
 10
82.23613256933109
 20
707.11730580435994
 30
0.0
  0
VERTEX
  5
EDF
  8
BOUNDARY
 10
82.285257054101663
 20
706.9373156507487
 30
0.0
  0
VERTEX
  5
EE0
  8
BOUNDARY
 10
82.27706966649076
 20
706.75732545145218
 30
0.0
  0
VERTEX
  5
EE1
  8
BOUNDARY
 10
82.293444521265144
 20
706.56915390022641
 30
0.0
  0
VERTEX
  5
EE2
  8
BOUNDARY
 10
82.440817896024299
 20
706.29916864696713
 30
0.0
  0
VERTEX
  5
EE3
  8
BOUNDARY
 10
82.506317235569242
 20
706.02100199609333
 30
0.0
  0
VERTEX
  5
EE4
  8
BOUNDARY
 10
82.563629107950746
 20
705.66920304079974
 30
0.0
  0
VERTEX
  5
EE5
  8
BOUNDARY
 10
82.563629107950746
 20
705.47285009195969
 30
0.0
  0
VERTEX
  5
EE6
  8
BOUNDARY
 10
82.573007794746204
 20
705.19612768742411
 30
0.0
  0
VERTEX
  5
EE7
  8
BOUNDARY
 10
82.597570037131476
 20
704.95068653563783
 30
0.0
  0
VERTEX
  5
EE8
  8
BOUNDARY
 10
82.474758825205058
 20
704.73797088293895
 30
0.0
  0
VERTEX
  5
EE9
  8
BOUNDARY
 10
82.057200784207737
 20
704.59888758034458
 30
0.0
  0
VERTEX
  5
EEA
  8
BOUNDARY
 10
81.729704245588096
 20
704.5497993317133
 30
0.0
  0
VERTEX
  5
EEB
  8
BOUNDARY
 10
81.21389731460215
 20
704.40253463150441
 30
0.0
  0
VERTEX
  5
EEC
  8
BOUNDARY
 10
80.902775630756906
 20
704.42707877866258
 30
0.0
  0
VERTEX
  5
EED
  8
BOUNDARY
 10
80.493404977370446
 20
704.40253463150441
 30
0.0
  0
VERTEX
  5
EEE
  8
BOUNDARY
 10
80.059472081598784
 20
704.27163268083928
 30
0.0
  0
VERTEX
  5
EEF
  8
BOUNDARY
 10
79.92847348206142
 20
704.00982882519395
 30
0.0
  0
VERTEX
  5
EF0
  8
BOUNDARY
 10
79.920286094450532
 20
703.74802492386414
 30
0.0
  0
VERTEX
  5
EF1
  8
BOUNDARY
 10
79.75653786491695
 20
703.52712787355085
 30
0.0
  0
VERTEX
  5
EF2
  8
BOUNDARY
 10
79.453603568682624
 20
703.36350042379797
 30
0.0
  0
VERTEX
  5
EF3
  8
BOUNDARY
 10
79.011483285300017
 20
703.10987792008245
 30
0.0
  0
VERTEX
  5
EF4
  8
BOUNDARY
 10
78.757673473836221
 20
702.9217063688568
 30
0.0
  0
VERTEX
  5
EF5
  8
BOUNDARY
 10
78.512051129535919
 20
702.64353971798266
 30
0.0
  0
VERTEX
  5
EF6
  8
BOUNDARY
 10
78.372865142387653
 20
702.3571917151794
 30
0.0
  0
VERTEX
  5
EF7
  8
BOUNDARY
 10
78.290991027620862
 20
702.10356921146365
 30
0.0
  0
VERTEX
  5
EF8
  8
BOUNDARY
 10
78.282803560457424
 20
701.91539766023823
 30
0.0
  0
VERTEX
  5
EF9
  8
BOUNDARY
 10
78.221109218574981
 20
701.75996398878976
 30
0.0
  0
VERTEX
  5
EFA
  8
BOUNDARY
 10
78.078474231350214
 20
701.66773890298805
 30
0.0
  0
VERTEX
  5
EFB
  8
BOUNDARY
 10
77.944229570248581
 20
701.47490453715182
 30
0.0
  0
VERTEX
  5
EFC
  8
BOUNDARY
 10
77.952619816819137
 20
701.16469277692602
 30
0.0
  0
VERTEX
  5
EFD
  8
BOUNDARY
 10
77.89388777261513
 20
700.91316973673725
 30
0.0
  0
VERTEX
  5
EFE
  8
BOUNDARY
 10
77.801594583023842
 20
700.60295797651156
 30
0.0
  0
VERTEX
  5
EFF
  8
BOUNDARY
 10
77.726081966126188
 20
700.36820314204806
 30
0.0
  0
VERTEX
  5
F00
  8
BOUNDARY
 10
77.877107199921483
 20
700.09991189613436
 30
0.0
  0
VERTEX
  5
F01
  8
BOUNDARY
 10
78.153986848247897
 20
699.89869342743555
 30
0.0
  0
VERTEX
  5
F02
  8
BOUNDARY
 10
78.321792734289374
 20
699.63878628438488
 30
0.0
  0
VERTEX
  5
F03
  8
BOUNDARY
 10
78.363744126247212
 20
699.35372683274647
 30
0.0
  0
VERTEX
  5
F04
  8
BOUNDARY
 10
78.380524778493381
 20
698.94290583817121
 30
0.0
  0
VERTEX
  5
F05
  8
BOUNDARY
 10
78.422476170451233
 20
698.49016437496903
 30
0.0
  0
VERTEX
  5
F06
  8
BOUNDARY
 10
78.472817968084655
 20
698.26379359768282
 30
0.0
  0
VERTEX
  5
F07
  8
BOUNDARY
 10
78.633140108671313
 20
697.94647440760627
 30
0.0
  0
VERTEX
  5
F08
  8
BOUNDARY
 10
78.792555668589685
 20
697.67818316169314
 30
0.0
  0
VERTEX
  5
F09
  8
BOUNDARY
 10
78.842897386670586
 20
697.41827601864213
 30
0.0
  0
VERTEX
  5
F0A
  8
BOUNDARY
 10
78.792555668589685
 20
697.11644831559352
 30
0.0
  0
VERTEX
  5
F0B
  8
BOUNDARY
 10
78.649920681364932
 20
696.79785245250537
 30
0.0
  0
VERTEX
  5
F0C
  8
BOUNDARY
 10
78.649920681364932
 20
696.43733607510501
 30
0.0
  0
VERTEX
  5
F0D
  8
BOUNDARY
 10
78.73382362438565
 20
696.16904482919153
 30
0.0
  0
VERTEX
  5
F0E
  8
BOUNDARY
 10
78.968751801201705
 20
695.82529665751622
 30
0.0
  0
VERTEX
  5
F0F
  8
BOUNDARY
 10
79.27080234834483
 20
695.61569413163988
 30
0.0
  0
VERTEX
  5
F10
  8
BOUNDARY
 10
79.749048948547454
 20
695.46478028011563
 30
0.0
  0
VERTEX
  5
F11
  8
BOUNDARY
 10
80.067880068384255
 20
695.50670079442796
 30
0.0
  0
VERTEX
  5
F12
  8
BOUNDARY
 10
80.353150042833747
 20
695.81691255465364
 30
0.0
  0
VERTEX
  5
F13
  8
BOUNDARY
 10
80.713932634180864
 20
696.06843559484196
 30
0.0
  0
VERTEX
  5
F14
  8
BOUNDARY
 10
80.864957867976173
 20
696.11874021201675
 30
0.0
  0
VERTEX
  5
F15
  8
BOUNDARY
 10
81.234130705893875
 20
696.22773354922879
 30
0.0
  0
VERTEX
  5
F16
  8
BOUNDARY
 10
81.377232009900411
 20
696.24362196429172
 30
0.0
  0
VERTEX
  5
F17
  8
BOUNDARY
 10
81.586314145718305
 20
696.33593895373565
 30
0.0
  0
VERTEX
  5
F18
  8
BOUNDARY
 10
81.857123697104655
 20
696.55242669663255
 30
0.0
  0
VERTEX
  5
F19
  8
BOUNDARY
 10
82.127933248491004
 20
696.65390536609004
 30
0.0
  0
VERTEX
  5
F1A
  8
BOUNDARY
 10
82.534147575570543
 20
696.56595719198504
 30
0.0
  0
VERTEX
  5
F1B
  8
BOUNDARY
 10
82.710173783971698
 20
696.34270415572678
 30
0.0
  0
VERTEX
  5
F1C
  8
BOUNDARY
 10
82.859119037234194
 20
696.14651211017315
 30
0.0
  0
VERTEX
  5
F1D
  8
BOUNDARY
 10
82.987753494590152
 20
696.01797249569643
 30
0.0
  0
VERTEX
  5
F1E
  8
BOUNDARY
 10
83.172160085047736
 20
695.91472772764155
 30
0.0
  0
VERTEX
  5
F1F
  8
BOUNDARY
 10
83.361726771018184
 20
695.86737103959365
 30
0.0
  0
VERTEX
  5
F20
  8
BOUNDARY
 10
83.618995844835226
 20
695.7929533608409
 30
0.0
  0
VERTEX
  5
F21
  8
BOUNDARY
 10
83.862724441082932
 20
695.77942286548875
 30
0.0
  0
VERTEX
  5
F22
  8
BOUNDARY
 10
84.119993514900017
 20
695.79971860851697
 30
0.0
  0
VERTEX
  5
F23
  8
BOUNDARY
 10
84.336641156009065
 20
695.75236192046918
 30
0.0
  0
VERTEX
  5
F24
  8
BOUNDARY
 10
84.404343464303125
 20
695.67794424171632
 30
0.0
  0
VERTEX
  5
F25
  8
BOUNDARY
 10
84.472045852149733
 20
695.5561698292305
 30
0.0
  0
VERTEX
  5
F26
  8
BOUNDARY
 10
84.492356568503709
 20
695.44116071010592
 30
0.0
  0
VERTEX
  5
F27
  8
BOUNDARY
 10
84.532978001211646
 20
695.21790767384766
 30
0.0
  0
VERTEX
  5
F28
  8
BOUNDARY
 10
84.573599433919583
 20
695.03524612364652
 30
0.0
  0
VERTEX
  5
F29
  8
BOUNDARY
 10
84.607450627842894
 20
694.82552358274074
 30
0.0
  0
VERTEX
  5
F2A
  8
BOUNDARY
 10
84.614220866627548
 20
694.70374921593998
 30
0.0
  0
VERTEX
  5
F2B
  8
BOUNDARY
 10
84.641301821766191
 20
694.57520955577786
 30
0.0
  0
VERTEX
  5
F2C
  8
BOUNDARY
 10
84.715774448397426
 20
694.4534351889771
 30
0.0
  0
VERTEX
  5
F2D
  8
BOUNDARY
 10
84.783476836244034
 20
694.31813032682396
 30
0.0
  0
VERTEX
  5
F2E
  8
BOUNDARY
 10
84.898570895583234
 20
694.14223402429911
 30
0.0
  0
VERTEX
  5
F2F
  8
BOUNDARY
 10
84.932422089506517
 20
694.00692916214575
 30
0.0
  0
VERTEX
  5
F30
  8
BOUNDARY
 10
84.932422089506517
 20
693.85132855696406
 30
0.0
  0
VERTEX
  5
F31
  8
BOUNDARY
 10
84.912111373152541
 20
693.76338038285917
 30
0.0
  0
VERTEX
  5
F32
  8
BOUNDARY
 10
84.932422089506517
 20
693.66866696107797
 30
0.0
  0
VERTEX
  5
F33
  8
BOUNDARY
 10
85.027205432491726
 20
693.50630115390516
 30
0.0
  0
VERTEX
  5
F34
  8
BOUNDARY
 10
85.176150685754266
 20
693.43188347515263
 30
0.0
  0
VERTEX
  5
F35
  8
BOUNDARY
 10
85.467270953494577
 20
693.31010910835187
 30
0.0
  0
VERTEX
  5
F36
  8
BOUNDARY
 10
85.609445967972405
 20
693.16803899852255
 30
0.0
  0
VERTEX
  5
F37
  8
BOUNDARY
 10
85.656837639465024
 20
693.06656032906494
 30
0.0
  0
VERTEX
  5
F38
  8
BOUNDARY
 10
85.731310266096301
 20
692.84330729280703
 30
0.0
  0
VERTEX
  5
F39
  8
BOUNDARY
 10
85.832863847866165
 20
692.68094148563432
 30
0.0
  0
VERTEX
  5
F3A
  8
BOUNDARY
 10
86.029200772621266
 20
692.65388049492969
 30
0.0
  0
VERTEX
  5
F3B
  8
BOUNDARY
 10
86.259388811747129
 20
692.64034999957721
 30
0.0
  0
VERTEX
  5
F3C
  8
BOUNDARY
 10
86.597900750980074
 20
692.66741099028195
 30
0.0
  0
VERTEX
  5
F3D
  8
BOUNDARY
 10
86.875480541151106
 20
692.76888961405416
 30
0.0
  0
VERTEX
  5
F3E
  8
BOUNDARY
 10
87.010885316844295
 20
692.84330729280703
 30
0.0
  0
VERTEX
  5
F3F
  8
BOUNDARY
 10
87.193681764030075
 20
692.94478596226418
 30
0.0
  0
VERTEX
  5
F40
  8
BOUNDARY
 10
87.362937733646547
 20
693.01243839334074
 30
0.0
  0
VERTEX
  5
F41
  8
BOUNDARY
 10
87.380596716706947
 20
693.01530263066957
 30
0.0
  0
VERTEX
  5
F42
  8
BOUNDARY
 10
87.405236998315317
 20
693.01846761261277
 30
0.0
  0
VERTEX
  5
F43
  8
BOUNDARY
 10
87.419481058820338
 20
693.02170087328636
 30
0.0
  0
VERTEX
  5
F44
  8
BOUNDARY
 10
87.485962015184896
 20
693.09610313156816
 30
0.0
  0
VERTEX
  5
F45
  8
BOUNDARY
 10
87.540677170206649
 20
693.24259263725446
 30
0.0
  0
VERTEX
  5
F46
  8
BOUNDARY
 10
87.542387894907023
 20
693.2566549248711
 30
0.0
  0
VERTEX
  5
F47
  8
BOUNDARY
 10
87.605984349978144
 20
693.3545539900822
 30
0.0
  0
VERTEX
  5
F48
  8
BOUNDARY
 10
87.626401401755615
 20
693.36216388660978
 30
0.0
  0
VERTEX
  5
F49
  8
BOUNDARY
 10
87.687196964754065
 20
693.34119361556918
 30
0.0
  0
VERTEX
  5
F4A
  8
BOUNDARY
 10
87.721562406065686
 20
693.3361427972402
 30
0.0
  0
VERTEX
  5
F4B
  8
BOUNDARY
 10
87.738834618072332
 20
693.34222095176926
 30
0.0
  0
VERTEX
  5
F4C
  8
BOUNDARY
 10
87.743576284460246
 20
693.34686499122893
 30
0.0
  0
VERTEX
  5
F4D
  8
BOUNDARY
 10
87.746932649243007
 20
693.36873242923082
 30
0.0
  0
VERTEX
  5
F4E
  8
BOUNDARY
 10
87.739713260430804
 20
693.42669230440015
 30
0.0
  0
VERTEX
  5
F4F
  8
BOUNDARY
 10
87.743167252142939
 20
693.4579454482498
 30
0.0
  0
VERTEX
  5
F50
  8
BOUNDARY
 10
87.775835986459228
 20
693.59058419133135
 30
0.0
  0
VERTEX
  5
F51
  8
BOUNDARY
 10
87.80573637101358
 20
693.60748216677837
 30
0.0
  0
VERTEX
  5
F52
  8
BOUNDARY
 10
87.861904165707315
 20
693.5928178464336
 30
0.0
  0
VERTEX
  5
F53
  8
BOUNDARY
 10
87.868177574094261
 20
693.59431704612246
 30
0.0
  0
VERTEX
  5
F54
  8
BOUNDARY
 10
87.932638653815957
 20
693.62493561493602
 30
0.0
  0
VERTEX
  5
F55
  8
BOUNDARY
 10
87.961560515635469
 20
693.69816409662428
 30
0.0
  0
VERTEX
  5
F56
  8
BOUNDARY
 10
87.981993838567163
 20
693.70733827745948
 30
0.0
  0
VERTEX
  5
F57
  8
BOUNDARY
 10
88.053625493638492
 20
693.67530411818029
 30
0.0
  0
VERTEX
  5
F58
  8
BOUNDARY
 10
88.093629768299252
 20
693.6107454115288
 30
0.0
  0
VERTEX
  5
F59
  8
BOUNDARY
 10
88.107610700142459
 20
693.60121326528758
 30
0.0
  0
VERTEX
  5
F5A
  8
BOUNDARY
 10
88.120141245761005
 20
693.60264738035755
 30
0.0
  0
VERTEX
  5
F5B
  8
BOUNDARY
 10
88.19900630735151
 20
693.66440519493699
 30
0.0
  0
VERTEX
  5
F5C
  8
BOUNDARY
 10
88.224344008219504
 20
693.69386625831146
 30
0.0
  0
VERTEX
  5
F5D
  8
BOUNDARY
 10
88.237216248088984
 20
693.72815034384905
 30
0.0
  0
VERTEX
  5
F5E
  8
BOUNDARY
 10
88.212299343796275
 20
693.8895482372011
 30
0.0
  0
VERTEX
  5
F5F
  8
BOUNDARY
 10
88.229685453887214
 20
693.90657638188645
 30
0.0
  0
VERTEX
  5
F60
  8
BOUNDARY
 10
88.253165989661269
 20
693.90789659887264
 30
0.0
  0
VERTEX
  5
F61
  8
BOUNDARY
 10
88.26884137505111
 20
693.91086245594056
 30
0.0
  0
VERTEX
  5
F62
  8
BOUNDARY
 10
88.28290366266765
 20
693.90915173123949
 30
0.0
  0
VERTEX
  5
F63
  8
BOUNDARY
 10
88.30791594044058
 20
693.90732710845487
 30
0.0
  0
VERTEX
  5
F64
  8
BOUNDARY
 10
88.339510778540429
 20
693.93672308721034
 30
0.0
  0
VERTEX
  5
F65
  8
BOUNDARY
 10
88.34273697408571
 20
693.94607625074866
 30
0.0
  0
VERTEX
  5
F66
  8
BOUNDARY
 10
88.338141748090038
 20
693.95551077006041
 30
0.0
  0
VERTEX
  5
F67
  8
BOUNDARY
 10
88.343111210645901
 20
693.98205478983232
 30
0.0
  0
VERTEX
  5
F68
  8
BOUNDARY
 10
88.335924364143011
 20
694.04314323361666
 30
0.0
  0
VERTEX
  5
F69
  8
BOUNDARY
 10
88.392498937706009
 20
694.06758602097193
 30
0.0
  0
VERTEX
  5
F6A
  8
BOUNDARY
 10
88.452120724111623
 20
694.08417484447773
 30
0.0
  0
VERTEX
  5
F6B
  8
BOUNDARY
 10
88.544885361770838
 20
694.12857909127661
 30
0.0
  0
VERTEX
  5
F6C
  8
BOUNDARY
 10
88.560495662541143
 20
694.12528781111212
 30
0.0
  0
VERTEX
  5
F6D
  8
BOUNDARY
 10
88.569930181853124
 20
694.1298830371079
 30
0.0
  0
VERTEX
  5
F6E
  8
BOUNDARY
 10
88.590151979773964
 20
694.11872152193973
 30
0.0
  0
VERTEX
  5
F6F
  8
BOUNDARY
 10
88.600825360297662
 20
694.09201479062062
 30
0.0
  0
VERTEX
  5
F70
  8
BOUNDARY
 10
88.642963409684185
 20
694.08218976359342
 30
0.0
  0
VERTEX
  5
F71
  8
BOUNDARY
 10
88.713860609341509
 20
694.12995037517533
 30
0.0
  0
VERTEX
  5
F72
  8
BOUNDARY
 10
88.724957039890342
 20
694.14391503586353
 30
0.0
  0
VERTEX
  5
F73
  8
BOUNDARY
 10
88.720313000430664
 20
694.14865670225106
 30
0.0
  0
VERTEX
  5
F74
  8
BOUNDARY
 10
88.730007858220205
 20
694.17828047717376
 30
0.0
  0
VERTEX
  5
F75
  8
BOUNDARY
 10
88.796521356894573
 20
694.25581130407193
 30
0.0
  0
VERTEX
  5
F76
  8
BOUNDARY
 10
88.810697542594397
 20
694.26505056952635
 30
0.0
  0
VERTEX
  5
F77
  8
BOUNDARY
 10
88.890899092325995
 20
694.30489213263945
 30
0.0
  0
VERTEX
  5
F78
  8
BOUNDARY
 10
88.904993922252714
 20
694.30630997655408
 30
0.0
  0
VERTEX
  5
F79
  8
BOUNDARY
 10
88.985325641221593
 20
694.35866581413097
 30
0.0
  0
VERTEX
  5
F7A
  8
BOUNDARY
 10
89.001082382385434
 20
694.36945309273869
 30
0.0
  0
VERTEX
  5
F7B
  8
BOUNDARY
 10
89.005840319928453
 20
694.37566141650632
 30
0.0
  0
VERTEX
  5
F7C
  8
BOUNDARY
 10
89.009017702008578
 20
694.38032172712076
 30
0.0
  0
VERTEX
  5
F7D
  8
BOUNDARY
 10
89.034778452901932
 20
694.45045418250265
 30
0.0
  0
VERTEX
  5
F7E
  8
BOUNDARY
 10
89.060067340305949
 20
694.47522239295415
 30
0.0
  0
VERTEX
  5
F7F
  8
BOUNDARY
 10
89.101389578504509
 20
694.53737071524779
 30
0.0
  0
VERTEX
  5
F80
  8
BOUNDARY
 10
89.097005877521482
 20
694.56714093056405
 30
0.0
  0
VERTEX
  5
F81
  8
BOUNDARY
 10
89.165327727825584
 20
694.6681197509256
 30
0.0
  0
VERTEX
  5
F82
  8
BOUNDARY
 10
89.220826151725106
 20
694.73950733867525
 30
0.0
  0
VERTEX
  5
F83
  8
BOUNDARY
 10
89.193450049611556
 20
694.81488586624403
 30
0.0
  0
VERTEX
  5
F84
  8
BOUNDARY
 10
89.185677441535958
 20
694.81966007494225
 30
0.0
  0
VERTEX
  5
F85
  8
BOUNDARY
 10
89.162782667334312
 20
694.87465409304218
 30
0.0
  0
VERTEX
  5
F86
  8
BOUNDARY
 10
89.306515587516756
 20
695.00613758413465
 30
0.0
  0
VERTEX
  5
F87
  8
BOUNDARY
 10
89.324096951464526
 20
695.04193714051519
 30
0.0
  0
VERTEX
  5
F88
  8
BOUNDARY
 10
89.40001242714149
 20
695.1209346247922
 30
0.0
  0
VERTEX
  5
F89
  8
BOUNDARY
 10
89.450785455808045
 20
695.18924245738879
 30
0.0
  0
VERTEX
  5
F8A
  8
BOUNDARY
 10
89.498381102393324
 20
695.25288997937275
 30
0.0
  0
VERTEX
  5
F8B
  8
BOUNDARY
 10
89.545602512418753
 20
695.28055896227261
 30
0.0
  0
VERTEX
  5
F8C
  8
BOUNDARY
 10
89.61216482455734
 20
695.36278264209375
 30
0.0
  0
VERTEX
  5
F8D
  8
BOUNDARY
 10
89.667305283051732
 20
695.39975597506759
 30
0.0
  0
VERTEX
  5
F8E
  8
BOUNDARY
 10
89.735106456402036
 20
695.45067769757475
 30
0.0
  0
VERTEX
  5
F8F
  8
BOUNDARY
 10
89.763637810505315
 20
695.48636335587184
 30
0.0
  0
VERTEX
  5
F90
  8
BOUNDARY
 10
89.765283450587503
 20
695.49416850625676
 30
0.0
  0
VERTEX
  5
F91
  8
BOUNDARY
 10
89.779719974765129
 20
695.52843632063923
 30
0.0
  0
VERTEX
  5
F92
  8
BOUNDARY
 10
89.77390215871263
 20
695.57073708157316
 30
0.0
  0
VERTEX
  5
F93
  8
BOUNDARY
 10
89.782146630276657
 20
695.61132711780647
 30
0.0
  0
VERTEX
  5
F94
  8
BOUNDARY
 10
89.797903371439574
 20
695.6221143964151
 30
0.0
  0
VERTEX
  5
F95
  8
BOUNDARY
 10
89.815175583447186
 20
695.62819255094394
 30
0.0
  0
VERTEX
  5
F96
  8
BOUNDARY
 10
89.838525949983008
 20
695.61699849346633
 30
0.0
  0
VERTEX
  5
F97
  8
BOUNDARY
 10
89.883564771818541
 20
695.58524094381801
 30
0.0
  0
VERTEX
  5
F98
  8
BOUNDARY
 10
89.937417555635875
 20
695.64882338118241
 30
0.0
  0
VERTEX
  5
F99
  8
BOUNDARY
 10
89.951593741336623
 20
695.65806264663684
 30
0.0
  0
VERTEX
  5
F9A
  8
BOUNDARY
 10
89.970527864579253
 20
695.67351023585911
 30
0.0
  0
VERTEX
  5
F9B
  8
BOUNDARY
 10
90.054154633159683
 20
695.72403588020666
 30
0.0
  0
VERTEX
  5
F9C
  8
BOUNDARY
 10
90.069442402797449
 20
695.72292478443694
 30
0.0
  0
VERTEX
  5
F9D
  8
BOUNDARY
 10
90.08643062239851
 20
695.71711863830205
 30
0.0
  0
VERTEX
  5
F9E
  8
BOUNDARY
 10
90.100289361408926
 20
695.70952596990492
 30
0.0
  0
VERTEX
  5
F9F
  8
BOUNDARY
 10
90.110124641128706
 20
695.70059340981049
 30
0.0
  0
VERTEX
  5
FA0
  8
BOUNDARY
 10
90.118587683485643
 20
695.68501626553405
 30
0.0
  0
VERTEX
  5
FA1
  8
BOUNDARY
 10
90.157784403324854
 20
695.62262238413825
 30
0.0
  0
VERTEX
  5
FA2
  8
BOUNDARY
 10
90.193195128085151
 20
695.62032452481981
 30
0.0
  0
VERTEX
  5
FA3
  8
BOUNDARY
 10
90.214008349505534
 20
695.59582002542129
 30
0.0
  0
VERTEX
  5
FA4
  8
BOUNDARY
 10
90.206708576602836
 20
695.56204049178757
 30
0.0
  0
VERTEX
  5
FA5
  8
BOUNDARY
 10
90.237237805152645
 20
695.52213093710225
 30
0.0
  0
VERTEX
  5
FA6
  8
BOUNDARY
 10
90.294332700008056
 20
695.50382499635555
 30
0.0
  0
VERTEX
  5
FA7
  8
BOUNDARY
 10
90.295841981836858
 20
695.50440401731328
 30
0.0
  0
VERTEX
  5
FA8
  8
BOUNDARY
 10
90.34676929693272
 20
695.5072163912331
 30
0.0
  0
VERTEX
  5
FA9
  8
BOUNDARY
 10
90.417772337070275
 20
695.48692669346485
 30
0.0
  0
VERTEX
  5
FAA
  8
BOUNDARY
 10
90.47026999398031
 20
695.44840614961095
 30
0.0
  0
VERTEX
  5
FAB
  8
BOUNDARY
 10
90.508611247652397
 20
695.3917217343643
 30
0.0
  0
VERTEX
  5
FAC
  8
BOUNDARY
 10
90.541420863000795
 20
695.34250310517405
 30
0.0
  0
VERTEX
  5
FAD
  8
BOUNDARY
 10
90.579784720251411
 20
695.28347942162145
 30
0.0
  0
VERTEX
  5
FAE
  8
BOUNDARY
 10
90.59980064868364
 20
695.2066179506345
 30
0.0
  0
VERTEX
  5
FAF
  8
BOUNDARY
 10
90.621593990582923
 20
695.13114609987076
 30
0.0
  0
VERTEX
  5
FB0
  8
BOUNDARY
 10
90.649519338014997
 20
695.03859908458514
 30
0.0
  0
VERTEX
  5
FB1
  8
BOUNDARY
 10
90.671914701998119
 20
694.97023572334524
 30
0.0
  0
VERTEX
  5
FB2
  8
BOUNDARY
 10
90.685828729901161
 20
694.90362547482539
 30
0.0
  0
VERTEX
  5
FB3
  8
BOUNDARY
 10
90.685185135219882
 20
694.83634264552086
 30
0.0
  0
VERTEX
  5
FB4
  8
BOUNDARY
 10
90.696529982668935
 20
694.77216392986645
 30
0.0
  0
VERTEX
  5
FB5
  8
BOUNDARY
 10
90.703540662554204
 20
694.70292626811556
 30
0.0
  0
VERTEX
  5
FB6
  8
BOUNDARY
 10
90.711037257622436
 20
694.66767547833342
 30
0.0
  0
VERTEX
  5
FB7
  8
BOUNDARY
 10
90.723337939762132
 20
694.67039646245053
 30
0.0
  0
VERTEX
  5
FB8
  8
BOUNDARY
 10
90.728410673274155
 20
694.62477576300796
 30
0.0
  0
VERTEX
  5
FB9
  8
BOUNDARY
 10
90.820419383006765
 20
694.54049670465258
 30
0.0
  0
VERTEX
  5
FBA
  8
BOUNDARY
 10
90.981434664815069
 20
694.45621760061147
 30
0.0
  0
VERTEX
  5
FBB
  8
BOUNDARY
 10
91.211456439146559
 20
694.39492372752966
 30
0.0
  0
VERTEX
  5
FBC
  8
BOUNDARY
 10
91.395473858611794
 20
694.41024718437882
 30
0.0
  0
VERTEX
  5
FBD
  8
BOUNDARY
 10
91.472147783388976
 20
694.45621760061147
 30
0.0
  0
VERTEX
  5
FBE
  8
BOUNDARY
 10
91.510484706001293
 20
694.56348188992627
 30
0.0
  0
VERTEX
  5
FBF
  8
BOUNDARY
 10
91.472147783388976
 20
694.66308445081654
 30
0.0
  0
VERTEX
  5
FC0
  8
BOUNDARY
 10
91.372471641402385
 20
694.71671659547394
 30
0.0
  0
VERTEX
  5
FC1
  8
BOUNDARY
 10
91.249793361758904
 20
694.76268701170659
 30
0.0
  0
VERTEX
  5
FC2
  8
BOUNDARY
 10
91.171614350244695
 20
694.82778813863149
 30
0.0
  0
VERTEX
  5
FC3
  8
BOUNDARY
 10
91.162310520781915
 20
694.85724041182561
 30
0.0
  0
VERTEX
  5
FC4
  8
BOUNDARY
 10
91.151075940234108
 20
694.89236690207474
 30
0.0
  0
VERTEX
  5
FC5
  8
BOUNDARY
 10
91.138894015929949
 20
694.92646126901536
 30
0.0
  0
VERTEX
  5
FC6
  8
BOUNDARY
 10
91.135461532629051
 20
694.97186371213991
 30
0.0
  0
VERTEX
  5
FC7
  8
BOUNDARY
 10
91.144384453567795
 20
695.00814164895769
 30
0.0
  0
VERTEX
  5
FC8
  8
BOUNDARY
 10
91.163563271078985
 20
695.04501645818095
 30
0.0
  0
VERTEX
  5
FC9
  8
BOUNDARY
 10
91.186917497102186
 20
695.08390928715733
 30
0.0
  0
VERTEX
  5
FCA
  8
BOUNDARY
 10
91.214465910590263
 20
695.11983018940407
 30
0.0
  0
VERTEX
  5
FCB
  8
BOUNDARY
 10
91.250738752597925
 20
695.16169587308775
 30
0.0
  0
VERTEX
  5
FCC
  8
BOUNDARY
 10
91.303642841511333
 20
695.21973683403303
 30
0.0
  0
VERTEX
  5
FCD
  8
BOUNDARY
 10
91.353287865653911
 20
695.26300451569705
 30
0.0
  0
VERTEX
  5
FCE
  8
BOUNDARY
 10
91.394835747349859
 20
695.28340841706836
 30
0.0
  0
VERTEX
  5
FCF
  8
BOUNDARY
 10
91.461136828327085
 20
695.28424464915247
 30
0.0
  0
VERTEX
  5
FD0
  8
BOUNDARY
 10
91.490640818821234
 20
695.27536609768936
 30
0.0
  0
VERTEX
  5
FD1
  8
BOUNDARY
 10
91.519946950865446
 20
695.26475957493074
 30
0.0
  0
VERTEX
  5
FD2
  8
BOUNDARY
 10
91.544194856014343
 20
695.269798146992
 30
0.0
  0
VERTEX
  5
FD3
  8
BOUNDARY
 10
91.593493669604044
 20
695.3259242993945
 30
0.0
  0
VERTEX
  5
FD4
  8
BOUNDARY
 10
91.625651507088946
 20
695.3708408775326
 30
0.0
  0
VERTEX
  5
FD5
  8
BOUNDARY
 10
91.666539177224038
 20
695.40000267148105
 30
0.0
  0
VERTEX
  5
FD6
  8
BOUNDARY
 10
91.726798407001169
 20
695.42552807616914
 30
0.0
  0
VERTEX
  5
FD7
  8
BOUNDARY
 10
91.805453927008003
 20
695.47026510530156
 30
0.0
  0
VERTEX
  5
FD8
  8
BOUNDARY
 10
91.875276310306702
 20
695.51211460969273
 30
0.0
  0
VERTEX
  5
FD9
  8
BOUNDARY
 10
91.957692854073784
 20
695.55244004622057
 30
0.0
  0
VERTEX
  5
FDA
  8
BOUNDARY
 10
92.048302425458857
 20
695.60325159581828
 30
0.0
  0
VERTEX
  5
FDB
  8
BOUNDARY
 10
92.119428546356716
 20
695.63508079108078
 30
0.0
  0
VERTEX
  5
FDC
  8
BOUNDARY
 10
92.212335548732796
 20
695.66076962052716
 30
0.0
  0
VERTEX
  5
FDD
  8
BOUNDARY
 10
92.295658796871237
 20
695.69761303817961
 30
0.0
  0
VERTEX
  5
FDE
  8
BOUNDARY
 10
92.330367171987405
 20
695.7119784065967
 30
0.0
  0
VERTEX
  5
FDF
  8
BOUNDARY
 10
92.403302124567332
 20
695.73650720504838
 30
0.0
  0
VERTEX
  5
FE0
  8
BOUNDARY
 10
92.433224409198019
 20
695.72566141715026
 30
0.0
  0
VERTEX
  5
FE1
  8
BOUNDARY
 10
92.502031643545436
 20
695.70688671050686
 30
0.0
  0
VERTEX
  5
FE2
  8
BOUNDARY
 10
92.563371900662446
 20
695.71741472492704
 30
0.0
  0
VERTEX
  5
FE3
  8
BOUNDARY
 10
92.628859041983404
 20
695.74915483986535
 30
0.0
  0
VERTEX
  5
FE4
  8
BOUNDARY
 10
92.660789822357174
 20
695.75374916823
 30
0.0
  0
VERTEX
  5
FE5
  8
BOUNDARY
 10
92.698107823038484
 20
695.77109361990813
 30
0.0
  0
VERTEX
  5
FE6
  8
BOUNDARY
 10
92.727169410632357
 20
695.77807463055592
 30
0.0
  0
VERTEX
  5
FE7
  8
BOUNDARY
 10
92.757147137906756
 20
695.79413940621077
 30
0.0
  0
VERTEX
  5
FE8
  8
BOUNDARY
 10
92.790737495196737
 20
695.81225685707966
 30
0.0
  0
VERTEX
  5
FE9
  8
BOUNDARY
 10
92.819333025444934
 20
695.8358634072423
 30
0.0
  0
VERTEX
  5
FEA
  8
BOUNDARY
 10
92.830964688433795
 20
695.84059298777265
 30
0.0
  0
VERTEX
  5
FEB
  8
BOUNDARY
 10
92.848979151683764
 20
695.83822590995271
 30
0.0
  0
VERTEX
  5
FEC
  8
BOUNDARY
 10
92.873431106966095
 20
695.83030914624203
 30
0.0
  0
VERTEX
  5
FED
  8
BOUNDARY
 10
92.902578327004932
 20
695.8448212296214
 30
0.0
  0
VERTEX
  5
FEE
  8
BOUNDARY
 10
92.936275769763071
 20
695.87714953420482
 30
0.0
  0
VERTEX
  5
FEF
  8
BOUNDARY
 10
92.995787532723369
 20
695.89034835995824
 30
0.0
  0
VERTEX
  5
FF0
  8
BOUNDARY
 10
93.031308448547591
 20
695.89039825183318
 30
0.0
  0
VERTEX
  5
FF1
  8
BOUNDARY
 10
93.067194232726479
 20
695.93306006704404
 30
0.0
  0
VERTEX
  5
FF2
  8
BOUNDARY
 10
93.108023676384065
 20
695.96354807920272
 30
0.0
  0
VERTEX
  5
FF3
  8
BOUNDARY
 10
93.161877428724267
 20
695.98834332615672
 30
0.0
  0
VERTEX
  5
FF4
  8
BOUNDARY
 10
93.198273383097415
 20
696.00488143724522
 30
0.0
  0
VERTEX
  5
FF5
  8
BOUNDARY
 10
93.228063719310839
 20
696.00158680443997
 30
0.0
  0
VERTEX
  5
FF6
  8
BOUNDARY
 10
93.244014831898355
 20
695.98763209127162
 30
0.0
  0
VERTEX
  5
FF7
  8
BOUNDARY
 10
93.251185421116546
 20
695.95835325638029
 30
0.0
  0
VERTEX
  5
FF8
  8
BOUNDARY
 10
93.267766441856637
 20
695.91384496608623
 30
0.0
  0
VERTEX
  5
FF9
  8
BOUNDARY
 10
93.281461964907805
 20
695.87463858125955
 30
0.0
  0
VERTEX
  5
FFA
  8
BOUNDARY
 10
93.310443354228227
 20
695.82225388454481
 30
0.0
  0
VERTEX
  5
FFB
  8
BOUNDARY
 10
93.336598877222286
 20
695.78488580644319
 30
0.0
  0
VERTEX
  5
FFC
  8
BOUNDARY
 10
93.379748946415901
 20
695.79171322971911
 30
0.0
  0
VERTEX
  5
FFD
  8
BOUNDARY
 10
93.421467219663128
 20
695.80826337193071
 30
0.0
  0
VERTEX
  5
FFE
  8
BOUNDARY
 10
93.450767152132514
 20
695.83561092628463
 30
0.0
  0
VERTEX
  5
FFF
  8
BOUNDARY
 10
93.505800739383602
 20
695.86583752436763
 30
0.0
  0
VERTEX
  5
1000
  8
BOUNDARY
 10
93.562728134372193
 20
695.9037611315955
 30
0.0
  0
VERTEX
  5
1001
  8
BOUNDARY
 10
93.610895466548982
 20
695.94853365390202
 30
0.0
  0
VERTEX
  5
1002
  8
BOUNDARY
 10
93.713765925985356
 20
696.04143187108639
 30
0.0
  0
VERTEX
  5
1003
  8
BOUNDARY
 10
93.825475893743743
 20
696.13860089609761
 30
0.0
  0
VERTEX
  5
1004
  8
BOUNDARY
 10
93.912291648251724
 20
696.18422396417964
 30
0.0
  0
VERTEX
  5
1005
  8
BOUNDARY
 10
94.005246093755318
 20
696.18981530311976
 30
0.0
  0
VERTEX
  5
1006
  8
BOUNDARY
 10
94.053173111764352
 20
696.18611437317531
 30
0.0
  0
VERTEX
  5
1007
  8
BOUNDARY
 10
94.076097833364514
 20
696.17222923679435
 30
0.0
  0
VERTEX
  5
1008
  8
BOUNDARY
 10
94.082433348811804
 20
696.10126517169556
 30
0.0
  0
VERTEX
  5
1009
  8
BOUNDARY
 10
94.084848662873398
 20
695.99305789341372
 30
0.0
  0
VERTEX
  5
100A
  8
BOUNDARY
 10
94.097246702060929
 20
695.93218721112942
 30
0.0
  0
VERTEX
  5
100B
  8
BOUNDARY
 10
94.124047539965105
 20
695.90745432206324
 30
0.0
  0
VERTEX
  5
100C
  8
BOUNDARY
 10
94.192092249308587
 20
695.87215811795795
 30
0.0
  0
VERTEX
  5
100D
  8
BOUNDARY
 10
94.271535472663217
 20
695.85426737803687
 30
0.0
  0
VERTEX
  5
100E
  8
BOUNDARY
 10
94.350621230567015
 20
695.84049343210575
 30
0.0
  0
VERTEX
  5
100F
  8
BOUNDARY
 10
94.414266295057274
 20
695.83602068991354
 30
0.0
  0
VERTEX
  5
1010
  8
BOUNDARY
 10
94.474349275811306
 20
695.81323190012358
 30
0.0
  0
VERTEX
  5
1011
  8
BOUNDARY
 10
94.517528498002591
 20
695.78287988374393
 30
0.0
  0
VERTEX
  5
1012
  8
BOUNDARY
 10
94.552736141907161
 20
695.76047653064097
 30
0.0
  0
VERTEX
  5
1013
  8
BOUNDARY
 10
94.609677501431349
 20
695.75269881294957
 30
0.0
  0
VERTEX
  5
1014
  8
BOUNDARY
 10
94.658378432719942
 20
695.73096570724431
 30
0.0
  0
SEQEND
  5
1015
  8
BOUNDARY
  0
ENDSEC
  0
EOF
