  0
SECTION
  2
HEADER
  9
$ACADVER
  1
AC1009
  9
$INSBASE
 10
0.0
 20
0.0
 30
0.0
  9
$EXTMIN
 10
312449.63785248721
 20
971709.26146128005
 30
-0.0000000000112498
  9
$EXTMAX
 10
327135.27368653752
 20
980785.33895822125
 30
0.0000000000002956
  9
$LIMMIN
 10
312449.858213
 20
971709.39901800023
  9
$LIMMAX
 10
327056.97742800007
 20
980753.43734800012
  9
$ORTHOMODE
 70
     0
  9
$REGENMODE
 70
     1
  9
$FILLMODE
 70
     1
  9
$QTEXTMODE
 70
     0
  9
$MIRRTEXT
 70
     0
  9
$DRAGMODE
 70
     2
  9
$LTSCALE
 40
1.0
  9
$OSMODE
 70
   545
  9
$ATTMODE
 70
     1
  9
$TEXTSIZE
 40
90.0
  9
$TRACEWID
 40
0.05
  9
$TEXTSTYLE
  7
STANDARD
  9
$CLAYER
  8
NUMBERS_PALUMBO
  9
$CELTYPE
  6
CONTINUOUS
  9
$CECOLOR
 62
   256
  9
$DIMSCALE
 40
1.0
  9
$DIMASZ
 40
0.18
  9
$DIMEXO
 40
0.0625
  9
$DIMDLI
 40
0.38
  9
$DIMRND
 40
0.0
  9
$DIMDLE
 40
0.0
  9
$DIMEXE
 40
0.18
  9
$DIMTP
 40
0.0
  9
$DIMTM
 40
0.0
  9
$DIMTXT
 40
0.18
  9
$DIMCEN
 40
0.09
  9
$DIMTSZ
 40
0.0
  9
$DIMTOL
 70
     0
  9
$DIMLIM
 70
     0
  9
$DIMTIH
 70
     1
  9
$DIMTOH
 70
     1
  9
$DIMSE1
 70
     0
  9
$DIMSE2
 70
     0
  9
$DIMTAD
 70
     0
  9
$DIMZIN
 70
     0
  9
$DIMBLK
  1

  9
$DIMASO
 70
     1
  9
$DIMSHO
 70
     1
  9
$DIMPOST
  1

  9
$DIMAPOST
  1

  9
$DIMALT
 70
     0
  9
$DIMALTD
 70
     2
  9
$DIMALTF
 40
25.399999999999999
  9
$DIMLFAC
 40
1.0
  9
$DIMTOFL
 70
     0
  9
$DIMTVP
 40
0.0
  9
$DIMTIX
 70
     0
  9
$DIMSOXD
 70
     0
  9
$DIMSAH
 70
     0
  9
$DIMBLK1
  1

  9
$DIMBLK2
  1

  9
$DIMSTYLE
  2
STANDARD
  9
$DIMCLRD
 70
     0
  9
$DIMCLRE
 70
     0
  9
$DIMCLRT
 70
     0
  9
$DIMTFAC
 40
1.0
  9
$DIMGAP
 40
0.09
  9
$LUNITS
 70
     2
  9
$LUPREC
 70
     4
  9
$SKETCHINC
 40
0.1
  9
$FILLETRAD
 40
0.0
  9
$AUNITS
 70
     0
  9
$AUPREC
 70
     0
  9
$MENU
  1
.
  9
$ELEVATION
 40
0.0
  9
$PELEVATION
 40
0.0
  9
$THICKNESS
 40
0.0
  9
$LIMCHECK
 70
     0
  9
$BLIPMODE
 70
     0
  9
$CHAMFERA
 40
0.0
  9
$CHAMFERB
 40
0.0
  9
$SKPOLY
 70
     0
  9
$TDCREATE
 40
2455137.4228238878
  9
$TDUPDATE
 40
2455139.4202347342
  9
$TDINDWG
 40
0.0373569329
  9
$TDUSRTIMER
 40
0.0373567593
  9
$USRTIMER
 70
     1
  9
$ANGBASE
 50
0.0
  9
$ANGDIR
 70
     0
  9
$PDMODE
 70
     0
  9
$PDSIZE
 40
0.0
  9
$PLINEWID
 40
0.0
  9
$COORDS
 70
     2
  9
$SPLFRAME
 70
     0
  9
$SPLINETYPE
 70
     6
  9
$SPLINESEGS
 70
     8
  9
$ATTDIA
 70
     0
  9
$ATTREQ
 70
     1
  9
$HANDLING
 70
 22529
  9
$HANDSEED
  5
AFF
  9
$SURFTAB1
 70
     6
  9
$SURFTAB2
 70
     6
  9
$SURFTYPE
 70
     6
  9
$SURFU
 70
     6
  9
$SURFV
 70
     6
  9
$UCSNAME
  2

  9
$UCSORG
 10
0.0
 20
0.0
 30
0.0
  9
$UCSXDIR
 10
1.0
 20
0.0
 30
0.0
  9
$UCSYDIR
 10
0.0
 20
1.0
 30
0.0
  9
$PUCSNAME
  2

  9
$PUCSORG
 10
0.0
 20
0.0
 30
0.0
  9
$PUCSXDIR
 10
1.0
 20
0.0
 30
0.0
  9
$PUCSYDIR
 10
0.0
 20
1.0
 30
0.0
  9
$USERI1
 70
     0
  9
$USERI2
 70
     0
  9
$USERI3
 70
     0
  9
$USERI4
 70
     0
  9
$USERI5
 70
     0
  9
$USERR1
 40
0.0
  9
$USERR2
 40
0.0
  9
$USERR3
 40
0.0
  9
$USERR4
 40
0.0
  9
$USERR5
 40
0.0
  9
$WORLDVIEW
 70
     1
  9
$SHADEDGE
 70
     3
  9
$SHADEDIF
 70
    70
  9
$TILEMODE
 70
     1
  9
$MAXACTVP
 70
    64
  9
$PLIMCHECK
 70
     0
  9
$PEXTMIN
 10
1.0000000000000000E+020
 20
1.0000000000000000E+020
 30
1.0000000000000000E+020
  9
$PEXTMAX
 10
-1.0000000000000000E+020
 20
-1.0000000000000000E+020
 30
-1.0000000000000000E+020
  9
$PLIMMIN
 10
0.0
 20
0.0
  9
$PLIMMAX
 10
12.0
 20
9.0
  9
$UNITMODE
 70
     0
  9
$VISRETAIN
 70
     1
  9
$PLINEGEN
 70
     0
  9
$PSLTSCALE
 70
     1
  0
ENDSEC
  0
SECTION
  2
TABLES
  0
TABLE
  2
VPORT
 70
     3
  0
VPORT
  2
*ACTIVE
 70
     0
 10
0.0
 20
0.0
 11
1.0
 21
1.0
 12
319792.45576951228
 22
976247.30020975065
 13
0.0
 23
0.0
 14
1.0
 24
1.0
 15
0.0
 25
0.0
 16
0.0
 26
0.0
 36
1.0
 17
0.0
 27
0.0
 37
0.0
 40
9137.9598435113439
 41
1.638225255972696
 42
50.0
 43
0.0
 44
0.0
 50
0.0
 51
0.0
 71
     0
 72
   100
 73
     1
 74
     0
 75
     0
 76
     0
 77
     0
 78
     0
  0
ENDTAB
  0
TABLE
  2
LTYPE
 70
    25
  0
LTYPE
  2
CONTINUOUS
 70
     0
  3
Solid line
 72
    65
 73
     0
 40
0.0
  0
LTYPE
  2
BORDER
 70
     0
  3
Border __ __ . __ __ . __ __ . __ __ . __ __ .
 72
    65
 73
     6
 40
1.75
 49
0.5
 49
-0.25
 49
0.5
 49
-0.25
 49
0.0
 49
-0.25
  0
LTYPE
  2
BORDER2
 70
     0
  3
Border (.5x) __.__.__.__.__.__.__.__.__.__.__.
 72
    65
 73
     6
 40
0.875
 49
0.25
 49
-0.125
 49
0.25
 49
-0.125
 49
0.0
 49
-0.125
  0
LTYPE
  2
BORDERX2
 70
     0
  3
Border (2x) ____  ____  .  ____  ____  .  ___
 72
    65
 73
     6
 40
3.5
 49
1.0
 49
-0.5
 49
1.0
 49
-0.5
 49
0.0
 49
-0.5
  0
LTYPE
  2
CENTER
 70
     0
  3
Center ____ _ ____ _ ____ _ ____ _ ____ _ ____
 72
    65
 73
     4
 40
2.0
 49
1.25
 49
-0.25
 49
0.25
 49
-0.25
  0
LTYPE
  2
CENTER2
 70
     0
  3
Center (.5x) ___ _ ___ _ ___ _ ___ _ ___ _ ___
 72
    65
 73
     4
 40
1.125
 49
0.75
 49
-0.125
 49
0.125
 49
-0.125
  0
LTYPE
  2
CENTERX2
 70
     0
  3
Center (2x) ________  __  ________  __  _____
 72
    65
 73
     4
 40
4.0
 49
2.5
 49
-0.5
 49
0.5
 49
-0.5
  0
LTYPE
  2
DASHDOT
 70
     0
  3
Dash dot __ . __ . __ . __ . __ . __ . __ . __
 72
    65
 73
     4
 40
1.0
 49
0.5
 49
-0.25
 49
0.0
 49
-0.25
  0
LTYPE
  2
DASHDOT2
 70
     0
  3
Dash dot (.5x) _._._._._._._._._._._._._._._.
 72
    65
 73
     4
 40
0.5
 49
0.25
 49
-0.125
 49
0.0
 49
-0.125
  0
LTYPE
  2
DASHDOTX2
 70
     0
  3
Dash dot (2x) ____  .  ____  .  ____  .  ___
 72
    65
 73
     4
 40
2.0
 49
1.0
 49
-0.5
 49
0.0
 49
-0.5
  0
LTYPE
  2
DASHED
 70
     0
  3
Dashed __ __ __ __ __ __ __ __ __ __ __ __ __ _
 72
    65
 73
     2
 40
0.75
 49
0.5
 49
-0.25
  0
LTYPE
  2
DASHED2
 70
     0
  3
Dashed (.5x) _ _ _ _ _ _ _ _ _ _ _ _ _ _ _ _ _
 72
    65
 73
     2
 40
0.375
 49
0.25
 49
-0.125
  0
LTYPE
  2
DASHEDX2
 70
     0
  3
Dashed (2x) ____  ____  ____  ____  ____  ___
 72
    65
 73
     2
 40
1.5
 49
1.0
 49
-0.5
  0
LTYPE
  2
DIVIDE
 70
     0
  3
Divide ____ . . ____ . . ____ . . ____ . . ____
 72
    65
 73
     6
 40
1.25
 49
0.5
 49
-0.25
 49
0.0
 49
-0.25
 49
0.0
 49
-0.25
  0
LTYPE
  2
DIVIDE2
 70
     0
  3
Divide (.5x) __..__..__..__..__..__..__..__.._
 72
    65
 73
     6
 40
0.625
 49
0.25
 49
-0.125
 49
0.0
 49
-0.125
 49
0.0
 49
-0.125
  0
LTYPE
  2
DIVIDEX2
 70
     0
  3
Divide (2x) ________  .  .  ________  .  .  _
 72
    65
 73
     6
 40
2.5
 49
1.0
 49
-0.5
 49
0.0
 49
-0.5
 49
0.0
 49
-0.5
  0
LTYPE
  2
DOT
 70
     0
  3
Dot . . . . . . . . . . . . . . . . . . . . . .
 72
    65
 73
     2
 40
0.25
 49
0.0
 49
-0.25
  0
LTYPE
  2
DOT2
 70
     0
  3
Dot (.5x) .....................................
 72
    65
 73
     2
 40
0.125
 49
0.0
 49
-0.125
  0
LTYPE
  2
DOTX2
 70
     0
  3
Dot (2x) .  .  .  .  .  .  .  .  .  .  .  .  . 
 72
    65
 73
     2
 40
0.5
 49
0.0
 49
-0.5
  0
LTYPE
  2
HIDDEN
 70
     0
  3
Hidden __ __ __ __ __ __ __ __ __ __ __ __ __ _
 72
    65
 73
     2
 40
0.375
 49
0.25
 49
-0.125
  0
LTYPE
  2
HIDDEN2
 70
     0
  3
Hidden (.5x) _ _ _ _ _ _ _ _ _ _ _ _ _ _ _ _ _
 72
    65
 73
     2
 40
0.1875
 49
0.125
 49
-0.0625
  0
LTYPE
  2
HIDDENX2
 70
     0
  3
Hidden (2x) ____ ____ ____ ____ ____ ____ ____
 72
    65
 73
     2
 40
0.75
 49
0.5
 49
-0.25
  0
LTYPE
  2
PHANTOM
 70
     0
  3
Phantom ______  __  __  ______  __  __  ______
 72
    65
 73
     6
 40
2.5
 49
1.25
 49
-0.25
 49
0.25
 49
-0.25
 49
0.25
 49
-0.25
  0
LTYPE
  2
PHANTOM2
 70
     0
  3
Phantom (.5x) ___ _ _ ___ _ _ ___ _ _ ___ _ _
 72
    65
 73
     6
 40
1.25
 49
0.625
 49
-0.125
 49
0.125
 49
-0.125
 49
0.125
 49
-0.125
  0
LTYPE
  2
PHANTOMX2
 70
     0
  3
Phantom (2x) ____________    ____    ____   _
 72
    65
 73
     6
 40
5.0
 49
2.5
 49
-0.5
 49
0.5
 49
-0.5
 49
0.5
 49
-0.5
  0
ENDTAB
  0
TABLE
  2
LAYER
 70
     4
  0
LAYER
  2
0
 70
     0
 62
     7
  6
CONTINUOUS
  0
LAYER
  2
POLYGONS
 70
     0
 62
     1
  6
CONTINUOUS
  0
LAYER
  2
NUMBERS_LINARES
 70
     0
 62
     2
  6
CONTINUOUS
  0
LAYER
  2
NUMBERS_PALUMBO
 70
     0
 62
     3
  6
CONTINUOUS
  0
ENDTAB
  0
TABLE
  2
STYLE
 70
     2
  0
STYLE
  2
STANDARD
 70
     0
 40
0.0
 41
1.0
 50
0.0
 71
     0
 42
90.0
  3
txt
  4

  0
STYLE
  2
ANNOTATIVE
 70
     0
 40
0.0
 41
1.0
 50
0.0
 71
     0
 42
0.2
  3
txt
  4

  0
ENDTAB
  0
TABLE
  2
VIEW
 70
     0
  0
ENDTAB
  0
TABLE
  2
UCS
 70
     0
  0
ENDTAB
  0
TABLE
  2
APPID
 70
     5
  0
APPID
  2
ACAD
 70
     0
  0
APPID
  2
ACADANNOTATIVE
 70
     0
  0
APPID
  2
ACAD_MLEADERVER
 70
     0
  0
APPID
  2
DCO15
 70
     0
  0
APPID
  2
ADE
 70
     0
  0
ENDTAB
  0
TABLE
  2
DIMSTYLE
 70
     2
  0
DIMSTYLE
  2
STANDARD
 70
     0
  3

  4

  5

  6

  7

 40
1.0
 41
0.18
 42
0.0625
 43
0.38
 44
0.18
 45
0.0
 46
0.0
 47
0.0
 48
0.0
140
0.18
141
0.09
142
0.0
143
25.399999999999999
144
1.0
145
0.0
146
1.0
147
0.09
 71
     0
 72
     0
 73
     1
 74
     1
 75
     0
 76
     0
 77
     0
 78
     0
170
     0
171
     2
172
     0
173
     0
174
     0
175
     0
176
     0
177
     0
178
     0
  0
DIMSTYLE
  2
ANNOTATIVE
 70
     0
  3

  4

  5

  6

  7

 40
1.0
 41
0.18
 42
0.0625
 43
0.38
 44
0.18
 45
0.0
 46
0.0
 47
0.0
 48
0.0
140
0.18
141
0.09
142
0.0
143
25.399999999999999
144
1.0
145
0.0
146
1.0
147
0.09
 71
     0
 72
     0
 73
     1
 74
     1
 75
     0
 76
     0
 77
     0
 78
     0
170
     0
171
     2
172
     0
173
     0
174
     0
175
     0
176
     0
177
     0
178
     0
  0
ENDTAB
  0
ENDSEC
  0
SECTION
  2
BLOCKS
  0
BLOCK
  8
0
  2
$MODEL_SPACE
 70
     0
 10
0.0
 20
0.0
 30
0.0
  3
$MODEL_SPACE
  1

  0
ENDBLK
  5
5BE
  8
0
  0
BLOCK
 67
     1
  8
0
  2
$PAPER_SPACE
 70
     0
 10
0.0
 20
0.0
 30
0.0
  3
$PAPER_SPACE
  1

  0
ENDBLK
  5
5BA
 67
     1
  8
0
  0
BLOCK
  8
0
  2
BLOCK_NAME
 70
     0
 10
0.0
 20
0.0
 30
0.0
  3
BLOCK_NAME
  1

  0
CIRCLE
  5
5E9
  8
0
 10
0.0
 20
0.0
 30
0.0
 40
1.0
  0
ENDBLK
  5
5EA
  8
0
  0
ENDSEC
  0
SECTION
  2
ENTITIES
  0
POLYLINE
  5
5EB
  8
POLYGONS
 66
     1
 10
0.0
 20
0.0
 30
0.0
 70
     1
  0
VERTEX
  5
8B9
  8
POLYGONS
 10
314245.763354
 20
971712.22568100004
 30
0.0
  0
VERTEX
  5
8BA
  8
POLYGONS
 10
314162.99130200001
 20
971709.39901800023
 30
0.0
  0
VERTEX
  5
8BB
  8
POLYGONS
 10
314070.85776400001
 20
971748.20905700012
 30
0.0
  0
VERTEX
  5
8BC
  8
POLYGONS
 10
314052.19267199992
 20
971844.28015000012
 30
0.0
  0
VERTEX
  5
8BD
  8
POLYGONS
 10
313941.35148000013
 20
971969.56322100013
 30
0.0
  0
VERTEX
  5
8BE
  8
POLYGONS
 10
313932.46682600002
 20
972116.78338500008
 30
0.0
  0
VERTEX
  5
8BF
  8
POLYGONS
 10
313926.70751099999
 20
972251.19119599985
 30
0.0
  0
VERTEX
  5
8C0
  8
POLYGONS
 10
313971.38430899999
 20
972276.58606200025
 30
0.0
  0
VERTEX
  5
8C1
  8
POLYGONS
 10
314104.99583999999
 20
972259.98540700006
 30
0.0
  0
VERTEX
  5
8C2
  8
POLYGONS
 10
314203.43636200001
 20
972208.34853700013
 30
0.0
  0
VERTEX
  5
8C3
  8
POLYGONS
 10
314256.508523
 20
971977.74089000002
 30
0.0
  0
VERTEX
  5
8C4
  8
POLYGONS
 10
314319.76436799997
 20
971887.86826200015
 30
0.0
  0
VERTEX
  5
8C5
  8
POLYGONS
 10
314315.78457700001
 20
971819.59495499998
 30
0.0
  0
VERTEX
  5
8C6
  8
POLYGONS
 10
314312.86534800008
 20
971769.51558699994
 30
0.0
  0
VERTEX
  5
8C7
  8
POLYGONS
 10
314284.06003200001
 20
971734.45013100025
 30
0.0
  0
SEQEND
  5
8C8
  8
POLYGONS
  0
TEXT
  5
5FC
  8
NUMBERS_LINARES
 10
314116.306232
 20
971994.79015500005
 30
0.0
 40
90.0
  1
2 (BU-24)
  0
POLYLINE
  5
5FD
  8
POLYGONS
 66
     1
 10
0.0
 20
0.0
 30
0.0
 70
     1
  0
VERTEX
  5
8C9
  8
POLYGONS
 10
313675.86195100012
 20
972386.70636600011
 30
0.0
  0
VERTEX
  5
8CA
  8
POLYGONS
 10
313640.994274
 20
972418.85973899998
 30
0.0
  0
VERTEX
  5
8CB
  8
POLYGONS
 10
313644.45212099998
 20
972479.63596499991
 30
0.0
  0
VERTEX
  5
8CC
  8
POLYGONS
 10
313689.08553500002
 20
972495.43199700012
 30
0.0
  0
VERTEX
  5
8CD
  8
POLYGONS
 10
313765.50483400002
 20
972501.48569100001
 30
0.0
  0
VERTEX
  5
8CE
  8
POLYGONS
 10
313864.21050500008
 20
972618.92352399987
 30
0.0
  0
VERTEX
  5
8CF
  8
POLYGONS
 10
313925.46050099999
 20
972679.93887099996
 30
0.0
  0
VERTEX
  5
8D0
  8
POLYGONS
 10
313995.54240699997
 20
972692.42067499994
 30
0.0
  0
VERTEX
  5
8D1
  8
POLYGONS
 10
314100.82395699999
 20
972746.33809100022
 30
0.0
  0
VERTEX
  5
8D2
  8
POLYGONS
 10
314094.67472299997
 20
972794.35932199995
 30
0.0
  0
VERTEX
  5
8D3
  8
POLYGONS
 10
314043.79158299998
 20
972804.18768300011
 30
0.0
  0
VERTEX
  5
8D4
  8
POLYGONS
 10
313973.68099399999
 20
972785.30683100002
 30
0.0
  0
VERTEX
  5
8D5
  8
POLYGONS
 10
313817.44023599999
 20
972785.05921000044
 30
0.0
  0
VERTEX
  5
8D6
  8
POLYGONS
 10
313645.76902000001
 20
972770.79106000043
 30
0.0
  0
VERTEX
  5
8D7
  8
POLYGONS
 10
313540.7763320001
 20
972780.86487000005
 30
0.0
  0
VERTEX
  5
8D8
  8
POLYGONS
 10
313454.99703800009
 20
972816.44854700007
 30
0.0
  0
VERTEX
  5
8D9
  8
POLYGONS
 10
313384.92948699999
 20
972807.16718100011
 30
0.0
  0
VERTEX
  5
8DA
  8
POLYGONS
 10
313330.93594300002
 20
972833.00843299995
 30
0.0
  0
VERTEX
  5
8DB
  8
POLYGONS
 10
313254.618563
 20
972849.35223700013
 30
0.0
  0
VERTEX
  5
8DC
  8
POLYGONS
 10
313104.64422600012
 20
972766.84333399986
 30
0.0
  0
VERTEX
  5
8DD
  8
POLYGONS
 10
313021.90279600001
 20
972770.41837900016
 30
0.0
  0
VERTEX
  5
8DE
  8
POLYGONS
 10
312907.24493500002
 20
972754.94103300001
 30
0.0
  0
VERTEX
  5
8DF
  8
POLYGONS
 10
312849.79240400001
 20
972720.00656900019
 30
0.0
  0
VERTEX
  5
8E0
  8
POLYGONS
 10
312849.57438900002
 20
972672.01379800017
 30
0.0
  0
VERTEX
  5
8E1
  8
POLYGONS
 10
312877.77031300002
 20
972572.69863500015
 30
0.0
  0
VERTEX
  5
8E2
  8
POLYGONS
 10
312934.39507199998
 20
972425.26072200015
 30
0.0
  0
VERTEX
  5
8E3
  8
POLYGONS
 10
313016.90496000001
 20
972370.49338799994
 30
0.0
  0
VERTEX
  5
8E4
  8
POLYGONS
 10
313153.641328
 20
972341.077024
 30
0.0
  0
VERTEX
  5
8E5
  8
POLYGONS
 10
313223.753279
 20
972359.95669300004
 30
0.0
  0
VERTEX
  5
8E6
  8
POLYGONS
 10
313261.84720000008
 20
972337.38702799985
 30
0.0
  0
VERTEX
  5
8E7
  8
POLYGONS
 10
313315.61472399998
 20
972336.01739500044
 30
0.0
  0
VERTEX
  5
8E8
  8
POLYGONS
 10
313414.61433499999
 20
972333.49555600015
 30
0.0
  0
VERTEX
  5
8E9
  8
POLYGONS
 10
313439.96206799988
 20
972307.78421200032
 30
0.0
  0
VERTEX
  5
8EA
  8
POLYGONS
 10
313496.256306
 20
972086.75885999994
 30
0.0
  0
VERTEX
  5
8EB
  8
POLYGONS
 10
313377.878195
 20
971952.91243000014
 30
0.0
  0
VERTEX
  5
8EC
  8
POLYGONS
 10
313320.75839700003
 20
971991.56592199986
 30
0.0
  0
VERTEX
  5
8ED
  8
POLYGONS
 10
313301.96480100002
 20
972058.84212199994
 30
0.0
  0
VERTEX
  5
8EE
  8
POLYGONS
 10
313302.44297999999
 20
972164.42597600014
 30
0.0
  0
VERTEX
  5
8EF
  8
POLYGONS
 10
313264.40684299998
 20
972199.79361200007
 30
0.0
  0
VERTEX
  5
8F0
  8
POLYGONS
 10
313130.5860800001
 20
972177.88198600023
 30
0.0
  0
VERTEX
  5
8F1
  8
POLYGONS
 10
313038.60023500002
 20
972188.73888199998
 30
0.0
  0
VERTEX
  5
8F2
  8
POLYGONS
 10
312933.45113900013
 20
972217.29215900006
 30
0.0
  0
VERTEX
  5
8F3
  8
POLYGONS
 10
312850.99909400003
 20
972284.85768900008
 30
0.0
  0
VERTEX
  5
8F4
  8
POLYGONS
 10
312806.87359000009
 20
972381.04559800006
 30
0.0
  0
VERTEX
  5
8F5
  8
POLYGONS
 10
312737.16842600011
 20
972451.75315000012
 30
0.0
  0
VERTEX
  5
8F6
  8
POLYGONS
 10
312609.95221900003
 20
972474.72855600005
 30
0.0
  0
VERTEX
  5
8F7
  8
POLYGONS
 10
312565.88152900001
 20
972514.72961600008
 30
0.0
  0
VERTEX
  5
8F8
  8
POLYGONS
 10
312527.646748
 20
972574.29016700014
 30
0.0
  0
VERTEX
  5
8F9
  8
POLYGONS
 10
312674.12030900008
 20
972586.42233600002
 30
0.0
  0
VERTEX
  5
8FA
  8
POLYGONS
 10
312702.91221799998
 20
972618.28731000004
 30
0.0
  0
VERTEX
  5
8FB
  8
POLYGONS
 10
312709.64170899999
 20
972698.24637399998
 30
0.0
  0
VERTEX
  5
8FC
  8
POLYGONS
 10
312764.56591200002
 20
972877.17351600016
 30
0.0
  0
VERTEX
  5
8FD
  8
POLYGONS
 10
312876.25869200012
 20
972940.65764200001
 30
0.0
  0
VERTEX
  5
8FE
  8
POLYGONS
 10
313077.11594699998
 20
973013.33597100026
 30
0.0
  0
VERTEX
  5
8FF
  8
POLYGONS
 10
313137.38784699998
 20
972968.26833999995
 30
0.0
  0
VERTEX
  5
900
  8
POLYGONS
 10
313258.49776400003
 20
973002.91441000008
 30
0.0
  0
VERTEX
  5
901
  8
POLYGONS
 10
313366.54236000002
 20
972964.02973700024
 30
0.0
  0
VERTEX
  5
902
  8
POLYGONS
 10
313490.89281900012
 20
973011.46007000015
 30
0.0
  0
VERTEX
  5
903
  8
POLYGONS
 10
313576.67168999999
 20
972975.87639200012
 30
0.0
  0
VERTEX
  5
904
  8
POLYGONS
 10
313598.56102099997
 20
972889.38884399994
 30
0.0
  0
VERTEX
  5
905
  8
POLYGONS
 10
313643.07824499998
 20
972879.58869200025
 30
0.0
  0
VERTEX
  5
906
  8
POLYGONS
 10
313715.69113499991
 20
972926.73501900013
 30
0.0
  0
VERTEX
  5
907
  8
POLYGONS
 10
313815.33102400001
 20
972961.99855300004
 30
0.0
  0
VERTEX
  5
908
  8
POLYGONS
 10
314009.64626100002
 20
972965.31138800015
 30
0.0
  0
VERTEX
  5
909
  8
POLYGONS
 10
314127.24008600001
 20
972957.39019199996
 30
0.0
  0
VERTEX
  5
90A
  8
POLYGONS
 10
314206.58142600011
 20
972905.83918600006
 30
0.0
  0
VERTEX
  5
90B
  8
POLYGONS
 10
314251.01950500009
 20
972799.71037199988
 30
0.0
  0
VERTEX
  5
90C
  8
POLYGONS
 10
314240.75643299997
 20
972720.11037400004
 30
0.0
  0
VERTEX
  5
90D
  8
POLYGONS
 10
314108.35289799998
 20
972598.47021099995
 30
0.0
  0
VERTEX
  5
90E
  8
POLYGONS
 10
313879.74351900001
 20
972424.17990999995
 30
0.0
  0
VERTEX
  5
90F
  8
POLYGONS
 10
313755.40655800002
 20
972379.94767000014
 30
0.0
  0
SEQEND
  5
910
  8
POLYGONS
  0
TEXT
  5
646
  8
NUMBERS_LINARES
 10
312759.34348293621
 20
972534.01281596499
 30
0.0
 40
90.0
  1
3
  0
POLYLINE
  5
647
  8
POLYGONS
 66
     1
 10
0.0
 20
0.0
 30
0.0
 70
     1
  0
VERTEX
  5
911
  8
POLYGONS
 10
312862.39466200001
 20
971990.44430600025
 30
0.0
  0
VERTEX
  5
912
  8
POLYGONS
 10
312773.15485200001
 20
971965.25278800016
 30
0.0
  0
VERTEX
  5
913
  8
POLYGONS
 10
312655.42790000001
 20
971975.38631600013
 30
0.0
  0
VERTEX
  5
914
  8
POLYGONS
 10
312601.54977899999
 20
972026.82455899997
 30
0.0
  0
VERTEX
  5
915
  8
POLYGONS
 10
312499.97071100009
 20
972088.07859100006
 30
0.0
  0
VERTEX
  5
916
  8
POLYGONS
 10
312462.08059299999
 20
972155.44231299986
 30
0.0
  0
VERTEX
  5
917
  8
POLYGONS
 10
312449.858213
 20
972267.48355000012
 30
0.0
  0
VERTEX
  5
918
  8
POLYGONS
 10
312501.00403700001
 20
972315.24468400015
 30
0.0
  0
VERTEX
  5
919
  8
POLYGONS
 10
312644.32465800003
 20
972333.79044600017
 30
0.0
  0
VERTEX
  5
91A
  8
POLYGONS
 10
312742.50219000009
 20
972224.55836300016
 30
0.0
  0
VERTEX
  5
91B
  8
POLYGONS
 10
312862.71416999999
 20
972060.83367900003
 30
0.0
  0
SEQEND
  5
91C
  8
POLYGONS
  0
TEXT
  5
654
  8
NUMBERS_LINARES
 10
312648.49751999998
 20
972143.61277600005
 30
0.0
 40
90.0
  1
1
  0
POLYLINE
  5
655
  8
POLYGONS
 66
     1
 10
0.0
 20
0.0
 30
0.0
 70
     1
  0
VERTEX
  5
91D
  8
POLYGONS
 10
314667.05050900002
 20
973208.1427330001
 30
0.0
  0
VERTEX
  5
91E
  8
POLYGONS
 10
314572.53074999998
 20
973238.30268900015
 30
0.0
  0
VERTEX
  5
91F
  8
POLYGONS
 10
314496.026572
 20
973327.85057600006
 30
0.0
  0
VERTEX
  5
920
  8
POLYGONS
 10
314484.54325300001
 20
973405.21184100013
 30
0.0
  0
VERTEX
  5
921
  8
POLYGONS
 10
314389.99721499998
 20
973429.42556100001
 30
0.0
  0
VERTEX
  5
922
  8
POLYGONS
 10
314301.17929900001
 20
973411.98543800006
 30
0.0
  0
VERTEX
  5
923
  8
POLYGONS
 10
314126.72927800001
 20
973427.63995900005
 30
0.0
  0
VERTEX
  5
924
  8
POLYGONS
 10
314077.41484899999
 20
973449.93982700014
 30
0.0
  0
VERTEX
  5
925
  8
POLYGONS
 10
314047.02665700001
 20
973463.68129500025
 30
0.0
  0
VERTEX
  5
926
  8
POLYGONS
 10
314006.04574700003
 20
973559.01683900016
 30
0.0
  0
VERTEX
  5
927
  8
POLYGONS
 10
313988.64766299998
 20
973636.40517100005
 30
0.0
  0
VERTEX
  5
928
  8
POLYGONS
 10
313914.90168900002
 20
973681.34030200006
 30
0.0
  0
VERTEX
  5
929
  8
POLYGONS
 10
313770.24697500007
 20
973744.43713400024
 30
0.0
  0
VERTEX
  5
92A
  8
POLYGONS
 10
313788.31728399999
 20
973815.71825000015
 30
0.0
  0
VERTEX
  5
92B
  8
POLYGONS
 10
313832.94128999999
 20
973872.0119510002
 30
0.0
  0
VERTEX
  5
92C
  8
POLYGONS
 10
313915.86976600002
 20
973895.42445400031
 30
0.0
  0
VERTEX
  5
92D
  8
POLYGONS
 10
313998.91909099999
 20
973945.59761600022
 30
0.0
  0
VERTEX
  5
92E
  8
POLYGONS
 10
314046.46022000001
 20
973992.95793000015
 30
0.0
  0
VERTEX
  5
92F
  8
POLYGONS
 10
314204.22178600001
 20
974059.58980200044
 30
0.0
  0
VERTEX
  5
930
  8
POLYGONS
 10
314455.30415600003
 20
974136.81088700017
 30
0.0
  0
VERTEX
  5
931
  8
POLYGONS
 10
314549.76807200001
 20
974094.75671200023
 30
0.0
  0
VERTEX
  5
932
  8
POLYGONS
 10
314567.32967599999
 20
974018.68428800011
 30
0.0
  0
VERTEX
  5
933
  8
POLYGONS
 10
314572.91522800009
 20
973927.01345900004
 30
0.0
  0
VERTEX
  5
934
  8
POLYGONS
 10
314563.28430200001
 20
973812.21870000008
 30
0.0
  0
VERTEX
  5
935
  8
POLYGONS
 10
314628.25059299992
 20
973788.13845800015
 30
0.0
  0
VERTEX
  5
936
  8
POLYGONS
 10
314734.86829600012
 20
973817.39272600005
 30
0.0
  0
VERTEX
  5
937
  8
POLYGONS
 10
314844.53733100003
 20
973867.44758399995
 30
0.0
  0
VERTEX
  5
938
  8
POLYGONS
 10
314945.06499099999
 20
973858.07504499995
 30
0.0
  0
VERTEX
  5
939
  8
POLYGONS
 10
314992.11026599997
 20
973795.42132400011
 30
0.0
  0
VERTEX
  5
93A
  8
POLYGONS
 10
314947.04683000001
 20
973641.00520899997
 30
0.0
  0
VERTEX
  5
93B
  8
POLYGONS
 10
314895.2553570001
 20
973520.43846600014
 30
0.0
  0
VERTEX
  5
93C
  8
POLYGONS
 10
314806.67482700013
 20
973341.31926100014
 30
0.0
  0
VERTEX
  5
93D
  8
POLYGONS
 10
314731.87962399999
 20
973269.97806800005
 30
0.0
  0
SEQEND
  5
93E
  8
POLYGONS
  0
TEXT
  5
678
  8
NUMBERS_LINARES
 10
314414.79625000001
 20
973691.74294499995
 30
0.0
 40
90.0
  1
4
  0
POLYLINE
  5
679
  8
POLYGONS
 66
     1
 10
0.0
 20
0.0
 30
0.0
 70
     1
  0
VERTEX
  5
93F
  8
POLYGONS
 10
315256.34413500002
 20
973354.16617700015
 30
0.0
  0
VERTEX
  5
940
  8
POLYGONS
 10
315173.85642800003
 20
973428.87225100014
 30
0.0
  0
VERTEX
  5
941
  8
POLYGONS
 10
315195.29595599999
 20
973592.31484200014
 30
0.0
  0
VERTEX
  5
942
  8
POLYGONS
 10
315308.52309500001
 20
973776.15940999996
 30
0.0
  0
VERTEX
  5
943
  8
POLYGONS
 10
315365.17634900002
 20
973877.00186000019
 30
0.0
  0
VERTEX
  5
944
  8
POLYGONS
 10
315501.81158699992
 20
974004.24647000025
 30
0.0
  0
VERTEX
  5
945
  8
POLYGONS
 10
315634.839087
 20
974127.63545800012
 30
0.0
  0
VERTEX
  5
946
  8
POLYGONS
 10
315756.59524499997
 20
974215.13476800011
 30
0.0
  0
VERTEX
  5
947
  8
POLYGONS
 10
315807.56242999999
 20
974246.69741400005
 30
0.0
  0
VERTEX
  5
948
  8
POLYGONS
 10
315923.56738399999
 20
974191.60602000006
 30
0.0
  0
VERTEX
  5
949
  8
POLYGONS
 10
316002.22092499997
 20
974120.94238999998
 30
0.0
  0
VERTEX
  5
94A
  8
POLYGONS
 10
316111.48829000001
 20
974081.79932200001
 30
0.0
  0
VERTEX
  5
94B
  8
POLYGONS
 10
316254.05533599999
 20
974072.20250100014
 30
0.0
  0
VERTEX
  5
94C
  8
POLYGONS
 10
316401.23738000001
 20
974053.74441299995
 30
0.0
  0
VERTEX
  5
94D
  8
POLYGONS
 10
316521.41264599998
 20
973989.23371700011
 30
0.0
  0
VERTEX
  5
94E
  8
POLYGONS
 10
316557.63174099999
 20
973969.79112300032
 30
0.0
  0
VERTEX
  5
94F
  8
POLYGONS
 10
316585.79215300007
 20
973651.51020700007
 30
0.0
  0
VERTEX
  5
950
  8
POLYGONS
 10
316529.46010000008
 20
973622.02713499987
 30
0.0
  0
VERTEX
  5
951
  8
POLYGONS
 10
316445.06252199999
 20
973661.21476500016
 30
0.0
  0
VERTEX
  5
952
  8
POLYGONS
 10
316393.67653200013
 20
973685.07439800014
 30
0.0
  0
VERTEX
  5
953
  8
POLYGONS
 10
316320.02175999997
 20
973750.81825799996
 30
0.0
  0
VERTEX
  5
954
  8
POLYGONS
 10
316266.55451500003
 20
973700.50881400006
 30
0.0
  0
VERTEX
  5
955
  8
POLYGONS
 10
316109.52168400009
 20
973641.74175599997
 30
0.0
  0
VERTEX
  5
956
  8
POLYGONS
 10
316035.32227499998
 20
973585.57832600013
 30
0.0
  0
VERTEX
  5
957
  8
POLYGONS
 10
315857.74294999999
 20
973562.58500700002
 30
0.0
  0
VERTEX
  5
958
  8
POLYGONS
 10
315751.61845300009
 20
973643.34241400007
 30
0.0
  0
VERTEX
  5
959
  8
POLYGONS
 10
315642.57643399999
 20
973733.03353000013
 30
0.0
  0
VERTEX
  5
95A
  8
POLYGONS
 10
315529.031082
 20
973477.82744599995
 30
0.0
  0
VERTEX
  5
95B
  8
POLYGONS
 10
315431.18055599998
 20
973424.74431800016
 30
0.0
  0
VERTEX
  5
95C
  8
POLYGONS
 10
315362.94880499999
 20
973380.44882199995
 30
0.0
  0
SEQEND
  5
95D
  8
POLYGONS
  0
TEXT
  5
699
  8
NUMBERS_LINARES
 10
315858.96523000009
 20
973819.52732600016
 30
0.0
 40
90.0
  1
5
  0
POLYLINE
  5
69A
  8
POLYGONS
 66
     1
 10
0.0
 20
0.0
 30
0.0
 70
     1
  0
VERTEX
  5
95E
  8
POLYGONS
 10
318458.11050200008
 20
973701.99315100012
 30
0.0
  0
VERTEX
  5
95F
  8
POLYGONS
 10
318389.41921100009
 20
973670.49099800026
 30
0.0
  0
VERTEX
  5
960
  8
POLYGONS
 10
318357.63991500012
 20
973638.82601700025
 30
0.0
  0
VERTEX
  5
961
  8
POLYGONS
 10
318271.065795
 20
973737.27434899996
 30
0.0
  0
VERTEX
  5
962
  8
POLYGONS
 10
318308.200167
 20
973787.46867300023
 30
0.0
  0
VERTEX
  5
963
  8
POLYGONS
 10
318371.6182320001
 20
973818.99394299998
 30
0.0
  0
VERTEX
  5
964
  8
POLYGONS
 10
318455.83638200001
 20
973784.16665300017
 30
0.0
  0
SEQEND
  5
965
  8
POLYGONS
  0
TEXT
  5
6A3
  8
NUMBERS_LINARES
 10
318371.9079530001
 20
973736.95508900005
 30
0.0
 40
90.0
  1
6
  0
POLYLINE
  5
6A4
  8
POLYGONS
 66
     1
 10
0.0
 20
0.0
 30
0.0
 70
     1
  0
VERTEX
  5
966
  8
POLYGONS
 10
318816.56888500007
 20
974272.90645000001
 30
0.0
  0
VERTEX
  5
967
  8
POLYGONS
 10
318753.198638
 20
974251.98220100021
 30
0.0
  0
VERTEX
  5
968
  8
POLYGONS
 10
318703.256329
 20
974286.65792400006
 30
0.0
  0
VERTEX
  5
969
  8
POLYGONS
 10
318695.54534700001
 20
974331.7492640001
 30
0.0
  0
VERTEX
  5
96A
  8
POLYGONS
 10
318764.48058300011
 20
974418.90967400011
 30
0.0
  0
VERTEX
  5
96B
  8
POLYGONS
 10
318856.80562900001
 20
974429.10461700032
 30
0.0
  0
VERTEX
  5
96C
  8
POLYGONS
 10
318866.93148099998
 20
974333.64452299988
 30
0.0
  0
VERTEX
  5
96D
  8
POLYGONS
 10
318845.16533000011
 20
974307.39420700015
 30
0.0
  0
SEQEND
  5
96E
  8
POLYGONS
  0
TEXT
  5
6AE
  8
NUMBERS_LINARES
 10
318785.44305100013
 20
974341.82249299996
 30
0.0
 40
90.0
  1
7
  0
POLYLINE
  5
6AF
  8
POLYGONS
 66
     1
 10
0.0
 20
0.0
 30
0.0
 70
     1
  0
VERTEX
  5
96F
  8
POLYGONS
 10
320094.02732699999
 20
974582.69836900011
 30
0.0
  0
VERTEX
  5
970
  8
POLYGONS
 10
320165.31710799999
 20
974606.24023600016
 30
0.0
  0
VERTEX
  5
971
  8
POLYGONS
 10
320339.37211900001
 20
974616.08096100006
 30
0.0
  0
VERTEX
  5
972
  8
POLYGONS
 10
320439.40838199999
 20
974581.18860400026
 30
0.0
  0
VERTEX
  5
973
  8
POLYGONS
 10
320518.09830200003
 20
974488.080663
 30
0.0
  0
VERTEX
  5
974
  8
POLYGONS
 10
320528.49392500002
 20
974453.57995499996
 30
0.0
  0
VERTEX
  5
975
  8
POLYGONS
 10
320499.42298999999
 20
974437.80437700031
 30
0.0
  0
VERTEX
  5
976
  8
POLYGONS
 10
320391.43051999999
 20
974462.12961299997
 30
0.0
  0
VERTEX
  5
977
  8
POLYGONS
 10
320315.23829699989
 20
974523.42196800001
 30
0.0
  0
VERTEX
  5
978
  8
POLYGONS
 10
320191.334363
 20
974526.61401200015
 30
0.0
  0
SEQEND
  5
979
  8
POLYGONS
  0
TEXT
  5
6BB
  8
NUMBERS_LINARES
 10
320224.76767097838
 20
974555.8667792083
 30
0.0
 40
90.0
  1
8
  0
POLYLINE
  5
6BC
  8
POLYGONS
 66
     1
 10
0.0
 20
0.0
 30
0.0
 70
     1
  0
VERTEX
  5
97A
  8
POLYGONS
 10
321447.12128299999
 20
976578.96445800015
 30
0.0
  0
VERTEX
  5
97B
  8
POLYGONS
 10
321357.29448099999
 20
976598.05627299997
 30
0.0
  0
VERTEX
  5
97C
  8
POLYGONS
 10
321255.81345700013
 20
976788.62336500012
 30
0.0
  0
VERTEX
  5
97D
  8
POLYGONS
 10
321271.62714
 20
976860.24098600005
 30
0.0
  0
VERTEX
  5
97E
  8
POLYGONS
 10
321281.41682400001
 20
976972.40332400007
 30
0.0
  0
VERTEX
  5
97F
  8
POLYGONS
 10
321349.36449900002
 20
976912.88801700005
 30
0.0
  0
VERTEX
  5
980
  8
POLYGONS
 10
321364.37715999992
 20
976800.61768500006
 30
0.0
  0
VERTEX
  5
981
  8
POLYGONS
 10
321401.06475199998
 20
976682.01941099996
 30
0.0
  0
SEQEND
  5
982
  8
POLYGONS
  0
TEXT
  5
6C6
  8
NUMBERS_LINARES
 10
321335.85433
 20
976763.62545299996
 30
0.0
 40
90.0
  1
9
  0
POLYLINE
  5
6C7
  8
POLYGONS
 66
     1
 10
0.0
 20
0.0
 30
0.0
 70
     1
  0
VERTEX
  5
983
  8
POLYGONS
 10
321630.85092300002
 20
976765.17334400013
 30
0.0
  0
VERTEX
  5
984
  8
POLYGONS
 10
321624.84012399998
 20
976808.83468400023
 30
0.0
  0
VERTEX
  5
985
  8
POLYGONS
 10
321684.00254000007
 20
976867.79665799998
 30
0.0
  0
VERTEX
  5
986
  8
POLYGONS
 10
321718.010549
 20
976845.83123999985
 30
0.0
  0
VERTEX
  5
987
  8
POLYGONS
 10
321757.97535000002
 20
976767.737601
 30
0.0
  0
VERTEX
  5
988
  8
POLYGONS
 10
321751.54460500012
 20
976714.77996900002
 30
0.0
  0
VERTEX
  5
989
  8
POLYGONS
 10
321717.30620799999
 20
976683.76075599995
 30
0.0
  0
SEQEND
  5
98A
  8
POLYGONS
  0
TEXT
  5
6D0
  8
NUMBERS_LINARES
 10
321695.01814900001
 20
976777.20499600004
 30
0.0
 40
90.0
  1
10
  0
POLYLINE
  5
6D1
  8
POLYGONS
 66
     1
 10
0.0
 20
0.0
 30
0.0
 70
     1
  0
VERTEX
  5
98B
  8
POLYGONS
 10
322152.96539999993
 20
977055.88505400042
 30
0.0
  0
VERTEX
  5
98C
  8
POLYGONS
 10
322075.9192280001
 20
977162.19025700015
 30
0.0
  0
VERTEX
  5
98D
  8
POLYGONS
 10
322058.13162100001
 20
977349.78276399989
 30
0.0
  0
VERTEX
  5
98E
  8
POLYGONS
 10
322086.31356799998
 20
977458.22200900014
 30
0.0
  0
VERTEX
  5
98F
  8
POLYGONS
 10
322180.02475699998
 20
977576.27220100001
 30
0.0
  0
VERTEX
  5
990
  8
POLYGONS
 10
322254.57815900008
 20
977610.23355400015
 30
0.0
  0
VERTEX
  5
991
  8
POLYGONS
 10
322335.0480880001
 20
977578.71675000002
 30
0.0
  0
VERTEX
  5
992
  8
POLYGONS
 10
322380.97029299999
 20
977444.49572000047
 30
0.0
  0
VERTEX
  5
993
  8
POLYGONS
 10
322321.850263
 20
977394.88325400022
 30
0.0
  0
VERTEX
  5
994
  8
POLYGONS
 10
322296.85945400002
 20
977351.35648800014
 30
0.0
  0
VERTEX
  5
995
  8
POLYGONS
 10
322321.323485
 20
977273.33067400008
 30
0.0
  0
VERTEX
  5
996
  8
POLYGONS
 10
322305.60627799999
 20
977223.53012400016
 30
0.0
  0
VERTEX
  5
997
  8
POLYGONS
 10
322243.38564200001
 20
977173.93113700033
 30
0.0
  0
VERTEX
  5
998
  8
POLYGONS
 10
322184.34616999998
 20
977143.01918200019
 30
0.0
  0
SEQEND
  5
999
  8
POLYGONS
  0
TEXT
  5
6E1
  8
NUMBERS_LINARES
 10
322203.51241800003
 20
977361.91946300014
 30
0.0
 40
90.0
  1
11
  0
POLYLINE
  5
6E2
  8
POLYGONS
 66
     1
 10
0.0
 20
0.0
 30
0.0
 70
     1
  0
VERTEX
  5
99A
  8
POLYGONS
 10
322693.07985300012
 20
977209.38564200012
 30
0.0
  0
VERTEX
  5
99B
  8
POLYGONS
 10
322643.66509300011
 20
977253.23436100024
 30
0.0
  0
VERTEX
  5
99C
  8
POLYGONS
 10
322656.322093
 20
977312.39856000012
 30
0.0
  0
VERTEX
  5
99D
  8
POLYGONS
 10
322734.218161
 20
977402.44847799989
 30
0.0
  0
VERTEX
  5
99E
  8
POLYGONS
 10
322814.98507699999
 20
977439.50073700026
 30
0.0
  0
VERTEX
  5
99F
  8
POLYGONS
 10
322839.59810399998
 20
977395.75938300008
 30
0.0
  0
VERTEX
  5
9A0
  8
POLYGONS
 10
322795.61601700011
 20
977261.92772800045
 30
0.0
  0
VERTEX
  5
9A1
  8
POLYGONS
 10
322745.82397700002
 20
977218.50795899995
 30
0.0
  0
SEQEND
  5
9A2
  8
POLYGONS
  0
TEXT
  5
6EC
  8
NUMBERS_LINARES
 10
322779.88659459312
 20
977363.68785847526
 30
0.0
 40
90.0
  1
12
  0
POLYLINE
  5
6ED
  8
POLYGONS
 66
     1
 10
0.0
 20
0.0
 30
0.0
 70
     1
  0
VERTEX
  5
9A3
  8
POLYGONS
 10
323008.50824200001
 20
977024.13280000002
 30
0.0
  0
VERTEX
  5
9A4
  8
POLYGONS
 10
322971.42658600002
 20
977052.34388299996
 30
0.0
  0
VERTEX
  5
9A5
  8
POLYGONS
 10
322968.54162899993
 20
977102.22484699998
 30
0.0
  0
VERTEX
  5
9A6
  8
POLYGONS
 10
323009.11356000003
 20
977164.38534900011
 30
0.0
  0
VERTEX
  5
9A7
  8
POLYGONS
 10
323043.12180099997
 20
977142.42110900022
 30
0.0
  0
VERTEX
  5
9A8
  8
POLYGONS
 10
323055.21336700011
 20
977070.682975
 30
0.0
  0
SEQEND
  5
9A9
  8
POLYGONS
  0
TEXT
  5
6F5
  8
NUMBERS_LINARES
 10
323011.154362
 20
977092.46259200014
 30
0.0
 40
90.0
  1
13
  0
POLYLINE
  5
6F6
  8
POLYGONS
 66
     1
 10
0.0
 20
0.0
 30
0.0
 70
     1
  0
VERTEX
  5
9AA
  8
POLYGONS
 10
323110.25118299999
 20
976892.78909600002
 30
0.0
  0
VERTEX
  5
9AB
  8
POLYGONS
 10
323045.21343800012
 20
976908.65352800034
 30
0.0
  0
VERTEX
  5
9AC
  8
POLYGONS
 10
323008.2123400002
 20
976955.56489100005
 30
0.0
  0
VERTEX
  5
9AD
  8
POLYGONS
 10
323033.17557999992
 20
976992.85854400019
 30
0.0
  0
VERTEX
  5
9AE
  8
POLYGONS
 10
323123.16288100003
 20
977011.17103700025
 30
0.0
  0
VERTEX
  5
9AF
  8
POLYGONS
 10
323141.41481300013
 20
976930.056063
 30
0.0
  0
SEQEND
  5
9B0
  8
POLYGONS
  0
TEXT
  5
6FE
  8
NUMBERS_LINARES
 10
323080.72574999993
 20
976952.48609499994
 30
0.0
 40
90.0
  1
14
  0
POLYLINE
  5
6FF
  8
POLYGONS
 66
     1
 10
0.0
 20
0.0
 30
0.0
 70
     1
  0
VERTEX
  5
9B1
  8
POLYGONS
 10
323368.21494899999
 20
977041.28268199984
 30
0.0
  0
VERTEX
  5
9B2
  8
POLYGONS
 10
323315.79315899999
 20
977106.96080999984
 30
0.0
  0
VERTEX
  5
9B3
  8
POLYGONS
 10
323309.941888
 20
977188.0222280001
 30
0.0
  0
VERTEX
  5
9B4
  8
POLYGONS
 10
323316.46463
 20
977262.79677699995
 30
0.0
  0
VERTEX
  5
9B5
  8
POLYGONS
 10
323363.048274
 20
977281.29672600015
 30
0.0
  0
VERTEX
  5
9B6
  8
POLYGONS
 10
323427.441223
 20
977115.83025400015
 30
0.0
  0
SEQEND
  5
9B7
  8
POLYGONS
  0
TEXT
  5
707
  8
NUMBERS_LINARES
 10
323342.603752875
 20
977237.79722023045
 30
0.0
 40
90.0
  1
15
  0
POLYLINE
  5
708
  8
POLYGONS
 66
     1
 10
0.0
 20
0.0
 30
0.0
 70
     1
  0
VERTEX
  5
9B8
  8
POLYGONS
 10
323959.116476
 20
977038.74197500013
 30
0.0
  0
VERTEX
  5
9B9
  8
POLYGONS
 10
323863.21061499987
 20
977085.90530400025
 30
0.0
  0
VERTEX
  5
9BA
  8
POLYGONS
 10
323835.5497090001
 20
977142.12597599998
 30
0.0
  0
VERTEX
  5
9BB
  8
POLYGONS
 10
323848.12459299999
 20
977182.58996400004
 30
0.0
  0
VERTEX
  5
9BC
  8
POLYGONS
 10
323916.35585200001
 20
977188.53044700017
 30
0.0
  0
VERTEX
  5
9BD
  8
POLYGONS
 10
323968.724819
 20
977110.38639500015
 30
0.0
  0
SEQEND
  5
9BE
  8
POLYGONS
  0
TEXT
  5
710
  8
NUMBERS_LINARES
 10
323904.78172799997
 20
977120.82022000023
 30
0.0
 40
90.0
  1
16
  0
POLYLINE
  5
711
  8
POLYGONS
 66
     1
 10
0.0
 20
0.0
 30
0.0
 70
     1
  0
VERTEX
  5
9BF
  8
POLYGONS
 10
324794.79721300001
 20
977438.78332399996
 30
0.0
  0
VERTEX
  5
9C0
  8
POLYGONS
 10
324800.81108100002
 20
977395.12302400032
 30
0.0
  0
VERTEX
  5
9C1
  8
POLYGONS
 10
324735.54749299987
 20
977358.00089200016
 30
0.0
  0
VERTEX
  5
9C2
  8
POLYGONS
 10
324617.82064599998
 20
977377.20490000013
 30
0.0
  0
VERTEX
  5
9C3
  8
POLYGONS
 10
324156.50843400002
 20
977522.55220300017
 30
0.0
  0
VERTEX
  5
9C4
  8
POLYGONS
 10
324135.11477400002
 20
977594.32961100002
 30
0.0
  0
VERTEX
  5
9C5
  8
POLYGONS
 10
324142.33070100012
 20
977636.72788899986
 30
0.0
  0
VERTEX
  5
9C6
  8
POLYGONS
 10
324197.47911199997
 20
977678.21474500012
 30
0.0
  0
VERTEX
  5
9C7
  8
POLYGONS
 10
324389.31518899999
 20
977590.12294100015
 30
0.0
  0
VERTEX
  5
9C8
  8
POLYGONS
 10
324564.24242199998
 20
977518.60729500011
 30
0.0
  0
VERTEX
  5
9C9
  8
POLYGONS
 10
324714.31265700009
 20
977467.17821100005
 30
0.0
  0
SEQEND
  5
9CA
  8
POLYGONS
  0
TEXT
  5
71E
  8
NUMBERS_LINARES
 10
324438.97236299992
 20
977504.62579200033
 30
0.0
 40
90.0
  1
22
  0
POLYLINE
  5
71F
  8
POLYGONS
 66
     1
 10
0.0
 20
0.0
 30
0.0
 70
     1
  0
VERTEX
  5
9CB
  8
POLYGONS
 10
324120.777626
 20
977865.54984700005
 30
0.0
  0
VERTEX
  5
9CC
  8
POLYGONS
 10
324120.735262
 20
977790.40852700023
 30
0.0
  0
VERTEX
  5
9CD
  8
POLYGONS
 10
324083.00050800003
 20
977731.69101100019
 30
0.0
  0
VERTEX
  5
9CE
  8
POLYGONS
 10
324020.649347
 20
977650.92273300025
 30
0.0
  0
VERTEX
  5
9CF
  8
POLYGONS
 10
323977.31393599987
 20
977666.69267100014
 30
0.0
  0
VERTEX
  5
9D0
  8
POLYGONS
 10
323956.39571999997
 20
977777.85434500023
 30
0.0
  0
VERTEX
  5
9D1
  8
POLYGONS
 10
323950.13545100001
 20
977835.11494799994
 30
0.0
  0
VERTEX
  5
9D2
  8
POLYGONS
 10
324039.76826699998
 20
977885.31473999994
 30
0.0
  0
SEQEND
  5
9D3
  8
POLYGONS
  0
TEXT
  5
729
  8
NUMBERS_LINARES
 10
324032.85917200003
 20
977780.95320600003
 30
0.0
 40
90.0
  1
21
  0
POLYLINE
  5
72A
  8
POLYGONS
 66
     1
 10
0.0
 20
0.0
 30
0.0
 70
     1
  0
VERTEX
  5
9D4
  8
POLYGONS
 10
323727.12538099999
 20
977882.82525700005
 30
0.0
  0
VERTEX
  5
9D5
  8
POLYGONS
 10
323680.67672400002
 20
977895.49219500064
 30
0.0
  0
VERTEX
  5
9D6
  8
POLYGONS
 10
323593.95293600002
 20
977914.56611699995
 30
0.0
  0
VERTEX
  5
9D7
  8
POLYGONS
 10
323674.89221299993
 20
977992.13706200023
 30
0.0
  0
VERTEX
  5
9D8
  8
POLYGONS
 10
323746.14192100009
 20
977979.36339700012
 30
0.0
  0
VERTEX
  5
9D9
  8
POLYGONS
 10
323814.304909
 20
977969.71990900009
 30
0.0
  0
VERTEX
  5
9DA
  8
POLYGONS
 10
323823.41772500012
 20
977926.04592399986
 30
0.0
  0
SEQEND
  5
9DB
  8
POLYGONS
  0
TEXT
  5
733
  8
NUMBERS_LINARES
 10
323716.13385500008
 20
977937.52430900012
 30
0.0
 40
90.0
  1
20
  0
POLYLINE
  5
734
  8
POLYGONS
 66
     1
 10
0.0
 20
0.0
 30
0.0
 70
     1
  0
VERTEX
  5
9DC
  8
POLYGONS
 10
322056.18418299989
 20
977900.95639900013
 30
0.0
  0
VERTEX
  5
9DD
  8
POLYGONS
 10
321965.22441800003
 20
977931.55725800013
 30
0.0
  0
VERTEX
  5
9DE
  8
POLYGONS
 10
321893.1786300001
 20
977988.00159400015
 30
0.0
  0
VERTEX
  5
9DF
  8
POLYGONS
 10
321855.21480600012
 20
978026.50161200005
 30
0.0
  0
VERTEX
  5
9E0
  8
POLYGONS
 10
321892.55231399991
 20
978057.50726200035
 30
0.0
  0
VERTEX
  5
9E1
  8
POLYGONS
 10
321957.79122100008
 20
978088.39166600024
 30
0.0
  0
VERTEX
  5
9E2
  8
POLYGONS
 10
322010.31793100009
 20
978047.64505800011
 30
0.0
  0
VERTEX
  5
9E3
  8
POLYGONS
 10
322068.86911100009
 20
977966.35402600013
 30
0.0
  0
SEQEND
  5
9E4
  8
POLYGONS
  0
TEXT
  5
73E
  8
NUMBERS_LINARES
 10
321971.96097800002
 20
977996.70233000012
 30
0.0
 40
90.0
  1
17
  0
POLYLINE
  5
73F
  8
POLYGONS
 66
     1
 10
0.0
 20
0.0
 30
0.0
 70
     1
  0
VERTEX
  5
9E5
  8
POLYGONS
 10
322417.29704199987
 20
978243.79518400016
 30
0.0
  0
VERTEX
  5
9E6
  8
POLYGONS
 10
322379.96016199997
 20
978212.78915600013
 30
0.0
  0
VERTEX
  5
9E7
  8
POLYGONS
 10
322339.67177100008
 20
978216.08067000017
 30
0.0
  0
VERTEX
  5
9E8
  8
POLYGONS
 10
322274.93381700001
 20
978300.51493199996
 30
0.0
  0
VERTEX
  5
9E9
  8
POLYGONS
 10
322197.34908900002
 20
978282.15089599986
 30
0.0
  0
VERTEX
  5
9EA
  8
POLYGONS
 10
322151.28002000001
 20
978382.08836000005
 30
0.0
  0
VERTEX
  5
9EB
  8
POLYGONS
 10
322166.86190600001
 20
978400.72146799997
 30
0.0
  0
VERTEX
  5
9EC
  8
POLYGONS
 10
322201.30168700003
 20
978478.49180300022
 30
0.0
  0
VERTEX
  5
9ED
  8
POLYGONS
 10
322204.71306600003
 20
978550.16327400005
 30
0.0
  0
VERTEX
  5
9EE
  8
POLYGONS
 10
322282.45963499998
 20
978605.92805500003
 30
0.0
  0
VERTEX
  5
9EF
  8
POLYGONS
 10
322336.03280300001
 20
978595.89485200006
 30
0.0
  0
VERTEX
  5
9F0
  8
POLYGONS
 10
322384.68239099998
 20
978586.78373800032
 30
0.0
  0
VERTEX
  5
9F1
  8
POLYGONS
 10
322421.64050600003
 20
978530.52118200017
 30
0.0
  0
VERTEX
  5
9F2
  8
POLYGONS
 10
322409.02374700003
 20
978480.70722700015
 30
0.0
  0
VERTEX
  5
9F3
  8
POLYGONS
 10
322486.21614700003
 20
978408.68634500005
 30
0.0
  0
VERTEX
  5
9F4
  8
POLYGONS
 10
322544.76749499998
 20
978327.39605600014
 30
0.0
  0
VERTEX
  5
9F5
  8
POLYGONS
 10
322593.80268500012
 20
978196.27848900005
 30
0.0
  0
VERTEX
  5
9F6
  8
POLYGONS
 10
322565.68537399999
 20
978146.53164600022
 30
0.0
  0
VERTEX
  5
9F7
  8
POLYGONS
 10
322509.97721500008
 20
978168.59051200014
 30
0.0
  0
SEQEND
  5
9F8
  8
POLYGONS
  0
TEXT
  5
754
  8
NUMBERS_LINARES
 10
322361.75569999998
 20
978378.37524199986
 30
0.0
 40
90.0
  1
18
  0
POLYLINE
  5
755
  8
POLYGONS
 66
     1
 10
0.0
 20
0.0
 30
0.0
 70
     1
  0
VERTEX
  5
9F9
  8
POLYGONS
 10
323081.72316700011
 20
978471.56184200011
 30
0.0
  0
VERTEX
  5
9FA
  8
POLYGONS
 10
323013.53404299991
 20
978474.97328100004
 30
0.0
  0
VERTEX
  5
9FB
  8
POLYGONS
 10
322957.83970999997
 20
978500.14830400015
 30
0.0
  0
VERTEX
  5
9FC
  8
POLYGONS
 10
322924.03493999992
 20
978568.86373700004
 30
0.0
  0
VERTEX
  5
9FD
  8
POLYGONS
 10
322961.45190100011
 20
978618.57049099996
 30
0.0
  0
VERTEX
  5
9FE
  8
POLYGONS
 10
323029.60038100003
 20
978605.80874600005
 30
0.0
  0
VERTEX
  5
9FF
  8
POLYGONS
 10
323088.34082899988
 20
978568.15350900008
 30
0.0
  0
VERTEX
  5
A00
  8
POLYGONS
 10
323119.09958799998
 20
978511.91854700015
 30
0.0
  0
SEQEND
  5
A01
  8
POLYGONS
  0
TEXT
  5
75F
  8
NUMBERS_LINARES
 10
323019.11754900002
 20
978541.31002199987
 30
0.0
 40
90.0
  1
19
  0
POLYLINE
  5
760
  8
POLYGONS
 66
     1
 10
0.0
 20
0.0
 30
0.0
 70
     1
  0
VERTEX
  5
A02
  8
POLYGONS
 10
324030.08933300001
 20
978405.14020000014
 30
0.0
  0
VERTEX
  5
A03
  8
POLYGONS
 10
324008.58947499993
 20
978451.984131
 30
0.0
  0
VERTEX
  5
A04
  8
POLYGONS
 10
323996.57753200002
 20
978542.42207900016
 30
0.0
  0
VERTEX
  5
A05
  8
POLYGONS
 10
324006.18594699987
 20
978614.06648599985
 30
0.0
  0
VERTEX
  5
A06
  8
POLYGONS
 10
324071.35487500008
 20
978629.370261
 30
0.0
  0
VERTEX
  5
A07
  8
POLYGONS
 10
324105.26843699999
 20
978585.58979500004
 30
0.0
  0
VERTEX
  5
A08
  8
POLYGONS
 10
324101.47216399998
 20
978423.53414900007
 30
0.0
  0
SEQEND
  5
A09
  8
POLYGONS
  0
TEXT
  5
769
  8
NUMBERS_LINARES
 10
324052.8788480002
 20
978519.27229800005
 30
0.0
 40
90.0
  1
23
  0
POLYLINE
  5
76A
  8
POLYGONS
 66
     1
 10
0.0
 20
0.0
 30
0.0
 70
     1
  0
VERTEX
  5
A0A
  8
POLYGONS
 10
325107.2775669999
 20
978087.29205199995
 30
0.0
  0
VERTEX
  5
A0B
  8
POLYGONS
 10
325063.79604099988
 20
978068.77717900008
 30
0.0
  0
VERTEX
  5
A0C
  8
POLYGONS
 10
324983.20619200001
 20
978072.23814500007
 30
0.0
  0
VERTEX
  5
A0D
  8
POLYGONS
 10
324887.23561500013
 20
978103.81582500017
 30
0.0
  0
VERTEX
  5
A0E
  8
POLYGONS
 10
324834.74678699992
 20
978153.90834900015
 30
0.0
  0
VERTEX
  5
A0F
  8
POLYGONS
 10
324800.92542699998
 20
978219.50490900013
 30
0.0
  0
VERTEX
  5
A10
  8
POLYGONS
 10
324851.06035200012
 20
978343.96080500016
 30
0.0
  0
VERTEX
  5
A11
  8
POLYGONS
 10
324916.18915799999
 20
978349.91584300017
 30
0.0
  0
VERTEX
  5
A12
  8
POLYGONS
 10
324962.15981099999
 20
978312.61778400012
 30
0.0
  0
VERTEX
  5
A13
  8
POLYGONS
 10
325008.8726050001
 20
978274.71759400016
 30
0.0
  0
VERTEX
  5
A14
  8
POLYGONS
 10
325076.66232499998
 20
978177.80863900005
 30
0.0
  0
SEQEND
  5
A15
  8
POLYGONS
  0
TEXT
  5
777
  8
NUMBERS_LINARES
 10
324945.692981
 20
978197.92004100012
 30
0.0
 40
90.0
  1
31
  0
POLYLINE
  5
778
  8
POLYGONS
 66
     1
 10
0.0
 20
0.0
 30
0.0
 70
     1
  0
VERTEX
  5
A16
  8
POLYGONS
 10
324031.18572900008
 20
978732.39627900044
 30
0.0
  0
VERTEX
  5
A17
  8
POLYGONS
 10
323929.16440900008
 20
978798.28711900045
 30
0.0
  0
VERTEX
  5
A18
  8
POLYGONS
 10
323926.29222800001
 20
978851.28458500002
 30
0.0
  0
VERTEX
  5
A19
  8
POLYGONS
 10
324028.74213899998
 20
978885.12850500003
 30
0.0
  0
VERTEX
  5
A1A
  8
POLYGONS
 10
324100.03042099997
 20
978881.705326
 30
0.0
  0
VERTEX
  5
A1B
  8
POLYGONS
 10
324087.36225100001
 20
978819.42438500002
 30
0.0
  0
VERTEX
  5
A1C
  8
POLYGONS
 10
324062.82332400011
 20
978781.4089240001
 30
0.0
  0
SEQEND
  5
A1D
  8
POLYGONS
  0
TEXT
  5
781
  8
NUMBERS_LINARES
 10
324014.17968599999
 20
978820.92336599994
 30
0.0
 40
90.0
  1
28
  0
POLYLINE
  5
782
  8
POLYGONS
 66
     1
 10
0.0
 20
0.0
 30
0.0
 70
     1
  0
VERTEX
  5
A1E
  8
POLYGONS
 10
324629.18760499998
 20
978656.58636200032
 30
0.0
  0
VERTEX
  5
A1F
  8
POLYGONS
 10
324561.21282399987
 20
978709.86253699986
 30
0.0
  0
VERTEX
  5
A20
  8
POLYGONS
 10
324576.9402570001
 20
978762.78010000021
 30
0.0
  0
VERTEX
  5
A21
  8
POLYGONS
 10
324623.6683679999
 20
978815.56483800011
 30
0.0
  0
VERTEX
  5
A22
  8
POLYGONS
 10
324698.28360600013
 20
978865.11340799998
 30
0.0
  0
VERTEX
  5
A23
  8
POLYGONS
 10
324716.657121
 20
978812.04980000015
 30
0.0
  0
VERTEX
  5
A24
  8
POLYGONS
 10
324700.80977300002
 20
978731.08188800013
 30
0.0
  0
SEQEND
  5
A25
  8
POLYGONS
  0
TEXT
  5
78B
  8
NUMBERS_LINARES
 10
324644.76222099992
 20
978757.35005200026
 30
0.0
 40
90.0
  1
24
  0
POLYLINE
  5
78C
  8
POLYGONS
 66
     1
 10
0.0
 20
0.0
 30
0.0
 70
     1
  0
VERTEX
  5
A26
  8
POLYGONS
 10
324682.94346500002
 20
978902.58023800014
 30
0.0
  0
VERTEX
  5
A27
  8
POLYGONS
 10
324633.168863
 20
978862.27556000021
 30
0.0
  0
VERTEX
  5
A28
  8
POLYGONS
 10
324568.16095300007
 20
978884.37145400024
 30
0.0
  0
VERTEX
  5
A29
  8
POLYGONS
 10
324605.548717
 20
978927.84590000007
 30
0.0
  0
VERTEX
  5
A2A
  8
POLYGONS
 10
324667.59000700002
 20
978936.93037400022
 30
0.0
  0
SEQEND
  5
A2B
  8
POLYGONS
  0
TEXT
  5
793
  8
NUMBERS_LINARES
 10
324629.51588999998
 20
978900.90085900004
 30
0.0
 40
90.0
  1
25
  0
POLYLINE
  5
794
  8
POLYGONS
 66
     1
 10
0.0
 20
0.0
 30
0.0
 70
     1
  0
VERTEX
  5
A2C
  8
POLYGONS
 10
324658.91739999992
 20
979083.45531300001
 30
0.0
  0
VERTEX
  5
A2D
  8
POLYGONS
 10
324590.44912600011
 20
979021.41347599996
 30
0.0
  0
VERTEX
  5
A2E
  8
POLYGONS
 10
324540.794788
 20
979009.15927000006
 30
0.0
  0
VERTEX
  5
A2F
  8
POLYGONS
 10
324481.93379600008
 20
979018.76194600004
 30
0.0
  0
VERTEX
  5
A30
  8
POLYGONS
 10
324447.96685700008
 20
979050.07527400006
 30
0.0
  0
VERTEX
  5
A31
  8
POLYGONS
 10
324457.53440100013
 20
979112.36952099996
 30
0.0
  0
VERTEX
  5
A32
  8
POLYGONS
 10
324560.03646700003
 20
979158.68140200002
 30
0.0
  0
VERTEX
  5
A33
  8
POLYGONS
 10
324625.01719799999
 20
979130.35200400045
 30
0.0
  0
SEQEND
  5
A34
  8
POLYGONS
  0
TEXT
  5
79E
  8
NUMBERS_LINARES
 10
324547.251628
 20
979080.70192500006
 30
0.0
 40
90.0
  1
26
  0
POLYLINE
  5
79F
  8
POLYGONS
 66
     1
 10
0.0
 20
0.0
 30
0.0
 70
     1
  0
VERTEX
  5
A35
  8
POLYGONS
 10
324492.52393700002
 20
979319.48425400024
 30
0.0
  0
VERTEX
  5
A36
  8
POLYGONS
 10
324464.50328400009
 20
979291.55358199996
 30
0.0
  0
VERTEX
  5
A37
  8
POLYGONS
 10
324458.11600899999
 20
979247.94628000015
 30
0.0
  0
VERTEX
  5
A38
  8
POLYGONS
 10
324331.41610500001
 20
979122.16490700014
 30
0.0
  0
VERTEX
  5
A39
  8
POLYGONS
 10
324280.63742099999
 20
979067.93559999997
 30
0.0
  0
VERTEX
  5
A3A
  8
POLYGONS
 10
324221.8836060001
 20
979102.47235800012
 30
0.0
  0
VERTEX
  5
A3B
  8
POLYGONS
 10
324234.87285799999
 20
979239.55433900002
 30
0.0
  0
VERTEX
  5
A3C
  8
POLYGONS
 10
324303.3280920001
 20
979298.47890900006
 30
0.0
  0
VERTEX
  5
A3D
  8
POLYGONS
 10
324334.422143
 20
979320.16276200023
 30
0.0
  0
VERTEX
  5
A3E
  8
POLYGONS
 10
324416.13912599999
 20
979334.40671699995
 30
0.0
  0
SEQEND
  5
A3F
  8
POLYGONS
  0
TEXT
  5
7AB
  8
NUMBERS_LINARES
 10
324335.49057999993
 20
979218.41368800006
 30
0.0
 40
90.0
  1
30
  0
POLYLINE
  5
7AC
  8
POLYGONS
 66
     1
 10
0.0
 20
0.0
 30
0.0
 70
     1
  0
VERTEX
  5
A40
  8
POLYGONS
 10
324278.88921200001
 20
979382.73657600023
 30
0.0
  0
VERTEX
  5
A41
  8
POLYGONS
 10
324201.17411600018
 20
979333.20215499995
 30
0.0
  0
VERTEX
  5
A42
  8
POLYGONS
 10
324176.092557
 20
979267.85779400019
 30
0.0
  0
VERTEX
  5
A43
  8
POLYGONS
 10
324163.27719599992
 20
979171.29303900013
 30
0.0
  0
VERTEX
  5
A44
  8
POLYGONS
 10
324094.76795200008
 20
979099.90178600024
 30
0.0
  0
VERTEX
  5
A45
  8
POLYGONS
 10
324073.41593299992
 20
979181.02958400012
 30
0.0
  0
VERTEX
  5
A46
  8
POLYGONS
 10
324045.97289099998
 20
979280.69242600002
 30
0.0
  0
VERTEX
  5
A47
  8
POLYGONS
 10
324039.91852000012
 20
979321.4282790001
 30
0.0
  0
VERTEX
  5
A48
  8
POLYGONS
 10
324117.31245299999
 20
979404.82878099987
 30
0.0
  0
VERTEX
  5
A49
  8
POLYGONS
 10
324198.63659000001
 20
979464.11733200017
 30
0.0
  0
VERTEX
  5
A4A
  8
POLYGONS
 10
324263.6434280001
 20
979442.02064500004
 30
0.0
  0
SEQEND
  5
A4B
  8
POLYGONS
  0
TEXT
  5
7B9
  8
NUMBERS_LINARES
 10
324143.92396099999
 20
979307.40869800001
 30
0.0
 40
90.0
  1
29
  0
POLYLINE
  5
7BA
  8
POLYGONS
 66
     1
 10
0.0
 20
0.0
 30
0.0
 70
     1
  0
VERTEX
  5
A4C
  8
POLYGONS
 10
324725.066437
 20
979327.83767100004
 30
0.0
  0
VERTEX
  5
A4D
  8
POLYGONS
 10
324709.84671100008
 20
979393.35486200033
 30
0.0
  0
VERTEX
  5
A4E
  8
POLYGONS
 10
324756.6675150001
 20
979467.956534
 30
0.0
  0
VERTEX
  5
A4F
  8
POLYGONS
 10
324815.72804200009
 20
979505.10468999995
 30
0.0
  0
VERTEX
  5
A50
  8
POLYGONS
 10
324874.85517100012
 20
979557.83642300032
 30
0.0
  0
VERTEX
  5
A51
  8
POLYGONS
 10
324943.04206299997
 20
979554.42778800032
 30
0.0
  0
VERTEX
  5
A52
  8
POLYGONS
 10
324921.06185599999
 20
979489.06993200013
 30
0.0
  0
VERTEX
  5
A53
  8
POLYGONS
 10
324846.23445400002
 20
979389.65395300044
 30
0.0
  0
SEQEND
  5
A54
  8
POLYGONS
  0
TEXT
  5
7C4
  8
NUMBERS_LINARES
 10
324821.63870900002
 20
979448.66415500012
 30
0.0
 40
90.0
  1
27
  0
POLYLINE
  5
7C5
  8
POLYGONS
 66
     1
 10
0.0
 20
0.0
 30
0.0
 70
     1
  0
VERTEX
  5
A55
  8
POLYGONS
 10
325354.26671900001
 20
979389.10265200003
 30
0.0
  0
VERTEX
  5
A56
  8
POLYGONS
 10
325244.32698100002
 20
979397.11068900011
 30
0.0
  0
VERTEX
  5
A57
  8
POLYGONS
 10
325237.0113800001
 20
979439.86048399995
 30
0.0
  0
VERTEX
  5
A58
  8
POLYGONS
 10
325307.37975800002
 20
979530.02270600025
 30
0.0
  0
VERTEX
  5
A59
  8
POLYGONS
 10
325412.44910999999
 20
979552.189808
 30
0.0
  0
VERTEX
  5
A5A
  8
POLYGONS
 10
325564.89876200003
 20
979549.02655200008
 30
0.0
  0
VERTEX
  5
A5B
  8
POLYGONS
 10
325584.71141400002
 20
979506.22358500015
 30
0.0
  0
VERTEX
  5
A5C
  8
POLYGONS
 10
325482.05571599997
 20
979463.94291700004
 30
0.0
  0
VERTEX
  5
A5D
  8
POLYGONS
 10
325406.98923699989
 20
979444.16039900004
 30
0.0
  0
SEQEND
  5
A5E
  8
POLYGONS
  0
TEXT
  5
7D0
  8
NUMBERS_LINARES
 10
325392.043274
 20
979481.48443200008
 30
0.0
 40
90.0
  1
33
  0
POLYLINE
  5
7D1
  8
POLYGONS
 66
     1
 10
0.0
 20
0.0
 30
0.0
 70
     1
  0
VERTEX
  5
A5F
  8
POLYGONS
 10
325689.26659900002
 20
979407.77674300014
 30
0.0
  0
VERTEX
  5
A60
  8
POLYGONS
 10
325734.09446499997
 20
979369.89301500004
 30
0.0
  0
VERTEX
  5
A61
  8
POLYGONS
 10
325763.60522500001
 20
979256.68909100024
 30
0.0
  0
VERTEX
  5
A62
  8
POLYGONS
 10
325828.3534030001
 20
979201.13075100014
 30
0.0
  0
VERTEX
  5
A63
  8
POLYGONS
 10
325918.09545700008
 20
979145.46621300001
 30
0.0
  0
VERTEX
  5
A64
  8
POLYGONS
 10
325995.42634399998
 20
979109.95746100007
 30
0.0
  0
VERTEX
  5
A65
  8
POLYGONS
 10
326045.17879099998
 20
979054.46332700015
 30
0.0
  0
VERTEX
  5
A66
  8
POLYGONS
 10
326024.66040599998
 20
978931.42107900046
 30
0.0
  0
VERTEX
  5
A67
  8
POLYGONS
 10
325991.89069199999
 20
978866.22637000016
 30
0.0
  0
VERTEX
  5
A68
  8
POLYGONS
 10
325946.72009000002
 20
978823.70001799997
 30
0.0
  0
VERTEX
  5
A69
  8
POLYGONS
 10
325747.5638280001
 20
978850.96001000016
 30
0.0
  0
VERTEX
  5
A6A
  8
POLYGONS
 10
325607.50600400008
 20
978887.53675500001
 30
0.0
  0
VERTEX
  5
A6B
  8
POLYGONS
 10
325511.32489699998
 20
978962.92941200023
 30
0.0
  0
VERTEX
  5
A6C
  8
POLYGONS
 10
325425.32234499999
 20
979054.58990400005
 30
0.0
  0
VERTEX
  5
A6D
  8
POLYGONS
 10
325385.90594300011
 20
979192.69140300003
 30
0.0
  0
VERTEX
  5
A6E
  8
POLYGONS
 10
325396.36980500008
 20
979298.46020600025
 30
0.0
  0
VERTEX
  5
A6F
  8
POLYGONS
 10
325466.56644999998
 20
979348.41776100022
 30
0.0
  0
VERTEX
  5
A70
  8
POLYGONS
 10
325529.18982299999
 20
979380.81773799995
 30
0.0
  0
VERTEX
  5
A71
  8
POLYGONS
 10
325624.15478500002
 20
979377.90000900032
 30
0.0
  0
SEQEND
  5
A72
  8
POLYGONS
  0
TEXT
  5
7E6
  8
NUMBERS_LINARES
 10
325698.673595
 20
979096.59050200006
 30
0.0
 40
90.0
  1
BU-17
  0
POLYLINE
  5
7E7
  8
POLYGONS
 66
     1
 10
0.0
 20
0.0
 30
0.0
 70
     1
  0
VERTEX
  5
A73
  8
POLYGONS
 10
326095.80699200003
 20
979205.01890100015
 30
0.0
  0
VERTEX
  5
A74
  8
POLYGONS
 10
325958.79079300002
 20
979311.1410360001
 30
0.0
  0
VERTEX
  5
A75
  8
POLYGONS
 10
325936.59589300002
 20
979381.59519000002
 30
0.0
  0
VERTEX
  5
A76
  8
POLYGONS
 10
325936.916638
 20
979456.97926000005
 30
0.0
  0
VERTEX
  5
A77
  8
POLYGONS
 10
325999.646244
 20
979514.50788000005
 30
0.0
  0
VERTEX
  5
A78
  8
POLYGONS
 10
326044.88027000002
 20
979572.11096900015
 30
0.0
  0
VERTEX
  5
A79
  8
POLYGONS
 10
326105.02474199998
 20
979609.54792000016
 30
0.0
  0
VERTEX
  5
A7A
  8
POLYGONS
 10
326157.404079
 20
979584.19680499996
 30
0.0
  0
VERTEX
  5
A7B
  8
POLYGONS
 10
326214.41918899998
 20
979473.38934800006
 30
0.0
  0
VERTEX
  5
A7C
  8
POLYGONS
 10
326241.60249199998
 20
979400.40138600022
 30
0.0
  0
VERTEX
  5
A7D
  8
POLYGONS
 10
326243.79235399998
 20
979327.51959900022
 30
0.0
  0
VERTEX
  5
A7E
  8
POLYGONS
 10
326185.98692
 20
979252.37978800014
 30
0.0
  0
VERTEX
  5
A7F
  8
POLYGONS
 10
326136.18380300002
 20
979226.22407999996
 30
0.0
  0
SEQEND
  5
A80
  8
POLYGONS
  0
TEXT
  5
7F6
  8
NUMBERS_LINARES
 10
326093.50667600002
 20
979402.108396
 30
0.0
 40
90.0
  1
34
  0
POLYLINE
  5
7F7
  8
POLYGONS
 66
     1
 10
0.0
 20
0.0
 30
0.0
 70
     1
  0
VERTEX
  5
A81
  8
POLYGONS
 10
326273.40265200002
 20
979190.80463800032
 30
0.0
  0
VERTEX
  5
A82
  8
POLYGONS
 10
326260.64766100002
 20
979176.67738000001
 30
0.0
  0
VERTEX
  5
A83
  8
POLYGONS
 10
326283.36596800003
 20
979229.350645
 30
0.0
  0
SEQEND
  5
A84
  8
POLYGONS
  0
POLYLINE
  5
7FC
  8
POLYGONS
 66
     1
 10
0.0
 20
0.0
 30
0.0
 70
     1
  0
VERTEX
  5
A85
  8
POLYGONS
 10
326252.872171
 20
979111.37645100011
 30
0.0
  0
VERTEX
  5
A86
  8
POLYGONS
 10
326273.40265200002
 20
979190.80463800032
 30
0.0
  0
VERTEX
  5
A87
  8
POLYGONS
 10
326328.45045800001
 20
979251.77485299995
 30
0.0
  0
VERTEX
  5
A88
  8
POLYGONS
 10
326415.94934800011
 20
979256.42924099998
 30
0.0
  0
VERTEX
  5
A89
  8
POLYGONS
 10
326473.18948499998
 20
979198.39108900016
 30
0.0
  0
VERTEX
  5
A8A
  8
POLYGONS
 10
326525.29258000001
 20
979107.70789199998
 30
0.0
  0
VERTEX
  5
A8B
  8
POLYGONS
 10
326537.38265599991
 20
979041.32111200015
 30
0.0
  0
VERTEX
  5
A8C
  8
POLYGONS
 10
326519.67606500001
 20
978961.98693100014
 30
0.0
  0
VERTEX
  5
A8D
  8
POLYGONS
 10
326412.45868799993
 20
979022.74972700025
 30
0.0
  0
VERTEX
  5
A8E
  8
POLYGONS
 10
326380.18004499999
 20
979073.14349699998
 30
0.0
  0
VERTEX
  5
A8F
  8
POLYGONS
 10
326312.6863820001
 20
979070.91704800015
 30
0.0
  0
SEQEND
  5
A90
  8
POLYGONS
  0
TEXT
  5
809
  8
NUMBERS_LINARES
 10
326404.72415199998
 20
979126.05851700006
 30
0.0
 40
90.0
  1
35
  0
POLYLINE
  5
80A
  8
POLYGONS
 66
     1
 10
0.0
 20
0.0
 30
0.0
 70
     1
  0
VERTEX
  5
A91
  8
POLYGONS
 10
326893.81693799997
 20
978779.47859300033
 30
0.0
  0
VERTEX
  5
A92
  8
POLYGONS
 10
326971.265916
 20
978771.61265699996
 30
0.0
  0
VERTEX
  5
A93
  8
POLYGONS
 10
327013.59613600012
 20
978733.74123600021
 30
0.0
  0
VERTEX
  5
A94
  8
POLYGONS
 10
327028.36949000001
 20
978680.90928300004
 30
0.0
  0
VERTEX
  5
A95
  8
POLYGONS
 10
326953.34538700001
 20
978671.17497900012
 30
0.0
  0
VERTEX
  5
A96
  8
POLYGONS
 10
326908.32452199998
 20
978663.82678500016
 30
0.0
  0
VERTEX
  5
A97
  8
POLYGONS
 10
326805.86017
 20
978666.77294500021
 30
0.0
  0
VERTEX
  5
A98
  8
POLYGONS
 10
326756.03185799997
 20
978704.67633000005
 30
0.0
  0
VERTEX
  5
A99
  8
POLYGONS
 10
326776.20771299989
 20
978747.30919699988
 30
0.0
  0
SEQEND
  5
A9A
  8
POLYGONS
  0
TEXT
  5
815
  8
NUMBERS_LINARES
 10
326894.03405900003
 20
978717.67469599994
 30
0.0
 40
90.0
  1
37
  0
POLYLINE
  5
816
  8
POLYGONS
 66
     1
 10
0.0
 20
0.0
 30
0.0
 70
     1
  0
VERTEX
  5
A9B
  8
POLYGONS
 10
327056.97742800007
 20
978944.63606600033
 30
0.0
  0
VERTEX
  5
A9C
  8
POLYGONS
 10
326964.46883199993
 20
978937.48854500032
 30
0.0
  0
VERTEX
  5
A9D
  8
POLYGONS
 10
326942.10197800008
 20
978967.73714300024
 30
0.0
  0
VERTEX
  5
A9E
  8
POLYGONS
 10
326939.77260999999
 20
979007.95237099996
 30
0.0
  0
VERTEX
  5
A9F
  8
POLYGONS
 10
326972.46623899997
 20
979055.55802000011
 30
0.0
  0
VERTEX
  5
AA0
  8
POLYGONS
 10
327019.85857600009
 20
979032.74215800024
 30
0.0
  0
VERTEX
  5
AA1
  8
POLYGONS
 10
327054.65856100008
 20
978987.36405700003
 30
0.0
  0
SEQEND
  5
AA2
  8
POLYGONS
  0
TEXT
  5
81F
  8
NUMBERS_LINARES
 10
326995.36121399998
 20
978988.52213100006
 30
0.0
 40
90.0
  1
36
  0
POLYLINE
  5
820
  8
POLYGONS
 66
     1
 10
0.0
 20
0.0
 30
0.0
 70
     1
  0
VERTEX
  5
AA3
  8
POLYGONS
 10
326170.68322600011
 20
979966.79540800001
 30
0.0
  0
VERTEX
  5
AA4
  8
POLYGONS
 10
325995.97773500002
 20
979941.90590800007
 30
0.0
  0
VERTEX
  5
AA5
  8
POLYGONS
 10
325862.25820500002
 20
979916.70684600004
 30
0.0
  0
VERTEX
  5
AA6
  8
POLYGONS
 10
325805.17846899998
 20
979890.51517300017
 30
0.0
  0
VERTEX
  5
AA7
  8
POLYGONS
 10
325688.28515399998
 20
979882.20171299996
 30
0.0
  0
VERTEX
  5
AA8
  8
POLYGONS
 10
325616.95522600011
 20
979939.7813090001
 30
0.0
  0
VERTEX
  5
AA9
  8
POLYGONS
 10
325590.91954099998
 20
980000.10502800019
 30
0.0
  0
VERTEX
  5
AAA
  8
POLYGONS
 10
325595.527153
 20
980052.95503600023
 30
0.0
  0
VERTEX
  5
AAB
  8
POLYGONS
 10
325659.916585
 20
980080.58383000002
 30
0.0
  0
VERTEX
  5
AAC
  8
POLYGONS
 10
325757.720248
 20
980065.48085599998
 30
0.0
  0
VERTEX
  5
AAD
  8
POLYGONS
 10
325822.07196500001
 20
980084.29844100005
 30
0.0
  0
VERTEX
  5
AAE
  8
POLYGONS
 10
325909.68205100013
 20
980076.58226900012
 30
0.0
  0
VERTEX
  5
AAF
  8
POLYGONS
 10
325981.28081700002
 20
980082.15183500014
 30
0.0
  0
VERTEX
  5
AB0
  8
POLYGONS
 10
326124.34081199998
 20
980060.98275200021
 30
0.0
  0
SEQEND
  5
AB1
  8
POLYGONS
  0
TEXT
  5
830
  8
NUMBERS_LINARES
 10
325852.37515799998
 20
979995.63883800013
 30
0.0
 40
90.0
  1
no_ID
  0
POLYLINE
  5
831
  8
POLYGONS
 66
     1
 10
0.0
 20
0.0
 30
0.0
 70
     1
  0
VERTEX
  5
AB2
  8
POLYGONS
 10
326342.02084700001
 20
980185.79151900031
 30
0.0
  0
VERTEX
  5
AB3
  8
POLYGONS
 10
326267.43152699998
 20
980171.69848200015
 30
0.0
  0
VERTEX
  5
AB4
  8
POLYGONS
 10
326174.47760300001
 20
980164.90703099966
 30
0.0
  0
VERTEX
  5
AB5
  8
POLYGONS
 10
326118.3262159999
 20
980160.80446599994
 30
0.0
  0
VERTEX
  5
AB6
  8
POLYGONS
 10
326052.59365
 20
980207.196107
 30
0.0
  0
VERTEX
  5
AB7
  8
POLYGONS
 10
326055.90163600008
 20
980310.93399900012
 30
0.0
  0
VERTEX
  5
AB8
  8
POLYGONS
 10
326050.48763400008
 20
980385.88902300014
 30
0.0
  0
VERTEX
  5
AB9
  8
POLYGONS
 10
326133.83546899998
 20
980437.41032499995
 30
0.0
  0
VERTEX
  5
ABA
  8
POLYGONS
 10
326179.57607000001
 20
980408.39577000006
 30
0.0
  0
VERTEX
  5
ABB
  8
POLYGONS
 10
326293.92783300002
 20
980335.85965799994
 30
0.0
  0
VERTEX
  5
ABC
  8
POLYGONS
 10
326354.02540799999
 20
980312.54831700015
 30
0.0
  0
VERTEX
  5
ABD
  8
POLYGONS
 10
326379.66435500002
 20
980274.97346000001
 30
0.0
  0
SEQEND
  5
ABE
  8
POLYGONS
  0
TEXT
  5
83F
  8
NUMBERS_LINARES
 10
326192.69854900002
 20
980280.73986099986
 30
0.0
 40
90.0
  1
41
  0
POLYLINE
  5
840
  8
POLYGONS
 66
     1
 10
0.0
 20
0.0
 30
0.0
 70
     1
  0
VERTEX
  5
ABF
  8
POLYGONS
 10
325245.35846100003
 20
980201.99320799997
 30
0.0
  0
VERTEX
  5
AC0
  8
POLYGONS
 10
325199.704348
 20
980251.18258200015
 30
0.0
  0
VERTEX
  5
AC1
  8
POLYGONS
 10
325059.74051500013
 20
980367.06185400032
 30
0.0
  0
VERTEX
  5
AC2
  8
POLYGONS
 10
325017.21241600002
 20
980476.76039400022
 30
0.0
  0
VERTEX
  5
AC3
  8
POLYGONS
 10
325065.95456799999
 20
980479.43372299988
 30
0.0
  0
VERTEX
  5
AC4
  8
POLYGONS
 10
325191.57331599999
 20
980360.73374300008
 30
0.0
  0
VERTEX
  5
AC5
  8
POLYGONS
 10
325260.22063
 20
980325.85607099975
 30
0.0
  0
VERTEX
  5
AC6
  8
POLYGONS
 10
325300.15408000012
 20
980279.57321900001
 30
0.0
  0
VERTEX
  5
AC7
  8
POLYGONS
 10
325299.93236199999
 20
980227.69801000017
 30
0.0
  0
SEQEND
  5
AC8
  8
POLYGONS
  0
TEXT
  5
84B
  8
NUMBERS_LINARES
 10
325165.12142699998
 20
980337.87025400007
 30
0.0
 40
90.0
  1
44
  0
POLYLINE
  5
84C
  8
POLYGONS
 66
     1
 10
0.0
 20
0.0
 30
0.0
 70
     1
  0
VERTEX
  5
AC9
  8
POLYGONS
 10
325070.55504000001
 20
979928.10835100012
 30
0.0
  0
VERTEX
  5
ACA
  8
POLYGONS
 10
325021.07868899993
 20
979919.28273600026
 30
0.0
  0
VERTEX
  5
ACB
  8
POLYGONS
 10
324949.41112200002
 20
979976.07273599994
 30
0.0
  0
VERTEX
  5
ACC
  8
POLYGONS
 10
324931.83044699999
 20
980068.78053999995
 30
0.0
  0
VERTEX
  5
ACD
  8
POLYGONS
 10
324934.43558699999
 20
980152.36459600006
 30
0.0
  0
VERTEX
  5
ACE
  8
POLYGONS
 10
324946.019677
 20
980233.650869
 30
0.0
  0
VERTEX
  5
ACF
  8
POLYGONS
 10
325071.61840699997
 20
980176.62994900008
 30
0.0
  0
VERTEX
  5
AD0
  8
POLYGONS
 10
325149.746942
 20
980054.29198100022
 30
0.0
  0
VERTEX
  5
AD1
  8
POLYGONS
 10
325138.24058300001
 20
979991.08001200017
 30
0.0
  0
SEQEND
  5
AD2
  8
POLYGONS
  0
TEXT
  5
857
  8
NUMBERS_LINARES
 10
325009.5492691329
 20
980114.03598602174
 30
0.0
 40
90.0
  1
40
  0
POLYLINE
  5
858
  8
POLYGONS
 66
     1
 10
0.0
 20
0.0
 30
0.0
 70
     1
  0
VERTEX
  5
AD3
  8
POLYGONS
 10
324754.2756450001
 20
980062.76326400007
 30
0.0
  0
VERTEX
  5
AD4
  8
POLYGONS
 10
324747.78597299999
 20
980121.53371200024
 30
0.0
  0
VERTEX
  5
AD5
  8
POLYGONS
 10
324770.37378000008
 20
980148.54886600003
 30
0.0
  0
VERTEX
  5
AD6
  8
POLYGONS
 10
324817.59313300002
 20
980155.12447900046
 30
0.0
  0
VERTEX
  5
AD7
  8
POLYGONS
 10
324828.59656999999
 20
980100.8533780002
 30
0.0
  0
VERTEX
  5
AD8
  8
POLYGONS
 10
324821.68083199998
 20
980060.21505200013
 30
0.0
  0
SEQEND
  5
AD9
  8
POLYGONS
  0
TEXT
  5
860
  8
NUMBERS_LINARES
 10
324789.3359849999
 20
980104.8696470001
 30
0.0
 40
90.0
  1
39
  0
POLYLINE
  5
861
  8
POLYGONS
 66
     1
 10
0.0
 20
0.0
 30
0.0
 70
     1
  0
VERTEX
  5
ADA
  8
POLYGONS
 10
324462.49356799992
 20
980145.35109999997
 30
0.0
  0
VERTEX
  5
ADB
  8
POLYGONS
 10
324406.21749399998
 20
980122.99943800014
 30
0.0
  0
VERTEX
  5
ADC
  8
POLYGONS
 10
324278.23601400002
 20
980148.40206600016
 30
0.0
  0
VERTEX
  5
ADD
  8
POLYGONS
 10
324217.53347299987
 20
980141.88503400015
 30
0.0
  0
VERTEX
  5
ADE
  8
POLYGONS
 10
324139.19377000001
 20
980214.520792
 30
0.0
  0
VERTEX
  5
ADF
  8
POLYGONS
 10
324197.75596799998
 20
980245.8996100002
 30
0.0
  0
VERTEX
  5
AE0
  8
POLYGONS
 10
324267.783245
 20
980248.35910500004
 30
0.0
  0
VERTEX
  5
AE1
  8
POLYGONS
 10
324408.96931000007
 20
980240.47305899998
 30
0.0
  0
VERTEX
  5
AE2
  8
POLYGONS
 10
324464.91535800009
 20
980186.00872800045
 30
0.0
  0
SEQEND
  5
AE3
  8
POLYGONS
  0
TEXT
  5
86C
  8
NUMBERS_LINARES
 10
324314.12873300008
 20
980191.02136500017
 30
0.0
 40
90.0
  1
38
  0
POLYLINE
  5
86D
  8
POLYGONS
 66
     1
 10
0.0
 20
0.0
 30
0.0
 70
     1
  0
VERTEX
  5
AE4
  8
POLYGONS
 10
324377.43365299999
 20
980349.81398300012
 30
0.0
  0
VERTEX
  5
AE5
  8
POLYGONS
 10
324262.76215800003
 20
980347.42487100011
 30
0.0
  0
VERTEX
  5
AE6
  8
POLYGONS
 10
324174.11208499991
 20
980396.80054600013
 30
0.0
  0
VERTEX
  5
AE7
  8
POLYGONS
 10
324114.15174599999
 20
980451.81701300025
 30
0.0
  0
VERTEX
  5
AE8
  8
POLYGONS
 10
324057.40549000009
 20
980587.51646200032
 30
0.0
  0
VERTEX
  5
AE9
  8
POLYGONS
 10
324117.67566299997
 20
980604.54913300008
 30
0.0
  0
VERTEX
  5
AEA
  8
POLYGONS
 10
324237.93068100011
 20
980572.32941600005
 30
0.0
  0
VERTEX
  5
AEB
  8
POLYGONS
 10
324297.91573000012
 20
980523.07706299995
 30
0.0
  0
VERTEX
  5
AEC
  8
POLYGONS
 10
324365.46517500008
 20
980424.25449100032
 30
0.0
  0
SEQEND
  5
AED
  8
POLYGONS
  0
TEXT
  5
878
  8
NUMBERS_LINARES
 10
324220.81432399998
 20
980472.58816700021
 30
0.0
 40
90.0
  1
42
  0
POLYLINE
  5
879
  8
POLYGONS
 66
     1
 10
0.0
 20
0.0
 30
0.0
 70
     1
  0
VERTEX
  5
AEE
  8
POLYGONS
 10
324518.28696699988
 20
980441.43357800017
 30
0.0
  0
VERTEX
  5
AEF
  8
POLYGONS
 10
324530.16121599998
 20
980536.48921599996
 30
0.0
  0
VERTEX
  5
AF0
  8
POLYGONS
 10
324613.61022099998
 20
980611.06342600007
 30
0.0
  0
VERTEX
  5
AF1
  8
POLYGONS
 10
324665.33008799999
 20
980639.6616290001
 30
0.0
  0
VERTEX
  5
AF2
  8
POLYGONS
 10
324702.21068399999
 20
980550.16085600003
 30
0.0
  0
VERTEX
  5
AF3
  8
POLYGONS
 10
324687.34674299997
 20
980426.29789800022
 30
0.0
  0
VERTEX
  5
AF4
  8
POLYGONS
 10
324644.07767799997
 20
980363.07915600005
 30
0.0
  0
VERTEX
  5
AF5
  8
POLYGONS
 10
324563.92777100008
 20
980389.36129000015
 30
0.0
  0
SEQEND
  5
AF6
  8
POLYGONS
  0
TEXT
  5
883
  8
NUMBERS_LINARES
 10
324616.39164699998
 20
980494.08361700014
 30
0.0
 40
90.0
  1
43
  0
POLYLINE
  5
884
  8
POLYGONS
 66
     1
 10
0.0
 20
0.0
 30
0.0
 70
     1
  0
VERTEX
  5
AF7
  8
POLYGONS
 10
324392.793947
 20
980588.95569700014
 30
0.0
  0
VERTEX
  5
AF8
  8
POLYGONS
 10
324349.846601
 20
980600.66838200006
 30
0.0
  0
VERTEX
  5
AF9
  8
POLYGONS
 10
324315.79307199991
 20
980674.00486900017
 30
0.0
  0
VERTEX
  5
AFA
  8
POLYGONS
 10
324295.87961
 20
980716.18130000005
 30
0.0
  0
VERTEX
  5
AFB
  8
POLYGONS
 10
324344.7703780001
 20
980753.43734800012
 30
0.0
  0
VERTEX
  5
AFC
  8
POLYGONS
 10
324430.55328499997
 20
980704.07425200008
 30
0.0
  0
VERTEX
  5
AFD
  8
POLYGONS
 10
324441.70950200013
 20
980631.97580300015
 30
0.0
  0
SEQEND
  5
AFE
  8
POLYGONS
  0
TEXT
  5
88D
  8
NUMBERS_LINARES
 10
324372.73369600001
 20
980671.27717100014
 30
0.0
 40
90.0
  1
45
  0
TEXT
  5
8A5
  8
NUMBERS_PALUMBO
  6
CONTINUOUS
 10
314150.25313070428
 20
971828.16679077584
 30
0.0
 40
90.0
  1
BU-24
  0
TEXT
  5
8A6
  8
NUMBERS_PALUMBO
  6
CONTINUOUS
 10
325734.88393190497
 20
978943.65697120526
 30
0.0
 40
90.0
  1
BU-17
  0
TEXT
  5
8A8
  8
NUMBERS_PALUMBO
  6
CONTINUOUS
 10
322704.66872038471
 20
977253.1223174684
 30
0.0
 40
90.0
  1
BU-12
  0
TEXT
  5
8A9
  8
NUMBERS_PALUMBO
  6
CONTINUOUS
 10
325007.91307099501
 20
979975.22673235007
 30
0.0
 40
90.0
  1
BU-43
  0
TEXT
  5
8AB
  8
NUMBERS_PALUMBO
  6
CONTINUOUS
 10
323350.89997474657
 20
977127.2295867136
 30
0.0
 40
90.0
  1
BU-19
  0
TEXT
  5
8AE
  8
NUMBERS_PALUMBO
  6
CONTINUOUS
 10
320384.97757252649
 20
974507.82508799154
 30
0.0
 40
90.0
  1
BU-8
  0
TEXT
  5
8B0
  8
NUMBERS_PALUMBO
  6
CONTINUOUS
 10
312854.44681143953
 20
972847.89419587934
 30
0.0
 40
90.0
  1
BU-2 (Finca Café Olé)
  0
ENDSEC
  0
EOF
