  0
SECTION
  2
HEADER
  9
$ACADVER
  1
AC1009
  9
$INSBASE
 10
0.0
 20
0.0
 30
0.0
  9
$EXTMIN
 10
477953.93575306202
 20
227964.00068913869
 30
0.0
  9
$EXTMAX
 10
490025.96398846462
 20
238096.02640628169
 30
42993.630999999987
  9
$LIMMIN
 10
0.0
 20
0.0
  9
$LIMMAX
 10
12.0
 20
9.0
  9
$ORTHOMODE
 70
     0
  9
$REGENMODE
 70
     1
  9
$FILLMODE
 70
     1
  9
$QTEXTMODE
 70
     0
  9
$MIRRTEXT
 70
     0
  9
$DRAGMODE
 70
     2
  9
$LTSCALE
 40
1.0
  9
$OSMODE
 70
    37
  9
$ATTMODE
 70
     1
  9
$TEXTSIZE
 40
0.2
  9
$TRACEWID
 40
0.05
  9
$TEXTSTYLE
  7
STANDARD
  9
$CLAYER
  8
0
  9
$CELTYPE
  6
BYLAYER
  9
$CECOLOR
 62
   256
  9
$DIMSCALE
 40
1.0
  9
$DIMASZ
 40
0.18
  9
$DIMEXO
 40
0.0625
  9
$DIMDLI
 40
0.38
  9
$DIMRND
 40
0.0
  9
$DIMDLE
 40
0.0
  9
$DIMEXE
 40
0.18
  9
$DIMTP
 40
0.0
  9
$DIMTM
 40
0.0
  9
$DIMTXT
 40
0.18
  9
$DIMCEN
 40
0.09
  9
$DIMTSZ
 40
0.0
  9
$DIMTOL
 70
     0
  9
$DIMLIM
 70
     0
  9
$DIMTIH
 70
     1
  9
$DIMTOH
 70
     1
  9
$DIMSE1
 70
     0
  9
$DIMSE2
 70
     0
  9
$DIMTAD
 70
     0
  9
$DIMZIN
 70
     0
  9
$DIMBLK
  1

  9
$DIMASO
 70
     1
  9
$DIMSHO
 70
     1
  9
$DIMPOST
  1

  9
$DIMAPOST
  1

  9
$DIMALT
 70
     0
  9
$DIMALTD
 70
     2
  9
$DIMALTF
 40
25.399999999999999
  9
$DIMLFAC
 40
1.0
  9
$DIMTOFL
 70
     0
  9
$DIMTVP
 40
0.0
  9
$DIMTIX
 70
     0
  9
$DIMSOXD
 70
     0
  9
$DIMSAH
 70
     0
  9
$DIMBLK1
  1

  9
$DIMBLK2
  1

  9
$DIMSTYLE
  2
STANDARD
  9
$DIMCLRD
 70
     0
  9
$DIMCLRE
 70
     0
  9
$DIMCLRT
 70
     0
  9
$DIMTFAC
 40
1.0
  9
$DIMGAP
 40
0.09
  9
$LUNITS
 70
     2
  9
$LUPREC
 70
     4
  9
$SKETCHINC
 40
0.1
  9
$FILLETRAD
 40
0.0
  9
$AUNITS
 70
     0
  9
$AUPREC
 70
     0
  9
$MENU
  1
.
  9
$ELEVATION
 40
0.0
  9
$PELEVATION
 40
0.0
  9
$THICKNESS
 40
0.0
  9
$LIMCHECK
 70
     0
  9
$BLIPMODE
 70
     0
  9
$CHAMFERA
 40
0.0
  9
$CHAMFERB
 40
0.0
  9
$SKPOLY
 70
     0
  9
$TDCREATE
 40
2454548.6753449072
  9
$TDUPDATE
 40
2455965.6024743519
  9
$TDINDWG
 40
1.6916996875000001
  9
$TDUSRTIMER
 40
1.6916989699
  9
$USRTIMER
 70
     1
  9
$ANGBASE
 50
0.0
  9
$ANGDIR
 70
     0
  9
$PDMODE
 70
     0
  9
$PDSIZE
 40
0.0
  9
$PLINEWID
 40
0.0
  9
$COORDS
 70
     1
  9
$SPLFRAME
 70
     0
  9
$SPLINETYPE
 70
     6
  9
$SPLINESEGS
 70
     8
  9
$ATTDIA
 70
     0
  9
$ATTREQ
 70
     1
  9
$HANDLING
 70
     1
  9
$HANDSEED
  5
290
  9
$SURFTAB1
 70
     6
  9
$SURFTAB2
 70
     6
  9
$SURFTYPE
 70
     6
  9
$SURFU
 70
     6
  9
$SURFV
 70
     6
  9
$UCSNAME
  2

  9
$UCSORG
 10
0.0
 20
0.0
 30
0.0
  9
$UCSXDIR
 10
1.0
 20
0.0
 30
0.0
  9
$UCSYDIR
 10
0.0
 20
1.0
 30
0.0
  9
$PUCSNAME
  2

  9
$PUCSORG
 10
0.0
 20
0.0
 30
0.0
  9
$PUCSXDIR
 10
1.0
 20
0.0
 30
0.0
  9
$PUCSYDIR
 10
0.0
 20
1.0
 30
0.0
  9
$USERI1
 70
     0
  9
$USERI2
 70
     0
  9
$USERI3
 70
     0
  9
$USERI4
 70
     0
  9
$USERI5
 70
     0
  9
$USERR1
 40
0.0
  9
$USERR2
 40
0.0
  9
$USERR3
 40
0.0
  9
$USERR4
 40
0.0
  9
$USERR5
 40
0.0
  9
$WORLDVIEW
 70
     1
  9
$SHADEDGE
 70
     3
  9
$SHADEDIF
 70
    70
  9
$TILEMODE
 70
     1
  9
$MAXACTVP
 70
    64
  9
$PLIMCHECK
 70
     0
  9
$PEXTMIN
 10
0.0
 20
0.0
 30
0.0
  9
$PEXTMAX
 10
0.0
 20
0.0
 30
0.0
  9
$PLIMMIN
 10
0.0
 20
0.0
  9
$PLIMMAX
 10
12.0
 20
9.0
  9
$UNITMODE
 70
     0
  9
$VISRETAIN
 70
     1
  9
$PLINEGEN
 70
     0
  9
$PSLTSCALE
 70
     1
  0
ENDSEC
  0
SECTION
  2
TABLES
  0
TABLE
  2
VPORT
 70
     1
  0
VPORT
  2
*ACTIVE
 70
     0
 10
0.0
 20
0.0
 11
1.0
 21
1.0
 12
486998.32223750022
 22
231778.952467539
 13
0.0
 23
0.0
 14
0.5
 24
0.5
 15
0.5
 25
0.5
 16
0.0
 26
0.0
 36
1.0
 17
0.0
 27
0.0
 37
0.0
 40
20328.914161146738
 41
1.9893842887473461
 42
50.0
 43
0.0
 44
0.0
 50
0.0
 51
0.0
 71
     0
 72
  1000
 73
     1
 74
     3
 75
     0
 76
     0
 77
     0
 78
     0
  0
ENDTAB
  0
TABLE
  2
LTYPE
 70
     1
  0
LTYPE
  2
CONTINUOUS
 70
     0
  3
Solid line
 72
    65
 73
     0
 40
0.0
  0
ENDTAB
  0
TABLE
  2
LAYER
 70
     3
  0
LAYER
  2
0
 70
     0
 62
     7
  6
CONTINUOUS
  0
LAYER
  2
BARVA
 70
     0
 62
     5
  6
CONTINUOUS
  0
LAYER
  2
STUDY_AREA
 70
     0
 62
     7
  6
CONTINUOUS
  0
ENDTAB
  0
TABLE
  2
STYLE
 70
     1
  0
STYLE
  2
STANDARD
 70
     0
 40
0.0
 41
1.0
 50
0.0
 71
     0
 42
0.2
  3
txt
  4

  0
ENDTAB
  0
TABLE
  2
VIEW
 70
     0
  0
ENDTAB
  0
TABLE
  2
UCS
 70
     0
  0
ENDTAB
  0
TABLE
  2
APPID
 70
     2
  0
APPID
  2
ACAD
 70
     0
  0
APPID
  2
ADE
 70
     0
  0
ENDTAB
  0
TABLE
  2
DIMSTYLE
 70
     1
  0
DIMSTYLE
  2
STANDARD
 70
     0
  3

  4

  5

  6

  7

 40
1.0
 41
0.18
 42
0.0625
 43
0.38
 44
0.18
 45
0.0
 46
0.0
 47
0.0
 48
0.0
140
0.18
141
0.09
142
0.0
143
25.399999999999999
144
1.0
145
0.0
146
1.0
147
0.09
 71
     0
 72
     0
 73
     1
 74
     1
 75
     0
 76
     0
 77
     0
 78
     0
170
     0
171
     2
172
     0
173
     0
174
     0
175
     0
176
     0
177
     0
178
     0
  0
ENDTAB
  0
ENDSEC
  0
SECTION
  2
BLOCKS
  0
BLOCK
  8
0
  2
$MODEL_SPACE
 70
     0
 10
0.0
 20
0.0
 30
0.0
  3
$MODEL_SPACE
  1

  0
ENDBLK
  5
17
  8
0
  0
BLOCK
 67
     1
  8
0
  2
$PAPER_SPACE
 70
     0
 10
0.0
 20
0.0
 30
0.0
  3
$PAPER_SPACE
  1

  0
ENDBLK
  5
1E
 67
     1
  8
0
  0
ENDSEC
  0
SECTION
  2
ENTITIES
  0
POLYLINE
  5
70
  8
STUDY_AREA
 66
     1
 10
0.0
 20
0.0
 30
0.0
 70
     1
 40
12.0
 41
12.0
  0
VERTEX
  5
A9
  8
STUDY_AREA
 10
490019.96398673201
 20
236172.76122018669
 30
0.0
  0
VERTEX
  5
AA
  8
STUDY_AREA
 10
490019.96221148659
 20
230025.0052610579
 30
0.0
  0
VERTEX
  5
AB
  8
STUDY_AREA
 10
486019.98702773609
 20
230025.03767258869
 30
0.0
  0
VERTEX
  5
AC
  8
STUDY_AREA
 10
486020.0052829918
 20
227970.00589036589
 30
0.0
  0
VERTEX
  5
AD
  8
STUDY_AREA
 10
477960.00767574733
 20
227970.00069300761
 30
0.0
  0
VERTEX
  5
AE
  8
STUDY_AREA
 10
477959.93579567882
 20
238089.95683132511
 30
0.0
  0
VERTEX
  5
AF
  8
STUDY_AREA
 10
488545.397371598
 20
238090.0263668689
 30
0.0
  0
VERTEX
  5
B0
  8
STUDY_AREA
 10
488545.45307561121
 20
236172.82210352769
 30
0.0
  0
SEQEND
  5
B1
  8
STUDY_AREA
  0
POLYLINE
  5
74
  8
BARVA
  6
CONTINUOUS
 66
     1
 10
0.0
 20
0.0
 30
0.138
 70
   129
  0
VERTEX
  5
B2
  8
BARVA
  6
CONTINUOUS
 10
483142.19053827238
 20
228298.91487674849
 30
0.138
  0
VERTEX
  5
B3
  8
BARVA
  6
CONTINUOUS
 10
483154.90557293489
 20
228299.58969691751
 30
0.138
  0
VERTEX
  5
B4
  8
BARVA
  6
CONTINUOUS
 10
483163.79488773469
 20
228294.86599868859
 30
0.138
  0
VERTEX
  5
B5
  8
BARVA
  6
CONTINUOUS
 10
483184.83666224341
 20
228299.8146512922
 30
0.138
  0
VERTEX
  5
B6
  8
BARVA
  6
CONTINUOUS
 10
483208.57893664791
 20
228296.10318331691
 30
0.138
  0
VERTEX
  5
B7
  8
BARVA
  6
CONTINUOUS
 10
483213.09922289749
 20
228291.0756656701
 30
0.138
  0
VERTEX
  5
B8
  8
BARVA
  6
CONTINUOUS
 10
483223.80110795918
 20
228288.52225955081
 30
0.138
  0
VERTEX
  5
B9
  8
BARVA
  6
CONTINUOUS
 10
483226.10058929521
 20
228298.25410280441
 30
0.138
  0
VERTEX
  5
BA
  8
BARVA
  6
CONTINUOUS
 10
483231.80375418958
 20
228308.0715120527
 30
0.138
  0
VERTEX
  5
BB
  8
BARVA
  6
CONTINUOUS
 10
483232.9127204339
 20
228316.78051521289
 30
0.138
  0
VERTEX
  5
BC
  8
BARVA
  6
CONTINUOUS
 10
483232.75431670173
 20
228327.23133618711
 30
0.138
  0
VERTEX
  5
BD
  8
BARVA
  6
CONTINUOUS
 10
483237.9822003399
 20
228335.78200789329
 30
0.138
  0
VERTEX
  5
BE
  8
BARVA
  6
CONTINUOUS
 10
483233.86321288667
 20
228349.2413412687
 30
0.138
  0
VERTEX
  5
BF
  8
BARVA
  6
CONTINUOUS
 10
483233.70480915433
 20
228357.31697565789
 30
0.138
  0
VERTEX
  5
C0
  8
BARVA
  6
CONTINUOUS
 10
483233.22952789848
 20
228366.34268468109
 30
0.138
  0
VERTEX
  5
C1
  8
BARVA
  6
CONTINUOUS
 10
483225.62537809828
 20
228377.9018687885
 30
0.138
  0
VERTEX
  5
C2
  8
BARVA
  6
CONTINUOUS
 10
483219.92221320397
 20
228379.16864928551
 30
0.138
  0
VERTEX
  5
C3
  8
BARVA
  6
CONTINUOUS
 10
483214.37745204172
 20
228378.69361196851
 30
0.138
  0
VERTEX
  5
C4
  8
BARVA
  6
CONTINUOUS
 10
483199.16908238258
 20
228376.79346270041
 30
0.138
  0
VERTEX
  5
C5
  8
BARVA
  6
CONTINUOUS
 10
483178.25754782918
 20
228369.5095714913
 30
0.138
  0
VERTEX
  5
C6
  8
BARVA
  6
CONTINUOUS
 10
483170.65332796989
 20
228365.8676473641
 30
0.138
  0
VERTEX
  5
C7
  8
BARVA
  6
CONTINUOUS
 10
483157.66282074002
 20
228369.5095714913
 30
0.138
  0
VERTEX
  5
C8
  8
BARVA
  6
CONTINUOUS
 10
483149.74179341632
 20
228366.0259788181
 30
0.138
  0
VERTEX
  5
C9
  8
BARVA
  6
CONTINUOUS
 10
483141.82076609263
 20
228363.01742346201
 30
0.138
  0
VERTEX
  5
CA
  8
BARVA
  6
CONTINUOUS
 10
483134.21654623322
 20
228357.63368152091
 30
0.138
  0
VERTEX
  5
CB
  8
BARVA
  6
CONTINUOUS
 10
483131.84028007172
 20
228348.44964104361
 30
0.138
  0
VERTEX
  5
CC
  8
BARVA
  6
CONTINUOUS
 10
483135.32551247772
 20
228341.7991186055
 30
0.138
  0
VERTEX
  5
CD
  8
BARVA
  6
CONTINUOUS
 10
483138.6523411512
 20
228337.68211420649
 30
0.138
  0
VERTEX
  5
CE
  8
BARVA
  6
CONTINUOUS
 10
483135.95919746568
 20
228331.66500349421
 30
0.138
  0
VERTEX
  5
CF
  8
BARVA
  6
CONTINUOUS
 10
483135.95919746568
 20
228327.07300473301
 30
0.138
  0
VERTEX
  5
D0
  8
BARVA
  6
CONTINUOUS
 10
483135.32551247772
 20
228322.48096301701
 30
0.138
  0
VERTEX
  5
D1
  8
BARVA
  6
CONTINUOUS
 10
483135.64231994201
 20
228316.30547789589
 30
0.138
  0
VERTEX
  5
D2
  8
BARVA
  6
CONTINUOUS
 10
483137.22656744241
 20
228309.81332986671
 30
0.138
  0
VERTEX
  5
D3
  8
BARVA
  6
CONTINUOUS
 10
483137.8602524306
 20
228306.3297371935
 30
0.138
  0
VERTEX
  5
D4
  8
BARVA
  6
CONTINUOUS
 10
483138.49393741891
 20
228303.63784474551
 30
0.138
  0
VERTEX
  5
D5
  8
BARVA
  6
CONTINUOUS
 10
483138.81074488338
 20
228300.31258352651
 30
0.138
  0
SEQEND
  5
D6
  8
BARVA
  6
CONTINUOUS
  0
POLYLINE
  5
78
  8
BARVA
  6
CONTINUOUS
 66
     1
 10
0.0
 20
0.0
 30
0.151
 70
   129
  0
VERTEX
  5
D7
  8
BARVA
  6
CONTINUOUS
 10
488531.29694892879
 20
231694.15099550469
 30
0.151
  0
VERTEX
  5
D8
  8
BARVA
  6
CONTINUOUS
 10
488517.5085380692
 20
231694.15099550469
 30
0.151
  0
VERTEX
  5
D9
  8
BARVA
  6
CONTINUOUS
 10
488498.82180180057
 20
231695.37348958579
 30
0.151
  0
VERTEX
  5
DA
  8
BARVA
  6
CONTINUOUS
 10
488496.6315426752
 20
231703.06141380011
 30
0.151
  0
VERTEX
  5
DB
  8
BARVA
  6
CONTINUOUS
 10
488484.94287452241
 20
231713.25648179621
 30
0.151
  0
VERTEX
  5
DC
  8
BARVA
  6
CONTINUOUS
 10
488487.59033964371
 20
231723.01482817161
 30
0.151
  0
VERTEX
  5
DD
  8
BARVA
  6
CONTINUOUS
 10
488492.79349240288
 20
231734.7164074961
 30
0.151
  0
VERTEX
  5
DE
  8
BARVA
  6
CONTINUOUS
 10
488495.39506878267
 20
231743.0375286623
 30
0.151
  0
VERTEX
  5
DF
  8
BARVA
  6
CONTINUOUS
 10
488498.51697445021
 20
231749.0182995997
 30
0.151
  0
VERTEX
  5
E0
  8
BARVA
  6
CONTINUOUS
 10
488502.67953869322
 20
231752.39875775811
 30
0.151
  0
VERTEX
  5
E1
  8
BARVA
  6
CONTINUOUS
 10
488514.90696168953
 20
231753.17886018279
 30
0.151
  0
VERTEX
  5
E2
  8
BARVA
  6
CONTINUOUS
 10
488528.9555021635
 20
231760.45983046439
 30
0.151
  0
VERTEX
  5
E3
  8
BARVA
  6
CONTINUOUS
 10
488531.99775058019
 20
231766.64102857609
 30
0.151
  0
VERTEX
  5
E4
  8
BARVA
  6
CONTINUOUS
 10
488543.26410219248
 20
231768.44276835929
 30
0.151
  0
VERTEX
  5
E5
  8
BARVA
  6
CONTINUOUS
 10
488556.27212420921
 20
231764.10033708269
 30
0.151
  0
VERTEX
  5
E6
  8
BARVA
  6
CONTINUOUS
 10
488570.00175544439
 20
231765.99245379999
 30
0.151
  0
VERTEX
  5
E7
  8
BARVA
  6
CONTINUOUS
 10
488588.27163978567
 20
231763.84028862289
 30
0.151
  0
VERTEX
  5
E8
  8
BARVA
  6
CONTINUOUS
 10
488589.31229836133
 20
231752.39875775811
 30
0.151
  0
VERTEX
  5
E9
  8
BARVA
  6
CONTINUOUS
 10
488591.13334577979
 20
231737.83681719491
 30
0.151
  0
VERTEX
  5
EA
  8
BARVA
  6
CONTINUOUS
 10
488597.11702750059
 20
231721.7146717821
 30
0.151
  0
VERTEX
  5
EB
  8
BARVA
  6
CONTINUOUS
 10
488595.81623931049
 20
231711.3132918019
 30
0.151
  0
VERTEX
  5
EC
  8
BARVA
  6
CONTINUOUS
 10
488593.73499221861
 20
231705.85253187461
 30
0.151
  0
VERTEX
  5
ED
  8
BARVA
  6
CONTINUOUS
 10
488588.27163978567
 20
231705.33247790969
 30
0.151
  0
VERTEX
  5
EE
  8
BARVA
  6
CONTINUOUS
 10
488582.28795806522
 20
231707.15273121881
 30
0.151
  0
VERTEX
  5
EF
  8
BARVA
  6
CONTINUOUS
 10
488576.82404515927
 20
231697.43764034371
 30
0.151
  0
VERTEX
  5
F0
  8
BARVA
  6
CONTINUOUS
 10
488575.48717650853
 20
231691.2910208595
 30
0.151
  0
VERTEX
  5
F1
  8
BARVA
  6
CONTINUOUS
 10
488565.50528930483
 20
231687.5496133769
 30
0.151
  0
VERTEX
  5
F2
  8
BARVA
  6
CONTINUOUS
 10
488550.28851254779
 20
231692.3307421956
 30
0.151
  0
VERTEX
  5
F3
  8
BARVA
  6
CONTINUOUS
 10
488546.38614797842
 20
231695.19110343439
 30
0.151
  0
VERTEX
  5
F4
  8
BARVA
  6
CONTINUOUS
 10
488539.88220702909
 20
231698.57156159289
 30
0.151
  0
SEQEND
  5
F5
  8
BARVA
  6
CONTINUOUS
  0
POLYLINE
  5
79
  8
BARVA
  6
CONTINUOUS
 66
     1
 10
0.0
 20
0.0
 30
0.15
 70
   129
  0
VERTEX
  5
F6
  8
BARVA
  6
CONTINUOUS
 10
485070.0233702712
 20
231713.39479630571
 30
0.15
  0
VERTEX
  5
F7
  8
BARVA
  6
CONTINUOUS
 10
485044.70091179718
 20
231710.35754713209
 30
0.15
  0
VERTEX
  5
F8
  8
BARVA
  6
CONTINUOUS
 10
485033.55905528978
 20
231719.4692946529
 30
0.15
  0
VERTEX
  5
F9
  8
BARVA
  6
CONTINUOUS
 10
485025.4558041236
 20
231729.59348720149
 30
0.15
  0
VERTEX
  5
FA
  8
BARVA
  6
CONTINUOUS
 10
485022.41712872341
 20
231731.6182913474
 30
0.15
  0
VERTEX
  5
FB
  8
BARVA
  6
CONTINUOUS
 10
485019.37845332292
 20
231745.7921351426
 30
0.15
  0
VERTEX
  5
FC
  8
BARVA
  6
CONTINUOUS
 10
485029.5073946772
 20
231760.9783810107
 30
0.15
  0
VERTEX
  5
FD
  8
BARVA
  6
CONTINUOUS
 10
485031.53322498337
 20
231772.11497563231
 30
0.15
  0
VERTEX
  5
FE
  8
BARVA
  6
CONTINUOUS
 10
485030.52030983038
 20
231781.22672315309
 30
0.15
  0
VERTEX
  5
FF
  8
BARVA
  6
CONTINUOUS
 10
485030.52030983038
 20
231790.338470674
 30
0.15
  0
VERTEX
  5
100
  8
BARVA
  6
CONTINUOUS
 10
485038.6234909374
 20
231801.47506529561
 30
0.15
  0
VERTEX
  5
101
  8
BARVA
  6
CONTINUOUS
 10
485061.92018916417
 20
231806.53716156981
 30
0.15
  0
VERTEX
  5
102
  8
BARVA
  6
CONTINUOUS
 10
485070.0233702712
 20
231803.49991239631
 30
0.15
  0
VERTEX
  5
103
  8
BARVA
  6
CONTINUOUS
 10
485087.24264763843
 20
231796.41296902121
 30
0.15
  0
VERTEX
  5
104
  8
BARVA
  6
CONTINUOUS
 10
485099.39741929912
 20
231793.37571984759
 30
0.15
  0
VERTEX
  5
105
  8
BARVA
  6
CONTINUOUS
 10
485110.53927580628
 20
231792.36331777461
 30
0.15
  0
VERTEX
  5
106
  8
BARVA
  6
CONTINUOUS
 10
485114.59086635982
 20
231792.36331777461
 30
0.15
  0
VERTEX
  5
107
  8
BARVA
  6
CONTINUOUS
 10
485121.68120237289
 20
231790.338470674
 30
0.15
  0
VERTEX
  5
108
  8
BARVA
  6
CONTINUOUS
 10
485123.70696262008
 20
231783.25157025389
 30
0.15
  0
VERTEX
  5
109
  8
BARVA
  6
CONTINUOUS
 10
485123.70696262008
 20
231766.04047728499
 30
0.15
  0
VERTEX
  5
10A
  8
BARVA
  6
CONTINUOUS
 10
485122.69404746668
 20
231754.90388266341
 30
0.15
  0
VERTEX
  5
10B
  8
BARVA
  6
CONTINUOUS
 10
485111.5521909594
 20
231736.68038762169
 30
0.15
  0
VERTEX
  5
10C
  8
BARVA
  6
CONTINUOUS
 10
485110.53927580628
 20
231721.49414175359
 30
0.15
  0
VERTEX
  5
10D
  8
BARVA
  6
CONTINUOUS
 10
485098.38450414571
 20
231702.2582016841
 30
0.15
  0
VERTEX
  5
10E
  8
BARVA
  6
CONTINUOUS
 10
485091.29423819209
 20
231708.3327000314
 30
0.15
  0
SEQEND
  5
10F
  8
BARVA
  6
CONTINUOUS
  0
POLYLINE
  5
7A
  8
BARVA
  6
CONTINUOUS
 66
     1
 10
0.0
 20
0.0
 30
2.0
 70
   129
  0
VERTEX
  5
110
  8
BARVA
  6
CONTINUOUS
 10
484377.56989673863
 20
230820.36007805259
 30
2.0
  0
VERTEX
  5
111
  8
BARVA
  6
CONTINUOUS
 10
484363.25828416622
 20
230809.78696471549
 30
2.0
  0
VERTEX
  5
112
  8
BARVA
  6
CONTINUOUS
 10
484330.27927164978
 20
230807.92109339111
 30
2.0
  0
VERTEX
  5
113
  8
BARVA
  6
CONTINUOUS
 10
484327.79028031998
 20
230808.54307913579
 30
2.0
  0
VERTEX
  5
114
  8
BARVA
  6
CONTINUOUS
 10
484321.56783702492
 20
230807.2991506012
 30
2.0
  0
VERTEX
  5
115
  8
BARVA
  6
CONTINUOUS
 10
484311.61194176489
 20
230813.51866440941
 30
2.0
  0
VERTEX
  5
116
  8
BARVA
  6
CONTINUOUS
 10
484308.50068508799
 20
230814.7625499891
 30
2.0
  0
VERTEX
  5
117
  8
BARVA
  6
CONTINUOUS
 10
484299.78925046307
 20
230814.7625499891
 30
2.0
  0
VERTEX
  5
118
  8
BARVA
  6
CONTINUOUS
 10
484294.81126780342
 20
230817.8723068932
 30
2.0
  0
VERTEX
  5
119
  8
BARVA
  6
CONTINUOUS
 10
484292.32234653278
 20
230824.09177774651
 30
2.0
  0
VERTEX
  5
11A
  8
BARVA
  6
CONTINUOUS
 10
484291.70008118561
 20
230832.17711992419
 30
2.0
  0
VERTEX
  5
11B
  8
BARVA
  6
CONTINUOUS
 10
484295.43353315082
 20
230842.1283334264
 30
2.0
  0
VERTEX
  5
11C
  8
BARVA
  6
CONTINUOUS
 10
484297.9225244805
 20
230854.56731808779
 30
2.0
  0
VERTEX
  5
11D
  8
BARVA
  6
CONTINUOUS
 10
484297.9225244805
 20
230860.16484615131
 30
2.0
  0
VERTEX
  5
11E
  8
BARVA
  6
CONTINUOUS
 10
484297.9225244805
 20
230865.14043142481
 30
2.0
  0
VERTEX
  5
11F
  8
BARVA
  6
CONTINUOUS
 10
484296.05579849781
 20
230872.60383081279
 30
2.0
  0
VERTEX
  5
120
  8
BARVA
  6
CONTINUOUS
 10
484296.05579849781
 20
230876.33553050671
 30
2.0
  0
VERTEX
  5
121
  8
BARVA
  6
CONTINUOUS
 10
484300.41151581041
 20
230882.55504431491
 30
2.0
  0
VERTEX
  5
122
  8
BARVA
  6
CONTINUOUS
 10
484302.90050714021
 20
230887.53062958849
 30
2.0
  0
VERTEX
  5
123
  8
BARVA
  6
CONTINUOUS
 10
484303.52270242822
 20
230890.01844370269
 30
2.0
  0
VERTEX
  5
124
  8
BARVA
  6
CONTINUOUS
 10
484304.76723312261
 20
230893.1281576521
 30
2.0
  0
VERTEX
  5
125
  8
BARVA
  6
CONTINUOUS
 10
484319.07884569519
 20
230898.1037858804
 30
2.0
  0
VERTEX
  5
126
  8
BARVA
  6
CONTINUOUS
 10
484327.79028031998
 20
230901.2134998297
 30
2.0
  0
VERTEX
  5
127
  8
BARVA
  6
CONTINUOUS
 10
484336.50171494478
 20
230903.0793711541
 30
2.0
  0
VERTEX
  5
128
  8
BARVA
  6
CONTINUOUS
 10
484367.61400147848
 20
230899.96961425
 30
2.0
  0
VERTEX
  5
129
  8
BARVA
  6
CONTINUOUS
 10
484375.70317075611
 20
230893.75014339661
 30
2.0
  0
VERTEX
  5
12A
  8
BARVA
  6
CONTINUOUS
 10
484381.30334870372
 20
230883.7989298946
 30
2.0
  0
VERTEX
  5
12B
  8
BARVA
  6
CONTINUOUS
 10
484386.9035967107
 20
230876.9574732965
 30
2.0
  0
VERTEX
  5
12C
  8
BARVA
  6
CONTINUOUS
 10
484390.6370486758
 20
230866.3843599596
 30
2.0
  0
VERTEX
  5
12D
  8
BARVA
  6
CONTINUOUS
 10
484391.88150931109
 20
230848.34780427971
 30
2.0
  0
VERTEX
  5
12E
  8
BARVA
  6
CONTINUOUS
 10
484390.0147833284
 20
230837.77469094249
 30
2.0
  0
VERTEX
  5
12F
  8
BARVA
  6
CONTINUOUS
 10
484389.39258804038
 20
230834.04299124851
 30
2.0
  0
VERTEX
  5
130
  8
BARVA
  6
CONTINUOUS
 10
484387.52579199878
 20
230826.5795918607
 30
2.0
  0
SEQEND
  5
131
  8
BARVA
  6
CONTINUOUS
  0
POLYLINE
  5
7B
  8
BARVA
  6
CONTINUOUS
 66
     1
 10
0.0
 20
0.0
 30
0.388
 70
   129
  0
VERTEX
  5
132
  8
BARVA
  6
CONTINUOUS
 10
485021.59805240767
 20
228935.56816475731
 30
0.388
  0
VERTEX
  5
133
  8
BARVA
  6
CONTINUOUS
 10
485033.617020034
 20
228935.4389734201
 30
0.388
  0
VERTEX
  5
134
  8
BARVA
  6
CONTINUOUS
 10
485051.83932816412
 20
228934.66396077021
 30
0.388
  0
VERTEX
  5
135
  8
BARVA
  6
CONTINUOUS
 10
485070.9663008505
 20
228934.53476943291
 30
0.388
  0
VERTEX
  5
136
  8
BARVA
  6
CONTINUOUS
 10
485093.06574279419
 20
228935.18063587011
 30
0.388
  0
VERTEX
  5
137
  8
BARVA
  6
CONTINUOUS
 10
485099.9152722669
 20
228936.0848849818
 30
0.388
  0
VERTEX
  5
138
  8
BARVA
  6
CONTINUOUS
 10
485105.73089938943
 20
228935.4389734201
 30
0.388
  0
VERTEX
  5
139
  8
BARVA
  6
CONTINUOUS
 10
485109.34948401741
 20
228934.0180492083
 30
0.388
  0
VERTEX
  5
13A
  8
BARVA
  6
CONTINUOUS
 10
485113.75210635469
 20
228954.4720206194
 30
0.388
  0
VERTEX
  5
13B
  8
BARVA
  6
CONTINUOUS
 10
485113.59004392772
 20
228962.08424676099
 30
0.388
  0
VERTEX
  5
13C
  8
BARVA
  6
CONTINUOUS
 10
485111.64558919432
 20
228966.94306842639
 30
0.388
  0
VERTEX
  5
13D
  8
BARVA
  6
CONTINUOUS
 10
485112.77987898811
 20
228973.09763904341
 30
0.388
  0
VERTEX
  5
13E
  8
BARVA
  6
CONTINUOUS
 10
485114.0761576111
 20
228978.44240604961
 30
0.388
  0
VERTEX
  5
13F
  8
BARVA
  6
CONTINUOUS
 10
485114.72433372121
 20
228983.78712793131
 30
0.388
  0
VERTEX
  5
140
  8
BARVA
  6
CONTINUOUS
 10
485111.80765162117
 20
228992.6950579001
 30
0.388
  0
VERTEX
  5
141
  8
BARVA
  6
CONTINUOUS
 10
485110.51129940042
 20
229001.76493956611
 30
0.388
  0
VERTEX
  5
142
  8
BARVA
  6
CONTINUOUS
 10
485110.18724814412
 20
229005.1661508315
 30
0.388
  0
VERTEX
  5
143
  8
BARVA
  6
CONTINUOUS
 10
485110.67336182762
 20
229010.83482123219
 30
0.388
  0
VERTEX
  5
144
  8
BARVA
  6
CONTINUOUS
 10
485111.48352676717
 20
229017.31329524389
 30
0.388
  0
VERTEX
  5
145
  8
BARVA
  6
CONTINUOUS
 10
485108.08073098381
 20
229019.2568509847
 30
0.388
  0
VERTEX
  5
146
  8
BARVA
  6
CONTINUOUS
 10
485104.67793520028
 20
229020.87645820651
 30
0.388
  0
VERTEX
  5
147
  8
BARVA
  6
CONTINUOUS
 10
485093.33518445858
 20
229023.4678658609
 30
0.388
  0
VERTEX
  5
148
  8
BARVA
  6
CONTINUOUS
 10
485085.55729192728
 20
229021.0384099037
 30
0.388
  0
VERTEX
  5
149
  8
BARVA
  6
CONTINUOUS
 10
485070.81174540258
 20
229021.0384099037
 30
0.388
  0
VERTEX
  5
14A
  8
BARVA
  6
CONTINUOUS
 10
485055.41802276688
 20
229020.5525096874
 30
0.388
  0
VERTEX
  5
14B
  8
BARVA
  6
CONTINUOUS
 10
485050.71887476282
 20
229022.01021033651
 30
0.388
  0
VERTEX
  5
14C
  8
BARVA
  6
CONTINUOUS
 10
485043.58915834181
 20
229023.4678658609
 30
0.388
  0
VERTEX
  5
14D
  8
BARVA
  6
CONTINUOUS
 10
485033.70482224802
 20
229023.14391734189
 30
0.388
  0
VERTEX
  5
14E
  8
BARVA
  6
CONTINUOUS
 10
485021.22778171278
 20
229021.52431012009
 30
0.388
  0
VERTEX
  5
14F
  8
BARVA
  6
CONTINUOUS
 10
485019.76944066258
 20
229012.77833184859
 30
0.388
  0
VERTEX
  5
150
  8
BARVA
  6
CONTINUOUS
 10
485021.22778171278
 20
229009.05321718869
 30
0.388
  0
VERTEX
  5
151
  8
BARVA
  6
CONTINUOUS
 10
485023.65835012938
 20
228999.98333552259
 30
0.388
  0
VERTEX
  5
152
  8
BARVA
  6
CONTINUOUS
 10
485026.73709465639
 20
228991.07545067841
 30
0.388
  0
VERTEX
  5
153
  8
BARVA
  6
CONTINUOUS
 10
485023.49636130012
 20
228977.47060561689
 30
0.388
  0
VERTEX
  5
154
  8
BARVA
  6
CONTINUOUS
 10
485021.87595782313
 20
228966.94306842639
 30
0.388
  0
VERTEX
  5
155
  8
BARVA
  6
CONTINUOUS
 10
485023.82041255641
 20
228950.90885765679
 30
0.388
  0
VERTEX
  5
156
  8
BARVA
  6
CONTINUOUS
 10
485020.90373045643
 20
228946.049990867
 30
0.388
  0
VERTEX
  5
157
  8
BARVA
  6
CONTINUOUS
 10
485020.90373045643
 20
228941.0291723799
 30
0.388
  0
SEQEND
  5
158
  8
BARVA
  6
CONTINUOUS
  0
POLYLINE
  5
7C
  8
BARVA
  6
CONTINUOUS
 66
     1
 10
0.0
 20
0.0
 30
5.556
 70
   129
  0
VERTEX
  5
159
  8
BARVA
  6
CONTINUOUS
 10
489469.17240013642
 20
232514.33733261781
 30
5.556
  0
VERTEX
  5
15A
  8
BARVA
  6
CONTINUOUS
 10
489463.55747430312
 20
232511.21941273051
 30
5.556
  0
VERTEX
  5
15B
  8
BARVA
  6
CONTINUOUS
 10
489451.70380740851
 20
232510.59583777789
 30
5.556
  0
VERTEX
  5
15C
  8
BARVA
  6
CONTINUOUS
 10
489441.09791816532
 20
232515.58448252291
 30
5.556
  0
VERTEX
  5
15D
  8
BARVA
  6
CONTINUOUS
 10
489440.47402933962
 20
232511.21941273051
 30
5.556
  0
VERTEX
  5
15E
  8
BARVA
  6
CONTINUOUS
 10
489423.35061044578
 20
232512.4191368251
 30
5.556
  0
VERTEX
  5
15F
  8
BARVA
  6
CONTINUOUS
 10
489413.03668380401
 20
232515.67459607529
 30
5.556
  0
VERTEX
  5
160
  8
BARVA
  6
CONTINUOUS
 10
489409.28017683799
 20
232533.04476169299
 30
5.556
  0
VERTEX
  5
161
  8
BARVA
  6
CONTINUOUS
 10
489401.79358452751
 20
232544.26920108829
 30
5.556
  0
VERTEX
  5
162
  8
BARVA
  6
CONTINUOUS
 10
489400.5458804738
 20
232552.37576572079
 30
5.556
  0
VERTEX
  5
163
  8
BARVA
  6
CONTINUOUS
 10
489407.40851036092
 20
232562.35305521099
 30
5.556
  0
VERTEX
  5
164
  8
BARVA
  6
CONTINUOUS
 10
489407.40851036092
 20
232580.4369093336
 30
5.556
  0
VERTEX
  5
165
  8
BARVA
  6
CONTINUOUS
 10
489414.27114024758
 20
232596.64999347401
 30
5.556
  0
VERTEX
  5
166
  8
BARVA
  6
CONTINUOUS
 10
489414.89502907341
 20
232599.7679133614
 30
5.556
  0
VERTEX
  5
167
  8
BARVA
  6
CONTINUOUS
 10
489425.5009919143
 20
232597.27356842661
 30
5.556
  0
VERTEX
  5
168
  8
BARVA
  6
CONTINUOUS
 10
489439.85014051379
 20
232599.7679133614
 30
5.556
  0
VERTEX
  5
169
  8
BARVA
  6
CONTINUOUS
 10
489441.09791816532
 20
232599.14429328431
 30
5.556
  0
VERTEX
  5
16A
  8
BARVA
  6
CONTINUOUS
 10
489444.84117752168
 20
232597.27356842661
 30
5.556
  0
VERTEX
  5
16B
  8
BARVA
  6
CONTINUOUS
 10
489466.05295600812
 20
232601.01506326659
 30
5.556
  0
VERTEX
  5
16C
  8
BARVA
  6
CONTINUOUS
 10
489469.79621536419
 20
232595.40284356879
 30
5.556
  0
VERTEX
  5
16D
  8
BARVA
  6
CONTINUOUS
 10
489478.5305117282
 20
232596.02641852139
 30
5.556
  0
VERTEX
  5
16E
  8
BARVA
  6
CONTINUOUS
 10
489484.1454375615
 20
232596.02641852139
 30
5.556
  0
VERTEX
  5
16F
  8
BARVA
  6
CONTINUOUS
 10
489487.26480809221
 20
232590.4141988238
 30
5.556
  0
VERTEX
  5
170
  8
BARVA
  6
CONTINUOUS
 10
489489.13647456921
 20
232577.94256439881
 30
5.556
  0
VERTEX
  5
171
  8
BARVA
  6
CONTINUOUS
 10
489491.63195627398
 20
232562.9766301635
 30
5.556
  0
VERTEX
  5
172
  8
BARVA
  6
CONTINUOUS
 10
489492.25584509998
 20
232555.49364048371
 30
5.556
  0
VERTEX
  5
173
  8
BARVA
  6
CONTINUOUS
 10
489497.24688210752
 20
232548.01069592821
 30
5.556
  0
VERTEX
  5
174
  8
BARVA
  6
CONTINUOUS
 10
489497.24688210752
 20
232544.89277604091
 30
5.556
  0
VERTEX
  5
175
  8
BARVA
  6
CONTINUOUS
 10
489494.28118385113
 20
232527.24960742271
 30
5.556
  0
VERTEX
  5
176
  8
BARVA
  6
CONTINUOUS
 10
489488.85282852303
 20
232512.4191368251
 30
5.556
  0
VERTEX
  5
177
  8
BARVA
  6
CONTINUOUS
 10
489478.53890188108
 20
232512.78085451949
 30
5.556
  0
SEQEND
  5
178
  8
BARVA
  6
CONTINUOUS
  0
POLYLINE
  5
7D
  8
BARVA
  6
CONTINUOUS
 66
     1
 10
0.0
 20
0.0
 30
66.666999999999973
 70
   129
  0
VERTEX
  5
179
  8
BARVA
  6
CONTINUOUS
 10
488112.16109486268
 20
234206.7371170616
 30
66.666999999999973
  0
VERTEX
  5
17A
  8
BARVA
  6
CONTINUOUS
 10
488080.12601844128
 20
234191.42327824089
 30
66.666999999999973
  0
VERTEX
  5
17B
  8
BARVA
  6
CONTINUOUS
 10
488071.7691013267
 20
234217.8744543856
 30
66.666999999999973
  0
VERTEX
  5
17C
  8
BARVA
  6
CONTINUOUS
 10
488071.7691013267
 20
234234.58041114561
 30
66.666999999999973
  0
VERTEX
  5
17D
  8
BARVA
  6
CONTINUOUS
 10
488073.16193422722
 20
234259.63942012491
 30
66.666999999999973
  0
VERTEX
  5
17E
  8
BARVA
  6
CONTINUOUS
 10
488096.84001324599
 20
234254.07075146289
 30
66.666999999999973
  0
VERTEX
  5
17F
  8
BARVA
  6
CONTINUOUS
 10
488126.08934357861
 20
234251.28641713181
 30
66.666999999999973
  0
VERTEX
  5
180
  8
BARVA
  6
CONTINUOUS
 10
488137.23192649428
 20
234256.85508579391
 30
66.666999999999973
  0
VERTEX
  5
181
  8
BARVA
  6
CONTINUOUS
 10
488152.55308839859
 20
234242.93341413871
 30
66.666999999999973
  0
VERTEX
  5
182
  8
BARVA
  6
CONTINUOUS
 10
488152.55308839859
 20
234222.05095588221
 30
66.666999999999973
  0
VERTEX
  5
183
  8
BARVA
  6
CONTINUOUS
 10
488152.55308839859
 20
234213.69795288911
 30
66.666999999999973
  0
VERTEX
  5
184
  8
BARVA
  6
CONTINUOUS
 10
488144.19609099609
 20
234198.3841140685
 30
66.666999999999973
  0
VERTEX
  5
185
  8
BARVA
  6
CONTINUOUS
 10
488127.48217647913
 20
234199.77628123399
 30
66.666999999999973
  0
SEQEND
  5
186
  8
BARVA
  6
CONTINUOUS
  0
POLYLINE
  5
7E
  8
BARVA
  6
CONTINUOUS
 66
     1
 10
0.0
 20
0.0
 30
0.699
 70
   129
  0
VERTEX
  5
187
  8
BARVA
  6
CONTINUOUS
 10
487434.57220956229
 20
235703.32188060519
 30
0.699
  0
VERTEX
  5
188
  8
BARVA
  6
CONTINUOUS
 10
487423.75514726242
 20
235704.86644990119
 30
0.699
  0
VERTEX
  5
189
  8
BARVA
  6
CONTINUOUS
 10
487413.71069723991
 20
235709.50011483461
 30
0.699
  0
VERTEX
  5
18A
  8
BARVA
  6
CONTINUOUS
 10
487409.07481339719
 20
235714.13382272271
 30
0.699
  0
VERTEX
  5
18B
  8
BARVA
  6
CONTINUOUS
 10
487408.30213106028
 20
235723.4011955442
 30
0.699
  0
VERTEX
  5
18C
  8
BARVA
  6
CONTINUOUS
 10
487410.62010801141
 20
235731.89628371771
 30
0.699
  0
VERTEX
  5
18D
  8
BARVA
  6
CONTINUOUS
 10
487419.89187569689
 20
235735.7577069579
 30
0.699
  0
VERTEX
  5
18E
  8
BARVA
  6
CONTINUOUS
 10
487443.74708544719
 20
235733.945615064
 30
0.699
  0
VERTEX
  5
18F
  8
BARVA
  6
CONTINUOUS
 10
487460.84999457042
 20
235721.49614942711
 30
0.699
  0
VERTEX
  5
190
  8
BARVA
  6
CONTINUOUS
 10
487466.02372248803
 20
235708.57108806071
 30
0.699
  0
VERTEX
  5
191
  8
BARVA
  6
CONTINUOUS
 10
487450.79783804168
 20
235703.32188060519
 30
0.699
  0
SEQEND
  5
192
  8
BARVA
  6
CONTINUOUS
  0
POLYLINE
  5
7F
  8
BARVA
  6
CONTINUOUS
 66
     1
 10
0.0
 20
0.0
 30
187.5
 70
   129
  0
VERTEX
  5
193
  8
BARVA
  6
CONTINUOUS
 10
487622.74255118921
 20
234673.8092183471
 30
187.5
  0
VERTEX
  5
194
  8
BARVA
  6
CONTINUOUS
 10
487600.77224334481
 20
234683.05547272979
 30
187.5
  0
VERTEX
  5
195
  8
BARVA
  6
CONTINUOUS
 10
487629.68055572553
 20
234732.75422748699
 30
187.5
  0
VERTEX
  5
196
  8
BARVA
  6
CONTINUOUS
 10
487641.2438567651
 20
234742.00048186971
 30
187.5
  0
VERTEX
  5
197
  8
BARVA
  6
CONTINUOUS
 10
487652.31874275458
 20
234730.4430120984
 30
187.5
  0
VERTEX
  5
198
  8
BARVA
  6
CONTINUOUS
 10
487662.44776547322
 20
234729.03691522041
 30
187.5
  0
VERTEX
  5
199
  8
BARVA
  6
CONTINUOUS
 10
487672.46487717913
 20
234723.50789979749
 30
187.5
  0
VERTEX
  5
19A
  8
BARVA
  6
CONTINUOUS
 10
487680.55917595048
 20
234701.54805480191
 30
187.5
  0
VERTEX
  5
19B
  8
BARVA
  6
CONTINUOUS
 10
487671.30858294398
 20
234684.21130034441
 30
187.5
  0
VERTEX
  5
19C
  8
BARVA
  6
CONTINUOUS
 10
487656.27627963608
 20
234681.89971842201
 30
187.5
  0
SEQEND
  5
19D
  8
BARVA
  6
CONTINUOUS
  0
POLYLINE
  5
80
  8
BARVA
  6
CONTINUOUS
 66
     1
 10
0.0
 20
0.0
 30
0.356
 70
   129
  0
VERTEX
  5
19E
  8
BARVA
  6
CONTINUOUS
 10
486680.94659147412
 20
234420.497201222
 30
0.356
  0
VERTEX
  5
19F
  8
BARVA
  6
CONTINUOUS
 10
486655.5556151538
 20
234416.5591036343
 30
0.356
  0
VERTEX
  5
1A0
  8
BARVA
  6
CONTINUOUS
 10
486627.1001816669
 20
234428.37343935241
 30
0.356
  0
VERTEX
  5
1A1
  8
BARVA
  6
CONTINUOUS
 10
486618.78247945081
 20
234433.62423613621
 30
0.356
  0
VERTEX
  5
1A2
  8
BARVA
  6
CONTINUOUS
 10
486613.9669639538
 20
234450.68936863809
 30
0.356
  0
VERTEX
  5
1A3
  8
BARVA
  6
CONTINUOUS
 10
486613.9669639538
 20
234455.5025847049
 30
0.356
  0
VERTEX
  5
1A4
  8
BARVA
  6
CONTINUOUS
 10
486597.76921901491
 20
234497.5090448843
 30
0.356
  0
VERTEX
  5
1A5
  8
BARVA
  6
CONTINUOUS
 10
486593.82923268329
 20
234511.51119827741
 30
0.356
  0
VERTEX
  5
1A6
  8
BARVA
  6
CONTINUOUS
 10
486595.58036107261
 20
234525.51335167061
 30
0.356
  0
VERTEX
  5
1A7
  8
BARVA
  6
CONTINUOUS
 10
486626.22465250181
 20
234532.5144283672
 30
0.356
  0
VERTEX
  5
1A8
  8
BARVA
  6
CONTINUOUS
 10
486663.43551775807
 20
234530.76419140911
 30
0.356
  0
VERTEX
  5
1A9
  8
BARVA
  6
CONTINUOUS
 10
486687.95096491318
 20
234530.76419140911
 30
0.356
  0
VERTEX
  5
1AA
  8
BARVA
  6
CONTINUOUS
 10
486694.95540841168
 20
234528.57633077929
 30
0.356
  0
VERTEX
  5
1AB
  8
BARVA
  6
CONTINUOUS
 10
486691.45315163292
 20
234517.1995757781
 30
0.356
  0
VERTEX
  5
1AC
  8
BARVA
  6
CONTINUOUS
 10
486688.82649407833
 20
234489.63284970869
 30
0.356
  0
VERTEX
  5
1AD
  8
BARVA
  6
CONTINUOUS
 10
486688.82649407833
 20
234467.31692042309
 30
0.356
  0
VERTEX
  5
1AE
  8
BARVA
  6
CONTINUOUS
 10
486688.82649407833
 20
234449.81420720441
 30
0.356
  0
VERTEX
  5
1AF
  8
BARVA
  6
CONTINUOUS
 10
486688.38876452541
 20
234438.43745220301
 30
0.356
  0
VERTEX
  5
1B0
  8
BARVA
  6
CONTINUOUS
 10
486688.38876452541
 20
234434.4993546152
 30
0.356
  0
VERTEX
  5
1B1
  8
BARVA
  6
CONTINUOUS
 10
486687.07543574821
 20
234424.43529880981
 30
0.356
  0
SEQEND
  5
1B2
  8
BARVA
  6
CONTINUOUS
  0
POLYLINE
  5
81
  8
BARVA
  6
CONTINUOUS
 66
     1
 10
0.0
 20
0.0
 30
4.7999999999999989
 70
   129
  0
VERTEX
  5
1B3
  8
BARVA
  6
CONTINUOUS
 10
487137.91123366723
 20
234787.1500228825
 30
4.7999999999999989
  0
VERTEX
  5
1B4
  8
BARVA
  6
CONTINUOUS
 10
487154.15458711109
 20
234785.51967281749
 30
4.7999999999999989
  0
VERTEX
  5
1B5
  8
BARVA
  6
CONTINUOUS
 10
487159.17502561398
 20
234785.35240676161
 30
4.7999999999999989
  0
VERTEX
  5
1B6
  8
BARVA
  6
CONTINUOUS
 10
487169.216042738
 20
234784.01423535941
 30
4.7999999999999989
  0
VERTEX
  5
1B7
  8
BARVA
  6
CONTINUOUS
 10
487173.37797644892
 20
234784.07643393389
 30
4.7999999999999989
  0
VERTEX
  5
1B8
  8
BARVA
  6
CONTINUOUS
 10
487178.82626616489
 20
234786.22172634039
 30
4.7999999999999989
  0
VERTEX
  5
1B9
  8
BARVA
  6
CONTINUOUS
 10
487183.0473998551
 20
234788.9967363585
 30
4.7999999999999989
  0
VERTEX
  5
1BA
  8
BARVA
  6
CONTINUOUS
 10
487187.58036681032
 20
234791.9319678426
 30
4.7999999999999989
  0
VERTEX
  5
1BB
  8
BARVA
  6
CONTINUOUS
 10
487189.37240974198
 20
234792.9405039821
 30
4.7999999999999989
  0
VERTEX
  5
1BC
  8
BARVA
  6
CONTINUOUS
 10
487190.08021730802
 20
234793.37701082861
 30
4.7999999999999989
  0
VERTEX
  5
1BD
  8
BARVA
  6
CONTINUOUS
 10
487190.96107096848
 20
234792.2449795914
 30
4.7999999999999989
  0
VERTEX
  5
1BE
  8
BARVA
  6
CONTINUOUS
 10
487191.8422048653
 20
234790.5772588361
 30
4.7999999999999989
  0
VERTEX
  5
1BF
  8
BARVA
  6
CONTINUOUS
 10
487193.43464928569
 20
234787.81122637459
 30
4.7999999999999989
  0
VERTEX
  5
1C0
  8
BARVA
  6
CONTINUOUS
 10
487194.67581714119
 20
234786.55174819639
 30
4.7999999999999989
  0
VERTEX
  5
1C1
  8
BARVA
  6
CONTINUOUS
 10
487195.23047541123
 20
234785.63758378921
 30
4.7999999999999989
  0
VERTEX
  5
1C2
  8
BARVA
  6
CONTINUOUS
 10
487195.70253394631
 20
234784.94631192519
 30
4.7999999999999989
  0
VERTEX
  5
1C3
  8
BARVA
  6
CONTINUOUS
 10
487195.8369073912
 20
234784.18141550571
 30
4.7999999999999989
  0
VERTEX
  5
1C4
  8
BARVA
  6
CONTINUOUS
 10
487195.74898316112
 20
234782.42623874391
 30
4.7999999999999989
  0
VERTEX
  5
1C5
  8
BARVA
  6
CONTINUOUS
 10
487195.6663834264
 20
234781.35361401789
 30
4.7999999999999989
  0
VERTEX
  5
1C6
  8
BARVA
  6
CONTINUOUS
 10
487195.08853557857
 20
234779.95092448109
 30
4.7999999999999989
  0
VERTEX
  5
1C7
  8
BARVA
  6
CONTINUOUS
 10
487193.40823698719
 20
234779.02490454441
 30
4.7999999999999989
  0
VERTEX
  5
1C8
  8
BARVA
  6
CONTINUOUS
 10
487192.29205465078
 20
234777.96907515189
 30
4.7999999999999989
  0
VERTEX
  5
1C9
  8
BARVA
  6
CONTINUOUS
 10
487192.0728395785
 20
234775.69801104229
 30
4.7999999999999989
  0
VERTEX
  5
1CA
  8
BARVA
  6
CONTINUOUS
 10
487191.55545277492
 20
234771.94908646689
 30
4.7999999999999989
  0
VERTEX
  5
1CB
  8
BARVA
  6
CONTINUOUS
 10
487191.29868599988
 20
234770.02969344109
 30
4.7999999999999989
  0
VERTEX
  5
1CC
  8
BARVA
  6
CONTINUOUS
 10
487190.87854129268
 20
234768.31695603789
 30
4.7999999999999989
  0
VERTEX
  5
1CD
  8
BARVA
  6
CONTINUOUS
 10
487190.63088220672
 20
234767.82185882161
 30
4.7999999999999989
  0
VERTEX
  5
1CE
  8
BARVA
  6
CONTINUOUS
 10
487190.25172210089
 20
234766.61156390849
 30
4.7999999999999989
  0
VERTEX
  5
1CF
  8
BARVA
  6
CONTINUOUS
 10
487189.8023627295
 20
234765.0845631324
 30
4.7999999999999989
  0
VERTEX
  5
1D0
  8
BARVA
  6
CONTINUOUS
 10
487189.26318753109
 20
234763.4078648205
 30
4.7999999999999989
  0
VERTEX
  5
1D1
  8
BARVA
  6
CONTINUOUS
 10
487189.32771200582
 20
234761.5171226573
 30
4.7999999999999989
  0
VERTEX
  5
1D2
  8
BARVA
  6
CONTINUOUS
 10
487189.01426738029
 20
234758.5928016965
 30
4.7999999999999989
  0
VERTEX
  5
1D3
  8
BARVA
  6
CONTINUOUS
 10
487188.90973913239
 20
234756.13844938439
 30
4.7999999999999989
  0
VERTEX
  5
1D4
  8
BARVA
  6
CONTINUOUS
 10
487189.31187863852
 20
234753.1467323165
 30
4.7999999999999989
  0
VERTEX
  5
1D5
  8
BARVA
  6
CONTINUOUS
 10
487192.39188893582
 20
234745.6811851878
 30
4.7999999999999989
  0
VERTEX
  5
1D6
  8
BARVA
  6
CONTINUOUS
 10
487197.1114934599
 20
234739.13358249029
 30
4.7999999999999989
  0
VERTEX
  5
1D7
  8
BARVA
  6
CONTINUOUS
 10
487199.02726084559
 20
234735.30381695001
 30
4.7999999999999989
  0
VERTEX
  5
1D8
  8
BARVA
  6
CONTINUOUS
 10
487200.94302823138
 20
234733.6835183122
 30
4.7999999999999989
  0
VERTEX
  5
1D9
  8
BARVA
  6
CONTINUOUS
 10
487201.67991034372
 20
234732.2105546956
 30
4.7999999999999989
  0
VERTEX
  5
1DA
  8
BARVA
  6
CONTINUOUS
 10
487201.32120750879
 20
234728.27610826711
 30
4.7999999999999989
  0
VERTEX
  5
1DB
  8
BARVA
  6
CONTINUOUS
 10
487200.3145276201
 20
234723.3226447241
 30
4.7999999999999989
  0
VERTEX
  5
1DC
  8
BARVA
  6
CONTINUOUS
 10
487199.07560165733
 20
234716.7438138749
 30
4.7999999999999989
  0
VERTEX
  5
1DD
  8
BARVA
  6
CONTINUOUS
 10
487196.57638169202
 20
234708.51148031469
 30
4.7999999999999989
  0
VERTEX
  5
1DE
  8
BARVA
  6
CONTINUOUS
 10
487198.58182478638
 20
234702.11378992721
 30
4.7999999999999989
  0
VERTEX
  5
1DF
  8
BARVA
  6
CONTINUOUS
 10
487201.00580122741
 20
234697.77526753879
 30
4.7999999999999989
  0
VERTEX
  5
1E0
  8
BARVA
  6
CONTINUOUS
 10
487202.3023158093
 20
234696.1412663146
 30
4.7999999999999989
  0
VERTEX
  5
1E1
  8
BARVA
  6
CONTINUOUS
 10
487203.54250283662
 20
234694.28192412239
 30
4.7999999999999989
  0
VERTEX
  5
1E2
  8
BARVA
  6
CONTINUOUS
 10
487204.2189239047
 20
234693.49310186991
 30
4.7999999999999989
  0
VERTEX
  5
1E3
  8
BARVA
  6
CONTINUOUS
 10
487179.17607148801
 20
234689.25230168941
 30
4.7999999999999989
  0
VERTEX
  5
1E4
  8
BARVA
  6
CONTINUOUS
 10
487165.12325740588
 20
234688.7917831004
 30
4.7999999999999989
  0
VERTEX
  5
1E5
  8
BARVA
  6
CONTINUOUS
 10
487152.2222157073
 20
234690.63390041119
 30
4.7999999999999989
  0
VERTEX
  5
1E6
  8
BARVA
  6
CONTINUOUS
 10
487140.47308651032
 20
234689.02206387231
 30
4.7999999999999989
  0
VERTEX
  5
1E7
  8
BARVA
  6
CONTINUOUS
 10
487129.64551533828
 20
234693.16681708279
 30
4.7999999999999989
  0
VERTEX
  5
1E8
  8
BARVA
  6
CONTINUOUS
 10
487119.0482986428
 20
234699.614249148
 30
4.7999999999999989
  0
VERTEX
  5
1E9
  8
BARVA
  6
CONTINUOUS
 10
487124.8076509735
 20
234707.44327993511
 30
4.7999999999999989
  0
VERTEX
  5
1EA
  8
BARVA
  6
CONTINUOUS
 10
487125.2683599267
 20
234719.87758252141
 30
4.7999999999999989
  0
VERTEX
  5
1EB
  8
BARVA
  6
CONTINUOUS
 10
487121.35198352771
 20
234736.91724281709
 30
4.7999999999999989
  0
VERTEX
  5
1EC
  8
BARVA
  6
CONTINUOUS
 10
487119.50900759612
 20
234754.6476595189
 30
4.7999999999999989
  0
VERTEX
  5
1ED
  8
BARVA
  6
CONTINUOUS
 10
487117.3015139206
 20
234770.2724311098
 30
4.7999999999999989
  0
VERTEX
  5
1EE
  8
BARVA
  6
CONTINUOUS
 10
487120.2197576465
 20
234780.0757511782
 30
4.7999999999999989
  0
VERTEX
  5
1EF
  8
BARVA
  6
CONTINUOUS
 10
487123.46671889222
 20
234787.6260052053
 30
4.7999999999999989
  0
SEQEND
  5
1F0
  8
BARVA
  6
CONTINUOUS
  0
POLYLINE
  5
82
  8
BARVA
  6
CONTINUOUS
 66
     1
 10
0.0
 20
0.0
 30
0.362
 70
   129
  0
VERTEX
  5
1F1
  8
BARVA
  6
CONTINUOUS
 10
485738.91681112372
 20
235122.15224719199
 30
0.362
  0
VERTEX
  5
1F2
  8
BARVA
  6
CONTINUOUS
 10
485733.374275273
 20
235130.92378760621
 30
0.362
  0
VERTEX
  5
1F3
  8
BARVA
  6
CONTINUOUS
 10
485728.75543159363
 20
235142.46531697639
 30
0.362
  0
VERTEX
  5
1F4
  8
BARVA
  6
CONTINUOUS
 10
485730.60300734802
 20
235157.23844796879
 30
0.362
  0
VERTEX
  5
1F5
  8
BARVA
  6
CONTINUOUS
 10
485736.607421186
 20
235164.16334211911
 30
0.362
  0
VERTEX
  5
1F6
  8
BARVA
  6
CONTINUOUS
 10
485745.845044741
 20
235167.85663464721
 30
0.362
  0
VERTEX
  5
1F7
  8
BARVA
  6
CONTINUOUS
 10
485766.7479108132
 20
235174.37714827771
 30
0.362
  0
VERTEX
  5
1F8
  8
BARVA
  6
CONTINUOUS
 10
485778.1766314769
 20
235175.2432197032
 30
0.362
  0
VERTEX
  5
1F9
  8
BARVA
  6
CONTINUOUS
 10
485798.96126852441
 20
235175.2432197032
 30
0.362
  0
VERTEX
  5
1FA
  8
BARVA
  6
CONTINUOUS
 10
485799.42314651213
 20
235170.1649326972
 30
0.362
  0
VERTEX
  5
1FB
  8
BARVA
  6
CONTINUOUS
 10
485809.12264805468
 20
235151.6985091767
 30
0.362
  0
VERTEX
  5
1FC
  8
BARVA
  6
CONTINUOUS
 10
485814.2033059175
 20
235143.3886205485
 30
0.362
  0
VERTEX
  5
1FD
  8
BARVA
  6
CONTINUOUS
 10
485818.8220857929
 20
235132.30878208409
 30
0.362
  0
VERTEX
  5
1FE
  8
BARVA
  6
CONTINUOUS
 10
485817.43645183032
 20
235120.30560092779
 30
0.362
  0
VERTEX
  5
1FF
  8
BARVA
  6
CONTINUOUS
 10
485810.04640402982
 20
235113.38066765791
 30
0.362
  0
VERTEX
  5
200
  8
BARVA
  6
CONTINUOUS
 10
485804.04192638752
 20
235104.14747545749
 30
0.362
  0
VERTEX
  5
201
  8
BARVA
  6
CONTINUOUS
 10
485785.10486509418
 20
235100.91583471559
 30
0.362
  0
VERTEX
  5
202
  8
BARVA
  6
CONTINUOUS
 10
485770.32470568881
 20
235100.91583471559
 30
0.362
  0
VERTEX
  5
203
  8
BARVA
  6
CONTINUOUS
 10
485758.77769219602
 20
235097.6841939736
 30
0.362
  0
VERTEX
  5
204
  8
BARVA
  6
CONTINUOUS
 10
485750.00194662879
 20
235095.8375477095
 30
0.362
  0
VERTEX
  5
205
  8
BARVA
  6
CONTINUOUS
 10
485745.845044741
 20
235098.1458848794
 30
0.362
  0
VERTEX
  5
206
  8
BARVA
  6
CONTINUOUS
 10
485734.7599092357
 20
235103.22413276561
 30
0.362
  0
VERTEX
  5
207
  8
BARVA
  6
CONTINUOUS
 10
485733.374275273
 20
235108.30241977159
 30
0.362
  0
VERTEX
  5
208
  8
BARVA
  6
CONTINUOUS
 10
485734.7599092357
 20
235111.07236960769
 30
0.362
  0
VERTEX
  5
209
  8
BARVA
  6
CONTINUOUS
 10
485737.99305514852
 20
235117.07396018589
 30
0.362
  0
SEQEND
  5
20A
  8
BARVA
  6
CONTINUOUS
  0
POLYLINE
  5
83
  8
BARVA
  6
CONTINUOUS
 66
     1
 10
0.0
 20
0.0
 30
0.5
 70
   129
  0
VERTEX
  5
20B
  8
BARVA
  6
CONTINUOUS
 10
484979.92660435318
 20
235951.7581497613
 30
0.5
  0
VERTEX
  5
20C
  8
BARVA
  6
CONTINUOUS
 10
484967.56634361239
 20
235941.62759036149
 30
0.5
  0
VERTEX
  5
20D
  8
BARVA
  6
CONTINUOUS
 10
484956.44215998898
 20
235937.67419083189
 30
0.5
  0
VERTEX
  5
20E
  8
BARVA
  6
CONTINUOUS
 10
484948.28435727401
 20
235936.93291130531
 30
0.5
  0
VERTEX
  5
20F
  8
BARVA
  6
CONTINUOUS
 10
484921.58629105613
 20
235935.45039137159
 30
0.5
  0
VERTEX
  5
210
  8
BARVA
  6
CONTINUOUS
 10
484910.95646171481
 20
235942.61591090419
 30
0.5
  0
VERTEX
  5
211
  8
BARVA
  6
CONTINUOUS
 10
484908.48443508829
 20
235953.24066969499
 30
0.5
  0
VERTEX
  5
212
  8
BARVA
  6
CONTINUOUS
 10
484903.78755897633
 20
235967.8188280155
 30
0.5
  0
VERTEX
  5
213
  8
BARVA
  6
CONTINUOUS
 10
484909.72044840158
 20
235983.63238701419
 30
0.5
  0
VERTEX
  5
214
  8
BARVA
  6
CONTINUOUS
 10
484912.43971597322
 20
235993.7629855338
 30
0.5
  0
VERTEX
  5
215
  8
BARVA
  6
CONTINUOUS
 10
484920.84469582909
 20
236002.1639448643
 30
0.5
  0
VERTEX
  5
216
  8
BARVA
  6
CONTINUOUS
 10
484930.23844805302
 20
236007.3527841919
 30
0.5
  0
VERTEX
  5
217
  8
BARVA
  6
CONTINUOUS
 10
484936.6657555647
 20
236009.32946439681
 30
0.5
  0
VERTEX
  5
218
  8
BARVA
  6
CONTINUOUS
 10
484949.76761153247
 20
236011.0590644661
 30
0.5
  0
VERTEX
  5
219
  8
BARVA
  6
CONTINUOUS
 10
484955.70050095773
 20
236013.03578379081
 30
0.5
  0
VERTEX
  5
21A
  8
BARVA
  6
CONTINUOUS
 10
484961.38621324179
 20
236013.03578379081
 30
0.5
  0
VERTEX
  5
21B
  8
BARVA
  6
CONTINUOUS
 10
484971.5216244972
 20
236011.8003439928
 30
0.5
  0
VERTEX
  5
21C
  8
BARVA
  6
CONTINUOUS
 10
484979.67936340801
 20
236009.57654453249
 30
0.5
  0
VERTEX
  5
21D
  8
BARVA
  6
CONTINUOUS
 10
484976.21850060922
 20
236001.4226653376
 30
0.5
  0
VERTEX
  5
21E
  8
BARVA
  6
CONTINUOUS
 10
484976.46574155439
 20
235998.70470560601
 30
0.5
  0
VERTEX
  5
21F
  8
BARVA
  6
CONTINUOUS
 10
484976.96015964053
 20
235991.53918607341
 30
0.5
  0
VERTEX
  5
220
  8
BARVA
  6
CONTINUOUS
 10
484978.44335009478
 20
235985.6091063389
 30
0.5
  0
VERTEX
  5
221
  8
BARVA
  6
CONTINUOUS
 10
484982.3986309797
 20
235976.96102775299
 30
0.5
  0
VERTEX
  5
222
  8
BARVA
  6
CONTINUOUS
 10
484981.90421289351
 20
235971.77222754509
 30
0.5
  0
VERTEX
  5
223
  8
BARVA
  6
CONTINUOUS
 10
484980.66819958028
 20
235966.58338821749
 30
0.5
  0
VERTEX
  5
224
  8
BARVA
  6
CONTINUOUS
 10
484980.4210224392
 20
235963.6183483502
 30
0.5
  0
VERTEX
  5
225
  8
BARVA
  6
CONTINUOUS
 10
484978.44335009478
 20
235960.65326936319
 30
0.5
  0
VERTEX
  5
226
  8
BARVA
  6
CONTINUOUS
 10
484977.94893200858
 20
235958.92366929399
 30
0.5
  0
VERTEX
  5
227
  8
BARVA
  6
CONTINUOUS
 10
484977.70175486739
 20
235957.1940692247
 30
0.5
  0
VERTEX
  5
228
  8
BARVA
  6
CONTINUOUS
 10
484977.70175486739
 20
235953.98194922169
 30
0.5
  0
SEQEND
  5
229
  8
BARVA
  6
CONTINUOUS
  0
POLYLINE
  5
84
  8
BARVA
  6
CONTINUOUS
 66
     1
 10
0.0
 20
0.0
 30
0.397
 70
   129
  0
VERTEX
  5
22A
  8
BARVA
  6
CONTINUOUS
 10
485707.56253136788
 20
237889.70479974081
 30
0.397
  0
VERTEX
  5
22B
  8
BARVA
  6
CONTINUOUS
 10
485712.30732517451
 20
237888.12396106491
 30
0.397
  0
VERTEX
  5
22C
  8
BARVA
  6
CONTINUOUS
 10
485724.69652077957
 20
237881.80057386769
 30
0.397
  0
VERTEX
  5
22D
  8
BARVA
  6
CONTINUOUS
 10
485731.55010594468
 20
237873.8963479946
 30
0.397
  0
VERTEX
  5
22E
  8
BARVA
  6
CONTINUOUS
 10
485734.18610839237
 20
237863.3573909949
 30
0.397
  0
VERTEX
  5
22F
  8
BARVA
  6
CONTINUOUS
 10
485732.86808067019
 20
237850.44712724109
 30
0.397
  0
VERTEX
  5
230
  8
BARVA
  6
CONTINUOUS
 10
485723.37849305721
 20
237831.74045500881
 30
0.397
  0
VERTEX
  5
231
  8
BARVA
  6
CONTINUOUS
 10
485712.04371962999
 20
237823.3092829104
 30
0.397
  0
VERTEX
  5
232
  8
BARVA
  6
CONTINUOUS
 10
485701.23610429512
 20
237818.56673438911
 30
0.397
  0
VERTEX
  5
233
  8
BARVA
  6
CONTINUOUS
 10
485690.42854195682
 20
237816.19546012851
 30
0.397
  0
VERTEX
  5
234
  8
BARVA
  6
CONTINUOUS
 10
485688.58335614239
 20
237819.3571699739
 30
0.397
  0
VERTEX
  5
235
  8
BARVA
  6
CONTINUOUS
 10
485686.21095923911
 20
237830.9500194242
 30
0.397
  0
VERTEX
  5
236
  8
BARVA
  6
CONTINUOUS
 10
485686.21095923911
 20
237841.4890089173
 30
0.397
  0
VERTEX
  5
237
  8
BARVA
  6
CONTINUOUS
 10
485690.42854195682
 20
237860.98611673419
 30
0.397
  0
VERTEX
  5
238
  8
BARVA
  6
CONTINUOUS
 10
485694.1189135852
 20
237879.42929960709
 30
0.397
  0
VERTEX
  5
239
  8
BARVA
  6
CONTINUOUS
 10
485701.49970983941
 20
237885.75268680439
 30
0.397
  0
VERTEX
  5
23A
  8
BARVA
  6
CONTINUOUS
 10
485705.45374000922
 20
237888.12396106491
 30
0.397
  0
SEQEND
  5
23B
  8
BARVA
  6
CONTINUOUS
  0
POLYLINE
  5
85
  8
BARVA
  6
CONTINUOUS
 66
     1
 10
0.0
 20
0.0
 30
2.5969999999999991
 70
   129
  0
VERTEX
  5
23C
  8
BARVA
  6
CONTINUOUS
 10
483213.9439349937
 20
237769.2116375615
 30
2.5969999999999991
  0
VERTEX
  5
23D
  8
BARVA
  6
CONTINUOUS
 10
483210.95917850023
 20
237767.96856941859
 30
2.5969999999999991
  0
VERTEX
  5
23E
  8
BARVA
  6
CONTINUOUS
 10
483208.22319425037
 20
237768.4658201476
 30
2.5969999999999991
  0
VERTEX
  5
23F
  8
BARVA
  6
CONTINUOUS
 10
483206.23333531979
 20
237769.7088491708
 30
2.5969999999999991
  0
VERTEX
  5
240
  8
BARVA
  6
CONTINUOUS
 10
483206.23333531979
 20
237778.90742042119
 30
2.5969999999999991
  0
VERTEX
  5
241
  8
BARVA
  6
CONTINUOUS
 10
483209.21809181338
 20
237785.8685003102
 30
2.5969999999999991
  0
VERTEX
  5
242
  8
BARVA
  6
CONTINUOUS
 10
483212.70026518661
 20
237788.6032424006
 30
2.5969999999999991
  0
VERTEX
  5
243
  8
BARVA
  6
CONTINUOUS
 10
483218.17229749012
 20
237790.34348303301
 30
2.5969999999999991
  0
VERTEX
  5
244
  8
BARVA
  6
CONTINUOUS
 10
483226.62908628723
 20
237787.60878006229
 30
2.5969999999999991
  0
VERTEX
  5
245
  8
BARVA
  6
CONTINUOUS
 10
483233.09601615422
 20
237784.62547128691
 30
2.5969999999999991
  0
VERTEX
  5
246
  8
BARVA
  6
CONTINUOUS
 10
483226.62908628723
 20
237779.4046711502
 30
2.5969999999999991
  0
VERTEX
  5
247
  8
BARVA
  6
CONTINUOUS
 10
483222.89814067038
 20
237772.19494633691
 30
2.5969999999999991
  0
VERTEX
  5
248
  8
BARVA
  6
CONTINUOUS
 10
483222.40065998671
 20
237769.46024336619
 30
2.5969999999999991
  0
SEQEND
  5
249
  8
BARVA
  6
CONTINUOUS
  0
POLYLINE
  5
86
  8
BARVA
  6
CONTINUOUS
 66
     1
 10
0.0
 20
0.0
 30
1.1999999999999991
 70
   129
  0
VERTEX
  5
24A
  8
BARVA
  6
CONTINUOUS
 10
480878.13858329912
 20
237640.21086115611
 30
1.1999999999999991
  0
VERTEX
  5
24B
  8
BARVA
  6
CONTINUOUS
 10
480838.35480355448
 20
237635.58702790819
 30
1.1999999999999991
  0
VERTEX
  5
24C
  8
BARVA
  6
CONTINUOUS
 10
480818.00027004519
 20
237642.06040227931
 30
1.1999999999999991
  0
VERTEX
  5
24D
  8
BARVA
  6
CONTINUOUS
 10
480808.7482267603
 20
237654.08236089989
 30
1.1999999999999991
  0
VERTEX
  5
24E
  8
BARVA
  6
CONTINUOUS
 10
480817.07511037949
 20
237663.329988276
 30
1.1999999999999991
  0
VERTEX
  5
24F
  8
BARVA
  6
CONTINUOUS
 10
480832.80359034421
 20
237669.8033626471
 30
1.1999999999999991
  0
VERTEX
  5
250
  8
BARVA
  6
CONTINUOUS
 10
480871.66214661917
 20
237670.72811364871
 30
1.1999999999999991
  0
VERTEX
  5
251
  8
BARVA
  6
CONTINUOUS
 10
480889.24107352342
 20
237668.8785725256
 30
1.1999999999999991
  0
VERTEX
  5
252
  8
BARVA
  6
CONTINUOUS
 10
480895.71751020307
 20
237657.78140402649
 30
1.1999999999999991
  0
VERTEX
  5
253
  8
BARVA
  6
CONTINUOUS
 10
480892.01668012841
 20
237646.68423552709
 30
1.1999999999999991
  0
SEQEND
  5
254
  8
BARVA
  6
CONTINUOUS
  0
POLYLINE
  5
87
  8
BARVA
  6
CONTINUOUS
 66
     1
 10
0.0
 20
0.0
 30
15.872999999999999
 70
   129
  0
VERTEX
  5
255
  8
BARVA
  6
CONTINUOUS
 10
480310.28534257761
 20
236054.21859693961
 30
15.872999999999999
  0
VERTEX
  5
256
  8
BARVA
  6
CONTINUOUS
 10
480294.5342759561
 20
236071.85137928039
 30
15.872999999999999
  0
VERTEX
  5
257
  8
BARVA
  6
CONTINUOUS
 10
480291.38407539279
 20
236092.00311934989
 30
15.872999999999999
  0
VERTEX
  5
258
  8
BARVA
  6
CONTINUOUS
 10
480293.27420849161
 20
236107.116943962
 30
15.872999999999999
  0
VERTEX
  5
259
  8
BARVA
  6
CONTINUOUS
 10
480315.32567623979
 20
236104.59794711351
 30
15.872999999999999
  0
VERTEX
  5
25A
  8
BARVA
  6
CONTINUOUS
 10
480361.31868103141
 20
236093.26261777419
 30
15.872999999999999
  0
VERTEX
  5
25B
  8
BARVA
  6
CONTINUOUS
 10
480350.60801187641
 20
236032.17760923371
 30
15.872999999999999
  0
VERTEX
  5
25C
  8
BARVA
  6
CONTINUOUS
 10
480325.40634356451
 20
236040.36427075189
 30
15.872999999999999
  0
SEQEND
  5
25D
  8
BARVA
  6
CONTINUOUS
  0
POLYLINE
  5
88
  8
BARVA
  6
CONTINUOUS
 66
     1
 10
0.0
 20
0.0
 30
0.268
 70
   129
  0
VERTEX
  5
25E
  8
BARVA
  6
CONTINUOUS
 10
478218.44751497568
 20
236436.79703722239
 30
0.268
  0
VERTEX
  5
25F
  8
BARVA
  6
CONTINUOUS
 10
478168.05436263687
 20
236444.9967142781
 30
0.268
  0
VERTEX
  5
260
  8
BARVA
  6
CONTINUOUS
 10
478142.27189278579
 20
236473.10934132169
 30
0.268
  0
VERTEX
  5
261
  8
BARVA
  6
CONTINUOUS
 10
478143.44368014921
 20
236495.36581440369
 30
0.268
  0
VERTEX
  5
262
  8
BARVA
  6
CONTINUOUS
 10
478155.16312771128
 20
236508.25060763059
 30
0.268
  0
VERTEX
  5
263
  8
BARVA
  6
CONTINUOUS
 10
478205.55628005008
 20
236497.7083724892
 30
0.268
  0
VERTEX
  5
264
  8
BARVA
  6
CONTINUOUS
 10
478244.22998482682
 20
236505.90804954499
 30
0.268
  0
VERTEX
  5
265
  8
BARVA
  6
CONTINUOUS
 10
478253.60585766152
 20
236498.8798927842
 30
0.268
  0
VERTEX
  5
266
  8
BARVA
  6
CONTINUOUS
 10
478281.73190224002
 20
236467.25270485581
 30
0.268
  0
VERTEX
  5
267
  8
BARVA
  6
CONTINUOUS
 10
478282.90368960361
 20
236449.68183044929
 30
0.268
  0
VERTEX
  5
268
  8
BARVA
  6
CONTINUOUS
 10
478257.1212197523
 20
236442.65367368839
 30
0.268
  0
SEQEND
  5
269
  8
BARVA
  6
CONTINUOUS
  0
POLYLINE
  5
89
  8
BARVA
  6
CONTINUOUS
 66
     1
 10
0.0
 20
0.0
 30
0.5
 70
   129
  0
VERTEX
  5
26A
  8
BARVA
  6
CONTINUOUS
 10
478379.78562789661
 20
236493.42011110691
 30
0.5
  0
VERTEX
  5
26B
  8
BARVA
  6
CONTINUOUS
 10
478411.95193864388
 20
236516.82735680131
 30
0.5
  0
VERTEX
  5
26C
  8
BARVA
  6
CONTINUOUS
 10
478422.71050482808
 20
236544.36918132901
 30
0.5
  0
VERTEX
  5
26D
  8
BARVA
  6
CONTINUOUS
 10
478471.0008930061
 20
236541.6874227626
 30
0.5
  0
VERTEX
  5
26E
  8
BARVA
  6
CONTINUOUS
 10
478481.73191549821
 20
236493.42011110691
 30
0.5
  0
VERTEX
  5
26F
  8
BARVA
  6
CONTINUOUS
 10
478473.68364862911
 20
236469.286214027
 30
0.5
  0
VERTEX
  5
270
  8
BARVA
  6
CONTINUOUS
 10
478422.49959884188
 20
236467.62977697069
 30
0.5
  0
VERTEX
  5
271
  8
BARVA
  6
CONTINUOUS
 10
478382.46838351979
 20
236466.60445546059
 30
0.5
  0
SEQEND
  5
272
  8
BARVA
  6
CONTINUOUS
  0
POLYLINE
  5
8A
  8
BARVA
  6
CONTINUOUS
 66
     1
 10
0.0
 20
0.0
 30
2.5
 70
   129
  0
VERTEX
  5
273
  8
BARVA
  6
CONTINUOUS
 10
481307.96996072878
 20
234619.54216625221
 30
2.5
  0
VERTEX
  5
274
  8
BARVA
  6
CONTINUOUS
 10
481297.28391469689
 20
234635.33130863999
 30
2.5
  0
VERTEX
  5
275
  8
BARVA
  6
CONTINUOUS
 10
481294.49618779519
 20
234655.2999624119
 30
2.5
  0
VERTEX
  5
276
  8
BARVA
  6
CONTINUOUS
 10
481291.70846089348
 20
234672.94646886841
 30
2.5
  0
VERTEX
  5
277
  8
BARVA
  6
CONTINUOUS
 10
481294.96068873309
 20
234686.87802607261
 30
2.5
  0
VERTEX
  5
278
  8
BARVA
  6
CONTINUOUS
 10
481306.11159634002
 20
234691.0575374568
 30
2.5
  0
VERTEX
  5
279
  8
BARVA
  6
CONTINUOUS
 10
481317.26214330952
 20
234690.12885542249
 30
2.5
  0
VERTEX
  5
27A
  8
BARVA
  6
CONTINUOUS
 10
481327.48332776601
 20
234687.8069292217
 30
2.5
  0
VERTEX
  5
27B
  8
BARVA
  6
CONTINUOUS
 10
481334.91714595829
 20
234682.2341736712
 30
2.5
  0
VERTEX
  5
27C
  8
BARVA
  6
CONTINUOUS
 10
481343.2799660262
 20
234673.8753720175
 30
2.5
  0
VERTEX
  5
27D
  8
BARVA
  6
CONTINUOUS
 10
481346.53219386563
 20
234667.8382754499
 30
2.5
  0
VERTEX
  5
27E
  8
BARVA
  6
CONTINUOUS
 10
481351.64278609399
 20
234655.2999624119
 30
2.5
  0
VERTEX
  5
27F
  8
BARVA
  6
CONTINUOUS
 10
481352.10764766939
 20
234639.9751610414
 30
2.5
  0
VERTEX
  5
280
  8
BARVA
  6
CONTINUOUS
 10
481353.0366495449
 20
234626.50794485441
 30
2.5
  0
VERTEX
  5
281
  8
BARVA
  6
CONTINUOUS
 10
481350.71378421842
 20
234615.36265486799
 30
2.5
  0
VERTEX
  5
282
  8
BARVA
  6
CONTINUOUS
 10
481346.0676929279
 20
234610.71880246661
 30
2.5
  0
VERTEX
  5
283
  8
BARVA
  6
CONTINUOUS
 10
481331.66491811891
 20
234607.46797311681
 30
2.5
  0
VERTEX
  5
284
  8
BARVA
  6
CONTINUOUS
 10
481325.62496337743
 20
234607.46797311681
 30
2.5
  0
VERTEX
  5
285
  8
BARVA
  6
CONTINUOUS
 10
481314.93891734572
 20
234611.64748450089
 30
2.5
  0
SEQEND
  5
286
  8
BARVA
  6
CONTINUOUS
  0
POLYLINE
  5
8B
  8
BARVA
  6
CONTINUOUS
 66
     1
 10
0.0
 20
0.0
 30
0.136
 70
   129
  0
VERTEX
  5
287
  8
BARVA
  6
CONTINUOUS
 10
480822.5794445611
 20
232570.9759266249
 30
0.136
  0
VERTEX
  5
288
  8
BARVA
  6
CONTINUOUS
 10
480864.33048474637
 20
232556.6071801176
 30
0.136
  0
VERTEX
  5
289
  8
BARVA
  6
CONTINUOUS
 10
480873.62696723908
 20
232518.9376247444
 30
0.136
  0
VERTEX
  5
28A
  8
BARVA
  6
CONTINUOUS
 10
480861.59024984908
 20
232496.50937190809
 30
0.136
  0
VERTEX
  5
28B
  8
BARVA
  6
CONTINUOUS
 10
480855.0506748106
 20
232486.9108985257
 30
0.136
  0
VERTEX
  5
28C
  8
BARVA
  6
CONTINUOUS
 10
480809.88716778671
 20
232481.98741179239
 30
0.136
  0
VERTEX
  5
28D
  8
BARVA
  6
CONTINUOUS
 10
480778.28833373368
 20
232482.56882507051
 30
0.136
  0
VERTEX
  5
28E
  8
BARVA
  6
CONTINUOUS
 10
480778.45518149418
 20
232569.33056874041
 30
0.136
  0
SEQEND
  5
28F
  8
BARVA
  6
CONTINUOUS
  0
ENDSEC
  0
EOF
