  0
SECTION
  2
HEADER
  9
$ACADVER
  1
AC1009
  9
$INSBASE
 10
0.0
 20
0.0
 30
0.0
  9
$EXTMIN
 10
526.83063266281738
 20
9828.9881338272025
 30
0.0
  9
$EXTMAX
 10
531.84281069431438
 20
9836.4949119694247
 30
0.0
  9
$LIMMIN
 10
0.0
 20
0.0
  9
$LIMMAX
 10
12.0
 20
9.0
  9
$ORTHOMODE
 70
     0
  9
$REGENMODE
 70
     1
  9
$FILLMODE
 70
     1
  9
$QTEXTMODE
 70
     0
  9
$MIRRTEXT
 70
     0
  9
$DRAGMODE
 70
     2
  9
$LTSCALE
 40
1.0
  9
$OSMODE
 70
    37
  9
$ATTMODE
 70
     1
  9
$TEXTSIZE
 40
0.15
  9
$TRACEWID
 40
0.05
  9
$TEXTSTYLE
  7
LEGEND
  9
$CLAYER
  8
0
  9
$CELTYPE
  6
BYLAYER
  9
$CECOLOR
 62
   256
  9
$DIMSCALE
 40
1.0
  9
$DIMASZ
 40
0.18
  9
$DIMEXO
 40
0.0625
  9
$DIMDLI
 40
0.38
  9
$DIMRND
 40
0.0
  9
$DIMDLE
 40
0.0
  9
$DIMEXE
 40
0.18
  9
$DIMTP
 40
0.0
  9
$DIMTM
 40
0.0
  9
$DIMTXT
 40
0.18
  9
$DIMCEN
 40
0.09
  9
$DIMTSZ
 40
0.0
  9
$DIMTOL
 70
     0
  9
$DIMLIM
 70
     0
  9
$DIMTIH
 70
     1
  9
$DIMTOH
 70
     1
  9
$DIMSE1
 70
     0
  9
$DIMSE2
 70
     0
  9
$DIMTAD
 70
     0
  9
$DIMZIN
 70
     0
  9
$DIMBLK
  1

  9
$DIMASO
 70
     1
  9
$DIMSHO
 70
     1
  9
$DIMPOST
  1

  9
$DIMAPOST
  1

  9
$DIMALT
 70
     0
  9
$DIMALTD
 70
     2
  9
$DIMALTF
 40
25.399999999999999
  9
$DIMLFAC
 40
1.0
  9
$DIMTOFL
 70
     0
  9
$DIMTVP
 40
0.0
  9
$DIMTIX
 70
     0
  9
$DIMSOXD
 70
     0
  9
$DIMSAH
 70
     0
  9
$DIMBLK1
  1

  9
$DIMBLK2
  1

  9
$DIMSTYLE
  2
STANDARD
  9
$DIMCLRD
 70
     0
  9
$DIMCLRE
 70
     0
  9
$DIMCLRT
 70
     0
  9
$DIMTFAC
 40
1.0
  9
$DIMGAP
 40
0.09
  9
$LUNITS
 70
     2
  9
$LUPREC
 70
     4
  9
$SKETCHINC
 40
0.1
  9
$FILLETRAD
 40
0.0
  9
$AUNITS
 70
     0
  9
$AUPREC
 70
     0
  9
$MENU
  1
.
  9
$ELEVATION
 40
0.0
  9
$PELEVATION
 40
0.0
  9
$THICKNESS
 40
0.0
  9
$LIMCHECK
 70
     0
  9
$BLIPMODE
 70
     0
  9
$CHAMFERA
 40
0.0
  9
$CHAMFERB
 40
0.0
  9
$SKPOLY
 70
     0
  9
$TDCREATE
 40
2454126.753859954
  9
$TDUPDATE
 40
2456747.5399388201
  9
$TDINDWG
 40
4.4342859259000003
  9
$TDUSRTIMER
 40
4.4342852083000004
  9
$USRTIMER
 70
     1
  9
$ANGBASE
 50
0.0
  9
$ANGDIR
 70
     0
  9
$PDMODE
 70
     0
  9
$PDSIZE
 40
0.0
  9
$PLINEWID
 40
0.0
  9
$COORDS
 70
     1
  9
$SPLFRAME
 70
     0
  9
$SPLINETYPE
 70
     6
  9
$SPLINESEGS
 70
     8
  9
$ATTDIA
 70
     0
  9
$ATTREQ
 70
     1
  9
$HANDLING
 70
     1
  9
$HANDSEED
  5
66C
  9
$SURFTAB1
 70
     6
  9
$SURFTAB2
 70
     6
  9
$SURFTYPE
 70
     6
  9
$SURFU
 70
     6
  9
$SURFV
 70
     6
  9
$UCSNAME
  2

  9
$UCSORG
 10
0.0
 20
0.0
 30
0.0
  9
$UCSXDIR
 10
1.0
 20
0.0
 30
0.0
  9
$UCSYDIR
 10
0.0
 20
1.0
 30
0.0
  9
$PUCSNAME
  2

  9
$PUCSORG
 10
0.0
 20
0.0
 30
0.0
  9
$PUCSXDIR
 10
1.0
 20
0.0
 30
0.0
  9
$PUCSYDIR
 10
0.0
 20
1.0
 30
0.0
  9
$USERI1
 70
     0
  9
$USERI2
 70
     0
  9
$USERI3
 70
     0
  9
$USERI4
 70
     0
  9
$USERI5
 70
     0
  9
$USERR1
 40
0.0
  9
$USERR2
 40
0.0
  9
$USERR3
 40
0.0
  9
$USERR4
 40
0.0
  9
$USERR5
 40
0.0
  9
$WORLDVIEW
 70
     1
  9
$SHADEDGE
 70
     3
  9
$SHADEDIF
 70
    70
  9
$TILEMODE
 70
     1
  9
$MAXACTVP
 70
    64
  9
$PLIMCHECK
 70
     0
  9
$PEXTMIN
 10
1.0499999523162831
 20
0.7999999523162842
 30
0.0
  9
$PEXTMAX
 10
9.4499995708465576
 20
7.199999570846555
 30
0.0
  9
$PLIMMIN
 10
0.0
 20
0.0
  9
$PLIMMAX
 10
12.0
 20
9.0
  9
$UNITMODE
 70
     0
  9
$VISRETAIN
 70
     1
  9
$PLINEGEN
 70
     0
  9
$PSLTSCALE
 70
     1
  0
ENDSEC
  0
SECTION
  2
TABLES
  0
TABLE
  2
VPORT
 70
     1
  0
VPORT
  2
*ACTIVE
 70
     0
 10
0.0
 20
0.0
 11
1.0
 21
1.0
 12
530.9376412557599
 22
9833.3481125611252
 13
0.0
 23
0.0
 14
0.5
 24
0.5
 15
0.5
 25
0.5
 16
0.0
 26
0.0
 36
1.0
 17
0.0
 27
0.0
 37
0.0
 40
30.957838034451921
 41
2.30520393811533
 42
50.0
 43
0.0
 44
0.0
 50
0.0
 51
0.0
 71
     0
 72
  1000
 73
     1
 74
     2
 75
     0
 76
     0
 77
     0
 78
     0
  0
ENDTAB
  0
TABLE
  2
LTYPE
 70
     1
  0
LTYPE
  2
CONTINUOUS
 70
     0
  3
Solid line
 72
    65
 73
     0
 40
0.0
  0
ENDTAB
  0
TABLE
  2
LAYER
 70
     2
  0
LAYER
  2
0
 70
     4
 62
    -7
  6
CONTINUOUS
  0
LAYER
  2
STRUCTURES
 70
     0
 62
   220
  6
CONTINUOUS
  0
ENDTAB
  0
TABLE
  2
STYLE
 70
     2
  0
STYLE
  2
STANDARD
 70
     0
 40
0.0
 41
1.0
 50
0.0
 71
     0
 42
500.0
  3
txt
  4

  0
STYLE
  2
LEGEND
 70
     0
 40
0.15
 41
1.0
 50
0.0
 71
     0
 42
0.15
  3
txt
  4

  0
ENDTAB
  0
TABLE
  2
VIEW
 70
     0
  0
ENDTAB
  0
TABLE
  2
UCS
 70
     0
  0
ENDTAB
  0
TABLE
  2
APPID
 70
     1
  0
APPID
  2
ACAD
 70
     0
  0
ENDTAB
  0
TABLE
  2
DIMSTYLE
 70
     1
  0
DIMSTYLE
  2
STANDARD
 70
     0
  3

  4

  5

  6

  7

 40
1.0
 41
0.18
 42
0.0625
 43
0.38
 44
0.18
 45
0.0
 46
0.0
 47
0.0
 48
0.0
140
0.18
141
0.09
142
0.0
143
25.399999999999999
144
1.0
145
0.0
146
1.0
147
0.09
 71
     0
 72
     0
 73
     1
 74
     1
 75
     0
 76
     0
 77
     0
 78
     0
170
     0
171
     2
172
     0
173
     0
174
     0
175
     0
176
     0
177
     0
178
     0
  0
ENDTAB
  0
ENDSEC
  0
SECTION
  2
BLOCKS
  0
BLOCK
  8
0
  2
$MODEL_SPACE
 70
     0
 10
0.0
 20
0.0
 30
0.0
  3
$MODEL_SPACE
  1

  0
ENDBLK
  5
14
  8
0
  0
BLOCK
 67
     1
  8
0
  2
$PAPER_SPACE
 70
     0
 10
0.0
 20
0.0
 30
0.0
  3
$PAPER_SPACE
  1

  0
ENDBLK
  5
19
 67
     1
  8
0
  0
ENDSEC
  0
SECTION
  2
ENTITIES
  0
POLYLINE
  5
6A
  8
STRUCTURES
 66
     1
 10
0.0
 20
0.0
 30
0.0
 70
     1
  0
VERTEX
  5
126
  8
STRUCTURES
 10
531.83900000000006
 20
9830.2050000000017
 30
0.0
  0
VERTEX
  5
127
  8
STRUCTURES
 10
531.84281069431438
 20
9830.2114240090959
 30
0.0
  0
VERTEX
  5
128
  8
STRUCTURES
 10
531.83547892006516
 20
9830.2163361237817
 30
0.0
  0
VERTEX
  5
129
  8
STRUCTURES
 10
531.83526198662798
 20
9830.2160574432019
 30
0.0
  0
VERTEX
  5
12A
  8
STRUCTURES
 10
531.84232633762224
 20
9830.2113134546325
 30
0.0
  0
VERTEX
  5
12B
  8
STRUCTURES
 10
531.83888855056773
 20
9830.2054901594711
 30
0.0
  0
VERTEX
  5
12C
  8
STRUCTURES
 10
531.83158768453404
 20
9830.2102599356331
 30
0.0
  0
VERTEX
  5
12D
  8
STRUCTURES
 10
531.83138034992123
 20
9830.2099816773425
 30
0.0
  0
SEQEND
  5
12E
  8
STRUCTURES
  0
POLYLINE
  5
6C
  8
STRUCTURES
 66
     1
 10
0.0
 20
0.0
 30
0.0
 70
     1
  0
VERTEX
  5
12F
  8
STRUCTURES
 10
530.09463913999207
 20
9830.1885790142278
 30
0.0
  0
VERTEX
  5
130
  8
STRUCTURES
 10
530.10322056524092
 20
9830.2129415922082
 30
0.0
  0
VERTEX
  5
131
  8
STRUCTURES
 10
530.10207171391392
 20
9830.2133328542204
 30
0.0
  0
VERTEX
  5
132
  8
STRUCTURES
 10
530.09347353473186
 20
9830.1887491958369
 30
0.0
  0
SEQEND
  5
133
  8
STRUCTURES
  0
POLYLINE
  5
6D
  8
STRUCTURES
 66
     1
 10
0.0
 20
0.0
 30
0.0
 70
     1
  0
VERTEX
  5
134
  8
STRUCTURES
 10
530.10799999999995
 20
9830.1849999999995
 30
0.0
  0
VERTEX
  5
135
  8
STRUCTURES
 10
530.11965234522495
 20
9830.2181040380037
 30
0.0
  0
VERTEX
  5
136
  8
STRUCTURES
 10
530.1184028342235
 20
9830.2183269205361
 30
0.0
  0
VERTEX
  5
137
  8
STRUCTURES
 10
530.10683439473985
 20
9830.1851701816067
 30
0.0
  0
SEQEND
  5
138
  8
STRUCTURES
  0
POLYLINE
  5
6E
  8
STRUCTURES
 66
     1
 10
0.0
 20
0.0
 30
0.0
 70
     1
  0
VERTEX
  5
139
  8
STRUCTURES
 10
530.10410422102495
 20
9830.2477648109925
 30
0.0
  0
VERTEX
  5
13A
  8
STRUCTURES
 10
530.09984792220985
 20
9830.2523881678208
 30
0.0
  0
VERTEX
  5
13B
  8
STRUCTURES
 10
530.09947113634587
 20
9830.2520683847433
 30
0.0
  0
VERTEX
  5
13C
  8
STRUCTURES
 10
530.10371951214665
 20
9830.2473852898074
 30
0.0
  0
SEQEND
  5
13D
  8
STRUCTURES
  0
POLYLINE
  5
6F
  8
STRUCTURES
 66
     1
 10
0.0
 20
0.0
 30
0.0
 70
     1
  0
VERTEX
  5
13E
  8
STRUCTURES
 10
530.10799999999995
 20
9830.2510000000002
 30
0.0
  0
VERTEX
  5
13F
  8
STRUCTURES
 10
530.10374370118473
 20
9830.2556233568266
 30
0.0
  0
VERTEX
  5
140
  8
STRUCTURES
 10
530.10336691532075
 20
9830.2553035737528
 30
0.0
  0
VERTEX
  5
141
  8
STRUCTURES
 10
530.10761529112153
 20
9830.2506204788187
 30
0.0
  0
SEQEND
  5
142
  8
STRUCTURES
  0
POLYLINE
  5
70
  8
STRUCTURES
 66
     1
 10
0.0
 20
0.0
 30
0.0
 70
     1
  0
VERTEX
  5
143
  8
STRUCTURES
 10
530.28061587724812
 20
9830.3161141709097
 30
0.0
  0
VERTEX
  5
144
  8
STRUCTURES
 10
530.28092245424591
 20
9830.3170251704341
 30
0.0
  0
VERTEX
  5
145
  8
STRUCTURES
 10
530.26154850652006
 20
9830.3239629626896
 30
0.0
  0
VERTEX
  5
146
  8
STRUCTURES
 10
530.26114785157915
 20
9830.3229719701685
 30
0.0
  0
SEQEND
  5
147
  8
STRUCTURES
  0
POLYLINE
  5
71
  8
STRUCTURES
 66
     1
 10
0.0
 20
0.0
 30
0.0
 70
     1
  0
VERTEX
  5
148
  8
STRUCTURES
 10
530.27700000000004
 20
9830.3060000000005
 30
0.0
  0
VERTEX
  5
149
  8
STRUCTURES
 10
530.27730657699772
 20
9830.3069109995358
 30
0.0
  0
VERTEX
  5
14A
  8
STRUCTURES
 10
530.25793262927209
 20
9830.3138487917895
 30
0.0
  0
VERTEX
  5
14B
  8
STRUCTURES
 10
530.25753197433096
 20
9830.3128577992611
 30
0.0
  0
SEQEND
  5
14C
  8
STRUCTURES
  0
POLYLINE
  5
72
  8
STRUCTURES
 66
     1
 10
0.0
 20
0.0
 30
0.0
 70
     1
  0
VERTEX
  5
14D
  8
STRUCTURES
 10
530.29200000000003
 20
9830.3400000000001
 30
0.0
  0
VERTEX
  5
14E
  8
STRUCTURES
 10
530.29568103110785
 20
9830.3497010101146
 30
0.0
  0
VERTEX
  5
14F
  8
STRUCTURES
 10
530.29006616662912
 20
9830.3516980003988
 30
0.0
  0
VERTEX
  5
150
  8
STRUCTURES
 10
530.2863032993796
 20
9830.3422124162098
 30
0.0
  0
VERTEX
  5
151
  8
STRUCTURES
 10
530.28730279299475
 20
9830.341830641557
 30
0.0
  0
VERTEX
  5
152
  8
STRUCTURES
 10
530.29069917711922
 20
9830.3504453031892
 30
0.0
  0
VERTEX
  5
153
  8
STRUCTURES
 10
530.29429937628697
 20
9830.3491430577596
 30
0.0
  0
VERTEX
  5
154
  8
STRUCTURES
 10
530.29108140231665
 20
9830.3404445301385
 30
0.0
  0
SEQEND
  5
155
  8
STRUCTURES
  0
POLYLINE
  5
73
  8
STRUCTURES
 66
     1
 10
0.0
 20
0.0
 30
0.0
 70
     1
  0
VERTEX
  5
156
  8
STRUCTURES
 10
530.10647747700045
 20
9830.2733733821933
 30
0.0
  0
VERTEX
  5
157
  8
STRUCTURES
 10
530.10021714895584
 20
9830.2812074790236
 30
0.0
  0
VERTEX
  5
158
  8
STRUCTURES
 10
530.09974083829263
 20
9830.2807926029818
 30
0.0
  0
VERTEX
  5
159
  8
STRUCTURES
 10
530.10604127037345
 20
9830.2730103954018
 30
0.0
  0
SEQEND
  5
15A
  8
STRUCTURES
  0
POLYLINE
  5
74
  8
STRUCTURES
 66
     1
 10
0.0
 20
0.0
 30
0.0
 70
     1
  0
VERTEX
  5
15B
  8
STRUCTURES
 10
530.11010019980415
 20
9830.2760101698041
 30
0.0
  0
VERTEX
  5
15C
  8
STRUCTURES
 10
530.10465220297056
 20
9830.2826177452134
 30
0.0
  0
VERTEX
  5
15D
  8
STRUCTURES
 10
530.10424197433656
 20
9830.2822696910043
 30
0.0
  0
VERTEX
  5
15E
  8
STRUCTURES
 10
530.10966399317795
 20
9830.2756471830035
 30
0.0
  0
SEQEND
  5
15F
  8
STRUCTURES
  0
POLYLINE
  5
75
  8
STRUCTURES
 66
     1
 10
0.0
 20
0.0
 30
0.0
 70
     1
  0
VERTEX
  5
160
  8
STRUCTURES
 10
529.71799999999985
 20
9830.3600000000006
 30
0.0
  0
VERTEX
  5
161
  8
STRUCTURES
 10
529.71963451774866
 20
9830.3660729365929
 30
0.0
  0
VERTEX
  5
162
  8
STRUCTURES
 10
529.71918855670492
 20
9830.3661768809361
 30
0.0
  0
VERTEX
  5
163
  8
STRUCTURES
 10
529.71767237776555
 20
9830.3605934575771
 30
0.0
  0
VERTEX
  5
164
  8
STRUCTURES
 10
529.70911019155335
 20
9830.3632069908872
 30
0.0
  0
VERTEX
  5
165
  8
STRUCTURES
 10
529.7089913276817
 20
9830.3627763444365
 30
0.0
  0
SEQEND
  5
166
  8
STRUCTURES
  0
POLYLINE
  5
76
  8
STRUCTURES
 66
     1
 10
0.0
 20
0.0
 30
0.0
 70
     1
  0
VERTEX
  5
167
  8
STRUCTURES
 10
529.74699999999984
 20
9830.5110000000004
 30
0.0
  0
VERTEX
  5
168
  8
STRUCTURES
 10
529.75039785488218
 20
9830.5160730307762
 30
0.0
  0
VERTEX
  5
169
  8
STRUCTURES
 10
529.74583393791511
 20
9830.5191125326219
 30
0.0
  0
VERTEX
  5
16A
  8
STRUCTURES
 10
529.74218846271742
 20
9830.5140572679193
 30
0.0
  0
VERTEX
  5
16B
  8
STRUCTURES
 10
529.74251606623193
 20
9830.513796223664
 30
0.0
  0
VERTEX
  5
16C
  8
STRUCTURES
 10
529.74596052350785
 20
9830.5186348285952
 30
0.0
  0
VERTEX
  5
16D
  8
STRUCTURES
 10
529.74989600629897
 20
9830.5159960401197
 30
0.0
  0
VERTEX
  5
16E
  8
STRUCTURES
 10
529.74667927650455
 20
9830.5112073329274
 30
0.0
  0
SEQEND
  5
16F
  8
STRUCTURES
  0
POLYLINE
  5
77
  8
STRUCTURES
 66
     1
 10
0.0
 20
0.0
 30
0.0
 70
     1
  0
VERTEX
  5
170
  8
STRUCTURES
 10
529.73199999999997
 20
9830.4760000000006
 30
0.0
  0
VERTEX
  5
171
  8
STRUCTURES
 10
529.73263422521347
 20
9830.4793858572739
 30
0.0
  0
VERTEX
  5
172
  8
STRUCTURES
 10
529.72947407917911
 20
9830.4800398740681
 30
0.0
  0
VERTEX
  5
173
  8
STRUCTURES
 10
529.72933559454043
 20
9830.4792474968563
 30
0.0
  0
VERTEX
  5
174
  8
STRUCTURES
 10
529.73172774578256
 20
9830.4787821558857
 30
0.0
  0
VERTEX
  5
175
  8
STRUCTURES
 10
529.73119893446824
 20
9830.4761912324902
 30
0.0
  0
SEQEND
  5
176
  8
STRUCTURES
  0
POLYLINE
  5
78
  8
STRUCTURES
 66
     1
 10
0.0
 20
0.0
 30
0.0
 70
     1
  0
VERTEX
  5
177
  8
STRUCTURES
 10
529.73583170011955
 20
9830.4110739277348
 30
0.0
  0
VERTEX
  5
178
  8
STRUCTURES
 10
529.73593652686895
 20
9830.4163592488403
 30
0.0
  0
VERTEX
  5
179
  8
STRUCTURES
 10
529.73544993184964
 20
9830.4163554062652
 30
0.0
  0
VERTEX
  5
17A
  8
STRUCTURES
 10
529.73537651220556
 20
9830.4110857650667
 30
0.0
  0
SEQEND
  5
17B
  8
STRUCTURES
  0
POLYLINE
  5
79
  8
STRUCTURES
 66
     1
 10
0.0
 20
0.0
 30
0.0
 70
     1
  0
VERTEX
  5
17C
  8
STRUCTURES
 10
529.74099999999999
 20
9830.4110166511382
 30
0.0
  0
VERTEX
  5
17D
  8
STRUCTURES
 10
529.74110482674905
 20
9830.4163019722491
 30
0.0
  0
VERTEX
  5
17E
  8
STRUCTURES
 10
529.74058747143101
 20
9830.4162989371744
 30
0.0
  0
VERTEX
  5
17F
  8
STRUCTURES
 10
529.740527090103
 20
9830.4110218892747
 30
0.0
  0
SEQEND
  5
180
  8
STRUCTURES
  0
POLYLINE
  5
7A
  8
STRUCTURES
 66
     1
 10
0.0
 20
0.0
 30
0.0
 70
     1
  0
VERTEX
  5
181
  8
STRUCTURES
 10
529.71537269729913
 20
9830.4049531324363
 30
0.0
  0
VERTEX
  5
182
  8
STRUCTURES
 10
529.71424614881505
 20
9830.4103371319088
 30
0.0
  0
VERTEX
  5
183
  8
STRUCTURES
 10
529.71373873046593
 20
9830.4102265883685
 30
0.0
  0
VERTEX
  5
184
  8
STRUCTURES
 10
529.71487464628387
 20
9830.4048444266482
 30
0.0
  0
SEQEND
  5
185
  8
STRUCTURES
  0
POLYLINE
  5
7B
  8
STRUCTURES
 66
     1
 10
0.0
 20
0.0
 30
0.0
 70
     1
  0
VERTEX
  5
186
  8
STRUCTURES
 10
529.71029503270313
 20
9830.4038014747985
 30
0.0
  0
VERTEX
  5
187
  8
STRUCTURES
 10
529.70916848421894
 20
9830.4091854742692
 30
0.0
  0
VERTEX
  5
188
  8
STRUCTURES
 10
529.70866106586971
 20
9830.409074930727
 30
0.0
  0
VERTEX
  5
189
  8
STRUCTURES
 10
529.70979698168787
 20
9830.4036927690104
 30
0.0
  0
SEQEND
  5
18A
  8
STRUCTURES
  0
POLYLINE
  5
7C
  8
STRUCTURES
 66
     1
 10
0.0
 20
0.0
 30
0.0
 70
     1
  0
VERTEX
  5
18B
  8
STRUCTURES
 10
529.64999999999986
 20
9830.4020000000019
 30
0.0
  0
VERTEX
  5
18C
  8
STRUCTURES
 10
529.65508004268497
 20
9830.4087249225904
 30
0.0
  0
VERTEX
  5
18D
  8
STRUCTURES
 10
529.64203527074903
 20
9830.4189153106508
 30
0.0
  0
VERTEX
  5
18E
  8
STRUCTURES
 10
529.64138094981922
 20
9830.418070056312
 30
0.0
  0
VERTEX
  5
18F
  8
STRUCTURES
 10
529.65362165006889
 20
9830.4085883163934
 30
0.0
  0
VERTEX
  5
190
  8
STRUCTURES
 10
529.64983376607915
 20
9830.4035438554438
 30
0.0
  0
VERTEX
  5
191
  8
STRUCTURES
 10
529.63750603823416
 20
9830.412913353297
 30
0.0
  0
VERTEX
  5
192
  8
STRUCTURES
 10
529.63673247367615
 20
9830.4119312700022
 30
0.0
  0
SEQEND
  5
193
  8
STRUCTURES
  0
POLYLINE
  5
7D
  8
STRUCTURES
 66
     1
 10
0.0
 20
0.0
 30
0.0
 70
     1
  0
VERTEX
  5
194
  8
STRUCTURES
 10
529.66399999999999
 20
9830.393
 30
0.0
  0
VERTEX
  5
195
  8
STRUCTURES
 10
529.66614178801467
 20
9830.3987841624548
 30
0.0
  0
VERTEX
  5
196
  8
STRUCTURES
 10
529.66565576263088
 20
9830.3989622015943
 30
0.0
  0
VERTEX
  5
197
  8
STRUCTURES
 10
529.66348804764493
 20
9830.3932227642708
 30
0.0
  0
SEQEND
  5
198
  8
STRUCTURES
  0
POLYLINE
  5
7E
  8
STRUCTURES
 66
     1
 10
0.0
 20
0.0
 30
0.0
 70
     1
  0
VERTEX
  5
199
  8
STRUCTURES
 10
529.68200000000002
 20
9830.3910000000014
 30
0.0
  0
VERTEX
  5
19A
  8
STRUCTURES
 10
529.68247050669504
 20
9830.3924931212114
 30
0.0
  0
VERTEX
  5
19B
  8
STRUCTURES
 10
529.67300690447564
 20
9830.3954045651863
 30
0.0
  0
VERTEX
  5
19C
  8
STRUCTURES
 10
529.67406598283878
 20
9830.3990006830027
 30
0.0
  0
VERTEX
  5
19D
  8
STRUCTURES
 10
529.68363363841547
 20
9830.3961755019664
 30
0.0
  0
VERTEX
  5
19E
  8
STRUCTURES
 10
529.68413092991739
 20
9830.3976036298354
 30
0.0
  0
VERTEX
  5
19F
  8
STRUCTURES
 10
529.67300937289463
 20
9830.4009963419649
 30
0.0
  0
VERTEX
  5
1A0
  8
STRUCTURES
 10
529.67082273336246
 20
9830.3943218789227
 30
0.0
  0
SEQEND
  5
1A1
  8
STRUCTURES
  0
POLYLINE
  5
7F
  8
STRUCTURES
 66
     1
 10
0.0
 20
0.0
 30
0.0
 70
     1
  0
VERTEX
  5
1A2
  8
STRUCTURES
 10
529.65106020896405
 20
9830.3703484515754
 30
0.0
  0
VERTEX
  5
1A3
  8
STRUCTURES
 10
529.65280789458484
 20
9830.3764989466745
 30
0.0
  0
VERTEX
  5
1A4
  8
STRUCTURES
 10
529.65206135605047
 20
9830.3766790741774
 30
0.0
  0
VERTEX
  5
1A5
  8
STRUCTURES
 10
529.65026010635597
 20
9830.3705822220109
 30
0.0
  0
SEQEND
  5
1A6
  8
STRUCTURES
  0
POLYLINE
  5
80
  8
STRUCTURES
 66
     1
 10
0.0
 20
0.0
 30
0.0
 70
     1
  0
VERTEX
  5
1A7
  8
STRUCTURES
 10
529.65999999999985
 20
9830.3679999999986
 30
0.0
  0
VERTEX
  5
1A8
  8
STRUCTURES
 10
529.66174768562064
 20
9830.3741504951067
 30
0.0
  0
VERTEX
  5
1A9
  8
STRUCTURES
 10
529.66096488031417
 20
9830.3743287848465
 30
0.0
  0
VERTEX
  5
1AA
  8
STRUCTURES
 10
529.65919989739177
 20
9830.3682337704358
 30
0.0
  0
SEQEND
  5
1AB
  8
STRUCTURES
  0
POLYLINE
  5
81
  8
STRUCTURES
 66
     1
 10
0.0
 20
0.0
 30
0.0
 70
     1
  0
VERTEX
  5
1AC
  8
STRUCTURES
 10
529.65403969000931
 20
9830.3621194822626
 30
0.0
  0
VERTEX
  5
1AD
  8
STRUCTURES
 10
529.6541878710683
 20
9830.3625372436854
 30
0.0
  0
VERTEX
  5
1AE
  8
STRUCTURES
 10
529.6473177402089
 20
9830.3648193663103
 30
0.0
  0
VERTEX
  5
1AF
  8
STRUCTURES
 10
529.64719697385215
 20
9830.3644087238481
 30
0.0
  0
SEQEND
  5
1B0
  8
STRUCTURES
  0
POLYLINE
  5
82
  8
STRUCTURES
 66
     1
 10
0.0
 20
0.0
 30
0.0
 70
     1
  0
VERTEX
  5
1B1
  8
STRUCTURES
 10
529.65425397961565
 20
9830.3511561859195
 30
0.0
  0
VERTEX
  5
1B2
  8
STRUCTURES
 10
529.65473546552369
 20
9830.3520930133254
 30
0.0
  0
VERTEX
  5
1B3
  8
STRUCTURES
 10
529.66503935191474
 20
9830.3477852865199
 30
0.0
  0
VERTEX
  5
1B4
  8
STRUCTURES
 10
529.66518088433065
 20
9830.348171492129
 30
0.0
  0
VERTEX
  5
1B5
  8
STRUCTURES
 10
529.65449725653252
 20
9830.3525923132074
 30
0.0
  0
VERTEX
  5
1B6
  8
STRUCTURES
 10
529.65385834141432
 20
9830.3513116595386
 30
0.0
  0
SEQEND
  5
1B7
  8
STRUCTURES
  0
POLYLINE
  5
83
  8
STRUCTURES
 66
     1
 10
0.0
 20
0.0
 30
0.0
 70
     1
  0
VERTEX
  5
1B8
  8
STRUCTURES
 10
529.69000000000005
 20
9830.2950000000019
 30
0.0
  0
VERTEX
  5
1B9
  8
STRUCTURES
 10
529.69528413333796
 20
9830.2987460452114
 30
0.0
  0
VERTEX
  5
1BA
  8
STRUCTURES
 10
529.6949264657452
 20
9830.2992265058638
 30
0.0
  0
VERTEX
  5
1BB
  8
STRUCTURES
 10
529.69018830370965
 20
9830.2958665948154
 30
0.0
  0
VERTEX
  5
1BC
  8
STRUCTURES
 10
529.68848414516492
 20
9830.2984252461865
 30
0.0
  0
VERTEX
  5
1BD
  8
STRUCTURES
 10
529.69314603938096
 20
9830.3014834596852
 30
0.0
  0
VERTEX
  5
1BE
  8
STRUCTURES
 10
529.69280305571669
 20
9830.3020544992123
 30
0.0
  0
VERTEX
  5
1BF
  8
STRUCTURES
 10
529.68762083142121
 20
9830.2985299701777
 30
0.0
  0
SEQEND
  5
1C0
  8
STRUCTURES
  0
POLYLINE
  5
84
  8
STRUCTURES
 66
     1
 10
0.0
 20
0.0
 30
0.0
 70
     1
  0
VERTEX
  5
1C1
  8
STRUCTURES
 10
528.76650968596493
 20
9830.9014771804541
 30
0.0
  0
VERTEX
  5
1C2
  8
STRUCTURES
 10
528.7557787744272
 20
9830.9076775046651
 30
0.0
  0
VERTEX
  5
1C3
  8
STRUCTURES
 10
528.7554800957206
 20
9830.9072294274247
 30
0.0
  0
VERTEX
  5
1C4
  8
STRUCTURES
 10
528.76623898501964
 20
9830.9010110052131
 30
0.0
  0
SEQEND
  5
1C5
  8
STRUCTURES
  0
POLYLINE
  5
85
  8
STRUCTURES
 66
     1
 10
0.0
 20
0.0
 30
0.0
 70
     1
  0
VERTEX
  5
1C6
  8
STRUCTURES
 10
528.76400000000001
 20
9830.8970000000008
 30
0.0
  0
VERTEX
  5
1C7
  8
STRUCTURES
 10
528.75326908846216
 20
9830.9032003242119
 30
0.0
  0
VERTEX
  5
1C8
  8
STRUCTURES
 10
528.75297040975568
 20
9830.9027522469642
 30
0.0
  0
VERTEX
  5
1C9
  8
STRUCTURES
 10
528.76372929905438
 20
9830.8965338247563
 30
0.0
  0
SEQEND
  5
1CA
  8
STRUCTURES
  0
POLYLINE
  5
86
  8
STRUCTURES
 66
     1
 10
0.0
 20
0.0
 30
0.0
 70
     1
  0
VERTEX
  5
1CB
  8
STRUCTURES
 10
528.85799759697147
 20
9830.8619969675274
 30
0.0
  0
VERTEX
  5
1CC
  8
STRUCTURES
 10
528.85997181527455
 20
9830.8629004896484
 30
0.0
  0
VERTEX
  5
1CD
  8
STRUCTURES
 10
528.85979134835839
 20
9830.8633301341233
 30
0.0
  0
VERTEX
  5
1CE
  8
STRUCTURES
 10
528.85779024488193
 20
9830.8624163608947
 30
0.0
  0
SEQEND
  5
1CF
  8
STRUCTURES
  0
POLYLINE
  5
87
  8
STRUCTURES
 66
     1
 10
0.0
 20
0.0
 30
0.0
 70
     1
  0
VERTEX
  5
1D0
  8
STRUCTURES
 10
528.894012677756
 20
9830.7609949497892
 30
0.0
  0
VERTEX
  5
1D1
  8
STRUCTURES
 10
528.90147228445517
 20
9830.7712462465315
 30
0.0
  0
VERTEX
  5
1D2
  8
STRUCTURES
 10
528.89731827240053
 20
9830.7743066529783
 30
0.0
  0
VERTEX
  5
1D3
  8
STRUCTURES
 10
528.88693119201071
 20
9830.7608326484497
 30
0.0
  0
VERTEX
  5
1D4
  8
STRUCTURES
 10
528.88743206292793
 20
9830.7603896124438
 30
0.0
  0
VERTEX
  5
1D5
  8
STRUCTURES
 10
528.89743415936721
 20
9830.7733999332213
 30
0.0
  0
VERTEX
  5
1D6
  8
STRUCTURES
 10
528.90057115385594
 20
9830.7710896568024
 30
0.0
  0
VERTEX
  5
1D7
  8
STRUCTURES
 10
528.89347522617527
 20
9830.7613375176716
 30
0.0
  0
SEQEND
  5
1D8
  8
STRUCTURES
  0
POLYLINE
  5
88
  8
STRUCTURES
 66
     1
 10
0.0
 20
0.0
 30
0.0
 70
     1
  0
VERTEX
  5
1D9
  8
STRUCTURES
 10
528.88199999999995
 20
9829.6129999999994
 30
0.0
  0
VERTEX
  5
1DA
  8
STRUCTURES
 10
528.88369883266625
 20
9829.6178099205572
 30
0.0
  0
VERTEX
  5
1DB
  8
STRUCTURES
 10
528.87520911670617
 20
9829.6208368922817
 30
0.0
  0
VERTEX
  5
1DC
  8
STRUCTURES
 10
528.87346837492521
 20
9829.6161818675901
 30
0.0
  0
VERTEX
  5
1DD
  8
STRUCTURES
 10
528.87413718990535
 20
9829.6159451874701
 30
0.0
  0
VERTEX
  5
1DE
  8
STRUCTURES
 10
528.87561659572975
 20
9829.6200107115747
 30
0.0
  0
VERTEX
  5
1DF
  8
STRUCTURES
 10
528.88285608908166
 20
9829.6174904023865
 30
0.0
  0
VERTEX
  5
1E0
  8
STRUCTURES
 10
528.88140029147007
 20
9829.6131993917297
 30
0.0
  0
SEQEND
  5
1E1
  8
STRUCTURES
  0
POLYLINE
  5
89
  8
STRUCTURES
 66
     1
 10
0.0
 20
0.0
 30
0.0
 70
     1
  0
VERTEX
  5
1E2
  8
STRUCTURES
 10
528.31399999999985
 20
9830.3679999999986
 30
0.0
  0
VERTEX
  5
1E3
  8
STRUCTURES
 10
528.31690240974683
 20
9830.3733539411824
 30
0.0
  0
VERTEX
  5
1E4
  8
STRUCTURES
 10
528.31202253514004
 20
9830.3757517614467
 30
0.0
  0
VERTEX
  5
1E5
  8
STRUCTURES
 10
528.30920391703535
 20
9830.3704117009456
 30
0.0
  0
VERTEX
  5
1E6
  8
STRUCTURES
 10
528.31352896698854
 20
9830.3682354968132
 30
0.0
  0
VERTEX
  5
1E7
  8
STRUCTURES
 10
528.31380112601335
 20
9830.3687392078064
 30
0.0
  0
VERTEX
  5
1E8
  8
STRUCTURES
 10
528.31149739480793
 20
9830.3698922855237
 30
0.0
  0
VERTEX
  5
1E9
  8
STRUCTURES
 10
528.31378922696763
 20
9830.3743507821764
 30
0.0
  0
VERTEX
  5
1EA
  8
STRUCTURES
 10
528.31340788786895
 20
9830.3745412679073
 30
0.0
  0
VERTEX
  5
1EB
  8
STRUCTURES
 10
528.31107896613037
 20
9830.370094410353
 30
0.0
  0
VERTEX
  5
1EC
  8
STRUCTURES
 10
528.30992089783354
 20
9830.3706705176191
 30
0.0
  0
VERTEX
  5
1ED
  8
STRUCTURES
 10
528.31227823803772
 20
9830.3751029516134
 30
0.0
  0
VERTEX
  5
1EE
  8
STRUCTURES
 10
528.31626815263371
 20
9830.3731620632134
 30
0.0
  0
VERTEX
  5
1EF
  8
STRUCTURES
 10
528.31354877763386
 20
9830.3682288976106
 30
0.0
  0
SEQEND
  5
1F0
  8
STRUCTURES
  0
POLYLINE
  5
8A
  8
STRUCTURES
 66
     1
 10
0.0
 20
0.0
 30
0.0
 70
     1
  0
VERTEX
  5
1F1
  8
STRUCTURES
 10
528.32299722155801
 20
9830.3589971688816
 30
0.0
  0
VERTEX
  5
1F2
  8
STRUCTURES
 10
528.32725350349756
 20
9830.3672996027417
 30
0.0
  0
VERTEX
  5
1F3
  8
STRUCTURES
 10
528.32341771851634
 20
9830.3691128498285
 30
0.0
  0
VERTEX
  5
1F4
  8
STRUCTURES
 10
528.31911268745534
 20
9830.3608513382314
 30
0.0
  0
VERTEX
  5
1F5
  8
STRUCTURES
 10
528.32257814341642
 20
9830.3592078229685
 30
0.0
  0
VERTEX
  5
1F6
  8
STRUCTURES
 10
528.32280169884825
 20
9830.3596622020796
 30
0.0
  0
VERTEX
  5
1F7
  8
STRUCTURES
 10
528.31981982079185
 20
9830.3610580645636
 30
0.0
  0
VERTEX
  5
1F8
  8
STRUCTURES
 10
528.3237027512406
 20
9830.3684318673131
 30
0.0
  0
VERTEX
  5
1F9
  8
STRUCTURES
 10
528.32650530094566
 20
9830.3671129777304
 30
0.0
  0
VERTEX
  5
1FA
  8
STRUCTURES
 10
528.32259077975561
 20
9830.3592020147989
 30
0.0
  0
SEQEND
  5
1FB
  8
STRUCTURES
  0
POLYLINE
  5
8B
  8
STRUCTURES
 66
     1
 10
0.0
 20
0.0
 30
0.0
 70
     1
  0
VERTEX
  5
1FC
  8
STRUCTURES
 10
528.3849975208733
 20
9830.1398438517008
 30
0.0
  0
VERTEX
  5
1FD
  8
STRUCTURES
 10
528.38696919020379
 20
9830.1469980740148
 30
0.0
  0
VERTEX
  5
1FE
  8
STRUCTURES
 10
528.38298312730456
 20
9830.1479962040812
 30
0.0
  0
VERTEX
  5
1FF
  8
STRUCTURES
 10
528.38095497293477
 20
9830.1408438421076
 30
0.0
  0
VERTEX
  5
200
  8
STRUCTURES
 10
528.3846920328092
 20
9830.1399184785078
 30
0.0
  0
VERTEX
  5
201
  8
STRUCTURES
 10
528.384782541508
 20
9830.1402346274645
 30
0.0
  0
VERTEX
  5
202
  8
STRUCTURES
 10
528.38137219904934
 20
9830.141096059584
 30
0.0
  0
VERTEX
  5
203
  8
STRUCTURES
 10
528.38183986952242
 20
9830.142892071899
 30
0.0
  0
VERTEX
  5
204
  8
STRUCTURES
 10
528.38528173179384
 20
9830.1420179425913
 30
0.0
  0
VERTEX
  5
205
  8
STRUCTURES
 10
528.38536224023085
 20
9830.1423135699861
 30
0.0
  0
VERTEX
  5
206
  8
STRUCTURES
 10
528.38194601154203
 20
9830.1431837731943
 30
0.0
  0
VERTEX
  5
207
  8
STRUCTURES
 10
528.38323148823815
 20
9830.1476010039696
 30
0.0
  0
VERTEX
  5
208
  8
STRUCTURES
 10
528.38661670345675
 20
9830.1467961523213
 30
0.0
  0
VERTEX
  5
209
  8
STRUCTURES
 10
528.38470431161147
 20
9830.139912352668
 30
0.0
  0
SEQEND
  5
20A
  8
STRUCTURES
  0
POLYLINE
  5
8C
  8
STRUCTURES
 66
     1
 10
0.0
 20
0.0
 30
0.0
 70
     1
  0
VERTEX
  5
20B
  8
STRUCTURES
 10
528.37932067841552
 20
9830.1411274856837
 30
0.0
  0
VERTEX
  5
20C
  8
STRUCTURES
 10
528.3822912104539
 20
9830.1517796890257
 30
0.0
  0
VERTEX
  5
20D
  8
STRUCTURES
 10
528.37623649495879
 20
9830.1532198179648
 30
0.0
  0
VERTEX
  5
20E
  8
STRUCTURES
 10
528.37327135403052
 20
9830.1426276027469
 30
0.0
  0
VERTEX
  5
20F
  8
STRUCTURES
 10
528.37877725768715
 20
9830.1412586170609
 30
0.0
  0
VERTEX
  5
210
  8
STRUCTURES
 10
528.37895979411212
 20
9830.1419165321204
 30
0.0
  0
VERTEX
  5
211
  8
STRUCTURES
 10
528.37413118667041
 20
9830.1430777683436
 30
0.0
  0
VERTEX
  5
212
  8
STRUCTURES
 10
528.37667954453423
 20
9830.1525213888453
 30
0.0
  0
VERTEX
  5
213
  8
STRUCTURES
 10
528.38153169689645
 20
9830.1513650811376
 30
0.0
  0
VERTEX
  5
214
  8
STRUCTURES
 10
528.37880067602202
 20
9830.1412588119729
 30
0.0
  0
SEQEND
  5
215
  8
STRUCTURES
  0
POLYLINE
  5
8D
  8
STRUCTURES
 66
     1
 10
0.0
 20
0.0
 30
0.0
 70
     1
  0
VERTEX
  5
216
  8
STRUCTURES
 10
528.49199999999985
 20
9830.2600000000002
 30
0.0
  0
VERTEX
  5
217
  8
STRUCTURES
 10
528.4927800527912
 20
9830.2691961140099
 30
0.0
  0
VERTEX
  5
218
  8
STRUCTURES
 10
528.48746611618606
 20
9830.2696639053138
 30
0.0
  0
VERTEX
  5
219
  8
STRUCTURES
 10
528.48714629768585
 20
9830.2663170255983
 30
0.0
  0
VERTEX
  5
21A
  8
STRUCTURES
 10
528.48758162553963
 20
9830.2662802148716
 30
0.0
  0
VERTEX
  5
21B
  8
STRUCTURES
 10
528.48785321492915
 20
9830.2692140460076
 30
0.0
  0
VERTEX
  5
21C
  8
STRUCTURES
 10
528.49234523127961
 20
9830.2688361653036
 30
0.0
  0
VERTEX
  5
21D
  8
STRUCTURES
 10
528.49158654052849
 20
9830.2600412711035
 30
0.0
  0
SEQEND
  5
21E
  8
STRUCTURES
  0
POLYLINE
  5
8E
  8
STRUCTURES
 66
     1
 10
0.0
 20
0.0
 30
0.0
 70
     1
  0
VERTEX
  5
21F
  8
STRUCTURES
 10
528.54871068571697
 20
9829.9926625144562
 30
0.0
  0
VERTEX
  5
220
  8
STRUCTURES
 10
528.52981635926335
 20
9830.0043969684139
 30
0.0
  0
VERTEX
  5
221
  8
STRUCTURES
 10
528.52487130076918
 20
9829.9967820265574
 30
0.0
  0
VERTEX
  5
222
  8
STRUCTURES
 10
528.5440217238646
 20
9829.9853913978168
 30
0.0
  0
VERTEX
  5
223
  8
STRUCTURES
 10
528.54793375684915
 20
9829.9913569751952
 30
0.0
  0
VERTEX
  5
224
  8
STRUCTURES
 10
528.54669211688395
 20
9829.9921211157089
 30
0.0
  0
VERTEX
  5
225
  8
STRUCTURES
 10
528.54368058163607
 20
9829.9873124610858
 30
0.0
  0
VERTEX
  5
226
  8
STRUCTURES
 10
528.52711992143315
 20
9829.9973356997452
 30
0.0
  0
VERTEX
  5
227
  8
STRUCTURES
 10
528.5302232854367
 20
9830.0020989445566
 30
0.0
  0
VERTEX
  5
228
  8
STRUCTURES
 10
528.54796536897845
 20
9829.9913752742541
 30
0.0
  0
SEQEND
  5
229
  8
STRUCTURES
  0
POLYLINE
  5
8F
  8
STRUCTURES
 66
     1
 10
0.0
 20
0.0
 30
0.0
 70
     1
  0
VERTEX
  5
22A
  8
STRUCTURES
 10
528.83683103000976
 20
9830.0590291927401
 30
0.0
  0
VERTEX
  5
22B
  8
STRUCTURES
 10
528.84677178914319
 20
9830.0897976869692
 30
0.0
  0
VERTEX
  5
22C
  8
STRUCTURES
 10
528.83641331350339
 20
9830.0930498800226
 30
0.0
  0
VERTEX
  5
22D
  8
STRUCTURES
 10
528.82576840893626
 20
9830.0624907627662
 30
0.0
  0
VERTEX
  5
22E
  8
STRUCTURES
 10
528.83619593212131
 20
9830.0592216501263
 30
0.0
  0
VERTEX
  5
22F
  8
STRUCTURES
 10
528.83637562211845
 20
9830.0597677221685
 30
0.0
  0
VERTEX
  5
230
  8
STRUCTURES
 10
528.82645030943968
 20
9830.0628313786183
 30
0.0
  0
VERTEX
  5
231
  8
STRUCTURES
 10
528.8304340776408
 20
9830.0742390958603
 30
0.0
  0
VERTEX
  5
232
  8
STRUCTURES
 10
528.83425204214393
 20
9830.0730659291712
 30
0.0
  0
VERTEX
  5
233
  8
STRUCTURES
 10
528.83435775719931
 20
9830.0735095546443
 30
0.0
  0
VERTEX
  5
234
  8
STRUCTURES
 10
528.83056398173449
 20
9830.0746891119234
 30
0.0
  0
VERTEX
  5
235
  8
STRUCTURES
 10
528.83673026669373
 20
9830.0924166763125
 30
0.0
  0
VERTEX
  5
236
  8
STRUCTURES
 10
528.84615624851392
 20
9830.0895198509625
 30
0.0
  0
VERTEX
  5
237
  8
STRUCTURES
 10
528.83622895207805
 20
9830.0592231985029
 30
0.0
  0
SEQEND
  5
238
  8
STRUCTURES
  0
POLYLINE
  5
90
  8
STRUCTURES
 66
     1
 10
0.0
 20
0.0
 30
0.0
 70
     1
  0
VERTEX
  5
239
  8
STRUCTURES
 10
528.82335085793193
 20
9830.0732792423314
 30
0.0
  0
VERTEX
  5
23A
  8
STRUCTURES
 10
528.83098517816029
 20
9830.0951475432776
 30
0.0
  0
VERTEX
  5
23B
  8
STRUCTURES
 10
528.82219617434419
 20
9830.0979625577529
 30
0.0
  0
VERTEX
  5
23C
  8
STRUCTURES
 10
528.81455870952595
 20
9830.0760692550393
 30
0.0
  0
VERTEX
  5
23D
  8
STRUCTURES
 10
528.82244190425536
 20
9830.0735793162858
 30
0.0
  0
VERTEX
  5
23E
  8
STRUCTURES
 10
528.82277971889118
 20
9830.0745815134633
 30
0.0
  0
VERTEX
  5
23F
  8
STRUCTURES
 10
528.81584002463319
 20
9830.0767429137395
 30
0.0
  0
VERTEX
  5
240
  8
STRUCTURES
 10
528.81873451821207
 20
9830.0847311845428
 30
0.0
  0
VERTEX
  5
241
  8
STRUCTURES
 10
528.825633641438
 20
9830.0827768732943
 30
0.0
  0
VERTEX
  5
242
  8
STRUCTURES
 10
528.82591034355664
 20
9830.0835519087796
 30
0.0
  0
VERTEX
  5
243
  8
STRUCTURES
 10
528.81903835300875
 20
9830.0855450984909
 30
0.0
  0
VERTEX
  5
244
  8
STRUCTURES
 10
528.82274042770223
 20
9830.0968489052357
 30
0.0
  0
VERTEX
  5
245
  8
STRUCTURES
 10
528.82977284660626
 20
9830.0946224447653
 30
0.0
  0
VERTEX
  5
246
  8
STRUCTURES
 10
528.82245675043725
 20
9830.0735577797022
 30
0.0
  0
SEQEND
  5
247
  8
STRUCTURES
  0
POLYLINE
  5
91
  8
STRUCTURES
 66
     1
 10
0.0
 20
0.0
 30
0.0
 70
     1
  0
VERTEX
  5
248
  8
STRUCTURES
 10
528.82882793830697
 20
9830.1283367137639
 30
0.0
  0
VERTEX
  5
249
  8
STRUCTURES
 10
528.82800627891652
 20
9830.1260452494116
 30
0.0
  0
VERTEX
  5
24A
  8
STRUCTURES
 10
528.81469635667133
 20
9830.1307235584372
 30
0.0
  0
VERTEX
  5
24B
  8
STRUCTURES
 10
528.8143382565197
 20
9830.1297060182005
 30
0.0
  0
VERTEX
  5
24C
  8
STRUCTURES
 10
528.82852224773785
 20
9830.124809781466
 30
0.0
  0
VERTEX
  5
24D
  8
STRUCTURES
 10
528.82970917440275
 20
9830.1280274033797
 30
0.0
  0
SEQEND
  5
24E
  8
STRUCTURES
  0
POLYLINE
  5
92
  8
STRUCTURES
 66
     1
 10
0.0
 20
0.0
 30
0.0
 70
     1
  0
VERTEX
  5
24F
  8
STRUCTURES
 10
528.82600000000002
 20
9830.1330000000016
 30
0.0
  0
VERTEX
  5
250
  8
STRUCTURES
 10
528.82933936368465
 20
9830.1415571638481
 30
0.0
  0
VERTEX
  5
251
  8
STRUCTURES
 10
528.80892861491202
 20
9830.1496944452829
 30
0.0
  0
VERTEX
  5
252
  8
STRUCTURES
 10
528.80568222842101
 20
9830.1410136255181
 30
0.0
  0
VERTEX
  5
253
  8
STRUCTURES
 10
528.82499109611535
 20
9830.1334017522695
 30
0.0
  0
VERTEX
  5
254
  8
STRUCTURES
 10
528.82540608530144
 20
9830.1344556090971
 30
0.0
  0
VERTEX
  5
255
  8
STRUCTURES
 10
528.8071255716884
 20
9830.1416817945083
 30
0.0
  0
VERTEX
  5
256
  8
STRUCTURES
 10
528.80963316864165
 20
9830.1483331079762
 30
0.0
  0
VERTEX
  5
257
  8
STRUCTURES
 10
528.8279705712888
 20
9830.1410604711109
 30
0.0
  0
VERTEX
  5
258
  8
STRUCTURES
 10
528.82504049806619
 20
9830.1333935036164
 30
0.0
  0
SEQEND
  5
259
  8
STRUCTURES
  0
POLYLINE
  5
93
  8
STRUCTURES
 66
     1
 10
0.0
 20
0.0
 30
0.0
 70
     1
  0
VERTEX
  5
25A
  8
STRUCTURES
 10
528.79100000000005
 20
9830.1780000000017
 30
0.0
  0
VERTEX
  5
25B
  8
STRUCTURES
 10
528.79702306470608
 20
9830.1914026155537
 30
0.0
  0
VERTEX
  5
25C
  8
STRUCTURES
 10
528.74929054139204
 20
9830.2111555478386
 30
0.0
  0
VERTEX
  5
25D
  8
STRUCTURES
 10
528.74398264732565
 20
9830.1974584495201
 30
0.0
  0
VERTEX
  5
25E
  8
STRUCTURES
 10
528.78909424356357
 20
9830.1788350758652
 30
0.0
  0
VERTEX
  5
25F
  8
STRUCTURES
 10
528.79000862760017
 20
9830.1809416352753
 30
0.0
  0
VERTEX
  5
260
  8
STRUCTURES
 10
528.74642906777001
 20
9830.1983776815887
 30
0.0
  0
VERTEX
  5
261
  8
STRUCTURES
 10
528.75049135435677
 20
9830.2084495112904
 30
0.0
  0
VERTEX
  5
262
  8
STRUCTURES
 10
528.79401818464373
 20
9830.1903008996524
 30
0.0
  0
VERTEX
  5
263
  8
STRUCTURES
 10
528.78914006195328
 20
9830.1788016871196
 30
0.0
  0
SEQEND
  5
264
  8
STRUCTURES
  0
POLYLINE
  5
94
  8
STRUCTURES
 66
     1
 10
0.0
 20
0.0
 30
0.0
 70
     1
  0
VERTEX
  5
265
  8
STRUCTURES
 10
528.90992066477691
 20
9830.0531386772509
 30
0.0
  0
VERTEX
  5
266
  8
STRUCTURES
 10
528.91408668266195
 20
9830.0595217265254
 30
0.0
  0
VERTEX
  5
267
  8
STRUCTURES
 10
528.91044008917515
 20
9830.0615408727408
 30
0.0
  0
VERTEX
  5
268
  8
STRUCTURES
 10
528.90653560726594
 20
9830.0551718433617
 30
0.0
  0
VERTEX
  5
269
  8
STRUCTURES
 10
528.90970053173135
 20
9830.0532767084533
 30
0.0
  0
VERTEX
  5
26A
  8
STRUCTURES
 10
528.90984956948228
 20
9830.0535158912153
 30
0.0
  0
VERTEX
  5
26B
  8
STRUCTURES
 10
528.90694131758812
 20
9830.0552607204772
 30
0.0
  0
VERTEX
  5
26C
  8
STRUCTURES
 10
528.91053889307705
 20
9830.0611458946078
 30
0.0
  0
VERTEX
  5
26D
  8
STRUCTURES
 10
528.91366356647143
 20
9830.0594230523729
 30
0.0
  0
VERTEX
  5
26E
  8
STRUCTURES
 10
528.90970904268954
 20
9830.0532727389655
 30
0.0
  0
SEQEND
  5
26F
  8
STRUCTURES
  0
POLYLINE
  5
95
  8
STRUCTURES
 66
     1
 10
0.0
 20
0.0
 30
0.0
 70
     1
  0
VERTEX
  5
270
  8
STRUCTURES
 10
528.94500000000005
 20
9830.0150000000031
 30
0.0
  0
VERTEX
  5
271
  8
STRUCTURES
 10
528.94900906253486
 20
9830.0271065217312
 30
0.0
  0
VERTEX
  5
272
  8
STRUCTURES
 10
528.94313630963347
 20
9830.0290314418744
 30
0.0
  0
VERTEX
  5
273
  8
STRUCTURES
 10
528.93899492873163
 20
9830.0172183019677
 30
0.0
  0
VERTEX
  5
274
  8
STRUCTURES
 10
528.94463724584887
 20
9830.0151500861193
 30
0.0
  0
VERTEX
  5
275
  8
STRUCTURES
 10
528.94477911647755
 20
9830.0155819720458
 30
0.0
  0
VERTEX
  5
276
  8
STRUCTURES
 10
528.93950360244639
 20
9830.0174529240467
 30
0.0
  0
VERTEX
  5
277
  8
STRUCTURES
 10
528.94340629257522
 20
9830.0285763302272
 30
0.0
  0
VERTEX
  5
278
  8
STRUCTURES
 10
528.9485000688594
 20
9830.0269317235015
 30
0.0
  0
VERTEX
  5
279
  8
STRUCTURES
 10
528.94464633273628
 20
9830.0151482280635
 30
0.0
  0
SEQEND
  5
27A
  8
STRUCTURES
  0
POLYLINE
  5
96
  8
STRUCTURES
 66
     1
 10
0.0
 20
0.0
 30
0.0
 70
     1
  0
VERTEX
  5
27B
  8
STRUCTURES
 10
528.92023358679887
 20
9829.9534977674411
 30
0.0
  0
VERTEX
  5
27C
  8
STRUCTURES
 10
528.92644819647239
 20
9829.9729094719041
 30
0.0
  0
VERTEX
  5
27D
  8
STRUCTURES
 10
528.92601624038309
 20
9829.9730540937635
 30
0.0
  0
VERTEX
  5
27E
  8
STRUCTURES
 10
528.92175743893347
 20
9829.9601017577406
 30
0.0
  0
VERTEX
  5
27F
  8
STRUCTURES
 10
528.91615472067519
 20
9829.9619660517947
 30
0.0
  0
VERTEX
  5
280
  8
STRUCTURES
 10
528.91826474272796
 20
9829.9684822194631
 30
0.0
  0
VERTEX
  5
281
  8
STRUCTURES
 10
528.91777720315918
 20
9829.9686484788363
 30
0.0
  0
VERTEX
  5
282
  8
STRUCTURES
 10
528.91554443762948
 20
9829.9616655760256
 30
0.0
  0
VERTEX
  5
283
  8
STRUCTURES
 10
528.92162784043956
 20
9829.9596962775831
 30
0.0
  0
VERTEX
  5
284
  8
STRUCTURES
 10
528.91987584793821
 20
9829.9542833320775
 30
0.0
  0
VERTEX
  5
285
  8
STRUCTURES
 10
528.91621224718415
 20
9829.9554626466943
 30
0.0
  0
VERTEX
  5
286
  8
STRUCTURES
 10
528.91604051205616
 20
9829.9549319193757
 30
0.0
  0
SEQEND
  5
287
  8
STRUCTURES
  0
POLYLINE
  5
97
  8
STRUCTURES
 66
     1
 10
0.0
 20
0.0
 30
0.0
 70
     1
  0
VERTEX
  5
288
  8
STRUCTURES
 10
528.93395124352321
 20
9829.9556832292365
 30
0.0
  0
VERTEX
  5
289
  8
STRUCTURES
 10
528.93746941952497
 20
9829.9664207924961
 30
0.0
  0
VERTEX
  5
28A
  8
STRUCTURES
 10
528.93144762887312
 20
9829.9684213862856
 30
0.0
  0
VERTEX
  5
28B
  8
STRUCTURES
 10
528.93135675999963
 20
9829.9681344852033
 30
0.0
  0
VERTEX
  5
28C
  8
STRUCTURES
 10
528.93704521546761
 20
9829.9662245139898
 30
0.0
  0
VERTEX
  5
28D
  8
STRUCTURES
 10
528.93434756178613
 20
9829.9578002751678
 30
0.0
  0
VERTEX
  5
28E
  8
STRUCTURES
 10
528.92988039677505
 20
9829.9593218840728
 30
0.0
  0
VERTEX
  5
28F
  8
STRUCTURES
 10
528.92979375138486
 20
9829.9590283390298
 30
0.0
  0
VERTEX
  5
290
  8
STRUCTURES
 10
528.93423026414882
 20
9829.9575440320496
 30
0.0
  0
VERTEX
  5
291
  8
STRUCTURES
 10
528.93377073641659
 20
9829.9560886938852
 30
0.0
  0
VERTEX
  5
292
  8
STRUCTURES
 10
528.9281766053989
 20
9829.9578999909572
 30
0.0
  0
VERTEX
  5
293
  8
STRUCTURES
 10
528.92802545590655
 20
9829.9575983943287
 30
0.0
  0
SEQEND
  5
294
  8
STRUCTURES
  0
POLYLINE
  5
98
  8
STRUCTURES
 66
     1
 10
0.0
 20
0.0
 30
0.0
 70
     1
  0
VERTEX
  5
295
  8
STRUCTURES
 10
528.96199460849891
 20
9829.8920145421434
 30
0.0
  0
VERTEX
  5
296
  8
STRUCTURES
 10
528.96218722491335
 20
9829.9032373544451
 30
0.0
  0
VERTEX
  5
297
  8
STRUCTURES
 10
528.9299174482386
 20
9829.9035089687713
 30
0.0
  0
VERTEX
  5
298
  8
STRUCTURES
 10
528.92991380068509
 20
9829.8921526015019
 30
0.0
  0
VERTEX
  5
299
  8
STRUCTURES
 10
528.94654011684906
 20
9829.8921798248684
 30
0.0
  0
VERTEX
  5
29A
  8
STRUCTURES
 10
528.94653736518592
 20
9829.8925748311485
 30
0.0
  0
VERTEX
  5
29B
  8
STRUCTURES
 10
528.93050291255042
 20
9829.8926251676348
 30
0.0
  0
VERTEX
  5
29C
  8
STRUCTURES
 10
528.93042497009424
 20
9829.9030706077956
 30
0.0
  0
VERTEX
  5
29D
  8
STRUCTURES
 10
528.9579037814068
 20
9829.9028717111123
 30
0.0
  0
VERTEX
  5
29E
  8
STRUCTURES
 10
528.95792259510301
 20
9829.8955374486486
 30
0.0
  0
VERTEX
  5
29F
  8
STRUCTURES
 10
528.96163471656644
 20
9829.895533310244
 30
0.0
  0
VERTEX
  5
2A0
  8
STRUCTURES
 10
528.96163631637035
 20
9829.8957926782805
 30
0.0
  0
VERTEX
  5
2A1
  8
STRUCTURES
 10
528.95812084282807
 20
9829.8957665246999
 30
0.0
  0
VERTEX
  5
2A2
  8
STRUCTURES
 10
528.9581138676823
 20
9829.8982157832397
 30
0.0
  0
VERTEX
  5
2A3
  8
STRUCTURES
 10
528.96158153907766
 20
9829.8982183169555
 30
0.0
  0
VERTEX
  5
2A4
  8
STRUCTURES
 10
528.96157194025295
 20
9829.8984103726089
 30
0.0
  0
VERTEX
  5
2A5
  8
STRUCTURES
 10
528.9581138676823
 20
9829.8983948887908
 30
0.0
  0
VERTEX
  5
2A6
  8
STRUCTURES
 10
528.95818144340808
 20
9829.9028812547713
 30
0.0
  0
VERTEX
  5
2A7
  8
STRUCTURES
 10
528.96176225295005
 20
9829.9028812547713
 30
0.0
  0
VERTEX
  5
2A8
  8
STRUCTURES
 10
528.96167560755941
 20
9829.8945764102737
 30
0.0
  0
VERTEX
  5
2A9
  8
STRUCTURES
 10
528.95791581193362
 20
9829.8945998612198
 30
0.0
  0
VERTEX
  5
2AA
  8
STRUCTURES
 10
528.95794243267403
 20
9829.8942826400144
 30
0.0
  0
VERTEX
  5
2AB
  8
STRUCTURES
 10
528.96161820658801
 20
9829.8942322190705
 30
0.0
  0
VERTEX
  5
2AC
  8
STRUCTURES
 10
528.96164879484252
 20
9829.8924227237476
 30
0.0
  0
VERTEX
  5
2AD
  8
STRUCTURES
 10
528.95592847127659
 20
9829.8924646426676
 30
0.0
  0
VERTEX
  5
2AE
  8
STRUCTURES
 10
528.95591272920456
 20
9829.8920691859475
 30
0.0
  0
SEQEND
  5
2AF
  8
STRUCTURES
  0
POLYLINE
  5
99
  8
STRUCTURES
 66
     1
 10
0.0
 20
0.0
 30
0.0
 70
     1
  0
VERTEX
  5
2B0
  8
STRUCTURES
 10
529.02086836188823
 20
9829.8755416867825
 30
0.0
  0
VERTEX
  5
2B1
  8
STRUCTURES
 10
529.02251092073391
 20
9829.8828482663685
 30
0.0
  0
VERTEX
  5
2B2
  8
STRUCTURES
 10
529.01427325582006
 20
9829.8848013140087
 30
0.0
  0
VERTEX
  5
2B3
  8
STRUCTURES
 10
529.0138597840313
 20
9829.8828264050862
 30
0.0
  0
VERTEX
  5
2B4
  8
STRUCTURES
 10
529.02005248738544
 20
9829.8814649748529
 30
0.0
  0
VERTEX
  5
2B5
  8
STRUCTURES
 10
529.01940660869229
 20
9829.8783048637288
 30
0.0
  0
VERTEX
  5
2B6
  8
STRUCTURES
 10
529.01309950644077
 20
9829.8798209911529
 30
0.0
  0
VERTEX
  5
2B7
  8
STRUCTURES
 10
529.01260374237279
 20
9829.8775804819597
 30
0.0
  0
SEQEND
  5
2B8
  8
STRUCTURES
  0
POLYLINE
  5
9A
  8
STRUCTURES
 66
     1
 10
0.0
 20
0.0
 30
0.0
 70
     1
  0
VERTEX
  5
2B9
  8
STRUCTURES
 10
528.9892399124036
 20
9829.8328074049477
 30
0.0
  0
VERTEX
  5
2BA
  8
STRUCTURES
 10
528.99854405314295
 20
9829.8697950094502
 30
0.0
  0
VERTEX
  5
2BB
  8
STRUCTURES
 10
528.99736051806281
 20
9829.870064653107
 30
0.0
  0
VERTEX
  5
2BC
  8
STRUCTURES
 10
528.98843117943011
 20
9829.834148613294
 30
0.0
  0
VERTEX
  5
2BD
  8
STRUCTURES
 10
528.97917791246118
 20
9829.8364248190483
 30
0.0
  0
VERTEX
  5
2BE
  8
STRUCTURES
 10
528.98894855607921
 20
9829.8720782533037
 30
0.0
  0
VERTEX
  5
2BF
  8
STRUCTURES
 10
528.98782318987639
 20
9829.8722643969522
 30
0.0
  0
VERTEX
  5
2C0
  8
STRUCTURES
 10
528.97795137464675
 20
9829.8357442911565
 30
0.0
  0
SEQEND
  5
2C1
  8
STRUCTURES
  0
POLYLINE
  5
9B
  8
STRUCTURES
 66
     1
 10
0.0
 20
0.0
 30
0.0
 70
     1
  0
VERTEX
  5
2C2
  8
STRUCTURES
 10
528.96066743272183
 20
9829.8410033206892
 30
0.0
  0
VERTEX
  5
2C3
  8
STRUCTURES
 10
528.97055599218641
 20
9829.8764360754394
 30
0.0
  0
VERTEX
  5
2C4
  8
STRUCTURES
 10
528.96984945469956
 20
9829.8766449662326
 30
0.0
  0
VERTEX
  5
2C5
  8
STRUCTURES
 10
528.96372540456889
 20
9829.8547416975598
 30
0.0
  0
VERTEX
  5
2C6
  8
STRUCTURES
 10
528.95269315543044
 20
9829.8577261894734
 30
0.0
  0
VERTEX
  5
2C7
  8
STRUCTURES
 10
528.95209937213701
 20
9829.8554500963237
 30
0.0
  0
VERTEX
  5
2C8
  8
STRUCTURES
 10
528.96318966216859
 20
9829.8524408584599
 30
0.0
  0
VERTEX
  5
2C9
  8
STRUCTURES
 10
528.96040645096321
 20
9829.8417430602149
 30
0.0
  0
VERTEX
  5
2CA
  8
STRUCTURES
 10
528.94906198405499
 20
9829.8447047205282
 30
0.0
  0
VERTEX
  5
2CB
  8
STRUCTURES
 10
528.95863649168882
 20
9829.8794000442558
 30
0.0
  0
VERTEX
  5
2CC
  8
STRUCTURES
 10
528.95806312189598
 20
9829.8795562900577
 30
0.0
  0
VERTEX
  5
2CD
  8
STRUCTURES
 10
528.94822170294447
 20
9829.8442780991027
 30
0.0
  0
SEQEND
  5
2CE
  8
STRUCTURES
  0
POLYLINE
  5
9C
  8
STRUCTURES
 66
     1
 10
0.0
 20
0.0
 30
0.0
 70
     1
  0
VERTEX
  5
2CF
  8
STRUCTURES
 10
528.89986551199661
 20
9829.7305610803032
 30
0.0
  0
VERTEX
  5
2D0
  8
STRUCTURES
 10
528.90263778054157
 20
9829.744822071134
 30
0.0
  0
VERTEX
  5
2D1
  8
STRUCTURES
 10
528.90214779253904
 20
9829.7449330760355
 30
0.0
  0
VERTEX
  5
2D2
  8
STRUCTURES
 10
528.90126950008278
 20
9829.7402127636306
 30
0.0
  0
VERTEX
  5
2D3
  8
STRUCTURES
 10
528.89177703040366
 20
9829.7425929924957
 30
0.0
  0
VERTEX
  5
2D4
  8
STRUCTURES
 10
528.89166926759879
 20
9829.7421624578856
 30
0.0
  0
VERTEX
  5
2D5
  8
STRUCTURES
 10
528.90113972397364
 20
9829.7397573141516
 30
0.0
  0
VERTEX
  5
2D6
  8
STRUCTURES
 10
528.89955962945055
 20
9829.7309956688568
 30
0.0
  0
VERTEX
  5
2D7
  8
STRUCTURES
 10
528.89508555328621
 20
9829.7319277384158
 30
0.0
  0
VERTEX
  5
2D8
  8
STRUCTURES
 10
528.89570781309271
 20
9829.7352361799567
 30
0.0
  0
VERTEX
  5
2D9
  8
STRUCTURES
 10
528.89532334816897
 20
9829.7353459180031
 30
0.0
  0
VERTEX
  5
2DA
  8
STRUCTURES
 10
528.89470537583748
 20
9829.7319877030222
 30
0.0
  0
VERTEX
  5
2DB
  8
STRUCTURES
 10
528.89134329151364
 20
9829.7327873718605
 30
0.0
  0
VERTEX
  5
2DC
  8
STRUCTURES
 10
528.89126368526126
 20
9829.7324162951172
 30
0.0
  0
SEQEND
  5
2DD
  8
STRUCTURES
  0
POLYLINE
  5
9D
  8
STRUCTURES
 66
     1
 10
0.0
 20
0.0
 30
0.0
 70
     1
  0
VERTEX
  5
2DE
  8
STRUCTURES
 10
528.88196656605328
 20
9829.7084927231463
 30
0.0
  0
VERTEX
  5
2DF
  8
STRUCTURES
 10
528.88016002473796
 20
9829.7190901526665
 30
0.0
  0
VERTEX
  5
2E0
  8
STRUCTURES
 10
528.87151163881504
 20
9829.7176587936992
 30
0.0
  0
VERTEX
  5
2E1
  8
STRUCTURES
 10
528.87356834500144
 20
9829.7072536849573
 30
0.0
  0
VERTEX
  5
2E2
  8
STRUCTURES
 10
528.88143322817371
 20
9829.7084056404747
 30
0.0
  0
VERTEX
  5
2E3
  8
STRUCTURES
 10
528.88132225493848
 20
9829.7090038254846
 30
0.0
  0
VERTEX
  5
2E4
  8
STRUCTURES
 10
528.87401921692492
 20
9829.7078828158465
 30
0.0
  0
VERTEX
  5
2E5
  8
STRUCTURES
 10
528.87222449461433
 20
9829.7172383818233
 30
0.0
  0
VERTEX
  5
2E6
  8
STRUCTURES
 10
528.87969034086871
 20
9829.7184488469193
 30
0.0
  0
VERTEX
  5
2E7
  8
STRUCTURES
 10
528.88028126895028
 20
9829.7154035770782
 30
0.0
  0
VERTEX
  5
2E8
  8
STRUCTURES
 10
528.87529152248885
 20
9829.714658508954
 30
0.0
  0
VERTEX
  5
2E9
  8
STRUCTURES
 10
528.87614397448351
 20
9829.7102177899033
 30
0.0
  0
VERTEX
  5
2EA
  8
STRUCTURES
 10
528.88095756054713
 20
9829.7108696107753
 30
0.0
  0
VERTEX
  5
2EB
  8
STRUCTURES
 10
528.88090632400053
 20
9829.7112033669127
 30
0.0
  0
VERTEX
  5
2EC
  8
STRUCTURES
 10
528.8764346286905
 20
9829.7106009154832
 30
0.0
  0
VERTEX
  5
2ED
  8
STRUCTURES
 10
528.8756803076202
 20
9829.7143915834858
 30
0.0
  0
VERTEX
  5
2EE
  8
STRUCTURES
 10
528.88031692196705
 20
9829.7151038538086
 30
0.0
  0
VERTEX
  5
2EF
  8
STRUCTURES
 10
528.88144480193534
 20
9829.7084086966388
 30
0.0
  0
SEQEND
  5
2F0
  8
STRUCTURES
  0
POLYLINE
  5
9E
  8
STRUCTURES
 66
     1
 10
0.0
 20
0.0
 30
0.0
 70
     1
  0
VERTEX
  5
2F1
  8
STRUCTURES
 10
528.89146948406176
 20
9829.7089904040513
 30
0.0
  0
VERTEX
  5
2F2
  8
STRUCTURES
 10
528.89520169906461
 20
9829.7260551202544
 30
0.0
  0
VERTEX
  5
2F3
  8
STRUCTURES
 10
528.89470921536758
 20
9829.7261644641621
 30
0.0
  0
VERTEX
  5
2F4
  8
STRUCTURES
 10
528.89124480757243
 20
9829.7100634608196
 30
0.0
  0
VERTEX
  5
2F5
  8
STRUCTURES
 10
528.89138821401275
 20
9829.7207924519225
 30
0.0
  0
VERTEX
  5
2F6
  8
STRUCTURES
 10
528.88564082176174
 20
9829.7207924519225
 30
0.0
  0
VERTEX
  5
2F7
  8
STRUCTURES
 10
528.88563615033365
 20
9829.7219293864728
 30
0.0
  0
VERTEX
  5
2F8
  8
STRUCTURES
 10
528.88518327778627
 20
9829.7219429559264
 30
0.0
  0
VERTEX
  5
2F9
  8
STRUCTURES
 10
528.88512984432896
 20
9829.7090175992707
 30
0.0
  0
VERTEX
  5
2FA
  8
STRUCTURES
 10
528.89079148708026
 20
9829.7089744697951
 30
0.0
  0
VERTEX
  5
2FB
  8
STRUCTURES
 10
528.89080140586555
 20
9829.7094885607185
 30
0.0
  0
VERTEX
  5
2FC
  8
STRUCTURES
 10
528.88556499104675
 20
9829.7095121805796
 30
0.0
  0
VERTEX
  5
2FD
  8
STRUCTURES
 10
528.88568548829244
 20
9829.7203462364268
 30
0.0
  0
VERTEX
  5
2FE
  8
STRUCTURES
 10
528.89082239529546
 20
9829.7203462364268
 30
0.0
  0
VERTEX
  5
2FF
  8
STRUCTURES
 10
528.89082348316208
 20
9829.7089717390154
 30
0.0
  0
SEQEND
  5
300
  8
STRUCTURES
  0
POLYLINE
  5
9F
  8
STRUCTURES
 66
     1
 10
0.0
 20
0.0
 30
0.0
 70
     1
  0
VERTEX
  5
301
  8
STRUCTURES
 10
528.9020192962729
 20
9829.7071990107324
 30
0.0
  0
VERTEX
  5
302
  8
STRUCTURES
 10
528.90573236054092
 20
9829.7241027444925
 30
0.0
  0
VERTEX
  5
303
  8
STRUCTURES
 10
528.90068992305009
 20
9829.7252853211048
 30
0.0
  0
VERTEX
  5
304
  8
STRUCTURES
 10
528.90060641327545
 20
9829.7249376671589
 30
0.0
  0
VERTEX
  5
305
  8
STRUCTURES
 10
528.90527432170609
 20
9829.7238397799811
 30
0.0
  0
VERTEX
  5
306
  8
STRUCTURES
 10
528.90177215853407
 20
9829.7075424699724
 30
0.0
  0
VERTEX
  5
307
  8
STRUCTURES
 10
528.89709753092643
 20
9829.7085564911595
 30
0.0
  0
VERTEX
  5
308
  8
STRUCTURES
 10
528.89930654044065
 20
9829.7182676886532
 30
0.0
  0
VERTEX
  5
309
  8
STRUCTURES
 10
528.8989707735542
 20
9829.7183279910878
 30
0.0
  0
VERTEX
  5
30A
  8
STRUCTURES
 10
528.89664587423033
 20
9829.7082967008391
 30
0.0
  0
SEQEND
  5
30B
  8
STRUCTURES
  0
POLYLINE
  5
A0
  8
STRUCTURES
 66
     1
 10
0.0
 20
0.0
 30
0.0
 70
     1
  0
VERTEX
  5
30C
  8
STRUCTURES
 10
528.93100000000004
 20
9829.6409999999996
 30
0.0
  0
VERTEX
  5
30D
  8
STRUCTURES
 10
528.9317354016365
 20
9829.6440241873097
 30
0.0
  0
VERTEX
  5
30E
  8
STRUCTURES
 10
528.92767036338648
 20
9829.6450290026642
 30
0.0
  0
VERTEX
  5
30F
  8
STRUCTURES
 10
528.92684959988628
 20
9829.6420591781553
 30
0.0
  0
VERTEX
  5
310
  8
STRUCTURES
 10
528.93047290022525
 20
9829.641140452828
 30
0.0
  0
VERTEX
  5
311
  8
STRUCTURES
 10
528.93058821410546
 20
9829.6416740533623
 30
0.0
  0
VERTEX
  5
312
  8
STRUCTURES
 10
528.92757059960229
 20
9829.6424463580715
 30
0.0
  0
VERTEX
  5
313
  8
STRUCTURES
 10
528.92805182067832
 20
9829.6443750787857
 30
0.0
  0
VERTEX
  5
314
  8
STRUCTURES
 10
528.93108696903448
 20
9829.6436255775243
 30
0.0
  0
VERTEX
  5
315
  8
STRUCTURES
 10
528.93051206342966
 20
9829.6411425079568
 30
0.0
  0
SEQEND
  5
316
  8
STRUCTURES
  0
POLYLINE
  5
A1
  8
STRUCTURES
 66
     1
 10
0.0
 20
0.0
 30
0.0
 70
     1
  0
VERTEX
  5
317
  8
STRUCTURES
 10
528.89800000000002
 20
9829.6610000000019
 30
0.0
  0
VERTEX
  5
318
  8
STRUCTURES
 10
528.90546412246533
 20
9829.6949577854721
 30
0.0
  0
VERTEX
  5
319
  8
STRUCTURES
 10
528.89354570983483
 20
9829.6977309373342
 30
0.0
  0
VERTEX
  5
31A
  8
STRUCTURES
 10
528.88573450629042
 20
9829.6632212505101
 30
0.0
  0
VERTEX
  5
31B
  8
STRUCTURES
 10
528.88627984751497
 20
9829.6614566582703
 30
0.0
  0
VERTEX
  5
31C
  8
STRUCTURES
 10
528.88742133974336
 20
9829.6601513160804
 30
0.0
  0
VERTEX
  5
31D
  8
STRUCTURES
 10
528.88973689621105
 20
9829.6588852464793
 30
0.0
  0
VERTEX
  5
31E
  8
STRUCTURES
 10
528.89244453267031
 20
9829.6582446386874
 30
0.0
  0
VERTEX
  5
31F
  8
STRUCTURES
 10
528.8946281372954
 20
9829.6585290905095
 30
0.0
  0
VERTEX
  5
320
  8
STRUCTURES
 10
528.89661605388176
 20
9829.6594812327239
 30
0.0
  0
VERTEX
  5
321
  8
STRUCTURES
 10
528.89800980322184
 20
9829.6609635127315
 30
0.0
  0
VERTEX
  5
322
  8
STRUCTURES
 10
528.89719735870267
 20
9829.6611050629836
 30
0.0
  0
VERTEX
  5
323
  8
STRUCTURES
 10
528.89629762887171
 20
9829.6602834634323
 30
0.0
  0
VERTEX
  5
324
  8
STRUCTURES
 10
528.89535745599267
 20
9829.6596638573246
 30
0.0
  0
VERTEX
  5
325
  8
STRUCTURES
 10
528.89412727062472
 20
9829.6592737214069
 30
0.0
  0
VERTEX
  5
326
  8
STRUCTURES
 10
528.89243717357135
 20
9829.6590281762019
 30
0.0
  0
VERTEX
  5
327
  8
STRUCTURES
 10
528.89083077826911
 20
9829.659390525705
 30
0.0
  0
VERTEX
  5
328
  8
STRUCTURES
 10
528.88929055086464
 20
9829.6599709155216
 30
0.0
  0
VERTEX
  5
329
  8
STRUCTURES
 10
528.8883919089003
 20
9829.6604334030981
 30
0.0
  0
VERTEX
  5
32A
  8
STRUCTURES
 10
528.88743874561203
 20
9829.661249512932
 30
0.0
  0
VERTEX
  5
32B
  8
STRUCTURES
 10
528.88699598382675
 20
9829.6620002247491
 30
0.0
  0
VERTEX
  5
32C
  8
STRUCTURES
 10
528.88663916351788
 20
9829.6630764627353
 30
0.0
  0
VERTEX
  5
32D
  8
STRUCTURES
 10
528.88922406300605
 20
9829.6749927248766
 30
0.0
  0
VERTEX
  5
32E
  8
STRUCTURES
 10
528.89980196777731
 20
9829.6728800563997
 30
0.0
  0
VERTEX
  5
32F
  8
STRUCTURES
 10
528.89997948204098
 20
9829.6736153407001
 30
0.0
  0
VERTEX
  5
330
  8
STRUCTURES
 10
528.89567684088502
 20
9829.6744145872526
 30
0.0
  0
VERTEX
  5
331
  8
STRUCTURES
 10
528.89688757263514
 20
9829.6791812385036
 30
0.0
  0
VERTEX
  5
332
  8
STRUCTURES
 10
528.89611243554805
 20
9829.6793021248941
 30
0.0
  0
VERTEX
  5
333
  8
STRUCTURES
 10
528.89494688226614
 20
9829.6745746617798
 30
0.0
  0
VERTEX
  5
334
  8
STRUCTURES
 10
528.88936689351681
 20
9829.6756521103162
 30
0.0
  0
VERTEX
  5
335
  8
STRUCTURES
 10
528.89421071640697
 20
9829.696684343824
 30
0.0
  0
VERTEX
  5
336
  8
STRUCTURES
 10
528.90453246054449
 20
9829.6943566191858
 30
0.0
  0
VERTEX
  5
337
  8
STRUCTURES
 10
528.89722820292604
 20
9829.6611447015603
 30
0.0
  0
SEQEND
  5
338
  8
STRUCTURES
  0
POLYLINE
  5
A2
  8
STRUCTURES
 66
     1
 10
0.0
 20
0.0
 30
0.0
 70
     1
  0
VERTEX
  5
339
  8
STRUCTURES
 10
528.87699999999995
 20
9829.6720000000023
 30
0.0
  0
VERTEX
  5
33A
  8
STRUCTURES
 10
528.88037330675115
 20
9829.6848903475438
 30
0.0
  0
VERTEX
  5
33B
  8
STRUCTURES
 10
528.87925414778817
 20
9829.6851739547928
 30
0.0
  0
VERTEX
  5
33C
  8
STRUCTURES
 10
528.87904220573989
 20
9829.6844926949361
 30
0.0
  0
VERTEX
  5
33D
  8
STRUCTURES
 10
528.87938936323155
 20
9829.6843898542302
 30
0.0
  0
VERTEX
  5
33E
  8
STRUCTURES
 10
528.87643100547245
 20
9829.6728800000947
 30
0.0
  0
VERTEX
  5
33F
  8
STRUCTURES
 10
528.87056138818707
 20
9829.6745132050983
 30
0.0
  0
VERTEX
  5
340
  8
STRUCTURES
 10
528.87396570733995
 20
9829.6871837262624
 30
0.0
  0
VERTEX
  5
341
  8
STRUCTURES
 10
528.87325353854271
 20
9829.6873497409433
 30
0.0
  0
VERTEX
  5
342
  8
STRUCTURES
 10
528.86953220220778
 20
9829.6740021264868
 30
0.0
  0
SEQEND
  5
343
  8
STRUCTURES
  0
POLYLINE
  5
A3
  8
STRUCTURES
 66
     1
 10
0.0
 20
0.0
 30
0.0
 70
     1
  0
VERTEX
  5
344
  8
STRUCTURES
 10
528.84979564454386
 20
9829.6809070102026
 30
0.0
  0
VERTEX
  5
345
  8
STRUCTURES
 10
528.85272893580304
 20
9829.6912992988036
 30
0.0
  0
VERTEX
  5
346
  8
STRUCTURES
 10
528.85225112495937
 20
9829.6914285094463
 30
0.0
  0
VERTEX
  5
347
  8
STRUCTURES
 10
528.84921709643072
 20
9829.6811035941355
 30
0.0
  0
SEQEND
  5
348
  8
STRUCTURES
  0
POLYLINE
  5
A4
  8
STRUCTURES
 66
     1
 10
0.0
 20
0.0
 30
0.0
 70
     1
  0
VERTEX
  5
349
  8
STRUCTURES
 10
528.85539505498105
 20
9829.6792436430405
 30
0.0
  0
VERTEX
  5
34A
  8
STRUCTURES
 10
528.85877404364635
 20
9829.6911444331708
 30
0.0
  0
VERTEX
  5
34B
  8
STRUCTURES
 10
528.85830924112793
 20
9829.6912744907549
 30
0.0
  0
VERTEX
  5
34C
  8
STRUCTURES
 10
528.85481650686779
 20
9829.6794402269752
 30
0.0
  0
SEQEND
  5
34D
  8
STRUCTURES
  0
POLYLINE
  5
A5
  8
STRUCTURES
 66
     1
 10
0.0
 20
0.0
 30
0.0
 70
     1
  0
VERTEX
  5
34E
  8
STRUCTURES
 10
528.83679073990527
 20
9829.6982455071884
 30
0.0
  0
VERTEX
  5
34F
  8
STRUCTURES
 10
528.83723518453883
 20
9829.6980720677639
 30
0.0
  0
VERTEX
  5
350
  8
STRUCTURES
 10
528.83790485490647
 20
9829.7000966129926
 30
0.0
  0
VERTEX
  5
351
  8
STRUCTURES
 10
528.83747381201692
 20
9829.7002349576887
 30
0.0
  0
SEQEND
  5
352
  8
STRUCTURES
  0
POLYLINE
  5
A6
  8
STRUCTURES
 66
     1
 10
0.0
 20
0.0
 30
0.0
 70
     1
  0
VERTEX
  5
353
  8
STRUCTURES
 10
528.83996944631031
 20
9829.6860048343369
 30
0.0
  0
VERTEX
  5
354
  8
STRUCTURES
 10
528.8417313800943
 20
9829.6909934891719
 30
0.0
  0
VERTEX
  5
355
  8
STRUCTURES
 10
528.84118937808455
 20
9829.6911548163043
 30
0.0
  0
VERTEX
  5
356
  8
STRUCTURES
 10
528.839616589613
 20
9829.6866669886422
 30
0.0
  0
VERTEX
  5
357
  8
STRUCTURES
 10
528.83416785487395
 20
9829.6883152555456
 30
0.0
  0
VERTEX
  5
358
  8
STRUCTURES
 10
528.83594646651522
 20
9829.6938954549478
 30
0.0
  0
VERTEX
  5
359
  8
STRUCTURES
 10
528.83540719422797
 20
9829.6940604484807
 30
0.0
  0
VERTEX
  5
35A
  8
STRUCTURES
 10
528.83344606270111
 20
9829.6879565139861
 30
0.0
  0
SEQEND
  5
35B
  8
STRUCTURES
  0
POLYLINE
  5
A7
  8
STRUCTURES
 66
     1
 10
0.0
 20
0.0
 30
0.0
 70
     1
  0
VERTEX
  5
35C
  8
STRUCTURES
 10
528.80696915922442
 20
9829.6920409217619
 30
0.0
  0
VERTEX
  5
35D
  8
STRUCTURES
 10
528.8206082197197
 20
9829.7370579748476
 30
0.0
  0
VERTEX
  5
35E
  8
STRUCTURES
 10
528.81848660429921
 20
9829.7376893480578
 30
0.0
  0
VERTEX
  5
35F
  8
STRUCTURES
 10
528.81015459759556
 20
9829.7091583745041
 30
0.0
  0
VERTEX
  5
360
  8
STRUCTURES
 10
528.80329288194525
 20
9829.7110080863204
 30
0.0
  0
VERTEX
  5
361
  8
STRUCTURES
 10
528.80274092027753
 20
9829.7090612123557
 30
0.0
  0
VERTEX
  5
362
  8
STRUCTURES
 10
528.80954030373437
 20
9829.707302228051
 30
0.0
  0
VERTEX
  5
363
  8
STRUCTURES
 10
528.8056571833057
 20
9829.6950231748306
 30
0.0
  0
VERTEX
  5
364
  8
STRUCTURES
 10
528.79514737103375
 20
9829.6981344810793
 30
0.0
  0
VERTEX
  5
365
  8
STRUCTURES
 10
528.79892684495235
 20
9829.7102397203289
 30
0.0
  0
VERTEX
  5
366
  8
STRUCTURES
 10
528.80140243278413
 20
9829.7095184352511
 30
0.0
  0
VERTEX
  5
367
  8
STRUCTURES
 10
528.80197178204094
 20
9829.7113719407535
 30
0.0
  0
VERTEX
  5
368
  8
STRUCTURES
 10
528.79954265771505
 20
9829.7120794252351
 30
0.0
  0
VERTEX
  5
369
  8
STRUCTURES
 10
528.80854119555261
 20
9829.7405491005429
 30
0.0
  0
VERTEX
  5
36A
  8
STRUCTURES
 10
528.80636308183045
 20
9829.7410815090388
 30
0.0
  0
VERTEX
  5
36B
  8
STRUCTURES
 10
528.79235693676026
 20
9829.6965484384709
 30
0.0
  0
SEQEND
  5
36C
  8
STRUCTURES
  0
POLYLINE
  5
A8
  8
STRUCTURES
 66
     1
 10
0.0
 20
0.0
 30
0.0
 70
     1
  0
VERTEX
  5
36D
  8
STRUCTURES
 10
528.77133333898018
 20
9829.704036306548
 30
0.0
  0
VERTEX
  5
36E
  8
STRUCTURES
 10
528.7838066771792
 20
9829.738410407117
 30
0.0
  0
VERTEX
  5
36F
  8
STRUCTURES
 10
528.7812868723646
 20
9829.7391498954566
 30
0.0
  0
VERTEX
  5
370
  8
STRUCTURES
 10
528.76971607665484
 20
9829.7077379783677
 30
0.0
  0
VERTEX
  5
371
  8
STRUCTURES
 10
528.76258132762791
 20
9829.7105052044826
 30
0.0
  0
VERTEX
  5
372
  8
STRUCTURES
 10
528.77376040369461
 20
9829.7415791490148
 30
0.0
  0
VERTEX
  5
373
  8
STRUCTURES
 10
528.77141896956255
 20
9829.7422185699543
 30
0.0
  0
VERTEX
  5
374
  8
STRUCTURES
 10
528.75880576518921
 20
9829.7088128873365
 30
0.0
  0
SEQEND
  5
375
  8
STRUCTURES
  0
POLYLINE
  5
A9
  8
STRUCTURES
 66
     1
 10
0.0
 20
0.0
 30
0.0
 70
     1
  0
VERTEX
  5
376
  8
STRUCTURES
 10
529.89130026525322
 20
9829.8659936695913
 30
0.0
  0
VERTEX
  5
377
  8
STRUCTURES
 10
529.89590374248462
 20
9829.88022890713
 30
0.0
  0
VERTEX
  5
378
  8
STRUCTURES
 10
529.89505584630672
 20
9829.8805210163991
 30
0.0
  0
VERTEX
  5
379
  8
STRUCTURES
 10
529.89047835880444
 20
9829.8661984844312
 30
0.0
  0
SEQEND
  5
37A
  8
STRUCTURES
  0
POLYLINE
  5
AA
  8
STRUCTURES
 66
     1
 10
0.0
 20
0.0
 30
0.0
 70
     1
  0
VERTEX
  5
37B
  8
STRUCTURES
 10
529.89999999999975
 20
9829.863000000003
 30
0.0
  0
VERTEX
  5
37C
  8
STRUCTURES
 10
529.90460347723126
 20
9829.8772352375363
 30
0.0
  0
VERTEX
  5
37D
  8
STRUCTURES
 10
529.90375558105347
 20
9829.8775273468091
 30
0.0
  0
VERTEX
  5
37E
  8
STRUCTURES
 10
529.89917809355143
 20
9829.8632048148393
 30
0.0
  0
SEQEND
  5
37F
  8
STRUCTURES
  0
POLYLINE
  5
AB
  8
STRUCTURES
 66
     1
 10
0.0
 20
0.0
 30
0.0
 70
     1
  0
VERTEX
  5
380
  8
STRUCTURES
 10
529.76173296625075
 20
9829.8734564768893
 30
0.0
  0
VERTEX
  5
381
  8
STRUCTURES
 10
529.76154061079535
 20
9829.8816046866195
 30
0.0
  0
VERTEX
  5
382
  8
STRUCTURES
 10
529.76055967490765
 20
9829.8815730714741
 30
0.0
  0
VERTEX
  5
383
  8
STRUCTURES
 10
529.76078492732665
 20
9829.873488463174
 30
0.0
  0
SEQEND
  5
384
  8
STRUCTURES
  0
POLYLINE
  5
AC
  8
STRUCTURES
 66
     1
 10
0.0
 20
0.0
 30
0.0
 70
     1
  0
VERTEX
  5
385
  8
STRUCTURES
 10
529.7683168000824
 20
9829.8734110107689
 30
0.0
  0
VERTEX
  5
386
  8
STRUCTURES
 10
529.76810934247635
 20
9829.8849098624796
 30
0.0
  0
VERTEX
  5
387
  8
STRUCTURES
 10
529.76710428154286
 20
9829.8849098624796
 30
0.0
  0
VERTEX
  5
388
  8
STRUCTURES
 10
529.76736876115831
 20
9829.8734429970555
 30
0.0
  0
SEQEND
  5
389
  8
STRUCTURES
  0
POLYLINE
  5
AD
  8
STRUCTURES
 66
     1
 10
0.0
 20
0.0
 30
0.0
 70
     1
  0
VERTEX
  5
38A
  8
STRUCTURES
 10
529.75800000000004
 20
9829.8910000000033
 30
0.0
  0
VERTEX
  5
38B
  8
STRUCTURES
 10
529.75728167628745
 20
9829.9022164922244
 30
0.0
  0
VERTEX
  5
38C
  8
STRUCTURES
 10
529.7501061709039
 20
9829.9018275105609
 30
0.0
  0
VERTEX
  5
38D
  8
STRUCTURES
 10
529.750237738794
 20
9829.9007372808319
 30
0.0
  0
VERTEX
  5
38E
  8
STRUCTURES
 10
529.75622279794368
 20
9829.9011358624648
 30
0.0
  0
VERTEX
  5
38F
  8
STRUCTURES
 10
529.75688780451594
 20
9829.8909319417216
 30
0.0
  0
SEQEND
  5
390
  8
STRUCTURES
  0
POLYLINE
  5
AE
  8
STRUCTURES
 66
     1
 10
0.0
 20
0.0
 30
0.0
 70
     1
  0
VERTEX
  5
391
  8
STRUCTURES
 10
529.74519022884442
 20
9829.8849925742234
 30
0.0
  0
VERTEX
  5
392
  8
STRUCTURES
 10
529.74482400168756
 20
9829.8996126488746
 30
0.0
  0
VERTEX
  5
393
  8
STRUCTURES
 10
529.74383602666205
 20
9829.8996327778386
 30
0.0
  0
VERTEX
  5
394
  8
STRUCTURES
 10
529.74423437788505
 20
9829.8849799619475
 30
0.0
  0
SEQEND
  5
395
  8
STRUCTURES
  0
POLYLINE
  5
AF
  8
STRUCTURES
 66
     1
 10
0.0
 20
0.0
 30
0.0
 70
     1
  0
VERTEX
  5
396
  8
STRUCTURES
 10
529.81799999999998
 20
9829.8220000000001
 30
0.0
  0
VERTEX
  5
397
  8
STRUCTURES
 10
529.81403312726445
 20
9829.8283502893064
 30
0.0
  0
VERTEX
  5
398
  8
STRUCTURES
 10
529.81357987076399
 20
9829.8280411196829
 30
0.0
  0
VERTEX
  5
399
  8
STRUCTURES
 10
529.81748979200745
 20
9829.8217385018088
 30
0.0
  0
SEQEND
  5
39A
  8
STRUCTURES
  0
POLYLINE
  5
B0
  8
STRUCTURES
 66
     1
 10
0.0
 20
0.0
 30
0.0
 70
     1
  0
VERTEX
  5
39B
  8
STRUCTURES
 10
529.80399999999975
 20
9829.8520000000026
 30
0.0
  0
VERTEX
  5
39C
  8
STRUCTURES
 10
529.80267003863628
 20
9829.8651244986377
 30
0.0
  0
VERTEX
  5
39D
  8
STRUCTURES
 10
529.7948119288352
 20
9829.8645698682649
 30
0.0
  0
VERTEX
  5
39E
  8
STRUCTURES
 10
529.79485461160891
 20
9829.8635032865532
 30
0.0
  0
VERTEX
  5
39F
  8
STRUCTURES
 10
529.80190130076562
 20
9829.8641432468394
 30
0.0
  0
VERTEX
  5
3A0
  8
STRUCTURES
 10
529.80297681707214
 20
9829.8517721545759
 30
0.0
  0
SEQEND
  5
3A1
  8
STRUCTURES
  0
POLYLINE
  5
B1
  8
STRUCTURES
 66
     1
 10
0.0
 20
0.0
 30
0.0
 70
     1
  0
VERTEX
  5
3A2
  8
STRUCTURES
 10
529.77128252193131
 20
9829.8509088894734
 30
0.0
  0
VERTEX
  5
3A3
  8
STRUCTURES
 10
529.75330673900532
 20
9829.8510836877067
 30
0.0
  0
VERTEX
  5
3A4
  8
STRUCTURES
 10
529.75327627873503
 20
9829.8518443654702
 30
0.0
  0
VERTEX
  5
3A5
  8
STRUCTURES
 10
529.77132053327716
 20
9829.851753236162
 30
0.0
  0
SEQEND
  5
3A6
  8
STRUCTURES
  0
POLYLINE
  5
B2
  8
STRUCTURES
 66
     1
 10
0.0
 20
0.0
 30
0.0
 70
     1
  0
VERTEX
  5
3A7
  8
STRUCTURES
 10
529.77099999999984
 20
9829.8430000000026
 30
0.0
  0
VERTEX
  5
3A8
  8
STRUCTURES
 10
529.77105803741892
 20
9829.8450615240072
 30
0.0
  0
VERTEX
  5
3A9
  8
STRUCTURES
 10
529.77011888841434
 20
9829.8450724189825
 30
0.0
  0
VERTEX
  5
3AA
  8
STRUCTURES
 10
529.77009706708645
 20
9829.8429779369526
 30
0.0
  0
SEQEND
  5
3AB
  8
STRUCTURES
  0
POLYLINE
  5
B3
  8
STRUCTURES
 66
     1
 10
0.0
 20
0.0
 30
0.0
 70
     1
  0
VERTEX
  5
3AC
  8
STRUCTURES
 10
529.75300000000004
 20
9829.8289999999997
 30
0.0
  0
VERTEX
  5
3AD
  8
STRUCTURES
 10
529.75294601517453
 20
9829.830075242975
 30
0.0
  0
VERTEX
  5
3AE
  8
STRUCTURES
 10
529.73912703526196
 20
9829.830098187178
 30
0.0
  0
VERTEX
  5
3AF
  8
STRUCTURES
 10
529.73908352059027
 20
9829.8244634004677
 30
0.0
  0
VERTEX
  5
3B0
  8
STRUCTURES
 10
529.74015999677943
 20
9829.8245258424813
 30
0.0
  0
VERTEX
  5
3B1
  8
STRUCTURES
 10
529.74027479872223
 20
9829.8290662610707
 30
0.0
  0
VERTEX
  5
3B2
  8
STRUCTURES
 10
529.75213331468694
 20
9829.8290141228317
 30
0.0
  0
SEQEND
  5
3B3
  8
STRUCTURES
  0
POLYLINE
  5
B4
  8
STRUCTURES
 66
     1
 10
0.0
 20
0.0
 30
0.0
 70
     1
  0
VERTEX
  5
3B4
  8
STRUCTURES
 10
529.65261897188157
 20
9829.8641476949197
 30
0.0
  0
VERTEX
  5
3B5
  8
STRUCTURES
 10
529.64002294622253
 20
9829.8640700787619
 30
0.0
  0
VERTEX
  5
3B6
  8
STRUCTURES
 10
529.64002294622253
 20
9829.8650589598547
 30
0.0
  0
VERTEX
  5
3B7
  8
STRUCTURES
 10
529.65258550397982
 20
9829.8651003720315
 30
0.0
  0
SEQEND
  5
3B8
  8
STRUCTURES
  0
POLYLINE
  5
B5
  8
STRUCTURES
 66
     1
 10
0.0
 20
0.0
 30
0.0
 70
     1
  0
VERTEX
  5
3B9
  8
STRUCTURES
 10
529.65300000000002
 20
9829.8590000000004
 30
0.0
  0
VERTEX
  5
3BA
  8
STRUCTURES
 10
529.63951376057048
 20
9829.8589341806728
 30
0.0
  0
VERTEX
  5
3BB
  8
STRUCTURES
 10
529.63954351692689
 20
9829.8599209221848
 30
0.0
  0
VERTEX
  5
3BC
  8
STRUCTURES
 10
529.65304605558674
 20
9829.8599661349399
 30
0.0
  0
SEQEND
  5
3BD
  8
STRUCTURES
  0
POLYLINE
  5
B6
  8
STRUCTURES
 66
     1
 10
0.0
 20
0.0
 30
0.0
 70
     1
  0
VERTEX
  5
3BE
  8
STRUCTURES
 10
529.43600000000004
 20
9829.9209999999985
 30
0.0
  0
VERTEX
  5
3BF
  8
STRUCTURES
 10
529.42888431943311
 20
9829.9210275016067
 30
0.0
  0
VERTEX
  5
3C0
  8
STRUCTURES
 10
529.42894607187156
 20
9829.9198094318472
 30
0.0
  0
VERTEX
  5
3C1
  8
STRUCTURES
 10
529.42817202265144
 20
9829.9197771973522
 30
0.0
  0
VERTEX
  5
3C2
  8
STRUCTURES
 10
529.42808428939395
 20
9829.9217600832799
 30
0.0
  0
VERTEX
  5
3C3
  8
STRUCTURES
 10
529.43600927100681
 20
9829.9218231164996
 30
0.0
  0
SEQEND
  5
3C4
  8
STRUCTURES
  0
POLYLINE
  5
B7
  8
STRUCTURES
 66
     1
 10
0.0
 20
0.0
 30
0.0
 70
     1
  0
VERTEX
  5
3C5
  8
STRUCTURES
 10
529.45100000000002
 20
9829.8210000000017
 30
0.0
  0
VERTEX
  5
3C6
  8
STRUCTURES
 10
529.43719120628271
 20
9829.8206022147588
 30
0.0
  0
VERTEX
  5
3C7
  8
STRUCTURES
 10
529.43701753154892
 20
9829.8279602941548
 30
0.0
  0
VERTEX
  5
3C8
  8
STRUCTURES
 10
529.45077763867005
 20
9829.8282026581419
 30
0.0
  0
VERTEX
  5
3C9
  8
STRUCTURES
 10
529.45088405763966
 20
9829.8221800439987
 30
0.0
  0
VERTEX
  5
3CA
  8
STRUCTURES
 10
529.44987829279205
 20
9829.8221800439987
 30
0.0
  0
VERTEX
  5
3CB
  8
STRUCTURES
 10
529.44980713350537
 20
9829.8272331740409
 30
0.0
  0
VERTEX
  5
3CC
  8
STRUCTURES
 10
529.43812664374173
 20
9829.8269908100556
 30
0.0
  0
VERTEX
  5
3CD
  8
STRUCTURES
 10
529.43824496525372
 20
9829.8216379695968
 30
0.0
  0
VERTEX
  5
3CE
  8
STRUCTURES
 10
529.45093518737895
 20
9829.8219756857507
 30
0.0
  0
SEQEND
  5
3CF
  8
STRUCTURES
  0
POLYLINE
  5
B8
  8
STRUCTURES
 66
     1
 10
0.0
 20
0.0
 30
0.0
 70
     1
  0
VERTEX
  5
3D0
  8
STRUCTURES
 10
529.00200000000007
 20
9829.3250000000044
 30
0.0
  0
VERTEX
  5
3D1
  8
STRUCTURES
 10
529.00132508861452
 20
9829.3307952694431
 30
0.0
  0
VERTEX
  5
3D2
  8
STRUCTURES
 10
529.01694455206405
 20
9829.3327392487627
 30
0.0
  0
VERTEX
  5
3D3
  8
STRUCTURES
 10
529.01707144852605
 20
9829.3317588696918
 30
0.0
  0
VERTEX
  5
3D4
  8
STRUCTURES
 10
529.00249537731656
 20
9829.3299982187818
 30
0.0
  0
VERTEX
  5
3D5
  8
STRUCTURES
 10
529.00291593382076
 20
9829.3262752613446
 30
0.0
  0
VERTEX
  5
3D6
  8
STRUCTURES
 10
529.01748163829961
 20
9829.3281947199248
 30
0.0
  0
VERTEX
  5
3D7
  8
STRUCTURES
 10
529.01764693006032
 20
9829.3270801946801
 30
0.0
  0
SEQEND
  5
3D8
  8
STRUCTURES
  0
POLYLINE
  5
B9
  8
STRUCTURES
 66
     1
 10
0.0
 20
0.0
 30
0.0
 70
     1
  0
VERTEX
  5
3D9
  8
STRUCTURES
 10
528.99989966028613
 20
9829.3999999999996
 30
0.0
  0
VERTEX
  5
3DA
  8
STRUCTURES
 10
529.00998252167392
 20
9829.4116508413426
 30
0.0
  0
VERTEX
  5
3DB
  8
STRUCTURES
 10
529.00588587129505
 20
9829.4150990595317
 30
0.0
  0
VERTEX
  5
3DC
  8
STRUCTURES
 10
528.99581715217562
 20
9829.4037337398022
 30
0.0
  0
VERTEX
  5
3DD
  8
STRUCTURES
 10
528.99651677850875
 20
9829.4031632033257
 30
0.0
  0
VERTEX
  5
3DE
  8
STRUCTURES
 10
528.99730209034999
 20
9829.4041045913273
 30
0.0
  0
VERTEX
  5
3DF
  8
STRUCTURES
 10
528.99765903864295
 20
9829.4044754710085
 30
0.0
  0
VERTEX
  5
3E0
  8
STRUCTURES
 10
529.00600982411743
 20
9829.4138664068323
 30
0.0
  0
VERTEX
  5
3E1
  8
STRUCTURES
 10
529.00868693631401
 20
9829.4115595994226
 30
0.0
  0
VERTEX
  5
3E2
  8
STRUCTURES
 10
528.99927880830751
 20
9829.4004903866025
 30
0.0
  0
SEQEND
  5
3E3
  8
STRUCTURES
  0
POLYLINE
  5
BA
  8
STRUCTURES
 66
     1
 10
0.0
 20
0.0
 30
0.0
 70
     1
  0
VERTEX
  5
3E4
  8
STRUCTURES
 10
528.99199999999985
 20
9829.4089999999997
 30
0.0
  0
VERTEX
  5
3E5
  8
STRUCTURES
 10
529.00229488986565
 20
9829.4208983954759
 30
0.0
  0
VERTEX
  5
3E6
  8
STRUCTURES
 10
528.99819823948656
 20
9829.4243466136704
 30
0.0
  0
VERTEX
  5
3E7
  8
STRUCTURES
 10
528.98789063761762
 20
9829.4127118191991
 30
0.0
  0
VERTEX
  5
3E8
  8
STRUCTURES
 10
528.99136509218238
 20
9829.4095673372158
 30
0.0
  0
VERTEX
  5
3E9
  8
STRUCTURES
 10
528.99191587274106
 20
9829.4102465419455
 30
0.0
  0
VERTEX
  5
3EA
  8
STRUCTURES
 10
528.98913010184936
 20
9829.4127901110096
 30
0.0
  0
VERTEX
  5
3EB
  8
STRUCTURES
 10
528.99832219230905
 20
9829.4231139609674
 30
0.0
  0
VERTEX
  5
3EC
  8
STRUCTURES
 10
529.00099930450563
 20
9829.4208071535577
 30
0.0
  0
VERTEX
  5
3ED
  8
STRUCTURES
 10
528.99141673385896
 20
9829.4095329349839
 30
0.0
  0
SEQEND
  5
3EE
  8
STRUCTURES
  0
POLYLINE
  5
BB
  8
STRUCTURES
 66
     1
 10
0.0
 20
0.0
 30
0.0
 70
     1
  0
VERTEX
  5
3EF
  8
STRUCTURES
 10
528.98000000000002
 20
9829.4169999999995
 30
0.0
  0
VERTEX
  5
3F0
  8
STRUCTURES
 10
528.97986045288667
 20
9829.4273742632067
 30
0.0
  0
VERTEX
  5
3F1
  8
STRUCTURES
 10
528.97889385124358
 20
9829.4273742632067
 30
0.0
  0
VERTEX
  5
3F2
  8
STRUCTURES
 10
528.97888598020745
 20
9829.4181641220748
 30
0.0
  0
VERTEX
  5
3F3
  8
STRUCTURES
 10
528.9754227882637
 20
9829.4181568869099
 30
0.0
  0
VERTEX
  5
3F4
  8
STRUCTURES
 10
528.97537882564677
 20
9829.4274181527926
 30
0.0
  0
VERTEX
  5
3F5
  8
STRUCTURES
 10
528.97428859114234
 20
9829.4273930408563
 30
0.0
  0
VERTEX
  5
3F6
  8
STRUCTURES
 10
528.97435347919691
 20
9829.4169630282086
 30
0.0
  0
SEQEND
  5
3F7
  8
STRUCTURES
  0
POLYLINE
  5
BC
  8
STRUCTURES
 66
     1
 10
0.0
 20
0.0
 30
0.0
 70
     1
  0
VERTEX
  5
3F8
  8
STRUCTURES
 10
528.99199999999985
 20
9829.4430000000029
 30
0.0
  0
VERTEX
  5
3F9
  8
STRUCTURES
 10
528.99212115960438
 20
9829.4550507439235
 30
0.0
  0
VERTEX
  5
3FA
  8
STRUCTURES
 10
528.99110368419088
 20
9829.4550381879544
 30
0.0
  0
VERTEX
  5
3FB
  8
STRUCTURES
 10
528.99094511160763
 20
9829.4440774463255
 30
0.0
  0
VERTEX
  5
3FC
  8
STRUCTURES
 10
528.98755263100543
 20
9829.4441103564714
 30
0.0
  0
VERTEX
  5
3FD
  8
STRUCTURES
 10
528.98758558697011
 20
9829.4550338806403
 30
0.0
  0
VERTEX
  5
3FE
  8
STRUCTURES
 10
528.98641017889474
 20
9829.4549945235867
 30
0.0
  0
VERTEX
  5
3FF
  8
STRUCTURES
 10
528.98633402821929
 20
9829.4428929623682
 30
0.0
  0
SEQEND
  5
400
  8
STRUCTURES
  0
POLYLINE
  5
BD
  8
STRUCTURES
 66
     1
 10
0.0
 20
0.0
 30
0.0
 70
     1
  0
VERTEX
  5
401
  8
STRUCTURES
 10
528.69299999999987
 20
9829.4410000000025
 30
0.0
  0
VERTEX
  5
402
  8
STRUCTURES
 10
528.71751945565404
 20
9829.4892326805366
 30
0.0
  0
VERTEX
  5
403
  8
STRUCTURES
 10
528.71513504361735
 20
9829.4900572079423
 30
0.0
  0
VERTEX
  5
404
  8
STRUCTURES
 10
528.69229681608113
 20
9829.4441056831729
 30
0.0
  0
VERTEX
  5
405
  8
STRUCTURES
 10
528.68279346773375
 20
9829.4490259620543
 30
0.0
  0
VERTEX
  5
406
  8
STRUCTURES
 10
528.70555368882185
 20
9829.4940294830085
 30
0.0
  0
VERTEX
  5
407
  8
STRUCTURES
 10
528.70349915639258
 20
9829.4950013882099
 30
0.0
  0
VERTEX
  5
408
  8
STRUCTURES
 10
528.67942242450692
 20
9829.4479457827365
 30
0.0
  0
SEQEND
  5
409
  8
STRUCTURES
  0
POLYLINE
  5
BE
  8
STRUCTURES
 66
     1
 10
0.0
 20
0.0
 30
0.0
 70
     1
  0
VERTEX
  5
40A
  8
STRUCTURES
 10
528.73099999999977
 20
9829.4420000000027
 30
0.0
  0
VERTEX
  5
40B
  8
STRUCTURES
 10
528.74101539465585
 20
9829.4618018013334
 30
0.0
  0
VERTEX
  5
40C
  8
STRUCTURES
 10
528.73974220655361
 20
9829.4622863040859
 30
0.0
  0
VERTEX
  5
40D
  8
STRUCTURES
 10
528.73032121612175
 20
9829.4440495472936
 30
0.0
  0
VERTEX
  5
40E
  8
STRUCTURES
 10
528.72407750064383
 20
9829.4472928441937
 30
0.0
  0
VERTEX
  5
40F
  8
STRUCTURES
 10
528.73321123024959
 20
9829.4650470407414
 30
0.0
  0
VERTEX
  5
410
  8
STRUCTURES
 10
528.73186080360472
 20
9829.4657384354596
 30
0.0
  0
VERTEX
  5
411
  8
STRUCTURES
 10
528.72189895139979
 20
9829.4467580049532
 30
0.0
  0
SEQEND
  5
412
  8
STRUCTURES
  0
POLYLINE
  5
BF
  8
STRUCTURES
 66
     1
 10
0.0
 20
0.0
 30
0.0
 70
     1
  0
VERTEX
  5
413
  8
STRUCTURES
 10
528.68600000000004
 20
9829.5000000000018
 30
0.0
  0
VERTEX
  5
414
  8
STRUCTURES
 10
528.68639616259611
 20
9829.5009856306297
 30
0.0
  0
VERTEX
  5
415
  8
STRUCTURES
 10
528.68239140496519
 20
9829.5030890369671
 30
0.0
  0
VERTEX
  5
416
  8
STRUCTURES
 10
528.68904243056954
 20
9829.5154091733966
 30
0.0
  0
VERTEX
  5
417
  8
STRUCTURES
 10
528.68820790875395
 20
9829.5159055564563
 30
0.0
  0
VERTEX
  5
418
  8
STRUCTURES
 10
528.68101410161125
 20
9829.5025598563607
 30
0.0
  0
SEQEND
  5
419
  8
STRUCTURES
  0
POLYLINE
  5
C0
  8
STRUCTURES
 66
     1
 10
0.0
 20
0.0
 30
0.0
 70
     1
  0
VERTEX
  5
41A
  8
STRUCTURES
 10
528.70016631648753
 20
9829.5333811850414
 30
0.0
  0
VERTEX
  5
41B
  8
STRUCTURES
 10
528.71012989648079
 20
9829.5534557584579
 30
0.0
  0
VERTEX
  5
41C
  8
STRUCTURES
 10
528.70132726233351
 20
9829.5574920239233
 30
0.0
  0
VERTEX
  5
41D
  8
STRUCTURES
 10
528.69144879191879
 20
9829.5374017133126
 30
0.0
  0
VERTEX
  5
41E
  8
STRUCTURES
 10
528.69896108806358
 20
9829.5339283831854
 30
0.0
  0
VERTEX
  5
41F
  8
STRUCTURES
 10
528.6994504361445
 20
9829.5350479758581
 30
0.0
  0
VERTEX
  5
420
  8
STRUCTURES
 10
528.69320403299525
 20
9829.5379245033291
 30
0.0
  0
VERTEX
  5
421
  8
STRUCTURES
 10
528.70193403603616
 20
9829.5559641370328
 30
0.0
  0
VERTEX
  5
422
  8
STRUCTURES
 10
528.70853943522718
 20
9829.5530110350446
 30
0.0
  0
VERTEX
  5
423
  8
STRUCTURES
 10
528.6990854248387
 20
9829.5338436726215
 30
0.0
  0
SEQEND
  5
424
  8
STRUCTURES
  0
POLYLINE
  5
C1
  8
STRUCTURES
 66
     1
 10
0.0
 20
0.0
 30
0.0
 70
     1
  0
VERTEX
  5
425
  8
STRUCTURES
 10
528.72205138073525
 20
9829.5050024146294
 30
0.0
  0
VERTEX
  5
426
  8
STRUCTURES
 10
528.72932748180153
 20
9829.5186722051203
 30
0.0
  0
VERTEX
  5
427
  8
STRUCTURES
 10
528.72405779105725
 20
9829.5212206727028
 30
0.0
  0
VERTEX
  5
428
  8
STRUCTURES
 10
528.71689105259986
 20
9829.5074015337486
 30
0.0
  0
VERTEX
  5
429
  8
STRUCTURES
 10
528.72089830592552
 20
9829.5055512174586
 30
0.0
  0
VERTEX
  5
42A
  8
STRUCTURES
 10
528.72140019647065
 20
9829.5065540621417
 30
0.0
  0
VERTEX
  5
42B
  8
STRUCTURES
 10
528.71840907472335
 20
9829.5079008728117
 30
0.0
  0
VERTEX
  5
42C
  8
STRUCTURES
 10
528.72450912779254
 20
9829.5198187114893
 30
0.0
  0
VERTEX
  5
42D
  8
STRUCTURES
 10
528.72792042209119
 20
9829.5182867706553
 30
0.0
  0
VERTEX
  5
42E
  8
STRUCTURES
 10
528.72115549043417
 20
9829.5054856505249
 30
0.0
  0
SEQEND
  5
42F
  8
STRUCTURES
  0
POLYLINE
  5
C2
  8
STRUCTURES
 66
     1
 10
0.0
 20
0.0
 30
0.0
 70
     1
  0
VERTEX
  5
430
  8
STRUCTURES
 10
528.76579498009392
 20
9829.3573253721588
 30
0.0
  0
VERTEX
  5
431
  8
STRUCTURES
 10
528.77140191146839
 20
9829.3663731108136
 30
0.0
  0
VERTEX
  5
432
  8
STRUCTURES
 10
528.77010277607121
 20
9829.3670983144584
 30
0.0
  0
VERTEX
  5
433
  8
STRUCTURES
 10
528.76447226055075
 20
9829.3581121240441
 30
0.0
  0
SEQEND
  5
434
  8
STRUCTURES
  0
POLYLINE
  5
C3
  8
STRUCTURES
 66
     1
 10
0.0
 20
0.0
 30
0.0
 70
     1
  0
VERTEX
  5
435
  8
STRUCTURES
 10
528.65777728505736
 20
9829.1303287073843
 30
0.0
  0
VERTEX
  5
436
  8
STRUCTURES
 10
528.65870764896113
 20
9829.1409321821575
 30
0.0
  0
VERTEX
  5
437
  8
STRUCTURES
 10
528.65778801756676
 20
9829.1410180188159
 30
0.0
  0
VERTEX
  5
438
  8
STRUCTURES
 10
528.65678673217076
 20
9829.1303657993012
 30
0.0
  0
SEQEND
  5
439
  8
STRUCTURES
  0
POLYLINE
  5
C4
  8
STRUCTURES
 66
     1
 10
0.0
 20
0.0
 30
0.0
 70
     1
  0
VERTEX
  5
43A
  8
STRUCTURES
 10
528.66200000000003
 20
9829.1299999999992
 30
0.0
  0
VERTEX
  5
43B
  8
STRUCTURES
 10
528.66293036390368
 20
9829.1406034747724
 30
0.0
  0
VERTEX
  5
43C
  8
STRUCTURES
 10
528.66201073250954
 20
9829.1406893114327
 30
0.0
  0
VERTEX
  5
43D
  8
STRUCTURES
 10
528.66100944711366
 20
9829.1300370919143
 30
0.0
  0
SEQEND
  5
43E
  8
STRUCTURES
  0
POLYLINE
  5
C5
  8
STRUCTURES
 66
     1
 10
0.0
 20
0.0
 30
0.0
 70
     1
  0
VERTEX
  5
43F
  8
STRUCTURES
 10
528.44473131825748
 20
9829.2568154982837
 30
0.0
  0
VERTEX
  5
440
  8
STRUCTURES
 10
528.45289649249753
 20
9829.2734307977444
 30
0.0
  0
VERTEX
  5
441
  8
STRUCTURES
 10
528.45165349358615
 20
9829.2739912586858
 30
0.0
  0
VERTEX
  5
442
  8
STRUCTURES
 10
528.44331429884517
 20
9829.2575579026998
 30
0.0
  0
SEQEND
  5
443
  8
STRUCTURES
  0
POLYLINE
  5
C6
  8
STRUCTURES
 66
     1
 10
0.0
 20
0.0
 30
0.0
 70
     1
  0
VERTEX
  5
444
  8
STRUCTURES
 10
528.44897952655629
 20
9829.2550070153738
 30
0.0
  0
VERTEX
  5
445
  8
STRUCTURES
 10
528.45751165409911
 20
9829.2715547789685
 30
0.0
  0
VERTEX
  5
446
  8
STRUCTURES
 10
528.4560579782061
 20
9829.2720829111386
 30
0.0
  0
VERTEX
  5
447
  8
STRUCTURES
 10
528.44761830990171
 20
9829.2556273497212
 30
0.0
  0
SEQEND
  5
448
  8
STRUCTURES
  0
POLYLINE
  5
C7
  8
STRUCTURES
 66
     1
 10
0.0
 20
0.0
 30
0.0
 70
     1
  0
VERTEX
  5
449
  8
STRUCTURES
 10
528.43939424037353
 20
9829.2591543428462
 30
0.0
  0
VERTEX
  5
44A
  8
STRUCTURES
 10
528.44615286661337
 20
9829.272771917842
 30
0.0
  0
VERTEX
  5
44B
  8
STRUCTURES
 10
528.44522683846083
 20
9829.2731673371582
 30
0.0
  0
VERTEX
  5
44C
  8
STRUCTURES
 10
528.43896434563794
 20
9829.2607887400318
 30
0.0
  0
VERTEX
  5
44D
  8
STRUCTURES
 10
528.43585060562998
 20
9829.26226326707
 30
0.0
  0
VERTEX
  5
44E
  8
STRUCTURES
 10
528.44197095168386
 20
9829.2746020610557
 30
0.0
  0
VERTEX
  5
44F
  8
STRUCTURES
 10
528.44107980809338
 20
9829.2749858627103
 30
0.0
  0
VERTEX
  5
450
  8
STRUCTURES
 10
528.43425464943914
 20
9829.2615554248932
 30
0.0
  0
SEQEND
  5
451
  8
STRUCTURES
  0
POLYLINE
  5
C8
  8
STRUCTURES
 66
     1
 10
0.0
 20
0.0
 30
0.0
 70
     1
  0
VERTEX
  5
452
  8
STRUCTURES
 10
528.40790575355982
 20
9829.2740447085944
 30
0.0
  0
VERTEX
  5
453
  8
STRUCTURES
 10
528.41322935494782
 20
9829.2947858199768
 30
0.0
  0
VERTEX
  5
454
  8
STRUCTURES
 10
528.41171370053451
 20
9829.2951807981062
 30
0.0
  0
VERTEX
  5
455
  8
STRUCTURES
 10
528.40637573015101
 20
9829.2742461126581
 30
0.0
  0
SEQEND
  5
456
  8
STRUCTURES
  0
POLYLINE
  5
C9
  8
STRUCTURES
 66
     1
 10
0.0
 20
0.0
 30
0.0
 70
     1
  0
VERTEX
  5
457
  8
STRUCTURES
 10
528.41700000000003
 20
9829.2720000000027
 30
0.0
  0
VERTEX
  5
458
  8
STRUCTURES
 10
528.42232360138803
 20
9829.2927411113833
 30
0.0
  0
VERTEX
  5
459
  8
STRUCTURES
 10
528.42080794697472
 20
9829.2931360895109
 30
0.0
  0
VERTEX
  5
45A
  8
STRUCTURES
 10
528.41546997659123
 20
9829.2722014040664
 30
0.0
  0
SEQEND
  5
45B
  8
STRUCTURES
  0
POLYLINE
  5
CA
  8
STRUCTURES
 66
     1
 10
0.0
 20
0.0
 30
0.0
 70
     1
  0
VERTEX
  5
45C
  8
STRUCTURES
 10
528.37097683201546
 20
9829.4430074163774
 30
0.0
  0
VERTEX
  5
45D
  8
STRUCTURES
 10
528.37762441758525
 20
9829.4512482155715
 30
0.0
  0
VERTEX
  5
45E
  8
STRUCTURES
 10
528.37312576228612
 20
9829.4548152322277
 30
0.0
  0
VERTEX
  5
45F
  8
STRUCTURES
 10
528.36641743231655
 20
9829.446553523172
 30
0.0
  0
VERTEX
  5
460
  8
STRUCTURES
 10
528.37006744223618
 20
9829.4437078179726
 30
0.0
  0
VERTEX
  5
461
  8
STRUCTURES
 10
528.37059540337088
 20
9829.4444294463265
 30
0.0
  0
VERTEX
  5
462
  8
STRUCTURES
 10
528.36770281495217
 20
9829.4466876947645
 30
0.0
  0
VERTEX
  5
463
  8
STRUCTURES
 10
528.37330430703071
 20
9829.4535500092461
 30
0.0
  0
VERTEX
  5
464
  8
STRUCTURES
 10
528.37644298542068
 20
9829.4510837730413
 30
0.0
  0
VERTEX
  5
465
  8
STRUCTURES
 10
528.37022123124871
 20
9829.4435771594362
 30
0.0
  0
SEQEND
  5
466
  8
STRUCTURES
  0
POLYLINE
  5
CB
  8
STRUCTURES
 66
     1
 10
0.0
 20
0.0
 30
0.0
 70
     1
  0
VERTEX
  5
467
  8
STRUCTURES
 10
528.43875292533914
 20
9829.3768583030724
 30
0.0
  0
VERTEX
  5
468
  8
STRUCTURES
 10
528.44603977660495
 20
9829.391133213745
 30
0.0
  0
VERTEX
  5
469
  8
STRUCTURES
 10
528.43698127220227
 20
9829.3954291458558
 30
0.0
  0
VERTEX
  5
46A
  8
STRUCTURES
 10
528.42969179970362
 20
9829.3812230048989
 30
0.0
  0
VERTEX
  5
46B
  8
STRUCTURES
 10
528.43752812679247
 20
9829.3773936177131
 30
0.0
  0
VERTEX
  5
46C
  8
STRUCTURES
 10
528.43814211037636
 20
9829.3785949171943
 30
0.0
  0
VERTEX
  5
46D
  8
STRUCTURES
 10
528.43124852399785
 20
9829.3820050546583
 30
0.0
  0
VERTEX
  5
46E
  8
STRUCTURES
 10
528.43756764702403
 20
9829.3939946309638
 30
0.0
  0
VERTEX
  5
46F
  8
STRUCTURES
 10
528.44442542053605
 20
9829.3907123810477
 30
0.0
  0
VERTEX
  5
470
  8
STRUCTURES
 10
528.43767014232742
 20
9829.3773548360841
 30
0.0
  0
SEQEND
  5
471
  8
STRUCTURES
  0
POLYLINE
  5
CC
  8
STRUCTURES
 66
     1
 10
0.0
 20
0.0
 30
0.0
 70
     1
  0
VERTEX
  5
472
  8
STRUCTURES
 10
528.35794575037835
 20
9829.4536155711976
 30
0.0
  0
VERTEX
  5
473
  8
STRUCTURES
 10
528.3681152086773
 20
9829.4660032018783
 30
0.0
  0
VERTEX
  5
474
  8
STRUCTURES
 10
528.36018419538595
 20
9829.4721359470095
 30
0.0
  0
VERTEX
  5
475
  8
STRUCTURES
 10
528.35002687462566
 20
9829.459816057195
 30
0.0
  0
VERTEX
  5
476
  8
STRUCTURES
 10
528.35686366691925
 20
9829.4544002932089
 30
0.0
  0
VERTEX
  5
477
  8
STRUCTURES
 10
528.357720217566
 20
9829.4554426066316
 30
0.0
  0
VERTEX
  5
478
  8
STRUCTURES
 10
528.35171477515553
 20
9829.4602473160066
 30
0.0
  0
VERTEX
  5
479
  8
STRUCTURES
 10
528.3604504206952
 20
9829.4706092536962
 30
0.0
  0
VERTEX
  5
47A
  8
STRUCTURES
 10
528.36644821128095
 20
9829.4659371310372
 30
0.0
  0
VERTEX
  5
47B
  8
STRUCTURES
 10
528.35699411202063
 20
9829.4543320546381
 30
0.0
  0
SEQEND
  5
47C
  8
STRUCTURES
  0
POLYLINE
  5
CD
  8
STRUCTURES
 66
     1
 10
0.0
 20
0.0
 30
0.0
 70
     1
  0
VERTEX
  5
47D
  8
STRUCTURES
 10
528.18211240910955
 20
9829.7599906841424
 30
0.0
  0
VERTEX
  5
47E
  8
STRUCTURES
 10
528.18576229551968
 20
9829.7699556865937
 30
0.0
  0
VERTEX
  5
47F
  8
STRUCTURES
 10
528.18507361184652
 20
9829.7701276977423
 30
0.0
  0
VERTEX
  5
480
  8
STRUCTURES
 10
528.18142202697095
 20
9829.7602732608484
 30
0.0
  0
SEQEND
  5
481
  8
STRUCTURES
  0
POLYLINE
  5
CE
  8
STRUCTURES
 66
     1
 10
0.0
 20
0.0
 30
0.0
 70
     1
  0
VERTEX
  5
482
  8
STRUCTURES
 10
528.17501101791561
 20
9829.7660285346537
 30
0.0
  0
VERTEX
  5
483
  8
STRUCTURES
 10
528.18245370864474
 20
9829.7736196084516
 30
0.0
  0
VERTEX
  5
484
  8
STRUCTURES
 10
528.18173136509336
 20
9829.774263876061
 30
0.0
  0
VERTEX
  5
485
  8
STRUCTURES
 10
528.17503441632698
 20
9829.7673852441967
 30
0.0
  0
VERTEX
  5
486
  8
STRUCTURES
 10
528.17255790283855
 20
9829.7697513358235
 30
0.0
  0
VERTEX
  5
487
  8
STRUCTURES
 10
528.17933468954095
 20
9829.7764143700279
 30
0.0
  0
VERTEX
  5
488
  8
STRUCTURES
 10
528.17863779687968
 20
9829.7770832945989
 30
0.0
  0
VERTEX
  5
489
  8
STRUCTURES
 10
528.17119278585449
 20
9829.7697096844659
 30
0.0
  0
SEQEND
  5
48A
  8
STRUCTURES
  0
POLYLINE
  5
CF
  8
STRUCTURES
 66
     1
 10
0.0
 20
0.0
 30
0.0
 70
     1
  0
VERTEX
  5
48B
  8
STRUCTURES
 10
528.16485202391164
 20
9829.7832275992569
 30
0.0
  0
VERTEX
  5
48C
  8
STRUCTURES
 10
528.17682719759239
 20
9829.7924236923463
 30
0.0
  0
VERTEX
  5
48D
  8
STRUCTURES
 10
528.17623418220489
 20
9829.7930923962303
 30
0.0
  0
VERTEX
  5
48E
  8
STRUCTURES
 10
528.16410747507905
 20
9829.7840152751724
 30
0.0
  0
SEQEND
  5
48F
  8
STRUCTURES
  0
POLYLINE
  5
D0
  8
STRUCTURES
 66
     1
 10
0.0
 20
0.0
 30
0.0
 70
     1
  0
VERTEX
  5
490
  8
STRUCTURES
 10
528.16794706893393
 20
9829.7798608822541
 30
0.0
  0
VERTEX
  5
491
  8
STRUCTURES
 10
528.17992224261445
 20
9829.7890569753436
 30
0.0
  0
VERTEX
  5
492
  8
STRUCTURES
 10
528.17932922722707
 20
9829.7897256792257
 30
0.0
  0
VERTEX
  5
493
  8
STRUCTURES
 10
528.16720252010123
 20
9829.7806485581677
 30
0.0
  0
SEQEND
  5
494
  8
STRUCTURES
  0
POLYLINE
  5
D1
  8
STRUCTURES
 66
     1
 10
0.0
 20
0.0
 30
0.0
 70
     1
  0
VERTEX
  5
495
  8
STRUCTURES
 10
528.1545648366241
 20
9829.8239494703284
 30
0.0
  0
VERTEX
  5
496
  8
STRUCTURES
 10
528.16152711903476
 20
9829.8315927134754
 30
0.0
  0
VERTEX
  5
497
  8
STRUCTURES
 10
528.16092418486232
 20
9829.8320815517
 30
0.0
  0
VERTEX
  5
498
  8
STRUCTURES
 10
528.15404886672172
 20
9829.8244580796618
 30
0.0
  0
SEQEND
  5
499
  8
STRUCTURES
  0
POLYLINE
  5
D2
  8
STRUCTURES
 66
     1
 10
0.0
 20
0.0
 30
0.0
 70
     1
  0
VERTEX
  5
49A
  8
STRUCTURES
 10
528.1579999999999
 20
9829.8210000000017
 30
0.0
  0
VERTEX
  5
49B
  8
STRUCTURES
 10
528.1649622824109
 20
9829.8286432431505
 30
0.0
  0
VERTEX
  5
49C
  8
STRUCTURES
 10
528.16435934823824
 20
9829.8291320813732
 30
0.0
  0
VERTEX
  5
49D
  8
STRUCTURES
 10
528.15748403009763
 20
9829.8215086093351
 30
0.0
  0
SEQEND
  5
49E
  8
STRUCTURES
  0
POLYLINE
  5
D3
  8
STRUCTURES
 66
     1
 10
0.0
 20
0.0
 30
0.0
 70
     1
  0
VERTEX
  5
49F
  8
STRUCTURES
 10
527.88608833358239
 20
9830.1211345986503
 30
0.0
  0
VERTEX
  5
4A0
  8
STRUCTURES
 10
527.89621707735205
 20
9830.1496228255874
 30
0.0
  0
VERTEX
  5
4A1
  8
STRUCTURES
 10
527.88680990922819
 20
9830.1527548923605
 30
0.0
  0
VERTEX
  5
4A2
  8
STRUCTURES
 10
527.87642372498112
 20
9830.1243314722415
 30
0.0
  0
VERTEX
  5
4A3
  8
STRUCTURES
 10
527.88487017874127
 20
9830.1214543254227
 30
0.0
  0
VERTEX
  5
4A4
  8
STRUCTURES
 10
527.88532849062278
 20
9830.1226180892136
 30
0.0
  0
VERTEX
  5
4A5
  8
STRUCTURES
 10
527.87782188978065
 20
9830.1250187567111
 30
0.0
  0
VERTEX
  5
4A6
  8
STRUCTURES
 10
527.88735576239014
 20
9830.1515594289776
 30
0.0
  0
VERTEX
  5
4A7
  8
STRUCTURES
 10
527.89501114501445
 20
9830.1490676884659
 30
0.0
  0
VERTEX
  5
4A8
  8
STRUCTURES
 10
527.88505690787724
 20
9830.1214221472346
 30
0.0
  0
SEQEND
  5
4A9
  8
STRUCTURES
  0
POLYLINE
  5
D4
  8
STRUCTURES
 66
     1
 10
0.0
 20
0.0
 30
0.0
 70
     1
  0
VERTEX
  5
4AA
  8
STRUCTURES
 10
527.85000000000002
 20
9830.128999999999
 30
0.0
  0
VERTEX
  5
4AB
  8
STRUCTURES
 10
527.85277759636961
 20
9830.1334221909092
 30
0.0
  0
VERTEX
  5
4AC
  8
STRUCTURES
 10
527.85210689449468
 20
9830.1338584686073
 30
0.0
  0
VERTEX
  5
4AD
  8
STRUCTURES
 10
527.84931773201833
 20
9830.1294371065069
 30
0.0
  0
SEQEND
  5
4AE
  8
STRUCTURES
  0
POLYLINE
  5
D5
  8
STRUCTURES
 66
     1
 10
0.0
 20
0.0
 30
0.0
 70
     1
  0
VERTEX
  5
4AF
  8
STRUCTURES
 10
527.66696137293764
 20
9829.9136636791281
 30
0.0
  0
VERTEX
  5
4B0
  8
STRUCTURES
 10
527.65698205087187
 20
9829.9064753868424
 30
0.0
  0
VERTEX
  5
4B1
  8
STRUCTURES
 10
527.65649334271245
 20
9829.9070681355588
 30
0.0
  0
VERTEX
  5
4B2
  8
STRUCTURES
 10
527.66643695715061
 20
9829.9143145343915
 30
0.0
  0
SEQEND
  5
4B3
  8
STRUCTURES
  0
POLYLINE
  5
D6
  8
STRUCTURES
 66
     1
 10
0.0
 20
0.0
 30
0.0
 70
     1
  0
VERTEX
  5
4B4
  8
STRUCTURES
 10
527.6578213081076
 20
9829.9007033853468
 30
0.0
  0
VERTEX
  5
4B5
  8
STRUCTURES
 10
527.6699699005535
 20
9829.9102505388219
 30
0.0
  0
VERTEX
  5
4B6
  8
STRUCTURES
 10
527.6695190757556
 20
9829.9108023539575
 30
0.0
  0
VERTEX
  5
4B7
  8
STRUCTURES
 10
527.65729926003075
 20
9829.9012727957252
 30
0.0
  0
SEQEND
  5
4B8
  8
STRUCTURES
  0
POLYLINE
  5
D7
  8
STRUCTURES
 66
     1
 10
0.0
 20
0.0
 30
0.0
 70
     1
  0
VERTEX
  5
4B9
  8
STRUCTURES
 10
527.84238636133125
 20
9828.9886768748147
 30
0.0
  0
VERTEX
  5
4BA
  8
STRUCTURES
 10
527.8334208019977
 20
9829.0069026785459
 30
0.0
  0
VERTEX
  5
4BB
  8
STRUCTURES
 10
527.8280915233729
 20
9829.0044384964622
 30
0.0
  0
VERTEX
  5
4BC
  8
STRUCTURES
 10
527.83412479124354
 20
9828.9921353483642
 30
0.0
  0
VERTEX
  5
4BD
  8
STRUCTURES
 10
527.83520029004296
 20
9828.9926852859408
 30
0.0
  0
VERTEX
  5
4BE
  8
STRUCTURES
 10
527.82958248139505
 20
9829.0039367815334
 30
0.0
  0
VERTEX
  5
4BF
  8
STRUCTURES
 10
527.83288577359053
 20
9829.0054404492548
 30
0.0
  0
VERTEX
  5
4C0
  8
STRUCTURES
 10
527.84138542257483
 20
9828.9881338272025
 30
0.0
  0
SEQEND
  5
4C1
  8
STRUCTURES
  0
POLYLINE
  5
D8
  8
STRUCTURES
 66
     1
 10
0.0
 20
0.0
 30
0.0
 70
     1
  0
VERTEX
  5
4C2
  8
STRUCTURES
 10
527.78975718027891
 20
9829.0732117456519
 30
0.0
  0
VERTEX
  5
4C3
  8
STRUCTURES
 10
527.78577443519953
 20
9829.0774917643303
 30
0.0
  0
VERTEX
  5
4C4
  8
STRUCTURES
 10
527.78509098497932
 20
9829.0768477050478
 30
0.0
  0
VERTEX
  5
4C5
  8
STRUCTURES
 10
527.78843033663406
 20
9829.0732471644005
 30
0.0
  0
VERTEX
  5
4C6
  8
STRUCTURES
 10
527.77804256399202
 20
9829.0643342397743
 30
0.0
  0
VERTEX
  5
4C7
  8
STRUCTURES
 10
527.77543838782515
 20
9829.0672820949894
 30
0.0
  0
VERTEX
  5
4C8
  8
STRUCTURES
 10
527.77654707312684
 20
9829.0683179217594
 30
0.0
  0
VERTEX
  5
4C9
  8
STRUCTURES
 10
527.77609123478692
 20
9829.0687769091037
 30
0.0
  0
VERTEX
  5
4CA
  8
STRUCTURES
 10
527.77437776008685
 20
9829.0672365048049
 30
0.0
  0
VERTEX
  5
4CB
  8
STRUCTURES
 10
527.77799849258088
 20
9829.0630256479399
 30
0.0
  0
SEQEND
  5
4CC
  8
STRUCTURES
  0
POLYLINE
  5
D9
  8
STRUCTURES
 66
     1
 10
0.0
 20
0.0
 30
0.0
 70
     1
  0
VERTEX
  5
4CD
  8
STRUCTURES
 10
527.75703647553348
 20
9829.0759714534706
 30
0.0
  0
VERTEX
  5
4CE
  8
STRUCTURES
 10
527.77226187523502
 20
9829.0894906004869
 30
0.0
  0
VERTEX
  5
4CF
  8
STRUCTURES
 10
527.7714379761187
 20
9829.0904050747959
 30
0.0
  0
VERTEX
  5
4D0
  8
STRUCTURES
 10
527.75712932816396
 20
9829.0773836058561
 30
0.0
  0
VERTEX
  5
4D1
  8
STRUCTURES
 10
527.75437984082953
 20
9829.0804496271066
 30
0.0
  0
VERTEX
  5
4D2
  8
STRUCTURES
 10
527.76880239483683
 20
9829.0928084730804
 30
0.0
  0
VERTEX
  5
4D3
  8
STRUCTURES
 10
527.76809963288736
 20
9829.0936275107651
 30
0.0
  0
VERTEX
  5
4D4
  8
STRUCTURES
 10
527.75296785372245
 20
9829.0805049465671
 30
0.0
  0
SEQEND
  5
4D5
  8
STRUCTURES
  0
POLYLINE
  5
DA
  8
STRUCTURES
 66
     1
 10
0.0
 20
0.0
 30
0.0
 70
     1
  0
VERTEX
  5
4D6
  8
STRUCTURES
 10
527.73243853947986
 20
9829.1123730674935
 30
0.0
  0
VERTEX
  5
4D7
  8
STRUCTURES
 10
527.74792259550975
 20
9829.1254824845219
 30
0.0
  0
VERTEX
  5
4D8
  8
STRUCTURES
 10
527.75195986116012
 20
9829.1208830022042
 30
0.0
  0
VERTEX
  5
4D9
  8
STRUCTURES
 10
527.73632913508982
 20
9829.107801512353
 30
0.0
  0
VERTEX
  5
4DA
  8
STRUCTURES
 10
527.73571244260165
 20
9829.1084945962157
 30
0.0
  0
VERTEX
  5
4DB
  8
STRUCTURES
 10
527.75050826290328
 20
9829.1210642473361
 30
0.0
  0
VERTEX
  5
4DC
  8
STRUCTURES
 10
527.74785457183884
 20
9829.1241456960997
 30
0.0
  0
VERTEX
  5
4DD
  8
STRUCTURES
 10
527.73380707590752
 20
9829.1122017601538
 30
0.0
  0
VERTEX
  5
4DE
  8
STRUCTURES
 10
527.73618214508815
 20
9829.1093886881881
 30
0.0
  0
VERTEX
  5
4DF
  8
STRUCTURES
 10
527.7354997966396
 20
9829.1087623255062
 30
0.0
  0
SEQEND
  5
4E0
  8
STRUCTURES
  0
POLYLINE
  5
DB
  8
STRUCTURES
 66
     1
 10
0.0
 20
0.0
 30
0.0
 70
     1
  0
VERTEX
  5
4E1
  8
STRUCTURES
 10
527.73099999999988
 20
9829.1180000000004
 30
0.0
  0
VERTEX
  5
4E2
  8
STRUCTURES
 10
527.74501095203073
 20
9829.1295961127689
 30
0.0
  0
VERTEX
  5
4E3
  8
STRUCTURES
 10
527.7443973311664
 20
9829.1304214565898
 30
0.0
  0
VERTEX
  5
4E4
  8
STRUCTURES
 10
527.73119517172631
 20
9829.1194339983358
 30
0.0
  0
VERTEX
  5
4E5
  8
STRUCTURES
 10
527.72638929618938
 20
9829.1257521844855
 30
0.0
  0
VERTEX
  5
4E6
  8
STRUCTURES
 10
527.73924909755033
 20
9829.1363310388533
 30
0.0
  0
VERTEX
  5
4E7
  8
STRUCTURES
 10
527.73850224499984
 20
9829.1370828486179
 30
0.0
  0
VERTEX
  5
4E8
  8
STRUCTURES
 10
527.72484132573322
 20
9829.1257569422396
 30
0.0
  0
SEQEND
  5
4E9
  8
STRUCTURES
  0
POLYLINE
  5
DC
  8
STRUCTURES
 66
     1
 10
0.0
 20
0.0
 30
0.0
 70
     1
  0
VERTEX
  5
4EA
  8
STRUCTURES
 10
527.72299999999996
 20
9829.1329999999998
 30
0.0
  0
VERTEX
  5
4EB
  8
STRUCTURES
 10
527.73447080263634
 20
9829.1427577806462
 30
0.0
  0
VERTEX
  5
4EC
  8
STRUCTURES
 10
527.73383382463226
 20
9829.1435966376193
 30
0.0
  0
VERTEX
  5
4ED
  8
STRUCTURES
 10
527.72314003005113
 20
9829.1346391361003
 30
0.0
  0
VERTEX
  5
4EE
  8
STRUCTURES
 10
527.72080073249015
 20
9829.1372102100595
 30
0.0
  0
VERTEX
  5
4EF
  8
STRUCTURES
 10
527.73113137153825
 20
9829.1460209531397
 30
0.0
  0
VERTEX
  5
4F0
  8
STRUCTURES
 10
527.73031796713701
 20
9829.1468554183302
 30
0.0
  0
VERTEX
  5
4F1
  8
STRUCTURES
 10
527.71916739648668
 20
9829.1373733531982
 30
0.0
  0
SEQEND
  5
4F2
  8
STRUCTURES
  0
POLYLINE
  5
DD
  8
STRUCTURES
 66
     1
 10
0.0
 20
0.0
 30
0.0
 70
     1
  0
VERTEX
  5
4F3
  8
STRUCTURES
 10
527.70999419701354
 20
9829.1930017585637
 30
0.0
  0
VERTEX
  5
4F4
  8
STRUCTURES
 10
527.72352913931616
 20
9829.2003097124361
 30
0.0
  0
VERTEX
  5
4F5
  8
STRUCTURES
 10
527.72070238963295
 20
9829.2049844048615
 30
0.0
  0
VERTEX
  5
4F6
  8
STRUCTURES
 10
527.70735595166332
 20
9829.1978973400473
 30
0.0
  0
VERTEX
  5
4F7
  8
STRUCTURES
 10
527.70953132215311
 20
9829.1938781388635
 30
0.0
  0
VERTEX
  5
4F8
  8
STRUCTURES
 10
527.71044666216756
 20
9829.1944390065055
 30
0.0
  0
VERTEX
  5
4F9
  8
STRUCTURES
 10
527.70874435643589
 20
9829.1976153738578
 30
0.0
  0
VERTEX
  5
4FA
  8
STRUCTURES
 10
527.72031044569121
 20
9829.2039218275695
 30
0.0
  0
VERTEX
  5
4FB
  8
STRUCTURES
 10
527.72228201079133
 20
9829.2005461424524
 30
0.0
  0
VERTEX
  5
4FC
  8
STRUCTURES
 10
527.70965556493616
 20
9829.1937475021441
 30
0.0
  0
SEQEND
  5
4FD
  8
STRUCTURES
  0
POLYLINE
  5
DE
  8
STRUCTURES
 66
     1
 10
0.0
 20
0.0
 30
0.0
 70
     1
  0
VERTEX
  5
4FE
  8
STRUCTURES
 10
527.70597981949925
 20
9829.205950642212
 30
0.0
  0
VERTEX
  5
4FF
  8
STRUCTURES
 10
527.71963360852544
 20
9829.2122128546944
 30
0.0
  0
VERTEX
  5
500
  8
STRUCTURES
 10
527.71733298041352
 20
9829.2169559926988
 30
0.0
  0
VERTEX
  5
501
  8
STRUCTURES
 10
527.70375470740373
 20
9829.2111001124213
 30
0.0
  0
VERTEX
  5
502
  8
STRUCTURES
 10
527.70411937995038
 20
9829.2101648891075
 30
0.0
  0
VERTEX
  5
503
  8
STRUCTURES
 10
527.71694455581803
 20
9829.2157157810252
 30
0.0
  0
VERTEX
  5
504
  8
STRUCTURES
 10
527.71832473463803
 20
9829.212651053278
 30
0.0
  0
VERTEX
  5
505
  8
STRUCTURES
 10
527.70564603156095
 20
9829.2067988872313
 30
0.0
  0
SEQEND
  5
506
  8
STRUCTURES
  0
POLYLINE
  5
DF
  8
STRUCTURES
 66
     1
 10
0.0
 20
0.0
 30
0.0
 70
     1
  0
VERTEX
  5
507
  8
STRUCTURES
 10
526.84956013905946
 20
9829.4829364147463
 30
0.0
  0
VERTEX
  5
508
  8
STRUCTURES
 10
526.85044607375846
 20
9829.4832155859185
 30
0.0
  0
VERTEX
  5
509
  8
STRUCTURES
 10
526.8495727493322
 20
9829.4862025034872
 30
0.0
  0
VERTEX
  5
50A
  8
STRUCTURES
 10
526.8487142419765
 20
9829.4859659201356
 30
0.0
  0
SEQEND
  5
50B
  8
STRUCTURES
  0
POLYLINE
  5
E0
  8
STRUCTURES
 66
     1
 10
0.0
 20
0.0
 30
0.0
 70
     1
  0
VERTEX
  5
50C
  8
STRUCTURES
 10
526.84199999999976
 20
9829.4799999999996
 30
0.0
  0
VERTEX
  5
50D
  8
STRUCTURES
 10
526.84566625145351
 20
9829.4839407635136
 30
0.0
  0
VERTEX
  5
50E
  8
STRUCTURES
 10
526.83425748566435
 20
9829.4938672435565
 30
0.0
  0
VERTEX
  5
50F
  8
STRUCTURES
 10
526.83386637806086
 20
9829.4933703481456
 30
0.0
  0
VERTEX
  5
510
  8
STRUCTURES
 10
526.84459727864862
 20
9829.4839265488099
 30
0.0
  0
VERTEX
  5
511
  8
STRUCTURES
 10
526.84198216032553
 20
9829.4811832234209
 30
0.0
  0
VERTEX
  5
512
  8
STRUCTURES
 10
526.83118221849554
 20
9829.4905003289277
 30
0.0
  0
VERTEX
  5
513
  8
STRUCTURES
 10
526.83063266281738
 20
9829.4899145423642
 30
0.0
  0
SEQEND
  5
514
  8
STRUCTURES
  0
POLYLINE
  5
E1
  8
STRUCTURES
 66
     1
 10
0.0
 20
0.0
 30
0.0
 70
     1
  0
VERTEX
  5
515
  8
STRUCTURES
 10
526.95899999999995
 20
9829.5820000000022
 30
0.0
  0
VERTEX
  5
516
  8
STRUCTURES
 10
526.96164721566674
 20
9829.5876499250153
 30
0.0
  0
VERTEX
  5
517
  8
STRUCTURES
 10
526.96106682787217
 20
9829.5879707832701
 30
0.0
  0
VERTEX
  5
518
  8
STRUCTURES
 10
526.95843834265986
 20
9829.582222131563
 30
0.0
  0
SEQEND
  5
519
  8
STRUCTURES
  0
POLYLINE
  5
E2
  8
STRUCTURES
 66
     1
 10
0.0
 20
0.0
 30
0.0
 70
     1
  0
VERTEX
  5
51A
  8
STRUCTURES
 10
527.346
 20
9829.4470000000001
 30
0.0
  0
VERTEX
  5
51B
  8
STRUCTURES
 10
527.35763032874786
 20
9829.4536081602728
 30
0.0
  0
VERTEX
  5
51C
  8
STRUCTURES
 10
527.35718651020488
 20
9829.4543713632393
 30
0.0
  0
VERTEX
  5
51D
  8
STRUCTURES
 10
527.34646349103775
 20
9829.4481848423384
 30
0.0
  0
VERTEX
  5
51E
  8
STRUCTURES
 10
527.34455164761505
 20
9829.4512158395664
 30
0.0
  0
VERTEX
  5
51F
  8
STRUCTURES
 10
527.35759211962204
 20
9829.4585599722304
 30
0.0
  0
VERTEX
  5
520
  8
STRUCTURES
 10
527.35714495935713
 20
9829.45910469097
 30
0.0
  0
VERTEX
  5
521
  8
STRUCTURES
 10
527.34334635776395
 20
9829.4515064669413
 30
0.0
  0
SEQEND
  5
522
  8
STRUCTURES
  0
POLYLINE
  5
E3
  8
STRUCTURES
 66
     1
 10
0.0
 20
0.0
 30
0.0
 70
     1
  0
VERTEX
  5
523
  8
STRUCTURES
 10
527.34400000000005
 20
9829.4670000000006
 30
0.0
  0
VERTEX
  5
524
  8
STRUCTURES
 10
527.35395241665356
 20
9829.4705884833784
 30
0.0
  0
VERTEX
  5
525
  8
STRUCTURES
 10
527.35365929086765
 20
9829.4715255279625
 30
0.0
  0
VERTEX
  5
526
  8
STRUCTURES
 10
527.34461154640985
 20
9829.4681482267497
 30
0.0
  0
VERTEX
  5
527
  8
STRUCTURES
 10
527.34351722695715
 20
9829.4714864867838
 30
0.0
  0
VERTEX
  5
528
  8
STRUCTURES
 10
527.35240860403553
 20
9829.4748247468142
 30
0.0
  0
VERTEX
  5
529
  8
STRUCTURES
 10
527.35203735761115
 20
9829.4757032155558
 30
0.0
  0
VERTEX
  5
52A
  8
STRUCTURES
 10
527.34226654012468
 20
9829.4720721326103
 30
0.0
  0
SEQEND
  5
52B
  8
STRUCTURES
  0
POLYLINE
  5
E4
  8
STRUCTURES
 66
     1
 10
0.0
 20
0.0
 30
0.0
 70
     1
  0
VERTEX
  5
52C
  8
STRUCTURES
 10
527.33900000000006
 20
9829.4770000000044
 30
0.0
  0
VERTEX
  5
52D
  8
STRUCTURES
 10
527.35847181223562
 20
9829.4850936464227
 30
0.0
  0
VERTEX
  5
52E
  8
STRUCTURES
 10
527.35814173835161
 20
9829.4859436294628
 30
0.0
  0
VERTEX
  5
52F
  8
STRUCTURES
 10
527.33950041378785
 20
9829.4780158494705
 30
0.0
  0
VERTEX
  5
530
  8
STRUCTURES
 10
527.33687980999593
 20
9829.4839062823012
 30
0.0
  0
VERTEX
  5
531
  8
STRUCTURES
 10
527.3553603535845
 20
9829.4917581754689
 30
0.0
  0
VERTEX
  5
532
  8
STRUCTURES
 10
527.35503500855259
 20
9829.4927771023795
 30
0.0
  0
VERTEX
  5
533
  8
STRUCTURES
 10
527.33583227465465
 20
9829.4843290079116
 30
0.0
  0
SEQEND
  5
534
  8
STRUCTURES
  0
POLYLINE
  5
E5
  8
STRUCTURES
 66
     1
 10
0.0
 20
0.0
 30
0.0
 70
     1
  0
VERTEX
  5
535
  8
STRUCTURES
 10
527.33499136196315
 20
9829.5019801838589
 30
0.0
  0
VERTEX
  5
536
  8
STRUCTURES
 10
527.33216691311566
 20
9829.5060433375238
 30
0.0
  0
VERTEX
  5
537
  8
STRUCTURES
 10
527.34385297879828
 20
9829.5142257999887
 30
0.0
  0
VERTEX
  5
538
  8
STRUCTURES
 10
527.34343040856481
 20
9829.5149132850238
 30
0.0
  0
VERTEX
  5
539
  8
STRUCTURES
 10
527.33117089073755
 20
9829.5062490425935
 30
0.0
  0
VERTEX
  5
53A
  8
STRUCTURES
 10
527.33442036882172
 20
9829.5015854935882
 30
0.0
  0
SEQEND
  5
53B
  8
STRUCTURES
  0
POLYLINE
  5
E6
  8
STRUCTURES
 66
     1
 10
0.0
 20
0.0
 30
0.0
 70
     1
  0
VERTEX
  5
53C
  8
STRUCTURES
 10
527.35030479028774
 20
9829.7236962441875
 30
0.0
  0
VERTEX
  5
53D
  8
STRUCTURES
 10
527.37305302841821
 20
9829.7350307118268
 30
0.0
  0
VERTEX
  5
53E
  8
STRUCTURES
 10
527.37019049654737
 20
9829.7402888014094
 30
0.0
  0
VERTEX
  5
53F
  8
STRUCTURES
 10
527.36810564018515
 20
9829.7393447761424
 30
0.0
  0
VERTEX
  5
540
  8
STRUCTURES
 10
527.37021741947933
 20
9829.735445105649
 30
0.0
  0
VERTEX
  5
541
  8
STRUCTURES
 10
527.35108353766952
 20
9829.7260475815037
 30
0.0
  0
VERTEX
  5
542
  8
STRUCTURES
 10
527.34634806506688
 20
9829.7357647535391
 30
0.0
  0
VERTEX
  5
543
  8
STRUCTURES
 10
527.36723565748161
 20
9829.7455468909993
 30
0.0
  0
VERTEX
  5
544
  8
STRUCTURES
 10
527.36640457746864
 20
9829.7474840878258
 30
0.0
  0
VERTEX
  5
545
  8
STRUCTURES
 10
527.34388162185724
 20
9829.7364379675764
 30
0.0
  0
SEQEND
  5
546
  8
STRUCTURES
  0
POLYLINE
  5
E7
  8
STRUCTURES
 66
     1
 10
0.0
 20
0.0
 30
0.0
 70
     1
  0
VERTEX
  5
547
  8
STRUCTURES
 10
527.35578551114816
 20
9829.7481778115634
 30
0.0
  0
VERTEX
  5
548
  8
STRUCTURES
 10
527.39022075961975
 20
9829.764764716323
 30
0.0
  0
VERTEX
  5
549
  8
STRUCTURES
 10
527.38500906007414
 20
9829.7748116413568
 30
0.0
  0
VERTEX
  5
54A
  8
STRUCTURES
 10
527.35086466642701
 20
9829.7573486938436
 30
0.0
  0
VERTEX
  5
54B
  8
STRUCTURES
 10
527.35488053382574
 20
9829.7496797622171
 30
0.0
  0
VERTEX
  5
54C
  8
STRUCTURES
 10
527.35601123391484
 20
9829.7502349801362
 30
0.0
  0
VERTEX
  5
54D
  8
STRUCTURES
 10
527.35273023014906
 20
9829.7562640415163
 30
0.0
  0
VERTEX
  5
54E
  8
STRUCTURES
 10
527.38444197611705
 20
9829.7727146205834
 30
0.0
  0
VERTEX
  5
54F
  8
STRUCTURES
 10
527.38810204467563
 20
9829.7652162935592
 30
0.0
  0
VERTEX
  5
550
  8
STRUCTURES
 10
527.35500083582633
 20
9829.7495166731132
 30
0.0
  0
SEQEND
  5
551
  8
STRUCTURES
  0
POLYLINE
  5
E8
  8
STRUCTURES
 66
     1
 10
0.0
 20
0.0
 30
0.0
 70
     1
  0
VERTEX
  5
552
  8
STRUCTURES
 10
527.36465401254964
 20
9829.7778902584414
 30
0.0
  0
VERTEX
  5
553
  8
STRUCTURES
 10
527.37938904833425
 20
9829.785840613773
 30
0.0
  0
VERTEX
  5
554
  8
STRUCTURES
 10
527.37603009394172
 20
9829.7919660654752
 30
0.0
  0
VERTEX
  5
555
  8
STRUCTURES
 10
527.36173869364313
 20
9829.7837327793513
 30
0.0
  0
VERTEX
  5
556
  8
STRUCTURES
 10
527.3641153123192
 20
9829.7791493004806
 30
0.0
  0
VERTEX
  5
557
  8
STRUCTURES
 10
527.36509764803566
 20
9829.7796019897542
 30
0.0
  0
VERTEX
  5
558
  8
STRUCTURES
 10
527.36300622360034
 20
9829.7831952108427
 30
0.0
  0
VERTEX
  5
559
  8
STRUCTURES
 10
527.37580827619513
 20
9829.7907636096006
 30
0.0
  0
VERTEX
  5
55A
  8
STRUCTURES
 10
527.37818489487097
 20
9829.7861801307263
 30
0.0
  0
VERTEX
  5
55B
  8
STRUCTURES
 10
527.36421037706361
 20
9829.7789371023828
 30
0.0
  0
SEQEND
  5
55C
  8
STRUCTURES
  0
POLYLINE
  5
E9
  8
STRUCTURES
 66
     1
 10
0.0
 20
0.0
 30
0.0
 70
     1
  0
VERTEX
  5
55D
  8
STRUCTURES
 10
527.35299999999995
 20
9829.8379999999997
 30
0.0
  0
VERTEX
  5
55E
  8
STRUCTURES
 10
527.36142181115213
 20
9829.8452843737305
 30
0.0
  0
VERTEX
  5
55F
  8
STRUCTURES
 10
527.35771428601822
 20
9829.8492736979333
 30
0.0
  0
VERTEX
  5
560
  8
STRUCTURES
 10
527.3491901470386
 20
9829.8418467645733
 30
0.0
  0
VERTEX
  5
561
  8
STRUCTURES
 10
527.34972884726892
 20
9829.8411111445112
 30
0.0
  0
VERTEX
  5
562
  8
STRUCTURES
 10
527.35768259776762
 20
9829.848283440153
 30
0.0
  0
VERTEX
  5
563
  8
STRUCTURES
 10
527.36031272243315
 20
9829.8453126668119
 30
0.0
  0
VERTEX
  5
564
  8
STRUCTURES
 10
527.35245403668659
 20
9829.8385647673585
 30
0.0
  0
SEQEND
  5
565
  8
STRUCTURES
  0
POLYLINE
  5
EA
  8
STRUCTURES
 66
     1
 10
0.0
 20
0.0
 30
0.0
 70
     1
  0
VERTEX
  5
566
  8
STRUCTURES
 10
527.33382134627163
 20
9829.8650187966596
 30
0.0
  0
VERTEX
  5
567
  8
STRUCTURES
 10
527.35308780166133
 20
9829.8825887990097
 30
0.0
  0
VERTEX
  5
568
  8
STRUCTURES
 10
527.35213715418786
 20
9829.8834800310087
 30
0.0
  0
VERTEX
  5
569
  8
STRUCTURES
 10
527.33287069879827
 20
9829.8661505198324
 30
0.0
  0
SEQEND
  5
56A
  8
STRUCTURES
  0
POLYLINE
  5
EB
  8
STRUCTURES
 66
     1
 10
0.0
 20
0.0
 30
0.0
 70
     1
  0
VERTEX
  5
56B
  8
STRUCTURES
 10
527.34000000000003
 20
9829.8600000000006
 30
0.0
  0
VERTEX
  5
56C
  8
STRUCTURES
 10
527.35860155699015
 20
9829.8772272604456
 30
0.0
  0
VERTEX
  5
56D
  8
STRUCTURES
 10
527.35780935076252
 20
9829.8780619062927
 30
0.0
  0
VERTEX
  5
56E
  8
STRUCTURES
 10
527.33911328385375
 20
9829.8608597139773
 30
0.0
  0
SEQEND
  5
56F
  8
STRUCTURES
  0
POLYLINE
  5
EC
  8
STRUCTURES
 66
     1
 10
0.0
 20
0.0
 30
0.0
 70
     1
  0
VERTEX
  5
570
  8
STRUCTURES
 10
527.33882771636445
 20
9829.8949437082865
 30
0.0
  0
VERTEX
  5
571
  8
STRUCTURES
 10
527.34636490634603
 20
9829.902294084337
 30
0.0
  0
VERTEX
  5
572
  8
STRUCTURES
 10
527.34244443228192
 20
9829.9059363960587
 30
0.0
  0
VERTEX
  5
573
  8
STRUCTURES
 10
527.33515128777435
 20
9829.8987385063429
 30
0.0
  0
VERTEX
  5
574
  8
STRUCTURES
 10
527.33831186089481
 20
9829.895558140588
 30
0.0
  0
VERTEX
  5
575
  8
STRUCTURES
 10
527.33898148455455
 20
9829.8961483529201
 30
0.0
  0
VERTEX
  5
576
  8
STRUCTURES
 10
527.33636540002635
 20
9829.8987721236845
 30
0.0
  0
VERTEX
  5
577
  8
STRUCTURES
 10
527.34240421843617
 20
9829.9049317522877
 30
0.0
  0
VERTEX
  5
578
  8
STRUCTURES
 10
527.34535917768119
 20
9829.9021828133136
 30
0.0
  0
VERTEX
  5
579
  8
STRUCTURES
 10
527.33840075432181
 20
9829.8954338758267
 30
0.0
  0
SEQEND
  5
57A
  8
STRUCTURES
  0
POLYLINE
  5
ED
  8
STRUCTURES
 66
     1
 10
0.0
 20
0.0
 30
0.0
 70
     1
  0
VERTEX
  5
57B
  8
STRUCTURES
 10
527.33413064242382
 20
9829.9081304938027
 30
0.0
  0
VERTEX
  5
57C
  8
STRUCTURES
 10
527.34007859478459
 20
9829.9167419531495
 30
0.0
  0
VERTEX
  5
57D
  8
STRUCTURES
 10
527.3351755926592
 20
9829.9198744856749
 30
0.0
  0
VERTEX
  5
57E
  8
STRUCTURES
 10
527.32929769241412
 20
9829.9112622324756
 30
0.0
  0
VERTEX
  5
57F
  8
STRUCTURES
 10
527.33330486077716
 20
9829.9085168465754
 30
0.0
  0
VERTEX
  5
580
  8
STRUCTURES
 10
527.33382957421804
 20
9829.9092740258875
 30
0.0
  0
VERTEX
  5
581
  8
STRUCTURES
 10
527.33047328507359
 20
9829.9115231919332
 30
0.0
  0
VERTEX
  5
582
  8
STRUCTURES
 10
527.33535964163912
 20
9829.9189004208529
 30
0.0
  0
VERTEX
  5
583
  8
STRUCTURES
 10
527.33910981059535
 20
9829.9165677456131
 30
0.0
  0
VERTEX
  5
584
  8
STRUCTURES
 10
527.33346034543774
 20
9829.9084391864435
 30
0.0
  0
SEQEND
  5
585
  8
STRUCTURES
  0
POLYLINE
  5
EE
  8
STRUCTURES
 66
     1
 10
0.0
 20
0.0
 30
0.0
 70
     1
  0
VERTEX
  5
586
  8
STRUCTURES
 10
527.34000000000003
 20
9829.9470000000001
 30
0.0
  0
VERTEX
  5
587
  8
STRUCTURES
 10
527.3490309425307
 20
9829.9602965116137
 30
0.0
  0
VERTEX
  5
588
  8
STRUCTURES
 10
527.34199668029191
 20
9829.9643612415639
 30
0.0
  0
VERTEX
  5
589
  8
STRUCTURES
 10
527.33333865630755
 20
9829.9513408818184
 30
0.0
  0
VERTEX
  5
58A
  8
STRUCTURES
 10
527.33922979733836
 20
9829.9474832643336
 30
0.0
  0
VERTEX
  5
58B
  8
STRUCTURES
 10
527.33977847029769
 20
9829.9482685915718
 30
0.0
  0
VERTEX
  5
58C
  8
STRUCTURES
 10
527.33441891530606
 20
9829.9515904132168
 30
0.0
  0
VERTEX
  5
58D
  8
STRUCTURES
 10
527.34221124407975
 20
9829.9632430087549
 30
0.0
  0
VERTEX
  5
58E
  8
STRUCTURES
 10
527.34777722923297
 20
9829.9600518498064
 30
0.0
  0
VERTEX
  5
58F
  8
STRUCTURES
 10
527.33932803136179
 20
9829.9474259832987
 30
0.0
  0
SEQEND
  5
590
  8
STRUCTURES
  0
POLYLINE
  5
EF
  8
STRUCTURES
 66
     1
 10
0.0
 20
0.0
 30
0.0
 70
     1
  0
VERTEX
  5
591
  8
STRUCTURES
 10
527.32535222107072
 20
9829.9473015321273
 30
0.0
  0
VERTEX
  5
592
  8
STRUCTURES
 10
527.33139099971083
 20
9829.9561657184659
 30
0.0
  0
VERTEX
  5
593
  8
STRUCTURES
 10
527.32747532092731
 20
9829.9587093342943
 30
0.0
  0
VERTEX
  5
594
  8
STRUCTURES
 10
527.32104319920325
 20
9829.950051115522
 30
0.0
  0
VERTEX
  5
595
  8
STRUCTURES
 10
527.32183764637477
 20
9829.9495946686948
 30
0.0
  0
VERTEX
  5
596
  8
STRUCTURES
 10
527.32768780401977
 20
9829.9575984762414
 30
0.0
  0
VERTEX
  5
597
  8
STRUCTURES
 10
527.33038236706034
 20
9829.9556618986717
 30
0.0
  0
VERTEX
  5
598
  8
STRUCTURES
 10
527.32514090727125
 20
9829.9483724011407
 30
0.0
  0
VERTEX
  5
599
  8
STRUCTURES
 10
527.32245409954862
 20
9829.9501321534099
 30
0.0
  0
VERTEX
  5
59A
  8
STRUCTURES
 10
527.32196091178901
 20
9829.9494938991029
 30
0.0
  0
SEQEND
  5
59B
  8
STRUCTURES
  0
POLYLINE
  5
F0
  8
STRUCTURES
 66
     1
 10
0.0
 20
0.0
 30
0.0
 70
     1
  0
VERTEX
  5
59C
  8
STRUCTURES
 10
527.32700789787521
 20
9829.9775464321956
 30
0.0
  0
VERTEX
  5
59D
  8
STRUCTURES
 10
527.33775213434831
 20
9829.9915220049024
 30
0.0
  0
VERTEX
  5
59E
  8
STRUCTURES
 10
527.34367858498035
 20
9829.9869495767016
 30
0.0
  0
VERTEX
  5
59F
  8
STRUCTURES
 10
527.33279553770387
 20
9829.9732429209089
 30
0.0
  0
VERTEX
  5
5A0
  8
STRUCTURES
 10
527.32793963928236
 20
9829.9769285671136
 30
0.0
  0
VERTEX
  5
5A1
  8
STRUCTURES
 10
527.32881180961203
 20
9829.9778872651277
 30
0.0
  0
VERTEX
  5
5A2
  8
STRUCTURES
 10
527.33274212890115
 20
9829.9748990821172
 30
0.0
  0
VERTEX
  5
5A3
  8
STRUCTURES
 10
527.34233989766187
 20
9829.9869284446577
 30
0.0
  0
VERTEX
  5
5A4
  8
STRUCTURES
 10
527.33783113343156
 20
9829.9901587191271
 30
0.0
  0
VERTEX
  5
5A5
  8
STRUCTURES
 10
527.32774450068996
 20
9829.9770614709487
 30
0.0
  0
SEQEND
  5
5A6
  8
STRUCTURES
  0
POLYLINE
  5
F1
  8
STRUCTURES
 66
     1
 10
0.0
 20
0.0
 30
0.0
 70
     1
  0
VERTEX
  5
5A7
  8
STRUCTURES
 10
527.31599568575575
 20
9829.9789895258018
 30
0.0
  0
VERTEX
  5
5A8
  8
STRUCTURES
 10
527.32191348246738
 20
9829.9875594749465
 30
0.0
  0
VERTEX
  5
5A9
  8
STRUCTURES
 10
527.32022082353853
 20
9829.9886228017422
 30
0.0
  0
VERTEX
  5
5AA
  8
STRUCTURES
 10
527.31970639972894
 20
9829.9878766163147
 30
0.0
  0
VERTEX
  5
5AB
  8
STRUCTURES
 10
527.32068804493247
 20
9829.9873017488299
 30
0.0
  0
VERTEX
  5
5AC
  8
STRUCTURES
 10
527.3158151051374
 20
9829.9802580665473
 30
0.0
  0
VERTEX
  5
5AD
  8
STRUCTURES
 10
527.31246414695352
 20
9829.9824660866234
 30
0.0
  0
VERTEX
  5
5AE
  8
STRUCTURES
 10
527.31728136500988
 20
9829.9895976122825
 30
0.0
  0
VERTEX
  5
5AF
  8
STRUCTURES
 10
527.31822988114322
 20
9829.9889665145529
 30
0.0
  0
VERTEX
  5
5B0
  8
STRUCTURES
 10
527.31867417247133
 20
9829.9896998707718
 30
0.0
  0
VERTEX
  5
5B1
  8
STRUCTURES
 10
527.31700510249755
 20
9829.9908123121295
 30
0.0
  0
VERTEX
  5
5B2
  8
STRUCTURES
 10
527.31106489001445
 20
9829.9820889134025
 30
0.0
  0
SEQEND
  5
5B3
  8
STRUCTURES
  0
POLYLINE
  5
F2
  8
STRUCTURES
 66
     1
 10
0.0
 20
0.0
 30
0.0
 70
     1
  0
VERTEX
  5
5B4
  8
STRUCTURES
 10
527.18399999999997
 20
9830.1879999999983
 30
0.0
  0
VERTEX
  5
5B5
  8
STRUCTURES
 10
527.18781005805135
 20
9830.2027956276979
 30
0.0
  0
VERTEX
  5
5B6
  8
STRUCTURES
 10
527.18697923024399
 20
9830.2029665137798
 30
0.0
  0
VERTEX
  5
5B7
  8
STRUCTURES
 10
527.18329469775665
 20
9830.1890279122672
 30
0.0
  0
VERTEX
  5
5B8
  8
STRUCTURES
 10
527.17707871610435
 20
9830.190454984162
 30
0.0
  0
VERTEX
  5
5B9
  8
STRUCTURES
 10
527.18090095276807
 20
9830.2042629229836
 30
0.0
  0
VERTEX
  5
5BA
  8
STRUCTURES
 10
527.18001293737461
 20
9830.2044943271158
 30
0.0
  0
VERTEX
  5
5BB
  8
STRUCTURES
 10
527.17592046256971
 20
9830.1899149942783
 30
0.0
  0
SEQEND
  5
5BC
  8
STRUCTURES
  0
POLYLINE
  5
F3
  8
STRUCTURES
 66
     1
 10
0.0
 20
0.0
 30
0.0
 70
     1
  0
VERTEX
  5
5BD
  8
STRUCTURES
 10
527.19100000000003
 20
9830.3120000000017
 30
0.0
  0
VERTEX
  5
5BE
  8
STRUCTURES
 10
527.19104654755506
 20
9830.3200737521038
 30
0.0
  0
VERTEX
  5
5BF
  8
STRUCTURES
 10
527.19178550952711
 20
9830.3201475841233
 30
0.0
  0
VERTEX
  5
5C0
  8
STRUCTURES
 10
527.19170858686425
 20
9830.3118836334106
 30
0.0
  0
SEQEND
  5
5C1
  8
STRUCTURES
  0
POLYLINE
  5
F4
  8
STRUCTURES
 66
     1
 10
0.0
 20
0.0
 30
0.0
 70
     1
  0
VERTEX
  5
5C2
  8
STRUCTURES
 10
527.29300000000001
 20
9830.3520000000008
 30
0.0
  0
VERTEX
  5
5C3
  8
STRUCTURES
 10
527.29555651428404
 20
9830.3566236419356
 30
0.0
  0
VERTEX
  5
5C4
  8
STRUCTURES
 10
527.28564994721353
 20
9830.3617549813916
 30
0.0
  0
VERTEX
  5
5C5
  8
STRUCTURES
 10
527.28547731258197
 20
9830.3613162114652
 30
0.0
  0
VERTEX
  5
5C6
  8
STRUCTURES
 10
527.29490752660683
 20
9830.3564459159061
 30
0.0
  0
VERTEX
  5
5C7
  8
STRUCTURES
 10
527.2925523060012
 20
9830.3521957192461
 30
0.0
  0
SEQEND
  5
5C8
  8
STRUCTURES
  0
POLYLINE
  5
F5
  8
STRUCTURES
 66
     1
 10
0.0
 20
0.0
 30
0.0
 70
     1
  0
VERTEX
  5
5C9
  8
STRUCTURES
 10
527.64243648704974
 20
9830.4933135639203
 30
0.0
  0
VERTEX
  5
5CA
  8
STRUCTURES
 10
527.63790738155762
 20
9830.4958377576713
 30
0.0
  0
VERTEX
  5
5CB
  8
STRUCTURES
 10
527.64112779296363
 20
9830.5018647924098
 30
0.0
  0
VERTEX
  5
5CC
  8
STRUCTURES
 10
527.6416692780673
 20
9830.5016296164522
 30
0.0
  0
VERTEX
  5
5CD
  8
STRUCTURES
 10
527.63862566268256
 20
9830.4961056415214
 30
0.0
  0
VERTEX
  5
5CE
  8
STRUCTURES
 10
527.64217003199053
 20
9830.4941455604294
 30
0.0
  0
VERTEX
  5
5CF
  8
STRUCTURES
 10
527.64501453117157
 20
9830.5001237022079
 30
0.0
  0
VERTEX
  5
5D0
  8
STRUCTURES
 10
527.64553003911385
 20
9830.4999128179206
 30
0.0
  0
SEQEND
  5
5D1
  8
STRUCTURES
  0
POLYLINE
  5
F6
  8
STRUCTURES
 66
     1
 10
0.0
 20
0.0
 30
0.0
 70
     1
  0
VERTEX
  5
5D2
  8
STRUCTURES
 10
527.61599999999987
 20
9830.4719999999998
 30
0.0
  0
VERTEX
  5
5D3
  8
STRUCTURES
 10
527.61678353568675
 20
9830.4713828643962
 30
0.0
  0
VERTEX
  5
5D4
  8
STRUCTURES
 10
527.6248162793064
 20
9830.4838834444727
 30
0.0
  0
VERTEX
  5
5D5
  8
STRUCTURES
 10
527.61936479542806
 20
9830.4874023860648
 30
0.0
  0
VERTEX
  5
5D6
  8
STRUCTURES
 10
527.61059018947356
 20
9830.4754555602158
 30
0.0
  0
VERTEX
  5
5D7
  8
STRUCTURES
 10
527.61141780166179
 20
9830.4747747743822
 30
0.0
  0
VERTEX
  5
5D8
  8
STRUCTURES
 10
527.61962103616634
 20
9830.4861159975244
 30
0.0
  0
VERTEX
  5
5D9
  8
STRUCTURES
 10
527.62355821546475
 20
9830.4835901993429
 30
0.0
  0
SEQEND
  5
5DA
  8
STRUCTURES
  0
POLYLINE
  5
F7
  8
STRUCTURES
 66
     1
 10
0.0
 20
0.0
 30
0.0
 70
     1
  0
VERTEX
  5
5DB
  8
STRUCTURES
 10
527.11341569204126
 20
9830.4725544938246
 30
0.0
  0
VERTEX
  5
5DC
  8
STRUCTURES
 10
527.11730980725883
 20
9830.4811507871509
 30
0.0
  0
VERTEX
  5
5DD
  8
STRUCTURES
 10
527.10830159600505
 20
9830.4847565088148
 30
0.0
  0
VERTEX
  5
5DE
  8
STRUCTURES
 10
527.10808816714234
 20
9830.4842235840588
 30
0.0
  0
VERTEX
  5
5DF
  8
STRUCTURES
 10
527.11648118624885
 20
9830.4808839729249
 30
0.0
  0
VERTEX
  5
5E0
  8
STRUCTURES
 10
527.11316165810069
 20
9830.4733386951539
 30
0.0
  0
VERTEX
  5
5E1
  8
STRUCTURES
 10
527.10575551892418
 20
9830.4766807551587
 30
0.0
  0
VERTEX
  5
5E2
  8
STRUCTURES
 10
527.10841767356419
 20
9830.4836158702528
 30
0.0
  0
VERTEX
  5
5E3
  8
STRUCTURES
 10
527.10796717157677
 20
9830.4838613483498
 30
0.0
  0
VERTEX
  5
5E4
  8
STRUCTURES
 10
527.10490911743022
 20
9830.4762211557554
 30
0.0
  0
SEQEND
  5
5E5
  8
STRUCTURES
  0
POLYLINE
  5
F8
  8
STRUCTURES
 66
     1
 10
0.0
 20
0.0
 30
0.0
 70
     1
  0
VERTEX
  5
5E6
  8
STRUCTURES
 10
527.11800000000005
 20
9830.4670000000006
 30
0.0
  0
VERTEX
  5
5E7
  8
STRUCTURES
 10
527.12791542478874
 20
9830.486945742201
 30
0.0
  0
VERTEX
  5
5E8
  8
STRUCTURES
 10
527.12683510273848
 20
9830.487485366164
 30
0.0
  0
VERTEX
  5
5E9
  8
STRUCTURES
 10
527.11679505593281
 20
9830.4677219446421
 30
0.0
  0
SEQEND
  5
5EA
  8
STRUCTURES
  0
POLYLINE
  5
F9
  8
STRUCTURES
 66
     1
 10
0.0
 20
0.0
 30
0.0
 70
     1
  0
VERTEX
  5
5EB
  8
STRUCTURES
 10
527.05874676342387
 20
9829.7210195236166
 30
0.0
  0
VERTEX
  5
5EC
  8
STRUCTURES
 10
527.07212759064885
 20
9829.7360502151332
 30
0.0
  0
VERTEX
  5
5ED
  8
STRUCTURES
 10
527.07125163583794
 20
9829.7367194072995
 30
0.0
  0
VERTEX
  5
5EE
  8
STRUCTURES
 10
527.05879017445693
 20
9829.7223714683314
 30
0.0
  0
VERTEX
  5
5EF
  8
STRUCTURES
 10
527.05359382389952
 20
9829.7271554140789
 30
0.0
  0
VERTEX
  5
5F0
  8
STRUCTURES
 10
527.06548040095311
 20
9829.7403742496263
 30
0.0
  0
VERTEX
  5
5F1
  8
STRUCTURES
 10
527.06475900438909
 20
9829.74078607304
 30
0.0
  0
VERTEX
  5
5F2
  8
STRUCTURES
 10
527.05232698267423
 20
9829.7270329251478
 30
0.0
  0
SEQEND
  5
5F3
  8
STRUCTURES
  0
POLYLINE
  5
FA
  8
STRUCTURES
 66
     1
 10
0.0
 20
0.0
 30
0.0
 70
     1
  0
VERTEX
  5
5F4
  8
STRUCTURES
 10
527.06694579858083
 20
9829.7083310152957
 30
0.0
  0
VERTEX
  5
5F5
  8
STRUCTURES
 10
527.07748467429883
 20
9829.7201751881566
 30
0.0
  0
VERTEX
  5
5F6
  8
STRUCTURES
 10
527.07663379310145
 20
9829.7207595931504
 30
0.0
  0
VERTEX
  5
5F7
  8
STRUCTURES
 10
527.06690781392695
 20
9829.7099269632981
 30
0.0
  0
VERTEX
  5
5F8
  8
STRUCTURES
 10
527.06245101023615
 20
9829.7135395930272
 30
0.0
  0
VERTEX
  5
5F9
  8
STRUCTURES
 10
527.07405626301238
 20
9829.7266226610354
 30
0.0
  0
VERTEX
  5
5FA
  8
STRUCTURES
 10
527.07329837872635
 20
9829.7271822563835
 30
0.0
  0
VERTEX
  5
5FB
  8
STRUCTURES
 10
527.06077238791829
 20
9829.7132521241365
 30
0.0
  0
SEQEND
  5
5FC
  8
STRUCTURES
  0
POLYLINE
  5
FB
  8
STRUCTURES
 66
     1
 10
0.0
 20
0.0
 30
0.0
 70
     1
  0
VERTEX
  5
5FD
  8
STRUCTURES
 10
527.08789390403967
 20
9829.6951490216288
 30
0.0
  0
VERTEX
  5
5FE
  8
STRUCTURES
 10
527.09396315317156
 20
9829.7025156208874
 30
0.0
  0
VERTEX
  5
5FF
  8
STRUCTURES
 10
527.09450254773196
 20
9829.7020735024144
 30
0.0
  0
VERTEX
  5
600
  8
STRUCTURES
 10
527.0884700981826
 20
9829.6946336715391
 30
0.0
  0
SEQEND
  5
601
  8
STRUCTURES
  0
POLYLINE
  5
FC
  8
STRUCTURES
 66
     1
 10
0.0
 20
0.0
 30
0.0
 70
     1
  0
VERTEX
  5
602
  8
STRUCTURES
 10
527.08411464927485
 20
9829.6985899329629
 30
0.0
  0
VERTEX
  5
603
  8
STRUCTURES
 10
527.08965385967247
 20
9829.7049199011253
 30
0.0
  0
VERTEX
  5
604
  8
STRUCTURES
 10
527.09026878693555
 20
9829.7043495020262
 30
0.0
  0
VERTEX
  5
605
  8
STRUCTURES
 10
527.08469945077775
 20
9829.6980797898414
 30
0.0
  0
SEQEND
  5
606
  8
STRUCTURES
  0
POLYLINE
  5
FD
  8
STRUCTURES
 66
     1
 10
0.0
 20
0.0
 30
0.0
 70
     1
  0
VERTEX
  5
607
  8
STRUCTURES
 10
527.10799999999995
 20
9829.9270000000033
 30
0.0
  0
VERTEX
  5
608
  8
STRUCTURES
 10
527.12047668805781
 20
9829.9383150895192
 30
0.0
  0
VERTEX
  5
609
  8
STRUCTURES
 10
527.11986994479355
 20
9829.9389754962449
 30
0.0
  0
VERTEX
  5
60A
  8
STRUCTURES
 10
527.10830802724433
 20
9829.9284958249445
 30
0.0
  0
VERTEX
  5
60B
  8
STRUCTURES
 10
527.10407166922948
 20
9829.9337492701197
 30
0.0
  0
VERTEX
  5
60C
  8
STRUCTURES
 10
527.11568516279362
 20
9829.9439028758097
 30
0.0
  0
VERTEX
  5
60D
  8
STRUCTURES
 10
527.11496448571677
 20
9829.9447327893686
 30
0.0
  0
VERTEX
  5
60E
  8
STRUCTURES
 10
527.10237527231357
 20
9829.9338336013207
 30
0.0
  0
SEQEND
  5
60F
  8
STRUCTURES
  0
POLYLINE
  5
FE
  8
STRUCTURES
 66
     1
 10
0.0
 20
0.0
 30
0.0
 70
     1
  0
VERTEX
  5
610
  8
STRUCTURES
 10
527.06522263509623
 20
9829.8917150376383
 30
0.0
  0
VERTEX
  5
611
  8
STRUCTURES
 10
527.08279057325967
 20
9829.9055930648083
 30
0.0
  0
VERTEX
  5
612
  8
STRUCTURES
 10
527.08230741066654
 20
9829.9063170295667
 30
0.0
  0
VERTEX
  5
613
  8
STRUCTURES
 10
527.06459584149854
 20
9829.8925808116637
 30
0.0
  0
SEQEND
  5
614
  8
STRUCTURES
  0
POLYLINE
  5
FF
  8
STRUCTURES
 66
     1
 10
0.0
 20
0.0
 30
0.0
 70
     1
  0
VERTEX
  5
615
  8
STRUCTURES
 10
527.07100000000003
 20
9829.8860000000004
 30
0.0
  0
VERTEX
  5
616
  8
STRUCTURES
 10
527.08870031444314
 20
9829.8999870668104
 30
0.0
  0
VERTEX
  5
617
  8
STRUCTURES
 10
527.08802913268596
 20
9829.9005437202723
 30
0.0
  0
VERTEX
  5
618
  8
STRUCTURES
 10
527.07023679472252
 20
9829.8866544902248
 30
0.0
  0
SEQEND
  5
619
  8
STRUCTURES
  0
POLYLINE
  5
100
  8
STRUCTURES
 66
     1
 10
0.0
 20
0.0
 30
0.0
 70
     1
  0
VERTEX
  5
61A
  8
STRUCTURES
 10
530.46700246438922
 20
9836.3947705111423
 30
0.0
  0
VERTEX
  5
61B
  8
STRUCTURES
 10
530.46902647618629
 20
9836.3848631153978
 30
0.0
  0
VERTEX
  5
61C
  8
STRUCTURES
 10
530.4698535209119
 20
9836.3849891336831
 30
0.0
  0
VERTEX
  5
61D
  8
STRUCTURES
 10
530.46887918820278
 20
9836.3893919484199
 30
0.0
  0
VERTEX
  5
61E
  8
STRUCTURES
 10
530.47303830829776
 20
9836.3903040257901
 30
0.0
  0
VERTEX
  5
61F
  8
STRUCTURES
 10
530.47192248833051
 20
9836.3956751011665
 30
0.0
  0
VERTEX
  5
620
  8
STRUCTURES
 10
530.4710433001278
 20
9836.3954724079231
 30
0.0
  0
VERTEX
  5
621
  8
STRUCTURES
 10
530.4719900793915
 20
9836.3908782998515
 30
0.0
  0
VERTEX
  5
622
  8
STRUCTURES
 10
530.46884532962088
 20
9836.3902026932446
 30
0.0
  0
VERTEX
  5
623
  8
STRUCTURES
 10
530.4678645656727
 20
9836.3949192448108
 30
0.0
  0
SEQEND
  5
624
  8
STRUCTURES
  0
POLYLINE
  5
101
  8
STRUCTURES
 66
     1
 10
0.0
 20
0.0
 30
0.0
 70
     1
  0
VERTEX
  5
625
  8
STRUCTURES
 10
530.45956399063596
 20
9836.4076788614839
 30
0.0
  0
VERTEX
  5
626
  8
STRUCTURES
 10
530.47005674622653
 20
9836.4028927282416
 30
0.0
  0
VERTEX
  5
627
  8
STRUCTURES
 10
530.47028083076975
 20
9836.4036134278322
 30
0.0
  0
VERTEX
  5
628
  8
STRUCTURES
 10
530.46054147591337
 20
9836.4081159706875
 30
0.0
  0
VERTEX
  5
629
  8
STRUCTURES
 10
530.46225218548875
 20
9836.4116548973125
 30
0.0
  0
VERTEX
  5
62A
  8
STRUCTURES
 10
530.47079785194489
 20
9836.4080000856611
 30
0.0
  0
VERTEX
  5
62B
  8
STRUCTURES
 10
530.47103107893565
 20
9836.4086425340101
 30
0.0
  0
VERTEX
  5
62C
  8
STRUCTURES
 10
530.46196227532255
 20
9836.4124823901548
 30
0.0
  0
SEQEND
  5
62D
  8
STRUCTURES
  0
POLYLINE
  5
102
  8
STRUCTURES
 66
     1
 10
0.0
 20
0.0
 30
0.0
 70
     1
  0
VERTEX
  5
62E
  8
STRUCTURES
 10
530.47199602776391
 20
9836.4360273034908
 30
0.0
  0
VERTEX
  5
62F
  8
STRUCTURES
 10
530.48795010324557
 20
9836.4398744217997
 30
0.0
  0
VERTEX
  5
630
  8
STRUCTURES
 10
530.49024025484482
 20
9836.4312667848626
 30
0.0
  0
VERTEX
  5
631
  8
STRUCTURES
 10
530.48943136891171
 20
9836.4310361407315
 30
0.0
  0
VERTEX
  5
632
  8
STRUCTURES
 10
530.48738093859345
 20
9836.4388010567927
 30
0.0
  0
VERTEX
  5
633
  8
STRUCTURES
 10
530.47220712372655
 20
9836.4352717849069
 30
0.0
  0
SEQEND
  5
634
  8
STRUCTURES
  0
POLYLINE
  5
103
  8
STRUCTURES
 66
     1
 10
0.0
 20
0.0
 30
0.0
 70
     1
  0
VERTEX
  5
635
  8
STRUCTURES
 10
530.70672365823111
 20
9836.1532292355205
 30
0.0
  0
VERTEX
  5
636
  8
STRUCTURES
 10
530.70840807538798
 20
9836.1471587685355
 30
0.0
  0
VERTEX
  5
637
  8
STRUCTURES
 10
530.72323378368105
 20
9836.1518686490399
 30
0.0
  0
VERTEX
  5
638
  8
STRUCTURES
 10
530.72286089792135
 20
9836.1528310549093
 30
0.0
  0
VERTEX
  5
639
  8
STRUCTURES
 10
530.70920781887378
 20
9836.1483969959681
 30
0.0
  0
VERTEX
  5
63A
  8
STRUCTURES
 10
530.70800612295034
 20
9836.1526315705287
 30
0.0
  0
VERTEX
  5
63B
  8
STRUCTURES
 10
530.72155567166033
 20
9836.1568980648444
 30
0.0
  0
VERTEX
  5
63C
  8
STRUCTURES
 10
530.72118272284933
 20
9836.1580157065437
 30
0.0
  0
SEQEND
  5
63D
  8
STRUCTURES
  0
POLYLINE
  5
104
  8
STRUCTURES
 66
     1
 10
0.0
 20
0.0
 30
0.0
 70
     1
  0
VERTEX
  5
63E
  8
STRUCTURES
 10
530.74168355598238
 20
9836.1139639322173
 30
0.0
  0
VERTEX
  5
63F
  8
STRUCTURES
 10
530.75045381139273
 20
9836.1167248782094
 30
0.0
  0
VERTEX
  5
640
  8
STRUCTURES
 10
530.75187959185939
 20
9836.1124668564207
 30
0.0
  0
VERTEX
  5
641
  8
STRUCTURES
 10
530.75090746594788
 20
9836.1121107851086
 30
0.0
  0
VERTEX
  5
642
  8
STRUCTURES
 10
530.74979051105618
 20
9836.1155100698525
 30
0.0
  0
VERTEX
  5
643
  8
STRUCTURES
 10
530.74678724854357
 20
9836.1144977295535
 30
0.0
  0
VERTEX
  5
644
  8
STRUCTURES
 10
530.7478291092624
 20
9836.1112853189188
 30
0.0
  0
VERTEX
  5
645
  8
STRUCTURES
 10
530.74680837075005
 20
9836.1108968493409
 30
0.0
  0
VERTEX
  5
646
  8
STRUCTURES
 10
530.74583731671169
 20
9836.1142127317671
 30
0.0
  0
VERTEX
  5
647
  8
STRUCTURES
 10
530.74295486061033
 20
9836.1133565280379
 30
0.0
  0
VERTEX
  5
648
  8
STRUCTURES
 10
530.74327118929762
 20
9836.1123329848688
 30
0.0
  0
VERTEX
  5
649
  8
STRUCTURES
 10
530.74223607507429
 20
9836.1120647913904
 30
0.0
  0
VERTEX
  5
64A
  8
STRUCTURES
 10
530.74253544294493
 20
9836.1110658495072
 30
0.0
  0
VERTEX
  5
64B
  8
STRUCTURES
 10
530.74357957351299
 20
9836.1114087757414
 30
0.0
  0
VERTEX
  5
64C
  8
STRUCTURES
 10
530.74398158900203
 20
9836.1099995496315
 30
0.0
  0
VERTEX
  5
64D
  8
STRUCTURES
 10
530.74294924903916
 20
9836.1096414516705
 30
0.0
  0
SEQEND
  5
64E
  8
STRUCTURES
  0
POLYLINE
  5
105
  8
STRUCTURES
 66
     1
 10
0.0
 20
0.0
 30
0.0
 70
     1
  0
VERTEX
  5
64F
  8
STRUCTURES
 10
530.75098045407753
 20
9836.0720088665985
 30
0.0
  0
VERTEX
  5
650
  8
STRUCTURES
 10
530.75611302416291
 20
9836.0701395907272
 30
0.0
  0
VERTEX
  5
651
  8
STRUCTURES
 10
530.7565015466605
 20
9836.0712263822988
 30
0.0
  0
VERTEX
  5
652
  8
STRUCTURES
 10
530.7524220604364
 20
9836.0726236736809
 30
0.0
  0
VERTEX
  5
653
  8
STRUCTURES
 10
530.75464827795372
 20
9836.0792493867375
 30
0.0
  0
VERTEX
  5
654
  8
STRUCTURES
 10
530.75353901532833
 20
9836.0796803315407
 30
0.0
  0
SEQEND
  5
655
  8
STRUCTURES
  0
POLYLINE
  5
106
  8
STRUCTURES
 66
     1
 10
0.0
 20
0.0
 30
0.0
 70
     1
  0
VERTEX
  5
656
  8
STRUCTURES
 10
530.75100611598225
 20
9836.0450321449352
 30
0.0
  0
VERTEX
  5
657
  8
STRUCTURES
 10
530.7561704009031
 20
9836.0296869913727
 30
0.0
  0
VERTEX
  5
658
  8
STRUCTURES
 10
530.75729820062907
 20
9836.0301626632317
 30
0.0
  0
VERTEX
  5
659
  8
STRUCTURES
 10
530.75231462091404
 20
9836.0445668596549
 30
0.0
  0
VERTEX
  5
65A
  8
STRUCTURES
 10
530.75634108094209
 20
9836.0458822687106
 30
0.0
  0
VERTEX
  5
65B
  8
STRUCTURES
 10
530.761605113119
 20
9836.0316541094435
 30
0.0
  0
VERTEX
  5
65C
  8
STRUCTURES
 10
530.7624449572711
 20
9836.0320357672244
 30
0.0
  0
VERTEX
  5
65D
  8
STRUCTURES
 10
530.7569255670752
 20
9836.0473265108449
 30
0.0
  0
SEQEND
  5
65E
  8
STRUCTURES
  0
POLYLINE
  5
107
  8
STRUCTURES
 66
     1
 10
0.0
 20
0.0
 30
0.0
 70
     1
  0
VERTEX
  5
65F
  8
STRUCTURES
 10
530.60496302731485
 20
9836.4902340368153
 30
0.0
  0
VERTEX
  5
660
  8
STRUCTURES
 10
530.60467759379549
 20
9836.4911960486115
 30
0.0
  0
VERTEX
  5
661
  8
STRUCTURES
 10
530.59827529536631
 20
9836.4897553249757
 30
0.0
  0
VERTEX
  5
662
  8
STRUCTURES
 10
530.59766155340094
 20
9836.4926820904166
 30
0.0
  0
VERTEX
  5
663
  8
STRUCTURES
 10
530.60396725714224
 20
9836.4940200178225
 30
0.0
  0
VERTEX
  5
664
  8
STRUCTURES
 10
530.60368819181076
 20
9836.4949119694247
 30
0.0
  0
VERTEX
  5
665
  8
STRUCTURES
 10
530.59657316077642
 20
9836.4934480800348
 30
0.0
  0
VERTEX
  5
666
  8
STRUCTURES
 10
530.59738002906602
 20
9836.4894946751447
 30
0.0
  0
VERTEX
  5
667
  8
STRUCTURES
 10
530.59350407264105
 20
9836.4887240129756
 30
0.0
  0
VERTEX
  5
668
  8
STRUCTURES
 10
530.59266466984832
 20
9836.4928567201769
 30
0.0
  0
VERTEX
  5
669
  8
STRUCTURES
 10
530.59147249468072
 20
9836.4926905348002
 30
0.0
  0
VERTEX
  5
66A
  8
STRUCTURES
 10
530.59248547787524
 20
9836.4875361984814
 30
0.0
  0
SEQEND
  5
66B
  8
STRUCTURES
  0
ENDSEC
  0
EOF
