  0
SECTION
  2
HEADER
  9
$ACADVER
  1
AC1009
  9
$INSBASE
 10
0.0
 20
0.0
 30
0.0
  9
$EXTMIN
 10
520.26444438483725
 20
9828.6464168449711
 30
0.0
  9
$EXTMAX
 10
532.90645718916926
 20
9839.9365227278195
 30
25.464999999999989
  9
$LIMMIN
 10
0.0
 20
0.0
  9
$LIMMAX
 10
12.0
 20
9.0
  9
$ORTHOMODE
 70
     0
  9
$REGENMODE
 70
     1
  9
$FILLMODE
 70
     1
  9
$QTEXTMODE
 70
     0
  9
$MIRRTEXT
 70
     0
  9
$DRAGMODE
 70
     2
  9
$LTSCALE
 40
1.0
  9
$OSMODE
 70
    37
  9
$ATTMODE
 70
     1
  9
$TEXTSIZE
 40
0.15
  9
$TRACEWID
 40
0.05
  9
$TEXTSTYLE
  7
LEGEND
  9
$CLAYER
  8
1_FORMATIVE
  9
$CELTYPE
  6
BYLAYER
  9
$CECOLOR
 62
   256
  9
$DIMSCALE
 40
1.0
  9
$DIMASZ
 40
0.18
  9
$DIMEXO
 40
0.0625
  9
$DIMDLI
 40
0.38
  9
$DIMRND
 40
0.0
  9
$DIMDLE
 40
0.0
  9
$DIMEXE
 40
0.18
  9
$DIMTP
 40
0.0
  9
$DIMTM
 40
0.0
  9
$DIMTXT
 40
0.18
  9
$DIMCEN
 40
0.09
  9
$DIMTSZ
 40
0.0
  9
$DIMTOL
 70
     0
  9
$DIMLIM
 70
     0
  9
$DIMTIH
 70
     1
  9
$DIMTOH
 70
     1
  9
$DIMSE1
 70
     0
  9
$DIMSE2
 70
     0
  9
$DIMTAD
 70
     0
  9
$DIMZIN
 70
     0
  9
$DIMBLK
  1

  9
$DIMASO
 70
     1
  9
$DIMSHO
 70
     1
  9
$DIMPOST
  1

  9
$DIMAPOST
  1

  9
$DIMALT
 70
     0
  9
$DIMALTD
 70
     2
  9
$DIMALTF
 40
25.399999999999999
  9
$DIMLFAC
 40
1.0
  9
$DIMTOFL
 70
     0
  9
$DIMTVP
 40
0.0
  9
$DIMTIX
 70
     0
  9
$DIMSOXD
 70
     0
  9
$DIMSAH
 70
     0
  9
$DIMBLK1
  1

  9
$DIMBLK2
  1

  9
$DIMSTYLE
  2
STANDARD
  9
$DIMCLRD
 70
     0
  9
$DIMCLRE
 70
     0
  9
$DIMCLRT
 70
     0
  9
$DIMTFAC
 40
1.0
  9
$DIMGAP
 40
0.09
  9
$LUNITS
 70
     2
  9
$LUPREC
 70
     4
  9
$SKETCHINC
 40
0.1
  9
$FILLETRAD
 40
0.0
  9
$AUNITS
 70
     0
  9
$AUPREC
 70
     0
  9
$MENU
  1
.
  9
$ELEVATION
 40
0.0
  9
$PELEVATION
 40
0.0
  9
$THICKNESS
 40
0.0
  9
$LIMCHECK
 70
     0
  9
$BLIPMODE
 70
     0
  9
$CHAMFERA
 40
0.0
  9
$CHAMFERB
 40
0.0
  9
$SKPOLY
 70
     0
  9
$TDCREATE
 40
2454126.7955266209
  9
$TDUPDATE
 40
2454643.7213451159
  9
$TDINDWG
 40
4.4256618866000004
  9
$TDUSRTIMER
 40
4.4256618866000004
  9
$USRTIMER
 70
     1
  9
$ANGBASE
 50
0.0
  9
$ANGDIR
 70
     0
  9
$PDMODE
 70
     0
  9
$PDSIZE
 40
0.0
  9
$PLINEWID
 40
0.0
  9
$COORDS
 70
     1
  9
$SPLFRAME
 70
     0
  9
$SPLINETYPE
 70
     6
  9
$SPLINESEGS
 70
     8
  9
$ATTDIA
 70
     0
  9
$ATTREQ
 70
     1
  9
$HANDLING
 70
     1
  9
$HANDSEED
  5
DD4
  9
$SURFTAB1
 70
     6
  9
$SURFTAB2
 70
     6
  9
$SURFTYPE
 70
     6
  9
$SURFU
 70
     6
  9
$SURFV
 70
     6
  9
$UCSNAME
  2

  9
$UCSORG
 10
0.0
 20
0.0
 30
0.0
  9
$UCSXDIR
 10
1.0
 20
0.0
 30
0.0
  9
$UCSYDIR
 10
0.0
 20
1.0
 30
0.0
  9
$PUCSNAME
  2

  9
$PUCSORG
 10
0.0
 20
0.0
 30
0.0
  9
$PUCSXDIR
 10
1.0
 20
0.0
 30
0.0
  9
$PUCSYDIR
 10
0.0
 20
1.0
 30
0.0
  9
$USERI1
 70
     0
  9
$USERI2
 70
     0
  9
$USERI3
 70
     0
  9
$USERI4
 70
     0
  9
$USERI5
 70
     0
  9
$USERR1
 40
0.0
  9
$USERR2
 40
0.0
  9
$USERR3
 40
0.0
  9
$USERR4
 40
0.0
  9
$USERR5
 40
0.0
  9
$WORLDVIEW
 70
     1
  9
$SHADEDGE
 70
     3
  9
$SHADEDIF
 70
    70
  9
$TILEMODE
 70
     1
  9
$MAXACTVP
 70
    64
  9
$PLIMCHECK
 70
     0
  9
$PEXTMIN
 10
1.0499999523162831
 20
0.7999999523162842
 30
0.0
  9
$PEXTMAX
 10
9.4499995708465576
 20
7.199999570846555
 30
0.0
  9
$PLIMMIN
 10
0.0
 20
0.0
  9
$PLIMMAX
 10
12.0
 20
9.0
  9
$UNITMODE
 70
     0
  9
$VISRETAIN
 70
     1
  9
$PLINEGEN
 70
     0
  9
$PSLTSCALE
 70
     1
  0
ENDSEC
  0
SECTION
  2
TABLES
  0
TABLE
  2
VPORT
 70
     1
  0
VPORT
  2
*ACTIVE
 70
     0
 10
0.0
 20
0.0
 11
1.0
 21
1.0
 12
534.82468655429795
 22
9835.2158654383366
 13
0.0
 23
0.0
 14
0.5
 24
0.5
 15
0.5
 25
0.5
 16
0.0
 26
0.0
 36
1.0
 17
0.0
 27
0.0
 37
0.0
 40
15.94283444372194
 41
2.3245283018867919
 42
50.0
 43
0.0
 44
0.0
 50
0.0
 51
0.0
 71
     0
 72
  1000
 73
     1
 74
     2
 75
     0
 76
     0
 77
     0
 78
     0
  0
ENDTAB
  0
TABLE
  2
LTYPE
 70
     1
  0
LTYPE
  2
CONTINUOUS
 70
     0
  3
Solid line
 72
    65
 73
     0
 40
0.0
  0
ENDTAB
  0
TABLE
  2
LAYER
 70
     3
  0
LAYER
  2
0
 70
     0
 62
     7
  6
CONTINUOUS
  0
LAYER
  2
1_FORMATIVE
 70
     0
 62
     4
  6
CONTINUOUS
  0
LAYER
  2
AREA_OF_STUDY
 70
     0
 62
     7
  6
CONTINUOUS
  0
ENDTAB
  0
TABLE
  2
STYLE
 70
     2
  0
STYLE
  2
STANDARD
 70
     0
 40
0.0
 41
1.0
 50
0.0
 71
     0
 42
500.0
  3
txt
  4

  0
STYLE
  2
LEGEND
 70
     0
 40
0.15
 41
1.0
 50
0.0
 71
     0
 42
0.15
  3
txt
  4

  0
ENDTAB
  0
TABLE
  2
VIEW
 70
     0
  0
ENDTAB
  0
TABLE
  2
UCS
 70
     0
  0
ENDTAB
  0
TABLE
  2
APPID
 70
     1
  0
APPID
  2
ACAD
 70
     0
  0
ENDTAB
  0
TABLE
  2
DIMSTYLE
 70
     1
  0
DIMSTYLE
  2
STANDARD
 70
     0
  3

  4

  5

  6

  7

 40
1.0
 41
0.18
 42
0.0625
 43
0.38
 44
0.18
 45
0.0
 46
0.0
 47
0.0
 48
0.0
140
0.18
141
0.09
142
0.0
143
25.399999999999999
144
1.0
145
0.0
146
1.0
147
0.09
 71
     0
 72
     0
 73
     1
 74
     1
 75
     0
 76
     0
 77
     0
 78
     0
170
     0
171
     2
172
     0
173
     0
174
     0
175
     0
176
     0
177
     0
178
     0
  0
ENDTAB
  0
ENDSEC
  0
SECTION
  2
BLOCKS
  0
BLOCK
  8
0
  2
$MODEL_SPACE
 70
     0
 10
0.0
 20
0.0
 30
0.0
  3
$MODEL_SPACE
  1

  0
ENDBLK
  5
9
  8
0
  0
BLOCK
 67
     1
  8
0
  2
$PAPER_SPACE
 70
     0
 10
0.0
 20
0.0
 30
0.0
  3
$PAPER_SPACE
  1

  0
ENDBLK
  5
E
 67
     1
  8
0
  0
BLOCK
  8
0
  2
STUDY_AREA
 70
     0
 10
0.0
 20
0.0
 30
0.0
  3
STUDY_AREA
  1

  0
POLYLINE
  5
2B
  8
AREA_OF_STUDY
 66
     1
 10
0.0
 20
0.0
 30
0.0
 70
     1
  0
VERTEX
  5
10A
  8
AREA_OF_STUDY
 10
520.93987214663673
 20
9828.6464168449711
 30
0.0
  0
VERTEX
  5
10B
  8
AREA_OF_STUDY
 10
520.98937925703365
 20
9829.1669632103058
 30
0.0
  0
VERTEX
  5
10C
  8
AREA_OF_STUDY
 10
520.9700499159992
 20
9829.5417378085422
 30
0.0
  0
VERTEX
  5
10D
  8
AREA_OF_STUDY
 10
520.78385047753352
 20
9830.8840228178196
 30
0.0
  0
VERTEX
  5
10E
  8
AREA_OF_STUDY
 10
520.68097681977156
 20
9830.9745257869399
 30
0.0
  0
VERTEX
  5
10F
  8
AREA_OF_STUDY
 10
520.60703068589953
 20
9831.1949313114364
 30
0.0
  0
VERTEX
  5
110
  8
AREA_OF_STUDY
 10
520.55526457127644
 20
9831.2189680390693
 30
0.0
  0
VERTEX
  5
111
  8
AREA_OF_STUDY
 10
520.49016429139851
 20
9831.1956638613083
 30
0.0
  0
VERTEX
  5
112
  8
AREA_OF_STUDY
 10
520.47219206789657
 20
9831.2402613005725
 30
0.0
  0
VERTEX
  5
113
  8
AREA_OF_STUDY
 10
520.42646110361761
 20
9831.4321299753046
 30
0.0
  0
VERTEX
  5
114
  8
AREA_OF_STUDY
 10
520.44752057404708
 20
9831.4775284765037
 30
0.0
  0
VERTEX
  5
115
  8
AREA_OF_STUDY
 10
520.43754502878562
 20
9831.5428579919917
 30
0.0
  0
VERTEX
  5
116
  8
AREA_OF_STUDY
 10
520.39985967060386
 20
9831.6081875074869
 30
0.0
  0
VERTEX
  5
117
  8
AREA_OF_STUDY
 10
520.42091914103355
 20
9831.7167009576497
 30
0.0
  0
VERTEX
  5
118
  8
AREA_OF_STUDY
 10
520.37825657132441
 20
9831.8033077747714
 30
0.0
  0
VERTEX
  5
119
  8
AREA_OF_STUDY
 10
520.26495213746182
 20
9831.9216042912758
 30
0.0
  0
VERTEX
  5
11A
  8
AREA_OF_STUDY
 10
520.3594696611641
 20
9832.0526056010876
 30
0.0
  0
VERTEX
  5
11B
  8
AREA_OF_STUDY
 10
520.26789985172366
 20
9832.1164674553729
 30
0.0
  0
VERTEX
  5
11C
  8
AREA_OF_STUDY
 10
520.31454859163966
 20
9832.1872333212923
 30
0.0
  0
VERTEX
  5
11D
  8
AREA_OF_STUDY
 10
520.32837045918575
 20
9832.2649031425444
 30
0.0
  0
VERTEX
  5
11E
  8
AREA_OF_STUDY
 10
520.26444438483725
 20
9832.3115050521865
 30
0.0
  0
VERTEX
  5
11F
  8
AREA_OF_STUDY
 10
520.28620946306785
 20
9832.5876920891951
 30
0.0
  0
VERTEX
  5
120
  8
AREA_OF_STUDY
 10
520.39787626388465
 20
9832.6992466979955
 30
0.0
  0
VERTEX
  5
121
  8
AREA_OF_STUDY
 10
520.34774015309245
 20
9832.7720986914355
 30
0.0
  0
VERTEX
  5
122
  8
AREA_OF_STUDY
 10
520.45712802545245
 20
9832.8403974475968
 30
0.0
  0
VERTEX
  5
123
  8
AREA_OF_STUDY
 10
520.40582035728835
 20
9832.9454315884577
 30
0.0
  0
VERTEX
  5
124
  8
AREA_OF_STUDY
 10
520.49078105982926
 20
9833.0107203457428
 30
0.0
  0
VERTEX
  5
125
  8
AREA_OF_STUDY
 10
520.47117473415824
 20
9833.1249756639645
 30
0.0
  0
VERTEX
  5
126
  8
AREA_OF_STUDY
 10
520.60515131392867
 20
9833.0825379872094
 30
0.0
  0
VERTEX
  5
127
  8
AREA_OF_STUDY
 10
520.80096614827175
 20
9833.1170828437062
 30
0.0
  0
VERTEX
  5
128
  8
AREA_OF_STUDY
 10
520.89490158179262
 20
9833.0513940761866
 30
0.0
  0
VERTEX
  5
129
  8
AREA_OF_STUDY
 10
520.99823059649646
 20
9833.0138576577065
 30
0.0
  0
VERTEX
  5
12A
  8
AREA_OF_STUDY
 10
521.07337893070303
 20
9833.0232417552925
 30
0.0
  0
VERTEX
  5
12B
  8
AREA_OF_STUDY
 10
521.16731436422401
 20
9833.0795463970826
 30
0.0
  0
VERTEX
  5
12C
  8
AREA_OF_STUDY
 10
521.24601381423417
 20
9833.1577453712653
 30
0.0
  0
VERTEX
  5
12D
  8
AREA_OF_STUDY
 10
521.32493577250398
 20
9833.2957199929187
 30
0.0
  0
VERTEX
  5
12E
  8
AREA_OF_STUDY
 10
521.37250802573101
 20
9833.4305681677033
 30
0.0
  0
VERTEX
  5
12F
  8
AREA_OF_STUDY
 10
521.42938558823289
 20
9833.5635795493345
 30
0.0
  0
VERTEX
  5
130
  8
AREA_OF_STUDY
 10
521.43326356230159
 20
9833.8670521761815
 30
0.0
  0
VERTEX
  5
131
  8
AREA_OF_STUDY
 10
521.37426198854121
 20
9834.061150786205
 30
0.0
  0
VERTEX
  5
132
  8
AREA_OF_STUDY
 10
521.50251016284767
 20
9834.061150786205
 30
0.0
  0
VERTEX
  5
133
  8
AREA_OF_STUDY
 10
521.68270376985345
 20
9834.1733057903439
 30
0.0
  0
VERTEX
  5
134
  8
AREA_OF_STUDY
 10
521.71257397466832
 20
9834.2479062487437
 30
0.0
  0
VERTEX
  5
135
  8
AREA_OF_STUDY
 10
521.83216242260346
 20
9834.4878910509979
 30
0.0
  0
VERTEX
  5
136
  8
AREA_OF_STUDY
 10
521.84508914995206
 20
9834.649312673002
 30
0.0
  0
VERTEX
  5
137
  8
AREA_OF_STUDY
 10
521.94591754760756
 20
9834.5860353949247
 30
0.0
  0
VERTEX
  5
138
  8
AREA_OF_STUDY
 10
522.248384455679
 20
9834.4169953105338
 30
0.0
  0
VERTEX
  5
139
  8
AREA_OF_STUDY
 10
522.51345427639967
 20
9834.4091298782078
 30
0.0
  0
VERTEX
  5
13A
  8
AREA_OF_STUDY
 10
522.77852416017163
 20
9834.5585734583037
 30
0.0
  0
VERTEX
  5
13B
  8
AREA_OF_STUDY
 10
523.01545686888653
 20
9834.8736513921722
 30
0.0
  0
VERTEX
  5
13C
  8
AREA_OF_STUDY
 10
523.06509550442627
 20
9835.1315127194739
 30
0.0
  0
VERTEX
  5
13D
  8
AREA_OF_STUDY
 10
523.0617862536501
 20
9835.3397853321512
 30
0.0
  0
VERTEX
  5
13E
  8
AREA_OF_STUDY
 10
523.03188773877332
 20
9835.4008050899592
 30
0.0
  0
VERTEX
  5
13F
  8
AREA_OF_STUDY
 10
522.92231644999879
 20
9835.4265931536356
 30
0.0
  0
VERTEX
  5
140
  8
AREA_OF_STUDY
 10
522.79441821075545
 20
9835.3957458654986
 30
0.0
  0
VERTEX
  5
141
  8
AREA_OF_STUDY
 10
522.79065536847565
 20
9835.4859629923922
 30
0.0
  0
VERTEX
  5
142
  8
AREA_OF_STUDY
 10
522.94304988183148
 20
9835.6513610724433
 30
0.0
  0
VERTEX
  5
143
  8
AREA_OF_STUDY
 10
523.04840908736594
 20
9835.6927106065286
 30
0.0
  0
VERTEX
  5
144
  8
AREA_OF_STUDY
 10
523.06631378285795
 20
9836.0398982068928
 30
0.0
  0
VERTEX
  5
145
  8
AREA_OF_STUDY
 10
523.10867723690205
 20
9836.1631808195398
 30
0.0
  0
VERTEX
  5
146
  8
AREA_OF_STUDY
 10
523.06157894076921
 20
9836.2640857998304
 30
0.0
  0
VERTEX
  5
147
  8
AREA_OF_STUDY
 10
523.14367313920377
 20
9836.4097460448284
 30
0.0
  0
VERTEX
  5
148
  8
AREA_OF_STUDY
 10
523.11788670810563
 20
9836.5127882129855
 30
0.0
  0
VERTEX
  5
149
  8
AREA_OF_STUDY
 10
523.24681898969857
 20
9836.5403888063083
 30
0.0
  0
VERTEX
  5
14A
  8
AREA_OF_STUDY
 10
523.37759312770163
 20
9836.5109481828185
 30
0.0
  0
VERTEX
  5
14B
  8
AREA_OF_STUDY
 10
523.35543410455637
 20
9836.4262390146778
 30
0.0
  0
VERTEX
  5
14C
  8
AREA_OF_STUDY
 10
523.39419354270285
 20
9836.3143470247905
 30
0.0
  0
VERTEX
  5
14D
  8
AREA_OF_STUDY
 10
523.57935717338069
 20
9836.2101342686747
 30
0.0
  0
VERTEX
  5
14E
  8
AREA_OF_STUDY
 10
523.69373398482173
 20
9836.1813867598048
 30
0.0
  0
VERTEX
  5
14F
  8
AREA_OF_STUDY
 10
523.80363988717852
 20
9836.2413980898818
 30
0.0
  0
VERTEX
  5
150
  8
AREA_OF_STUDY
 10
523.88709391435441
 20
9836.2075289525874
 30
0.0
  0
VERTEX
  5
151
  8
AREA_OF_STUDY
 10
523.96777292495096
 20
9836.0233966519263
 30
0.0
  0
VERTEX
  5
152
  8
AREA_OF_STUDY
 10
524.05738347634394
 20
9836.008476560246
 30
0.0
  0
VERTEX
  5
153
  8
AREA_OF_STUDY
 10
524.16192913014424
 20
9836.008476560246
 30
0.0
  0
VERTEX
  5
154
  8
AREA_OF_STUDY
 10
524.34407732939655
 20
9835.9219611394547
 30
0.0
  0
VERTEX
  5
155
  8
AREA_OF_STUDY
 10
524.46130021630267
 20
9835.8580856334247
 30
0.0
  0
VERTEX
  5
156
  8
AREA_OF_STUDY
 10
524.64779120426965
 20
9835.8793774593832
 30
0.0
  0
VERTEX
  5
157
  8
AREA_OF_STUDY
 10
525.00478814650387
 20
9836.0284203255505
 30
0.0
  0
VERTEX
  5
158
  8
AREA_OF_STUDY
 10
525.22495644362255
 20
9836.2201363822096
 30
0.0
  0
VERTEX
  5
159
  8
AREA_OF_STUDY
 10
525.49115229863116
 20
9836.3516385844268
 30
0.0
  0
VERTEX
  5
15A
  8
AREA_OF_STUDY
 10
525.64547769692138
 20
9836.5679445318347
 30
0.0
  0
VERTEX
  5
15B
  8
AREA_OF_STUDY
 10
525.83767477016977
 20
9836.8674706781785
 30
0.0
  0
VERTEX
  5
15C
  8
AREA_OF_STUDY
 10
525.9690752604107
 20
9837.1722433734576
 30
0.0
  0
VERTEX
  5
15D
  8
AREA_OF_STUDY
 10
526.08368693817818
 20
9837.4742031335245
 30
0.0
  0
VERTEX
  5
15E
  8
AREA_OF_STUDY
 10
526.16440970642066
 20
9837.8313304434596
 30
0.0
  0
VERTEX
  5
15F
  8
AREA_OF_STUDY
 10
526.20750744740667
 20
9838.6711970205597
 30
0.0
  0
VERTEX
  5
160
  8
AREA_OF_STUDY
 10
526.30187174771766
 20
9838.7309878419073
 30
0.0
  0
VERTEX
  5
161
  8
AREA_OF_STUDY
 10
526.15583093799899
 20
9839.9365227278195
 30
0.0
  0
VERTEX
  5
162
  8
AREA_OF_STUDY
 10
526.83642840713662
 20
9839.9365227278195
 30
0.0
  0
VERTEX
  5
163
  8
AREA_OF_STUDY
 10
528.24211099986803
 20
9839.9355967453776
 30
0.0
  0
VERTEX
  5
164
  8
AREA_OF_STUDY
 10
529.37702323511746
 20
9839.9334560671632
 30
0.0
  0
VERTEX
  5
165
  8
AREA_OF_STUDY
 10
530.55879536929694
 20
9839.9345637163478
 30
0.0
  0
VERTEX
  5
166
  8
AREA_OF_STUDY
 10
530.55863433611626
 20
9839.0700839891124
 30
0.0
  0
VERTEX
  5
167
  8
AREA_OF_STUDY
 10
530.56119863504114
 20
9838.5481550256172
 30
0.0
  0
VERTEX
  5
168
  8
AREA_OF_STUDY
 10
531.02553125387897
 20
9838.5468324388385
 30
0.0
  0
VERTEX
  5
169
  8
AREA_OF_STUDY
 10
531.02553930557997
 20
9836.2719178184234
 30
0.0
  0
VERTEX
  5
16A
  8
AREA_OF_STUDY
 10
531.30335535647055
 20
9835.9115888243523
 30
0.0
  0
VERTEX
  5
16B
  8
AREA_OF_STUDY
 10
531.84448661588476
 20
9835.2206121765194
 30
0.0
  0
VERTEX
  5
16C
  8
AREA_OF_STUDY
 10
531.99036654374765
 20
9835.0430678987777
 30
0.0
  0
VERTEX
  5
16D
  8
AREA_OF_STUDY
 10
532.90645718916926
 20
9835.0534675620202
 30
0.0
  0
VERTEX
  5
16E
  8
AREA_OF_STUDY
 10
532.89652190076208
 20
9828.6475131622155
 30
0.0
  0
VERTEX
  5
16F
  8
AREA_OF_STUDY
 10
527.09304102246313
 20
9828.6567883156367
 30
0.0
  0
VERTEX
  5
170
  8
AREA_OF_STUDY
 10
525.10955284073839
 20
9828.6546952637236
 30
0.0
  0
VERTEX
  5
171
  8
AREA_OF_STUDY
 10
522.42200022926124
 20
9828.6516525288062
 30
0.0
  0
VERTEX
  5
172
  8
AREA_OF_STUDY
 10
521.7085727351855
 20
9828.6718262345476
 30
0.0
  0
VERTEX
  5
173
  8
AREA_OF_STUDY
 10
521.15183002139531
 20
9828.6633564380281
 30
0.0
  0
SEQEND
  5
174
  8
AREA_OF_STUDY
  0
ENDBLK
  5
2D
  8
0
  0
ENDSEC
  0
SECTION
  2
ENTITIES
  0
INSERT
  5
28
  8
1_FORMATIVE
  2
STUDY_AREA
 10
0.0
 20
0.0
 30
0.0
  0
POLYLINE
  5
2E
  8
1_FORMATIVE
 66
     1
 10
0.0
 20
0.0
 30
0.306
 70
     1
  0
VERTEX
  5
175
  8
1_FORMATIVE
 10
526.29491928090545
 20
9833.3226502714406
 30
0.306
  0
VERTEX
  5
176
  8
1_FORMATIVE
 10
526.28889415572826
 20
9833.3339492726845
 30
0.306
  0
VERTEX
  5
177
  8
1_FORMATIVE
 10
526.25013761794423
 20
9833.3302178423673
 30
0.306
  0
VERTEX
  5
178
  8
1_FORMATIVE
 10
526.24083621785371
 20
9833.3328727269636
 30
0.306
  0
VERTEX
  5
179
  8
1_FORMATIVE
 10
526.22887726587294
 20
9833.3328727269636
 30
0.306
  0
VERTEX
  5
17A
  8
1_FORMATIVE
 10
526.2116032731625
 20
9833.3302178423673
 30
0.306
  0
VERTEX
  5
17B
  8
1_FORMATIVE
 10
526.19964432118172
 20
9833.3288904141464
 30
0.306
  0
VERTEX
  5
17C
  8
1_FORMATIVE
 10
526.18253634270991
 20
9833.3281517843207
 30
0.306
  0
VERTEX
  5
17D
  8
1_FORMATIVE
 10
526.17306892838121
 20
9833.3222532448872
 30
0.306
  0
VERTEX
  5
17E
  8
1_FORMATIVE
 10
526.17439767280075
 20
9833.3116337628144
 30
0.306
  0
VERTEX
  5
17F
  8
1_FORMATIVE
 10
526.17066124904147
 20
9833.2951146435407
 30
0.306
  0
VERTEX
  5
180
  8
1_FORMATIVE
 10
526.17387655328719
 20
9833.2818074845327
 30
0.306
  0
VERTEX
  5
181
  8
1_FORMATIVE
 10
526.17709185753279
 20
9833.2753833388033
 30
0.306
  0
VERTEX
  5
182
  8
1_FORMATIVE
 10
526.18903441615907
 20
9833.2707946632854
 30
0.306
  0
VERTEX
  5
183
  8
1_FORMATIVE
 10
526.22486209203885
 20
9833.2694180606304
 30
0.306
  0
VERTEX
  5
184
  8
1_FORMATIVE
 10
526.24880887352469
 20
9833.2651734935516
 30
0.306
  0
VERTEX
  5
185
  8
1_FORMATIVE
 10
526.26608286623468
 20
9833.2651734935516
 30
0.306
  0
VERTEX
  5
186
  8
1_FORMATIVE
 10
526.31493651230801
 20
9833.3036826481912
 30
0.306
  0
VERTEX
  5
187
  8
1_FORMATIVE
 10
526.30990772476571
 20
9833.3075102599832
 30
0.306
  0
SEQEND
  5
188
  8
1_FORMATIVE
  0
POLYLINE
  5
2F
  8
1_FORMATIVE
 66
     1
 10
0.0
 20
0.0
 30
0.2
 70
     1
  0
VERTEX
  5
189
  8
1_FORMATIVE
 10
527.65004281430276
 20
9830.0013586271871
 30
0.2
  0
VERTEX
  5
18A
  8
1_FORMATIVE
 10
527.64765959889223
 20
9830.0132626963332
 30
0.2
  0
VERTEX
  5
18B
  8
1_FORMATIVE
 10
527.63921059017525
 20
9830.0360054636312
 30
0.2
  0
VERTEX
  5
18C
  8
1_FORMATIVE
 10
527.57616332572127
 20
9830.0227859572824
 30
0.2
  0
VERTEX
  5
18D
  8
1_FORMATIVE
 10
527.56186403325626
 20
9830.0156435045319
 30
0.2
  0
VERTEX
  5
18E
  8
1_FORMATIVE
 10
527.58331290890214
 20
9829.9680271997968
 30
0.2
  0
VERTEX
  5
18F
  8
1_FORMATIVE
 10
527.59761220136716
 20
9829.9442190615027
 30
0.2
  0
VERTEX
  5
190
  8
1_FORMATIVE
 10
527.59739650265522
 20
9829.922780162613
 30
0.2
  0
VERTEX
  5
191
  8
1_FORMATIVE
 10
527.59327735712395
 20
9829.9038511583203
 30
0.2
  0
VERTEX
  5
192
  8
1_FORMATIVE
 10
527.58669241759958
 20
9829.8937177058615
 30
0.2
  0
VERTEX
  5
193
  8
1_FORMATIVE
 10
527.66958421977881
 20
9829.9165499473256
 30
0.2
  0
SEQEND
  5
194
  8
1_FORMATIVE
  0
POLYLINE
  5
30
  8
1_FORMATIVE
 66
     1
 10
0.0
 20
0.0
 30
0.018
 70
     1
  0
VERTEX
  5
195
  8
1_FORMATIVE
 10
532.54892231333508
 20
9830.6761539534218
 30
0.018
  0
VERTEX
  5
196
  8
1_FORMATIVE
 10
532.56611156856923
 20
9830.6851485598036
 30
0.018
  0
VERTEX
  5
197
  8
1_FORMATIVE
 10
532.58657498289335
 20
9830.6925077934429
 30
0.018
  0
VERTEX
  5
198
  8
1_FORMATIVE
 10
532.59639746016398
 20
9830.6933255079657
 30
0.018
  0
VERTEX
  5
199
  8
1_FORMATIVE
 10
532.6234091286766
 20
9830.6925077934429
 30
0.018
  0
VERTEX
  5
19A
  8
1_FORMATIVE
 10
532.62586476399235
 20
9830.6802424134275
 30
0.018
  0
VERTEX
  5
19B
  8
1_FORMATIVE
 10
532.6201349695865
 20
9830.6761539534218
 30
0.018
  0
VERTEX
  5
19C
  8
1_FORMATIVE
 10
532.59721598393855
 20
9830.6638885734064
 30
0.018
  0
VERTEX
  5
19D
  8
1_FORMATIVE
 10
532.56447452101986
 20
9830.6532585661298
 30
0.018
  0
VERTEX
  5
19E
  8
1_FORMATIVE
 10
532.53582574096617
 20
9830.6532585661298
 30
0.018
  0
VERTEX
  5
19F
  8
1_FORMATIVE
 10
532.53500721719172
 20
9830.666341660668
 30
0.018
  0
VERTEX
  5
1A0
  8
1_FORMATIVE
 10
532.53828137628204
 20
9830.6720654934161
 30
0.018
  0
SEQEND
  5
1A1
  8
1_FORMATIVE
  0
POLYLINE
  5
31
  8
1_FORMATIVE
 66
     1
 10
0.0
 20
0.0
 30
0.212
 70
     1
  0
VERTEX
  5
1A2
  8
1_FORMATIVE
 10
522.5621781609666
 20
9830.1737275662126
 30
0.212
  0
VERTEX
  5
1A3
  8
1_FORMATIVE
 10
522.58954220103033
 20
9830.1691713358687
 30
0.212
  0
VERTEX
  5
1A4
  8
1_FORMATIVE
 10
522.61024045084912
 20
9830.1714005586309
 30
0.212
  0
VERTEX
  5
1A5
  8
1_FORMATIVE
 10
522.62693343721867
 20
9830.1736241041126
 30
0.212
  0
VERTEX
  5
1A6
  8
1_FORMATIVE
 10
522.64655070601771
 20
9830.1942306027631
 30
0.212
  0
VERTEX
  5
1A7
  8
1_FORMATIVE
 10
522.63970968043907
 20
9830.2124555241444
 30
0.212
  0
VERTEX
  5
1A8
  8
1_FORMATIVE
 10
522.62602762928202
 20
9830.2192898696594
 30
0.212
  0
VERTEX
  5
1A9
  8
1_FORMATIVE
 10
522.5986635892184
 20
9830.2147336393173
 30
0.212
  0
VERTEX
  5
1AA
  8
1_FORMATIVE
 10
522.57814051248283
 20
9830.1987868331089
 30
0.212
  0
VERTEX
  5
1AB
  8
1_FORMATIVE
 10
522.56445846132578
 20
9830.1873962572481
 30
0.212
  0
SEQEND
  5
1AC
  8
1_FORMATIVE
  0
POLYLINE
  5
32
  8
1_FORMATIVE
 66
     1
 10
0.0
 20
0.0
 30
2.2280000000000002
 70
     1
  0
VERTEX
  5
1AD
  8
1_FORMATIVE
 10
522.54295151444796
 20
9830.587711666034
 30
2.2280000000000002
  0
VERTEX
  5
1AE
  8
1_FORMATIVE
 10
522.56705754681605
 20
9830.5734810935901
 30
2.2280000000000002
  0
VERTEX
  5
1AF
  8
1_FORMATIVE
 10
522.57691909419373
 20
9830.5515878856586
 30
2.2280000000000002
  0
VERTEX
  5
1B0
  8
1_FORMATIVE
 10
522.59225931358731
 20
9830.5340733023677
 30
2.2280000000000002
  0
VERTEX
  5
1B1
  8
1_FORMATIVE
 10
522.61307814274585
 20
9830.5231267125237
 30
2.2280000000000002
  0
VERTEX
  5
1B2
  8
1_FORMATIVE
 10
522.62074828356765
 20
9830.5493985450976
 30
2.2280000000000002
  0
VERTEX
  5
1B3
  8
1_FORMATIVE
 10
522.62293975237424
 20
9830.5778597182325
 30
2.2280000000000002
  0
VERTEX
  5
1B4
  8
1_FORMATIVE
 10
522.63718417511393
 20
9830.5931849609551
 30
2.2280000000000002
  0
VERTEX
  5
1B5
  8
1_FORMATIVE
 10
522.63060983094545
 20
9830.6183621514847
 30
2.2280000000000002
  0
VERTEX
  5
1B6
  8
1_FORMATIVE
 10
522.6054080641743
 20
9830.6238354746547
 30
2.2280000000000002
  0
VERTEX
  5
1B7
  8
1_FORMATIVE
 10
522.59006784478095
 20
9830.6172675094513
 30
2.2280000000000002
  0
VERTEX
  5
1B8
  8
1_FORMATIVE
 10
522.57144042217794
 20
9830.6150781688884
 30
2.2280000000000002
  0
VERTEX
  5
1B9
  8
1_FORMATIVE
 10
522.54952585861633
 20
9830.6227408043724
 30
2.2280000000000002
  0
VERTEX
  5
1BA
  8
1_FORMATIVE
 10
522.53966431123854
 20
9830.6260247869741
 30
2.2280000000000002
  0
VERTEX
  5
1BB
  8
1_FORMATIVE
 10
522.52980276386074
 20
9830.6227408043724
 30
2.2280000000000002
  0
VERTEX
  5
1BC
  8
1_FORMATIVE
 10
522.52541982624825
 20
9830.6085102036814
 30
2.2280000000000002
  0
SEQEND
  5
1BD
  8
1_FORMATIVE
  0
POLYLINE
  5
33
  8
1_FORMATIVE
 66
     1
 10
0.0
 20
0.0
 30
0.013
 70
     1
  0
VERTEX
  5
1BE
  8
1_FORMATIVE
 10
522.19033234924325
 20
9831.5757552849991
 30
0.013
  0
VERTEX
  5
1BF
  8
1_FORMATIVE
 10
522.18711428101642
 20
9831.5564656398583
 30
0.013
  0
VERTEX
  5
1C0
  8
1_FORMATIVE
 10
522.18872334614252
 20
9831.5387834979756
 30
0.013
  0
VERTEX
  5
1C1
  8
1_FORMATIVE
 10
522.21849055477253
 20
9831.5460171078703
 30
0.013
  0
VERTEX
  5
1C2
  8
1_FORMATIVE
 10
522.2393791874091
 20
9831.5514510537087
 30
0.013
  0
VERTEX
  5
1C3
  8
1_FORMATIVE
 10
522.2393791874091
 20
9831.5742496033163
 30
0.013
  0
VERTEX
  5
1C4
  8
1_FORMATIVE
 10
522.23701837340752
 20
9831.5927242818198
 30
0.013
  0
VERTEX
  5
1C5
  8
1_FORMATIVE
 10
522.2393791874091
 20
9831.6064820432839
 30
0.013
  0
VERTEX
  5
1C6
  8
1_FORMATIVE
 10
522.1890637195379
 20
9831.6009008362162
 30
0.013
  0
SEQEND
  5
1C7
  8
1_FORMATIVE
  0
POLYLINE
  5
34
  8
1_FORMATIVE
 66
     1
 10
0.0
 20
0.0
 30
0.358
 70
     1
  0
VERTEX
  5
1C8
  8
1_FORMATIVE
 10
521.57757359141056
 20
9832.4821608827424
 30
0.358
  0
VERTEX
  5
1C9
  8
1_FORMATIVE
 10
521.58812691751825
 20
9832.4741280944672
 30
0.358
  0
VERTEX
  5
1CA
  8
1_FORMATIVE
 10
521.60800242588641
 20
9832.4605106542822
 30
0.358
  0
VERTEX
  5
1CB
  8
1_FORMATIVE
 10
521.6372618938982
 20
9832.4663568396172
 30
0.358
  0
VERTEX
  5
1CC
  8
1_FORMATIVE
 10
521.6592542700364
 20
9832.4844947301553
 30
0.358
  0
VERTEX
  5
1CD
  8
1_FORMATIVE
 10
521.65189165891661
 20
9832.5160494290321
 30
0.358
  0
VERTEX
  5
1CE
  8
1_FORMATIVE
 10
521.63140997548555
 20
9832.5335879850354
 30
0.358
  0
VERTEX
  5
1CF
  8
1_FORMATIVE
 10
521.59897951659025
 20
9832.5459480497284
 30
0.358
  0
VERTEX
  5
1D0
  8
1_FORMATIVE
 10
521.57581696765601
 20
9832.5306649064405
 30
0.358
  0
VERTEX
  5
1D1
  8
1_FORMATIVE
 10
521.57289103946255
 20
9832.5072801369624
 30
0.358
  0
VERTEX
  5
1D2
  8
1_FORMATIVE
 10
521.57581696765601
 20
9832.4955877662906
 30
0.358
  0
SEQEND
  5
1D3
  8
1_FORMATIVE
  0
POLYLINE
  5
35
  8
1_FORMATIVE
 66
     1
 10
0.0
 20
0.0
 30
0.033
 70
     1
  0
VERTEX
  5
1D4
  8
1_FORMATIVE
 10
521.82751805957969
 20
9832.3553138216503
 30
0.033
  0
VERTEX
  5
1D5
  8
1_FORMATIVE
 10
521.83616472228516
 20
9832.3236403590781
 30
0.033
  0
VERTEX
  5
1D6
  8
1_FORMATIVE
 10
521.85201688555765
 20
9832.2991654120051
 30
0.033
  0
VERTEX
  5
1D7
  8
1_FORMATIVE
 10
521.87939791176268
 20
9832.2862080953564
 30
0.033
  0
VERTEX
  5
1D8
  8
1_FORMATIVE
 10
521.89813233728762
 20
9832.3049242131456
 30
0.033
  0
VERTEX
  5
1D9
  8
1_FORMATIVE
 10
521.90101453751436
 20
9832.3236403590727
 30
0.033
  0
VERTEX
  5
1DA
  8
1_FORMATIVE
 10
521.88804457446861
 20
9832.3625123090096
 30
0.033
  0
VERTEX
  5
1DB
  8
1_FORMATIVE
 10
521.87075131108259
 20
9832.3783490543665
 30
0.033
  0
VERTEX
  5
1DC
  8
1_FORMATIVE
 10
521.84337022285195
 20
9832.3841078555106
 30
0.033
  0
SEQEND
  5
1DD
  8
1_FORMATIVE
  0
POLYLINE
  5
36
  8
1_FORMATIVE
 66
     1
 10
0.0
 20
0.0
 30
0.1
 70
     1
  0
VERTEX
  5
1DE
  8
1_FORMATIVE
 10
522.12726899586232
 20
9834.2910517097916
 30
0.1
  0
VERTEX
  5
1DF
  8
1_FORMATIVE
 10
522.11747755201611
 20
9834.3138761107384
 30
0.1
  0
VERTEX
  5
1E0
  8
1_FORMATIVE
 10
522.1185655447706
 20
9834.3269186335219
 30
0.1
  0
VERTEX
  5
1E1
  8
1_FORMATIVE
 10
522.12944485863522
 20
9834.3345267578861
 30
0.1
  0
VERTEX
  5
1E2
  8
1_FORMATIVE
 10
522.13923630248109
 20
9834.3269186335219
 30
0.1
  0
VERTEX
  5
1E3
  8
1_FORMATIVE
 10
522.14358808939517
 20
9834.3127892199154
 30
0.1
  0
VERTEX
  5
1E4
  8
1_FORMATIVE
 10
522.14032423386766
 20
9834.2943123544155
 30
0.1
  0
VERTEX
  5
1E5
  8
1_FORMATIVE
 10
522.13597250832186
 20
9834.2899648468174
 30
0.1
  0
SEQEND
  5
1E6
  8
1_FORMATIVE
  0
POLYLINE
  5
37
  8
1_FORMATIVE
 66
     1
 10
0.0
 20
0.0
 30
0.216
 70
     1
  0
VERTEX
  5
1E7
  8
1_FORMATIVE
 10
521.64747842852717
 20
9833.6012564531666
 30
0.216
  0
VERTEX
  5
1E8
  8
1_FORMATIVE
 10
521.66098723720506
 20
9833.5810129793663
 30
0.216
  0
VERTEX
  5
1E9
  8
1_FORMATIVE
 10
521.68800491592845
 20
9833.5742651454857
 30
0.216
  0
VERTEX
  5
1EA
  8
1_FORMATIVE
 10
521.70151372460623
 20
9833.5729155954177
 30
0.216
  0
VERTEX
  5
1EB
  8
1_FORMATIVE
 10
521.73123318961245
 20
9833.5729155954177
 30
0.216
  0
VERTEX
  5
1EC
  8
1_FORMATIVE
 10
521.73933848709237
 20
9833.5877608132505
 30
0.216
  0
VERTEX
  5
1ED
  8
1_FORMATIVE
 10
521.74204021200717
 20
9833.6066547091323
 30
0.216
  0
VERTEX
  5
1EE
  8
1_FORMATIVE
 10
521.73258402138572
 20
9833.6444425287482
 30
0.216
  0
VERTEX
  5
1EF
  8
1_FORMATIVE
 10
521.71367170151052
 20
9833.6525399405436
 30
0.216
  0
VERTEX
  5
1F0
  8
1_FORMATIVE
 10
521.67449604588285
 20
9833.6471416845798
 30
0.216
  0
VERTEX
  5
1F1
  8
1_FORMATIVE
 10
521.6515310465835
 20
9833.6390442727788
 30
0.216
  0
VERTEX
  5
1F2
  8
1_FORMATIVE
 10
521.64612753538574
 20
9833.6134025430147
 30
0.216
  0
SEQEND
  5
1F3
  8
1_FORMATIVE
  0
POLYLINE
  5
38
  8
1_FORMATIVE
 66
     1
 10
0.0
 20
0.0
 30
0.4770000000000002
 70
     1
  0
VERTEX
  5
1F4
  8
1_FORMATIVE
 10
523.35475079277001
 20
9836.3151598625791
 30
0.4770000000000002
  0
VERTEX
  5
1F5
  8
1_FORMATIVE
 10
523.34691734619526
 20
9836.2961543216006
 30
0.4770000000000002
  0
VERTEX
  5
1F6
  8
1_FORMATIVE
 10
523.35251266517707
 20
9836.2894464802921
 30
0.4770000000000002
  0
VERTEX
  5
1F7
  8
1_FORMATIVE
 10
523.34803640999155
 20
9836.2715588940973
 30
0.4770000000000002
  0
VERTEX
  5
1F8
  8
1_FORMATIVE
 10
523.34132202721321
 20
9836.2614971321418
 30
0.4770000000000002
  0
VERTEX
  5
1F9
  8
1_FORMATIVE
 10
523.33236951684205
 20
9836.2514353701845
 30
0.4770000000000002
  0
VERTEX
  5
1FA
  8
1_FORMATIVE
 10
523.31822007717767
 20
9836.2277703802902
 30
0.4770000000000002
  0
VERTEX
  5
1FB
  8
1_FORMATIVE
 10
523.29544034953562
 20
9836.2525533249755
 30
0.4770000000000002
  0
VERTEX
  5
1FC
  8
1_FORMATIVE
 10
523.28313064777535
 20
9836.2682049734503
 30
0.4770000000000002
  0
VERTEX
  5
1FD
  8
1_FORMATIVE
 10
523.27760882899281
 20
9836.2779066168496
 30
0.4770000000000002
  0
VERTEX
  5
1FE
  8
1_FORMATIVE
 10
523.27294277582382
 20
9836.2884178515615
 30
0.4770000000000002
  0
VERTEX
  5
1FF
  8
1_FORMATIVE
 10
523.26190794587762
 20
9836.3076430491074
 30
0.4770000000000002
  0
VERTEX
  5
200
  8
1_FORMATIVE
 10
523.27253905194334
 20
9836.3299624068877
 30
0.4770000000000002
  0
VERTEX
  5
201
  8
1_FORMATIVE
 10
523.28978864938802
 20
9836.3428540657806
 30
0.4770000000000002
  0
VERTEX
  5
202
  8
1_FORMATIVE
 10
523.31446443407435
 20
9836.3554069385555
 30
0.4770000000000002
  0
VERTEX
  5
203
  8
1_FORMATIVE
 10
523.33348858063835
 20
9836.3554069385555
 30
0.4770000000000002
  0
VERTEX
  5
204
  8
1_FORMATIVE
 10
523.33908389962039
 20
9836.3498170520361
 30
0.4770000000000002
  0
VERTEX
  5
205
  8
1_FORMATIVE
 10
523.34467921860232
 20
9836.3341654317082
 30
0.4770000000000002
  0
SEQEND
  5
206
  8
1_FORMATIVE
  0
POLYLINE
  5
39
  8
1_FORMATIVE
 66
     1
 10
0.0
 20
0.0
 30
0.2
 70
     1
  0
VERTEX
  5
207
  8
1_FORMATIVE
 10
523.26207311974326
 20
9836.3658266239072
 30
0.2
  0
VERTEX
  5
208
  8
1_FORMATIVE
 10
523.25281910349088
 20
9836.381052524217
 30
0.2
  0
VERTEX
  5
209
  8
1_FORMATIVE
 10
523.24450297459362
 20
9836.3985916712263
 30
0.2
  0
VERTEX
  5
20A
  8
1_FORMATIVE
 10
523.22987550451808
 20
9836.4258662614448
 30
0.2
  0
VERTEX
  5
20B
  8
1_FORMATIVE
 10
523.24815689590207
 20
9836.4819078681921
 30
0.2
  0
VERTEX
  5
20C
  8
1_FORMATIVE
 10
523.26459650254083
 20
9836.4889998903673
 30
0.2
  0
VERTEX
  5
20D
  8
1_FORMATIVE
 10
523.2832778962761
 20
9836.483774203145
 30
0.2
  0
VERTEX
  5
20E
  8
1_FORMATIVE
 10
523.32886054909159
 20
9836.4218124511135
 30
0.2
  0
VERTEX
  5
20F
  8
1_FORMATIVE
 10
523.32960777010669
 20
9836.4027760090576
 30
0.2
  0
VERTEX
  5
210
  8
1_FORMATIVE
 10
523.3311022741625
 20
9836.3859791633113
 30
0.2
  0
VERTEX
  5
211
  8
1_FORMATIVE
 10
523.33125045304575
 20
9836.3598788139934
 30
0.2
  0
VERTEX
  5
212
  8
1_FORMATIVE
 10
523.33181649761957
 20
9836.3559358028779
 30
0.2
  0
VERTEX
  5
213
  8
1_FORMATIVE
 10
523.31426316137618
 20
9836.3557997593398
 30
0.2
  0
VERTEX
  5
214
  8
1_FORMATIVE
 10
523.29426558685395
 20
9836.3468005103477
 30
0.2
  0
VERTEX
  5
215
  8
1_FORMATIVE
 10
523.27570315799835
 20
9836.3339230636993
 30
0.2
  0
VERTEX
  5
216
  8
1_FORMATIVE
 10
523.27124116867435
 20
9836.3434800517934
 30
0.2
  0
SEQEND
  5
217
  8
1_FORMATIVE
  0
POLYLINE
  5
3A
  8
1_FORMATIVE
 66
     1
 10
0.0
 20
0.0
 30
0.127
 70
     1
  0
VERTEX
  5
218
  8
1_FORMATIVE
 10
523.26057049034932
 20
9836.3067088684802
 30
0.127
  0
VERTEX
  5
219
  8
1_FORMATIVE
 10
523.28092725445401
 20
9836.2683124236373
 30
0.127
  0
VERTEX
  5
21A
  8
1_FORMATIVE
 10
523.29353852412135
 20
9836.2493452697836
 30
0.127
  0
VERTEX
  5
21B
  8
1_FORMATIVE
 10
523.31658446514405
 20
9836.225202664069
 30
0.127
  0
VERTEX
  5
21C
  8
1_FORMATIVE
 10
523.31206826554615
 20
9836.2160628123675
 30
0.127
  0
VERTEX
  5
21D
  8
1_FORMATIVE
 10
523.29603101822715
 20
9836.2000411671233
 30
0.127
  0
VERTEX
  5
21E
  8
1_FORMATIVE
 10
523.27892457560142
 20
9836.1904282024971
 30
0.127
  0
VERTEX
  5
21F
  8
1_FORMATIVE
 10
523.25026663074129
 20
9836.1705077588795
 30
0.127
  0
VERTEX
  5
220
  8
1_FORMATIVE
 10
523.2305210037382
 20
9836.1926600876177
 30
0.127
  0
VERTEX
  5
221
  8
1_FORMATIVE
 10
523.20776738882512
 20
9836.2266498081917
 30
0.127
  0
VERTEX
  5
222
  8
1_FORMATIVE
 10
523.19832338851245
 20
9836.2470348092484
 30
0.127
  0
VERTEX
  5
223
  8
1_FORMATIVE
 10
523.19092256969407
 20
9836.2605897155627
 30
0.127
  0
VERTEX
  5
224
  8
1_FORMATIVE
 10
523.21065610172775
 20
9836.2713416578445
 30
0.127
  0
SEQEND
  5
225
  8
1_FORMATIVE
  0
POLYLINE
  5
3B
  8
1_FORMATIVE
 66
     1
 10
0.0
 20
0.0
 30
0.7640000000000002
 70
     1
  0
VERTEX
  5
226
  8
1_FORMATIVE
 10
523.15805011719431
 20
9836.2394653964038
 30
0.7640000000000002
  0
VERTEX
  5
227
  8
1_FORMATIVE
 10
523.18876402079832
 20
9836.2596655257184
 30
0.7640000000000002
  0
VERTEX
  5
228
  8
1_FORMATIVE
 10
523.20651069047801
 20
9836.2248562230398
 30
0.7640000000000002
  0
VERTEX
  5
229
  8
1_FORMATIVE
 10
523.22938786015675
 20
9836.1908488849094
 30
0.7640000000000002
  0
VERTEX
  5
22A
  8
1_FORMATIVE
 10
523.24955110474878
 20
9836.1697757579732
 30
0.7640000000000002
  0
VERTEX
  5
22B
  8
1_FORMATIVE
 10
523.24221038862527
 20
9836.1523923827863
 30
0.7640000000000002
  0
VERTEX
  5
22C
  8
1_FORMATIVE
 10
523.21283865448629
 20
9836.1261932231901
 30
0.7640000000000002
  0
VERTEX
  5
22D
  8
1_FORMATIVE
 10
523.19982279258147
 20
9836.1153012410578
 30
0.7640000000000002
  0
VERTEX
  5
22E
  8
1_FORMATIVE
 10
523.15094832323803
 20
9836.1115217129573
 30
0.7640000000000002
  0
VERTEX
  5
22F
  8
1_FORMATIVE
 10
523.1530463352608
 20
9836.1660159300081
 30
0.7640000000000002
  0
VERTEX
  5
230
  8
1_FORMATIVE
 10
523.15409531025921
 20
9836.1890711724409
 30
0.7640000000000002
  0
VERTEX
  5
231
  8
1_FORMATIVE
 10
523.14147089118899
 20
9836.2216795192162
 30
0.7640000000000002
  0
SEQEND
  5
232
  8
1_FORMATIVE
  0
POLYLINE
  5
3C
  8
1_FORMATIVE
 66
     1
 10
0.0
 20
0.0
 30
0.141
 70
     1
  0
VERTEX
  5
233
  8
1_FORMATIVE
 10
523.16505043745747
 20
9836.3777207521507
 30
0.141
  0
VERTEX
  5
234
  8
1_FORMATIVE
 10
523.14498723997201
 20
9836.3373402780908
 30
0.141
  0
VERTEX
  5
235
  8
1_FORMATIVE
 10
523.12786398844014
 20
9836.3202337180064
 30
0.141
  0
VERTEX
  5
236
  8
1_FORMATIVE
 10
523.12864228422313
 20
9836.2961290491312
 30
0.141
  0
VERTEX
  5
237
  8
1_FORMATIVE
 10
523.1317556534317
 20
9836.2611383644562
 30
0.141
  0
VERTEX
  5
238
  8
1_FORMATIVE
 10
523.13331230702306
 20
9836.2424766753375
 30
0.141
  0
VERTEX
  5
239
  8
1_FORMATIVE
 10
523.13642561420636
 20
9836.2277028369481
 30
0.141
  0
VERTEX
  5
23A
  8
1_FORMATIVE
 10
523.13975470805065
 20
9836.223312379374
 30
0.141
  0
VERTEX
  5
23B
  8
1_FORMATIVE
 10
523.15553678252536
 20
9836.2407887110749
 30
0.141
  0
VERTEX
  5
23C
  8
1_FORMATIVE
 10
523.18782148153173
 20
9836.2609297118324
 30
0.141
  0
VERTEX
  5
23D
  8
1_FORMATIVE
 10
523.20972695996556
 20
9836.2731396614563
 30
0.141
  0
VERTEX
  5
23E
  8
1_FORMATIVE
 10
523.22264699249615
 20
9836.2826885443465
 30
0.141
  0
VERTEX
  5
23F
  8
1_FORMATIVE
 10
523.17569066126941
 20
9836.3590252350805
 30
0.141
  0
VERTEX
  5
240
  8
1_FORMATIVE
 10
523.16718988250386
 20
9836.3818350981983
 30
0.141
  0
SEQEND
  5
241
  8
1_FORMATIVE
  0
POLYLINE
  5
3D
  8
1_FORMATIVE
 66
     1
 10
0.0
 20
0.0
 30
0.017
 70
     1
  0
VERTEX
  5
242
  8
1_FORMATIVE
 10
523.3810749047143
 20
9836.0161930461909
 30
0.017
  0
VERTEX
  5
243
  8
1_FORMATIVE
 10
523.36761338970166
 20
9836.0245415432819
 30
0.017
  0
VERTEX
  5
244
  8
1_FORMATIVE
 10
523.35901243977821
 20
9836.0333359671058
 30
0.017
  0
VERTEX
  5
245
  8
1_FORMATIVE
 10
523.35656106856879
 20
9836.0480299073515
 30
0.017
  0
VERTEX
  5
246
  8
1_FORMATIVE
 10
523.35656106856879
 20
9836.0639483520063
 30
0.017
  0
VERTEX
  5
247
  8
1_FORMATIVE
 10
523.35410969735915
 20
9836.0933362325086
 30
0.017
  0
VERTEX
  5
248
  8
1_FORMATIVE
 10
523.36146387301312
 20
9836.1129281340782
 30
0.017
  0
VERTEX
  5
249
  8
1_FORMATIVE
 10
523.3700436722462
 20
9836.1166016191401
 30
0.017
  0
VERTEX
  5
24A
  8
1_FORMATIVE
 10
523.37862353350465
 20
9836.1166016191401
 30
0.017
  0
VERTEX
  5
24B
  8
1_FORMATIVE
 10
523.39210613718217
 20
9836.1117036578198
 30
0.017
  0
VERTEX
  5
24C
  8
1_FORMATIVE
 10
523.40313730762466
 20
9836.0994586982324
 30
0.017
  0
VERTEX
  5
24D
  8
1_FORMATIVE
 10
523.4080401120691
 20
9836.0957852131669
 30
0.017
  0
VERTEX
  5
24E
  8
1_FORMATIVE
 10
523.41318630451599
 20
9836.0811329809294
 30
0.017
  0
VERTEX
  5
24F
  8
1_FORMATIVE
 10
523.41744547050484
 20
9836.0666660144307
 30
0.017
  0
VERTEX
  5
250
  8
1_FORMATIVE
 10
523.41957505349922
 20
9836.0568795197087
 30
0.017
  0
VERTEX
  5
251
  8
1_FORMATIVE
 10
523.42042684948171
 20
9836.0466675301159
 30
0.017
  0
VERTEX
  5
252
  8
1_FORMATIVE
 10
523.42085277848571
 20
9836.0360300175034
 30
0.017
  0
VERTEX
  5
253
  8
1_FORMATIVE
 10
523.41616774551835
 20
9836.030498527829
 30
0.017
  0
VERTEX
  5
254
  8
1_FORMATIVE
 10
523.40926579767404
 20
9836.0259889969784
 30
0.017
  0
VERTEX
  5
255
  8
1_FORMATIVE
 10
523.39578319399652
 20
9836.0198665312528
 30
0.017
  0
VERTEX
  5
256
  8
1_FORMATIVE
 10
523.39210613718217
 20
9836.0186420268546
 30
0.017
  0
SEQEND
  5
257
  8
1_FORMATIVE
  0
POLYLINE
  5
3E
  8
1_FORMATIVE
 66
     1
 10
0.0
 20
0.0
 30
0.318
 70
     1
  0
VERTEX
  5
258
  8
1_FORMATIVE
 10
524.712645392995
 20
9835.5942000952491
 30
0.318
  0
VERTEX
  5
259
  8
1_FORMATIVE
 10
524.72243313854415
 20
9835.5661299289513
 30
0.318
  0
VERTEX
  5
25A
  8
1_FORMATIVE
 10
524.71518068468527
 20
9835.5516392378559
 30
0.318
  0
VERTEX
  5
25B
  8
1_FORMATIVE
 10
524.71608724917087
 20
9835.5362428469107
 30
0.318
  0
VERTEX
  5
25C
  8
1_FORMATIVE
 10
524.71427412019966
 20
9835.5253748145187
 30
0.318
  0
VERTEX
  5
25D
  8
1_FORMATIVE
 10
524.71427412019966
 20
9835.4547325617568
 30
0.318
  0
VERTEX
  5
25E
  8
1_FORMATIVE
 10
524.71427412019966
 20
9835.4456758727865
 30
0.318
  0
VERTEX
  5
25F
  8
1_FORMATIVE
 10
524.76232147970393
 20
9835.4393361989514
 30
0.318
  0
VERTEX
  5
260
  8
1_FORMATIVE
 10
524.79075755940505
 20
9835.4482341892235
 30
0.318
  0
VERTEX
  5
261
  8
1_FORMATIVE
 10
524.81988274224204
 20
9835.4518153369172
 30
0.318
  0
VERTEX
  5
262
  8
1_FORMATIVE
 10
524.82034092449817
 20
9835.5507335661496
 30
0.318
  0
VERTEX
  5
263
  8
1_FORMATIVE
 10
524.81805193600781
 20
9835.5916560191981
 30
0.318
  0
VERTEX
  5
264
  8
1_FORMATIVE
 10
524.73202810888665
 20
9835.5939822961318
 30
0.318
  0
SEQEND
  5
265
  8
1_FORMATIVE
  0
POLYLINE
  5
3F
  8
1_FORMATIVE
 66
     1
 10
0.0
 20
0.0
 30
0.318
 70
     1
  0
VERTEX
  5
266
  8
1_FORMATIVE
 10
524.86753909309027
 20
9835.4535697187912
 30
0.318
  0
VERTEX
  5
267
  8
1_FORMATIVE
 10
524.91214075083838
 20
9835.5186480892226
 30
0.318
  0
VERTEX
  5
268
  8
1_FORMATIVE
 10
524.91146144772915
 20
9835.5928187495902
 30
0.318
  0
VERTEX
  5
269
  8
1_FORMATIVE
 10
524.8786507726121
 20
9835.5918675142675
 30
0.318
  0
VERTEX
  5
26A
  8
1_FORMATIVE
 10
524.84146227675365
 20
9835.5915861681315
 30
0.318
  0
VERTEX
  5
26B
  8
1_FORMATIVE
 10
524.81902232471725
 20
9835.5916694997213
 30
0.318
  0
VERTEX
  5
26C
  8
1_FORMATIVE
 10
524.82225503095844
 20
9835.5515956161198
 30
0.318
  0
VERTEX
  5
26D
  8
1_FORMATIVE
 10
524.82165611287735
 20
9835.4940582059062
 30
0.318
  0
VERTEX
  5
26E
  8
1_FORMATIVE
 10
524.82049958568825
 20
9835.451738140513
 30
0.318
  0
SEQEND
  5
26F
  8
1_FORMATIVE
  0
POLYLINE
  5
40
  8
1_FORMATIVE
 66
     1
 10
0.0
 20
0.0
 30
0.318
 70
     1
  0
VERTEX
  5
270
  8
1_FORMATIVE
 10
524.91201335049243
 20
9835.6077537632646
 30
0.318
  0
VERTEX
  5
271
  8
1_FORMATIVE
 10
524.9137699122216
 20
9835.5215157822822
 30
0.318
  0
VERTEX
  5
272
  8
1_FORMATIVE
 10
524.94229481241689
 20
9835.521818939289
 30
0.318
  0
VERTEX
  5
273
  8
1_FORMATIVE
 10
524.98963396493593
 20
9835.5213642037797
 30
0.318
  0
VERTEX
  5
274
  8
1_FORMATIVE
 10
524.99038862900898
 20
9835.6570976602088
 30
0.318
  0
VERTEX
  5
275
  8
1_FORMATIVE
 10
524.91189909954971
 20
9835.6561228972878
 30
0.318
  0
VERTEX
  5
276
  8
1_FORMATIVE
 10
524.91218658767139
 20
9835.6101156974546
 30
0.318
  0
SEQEND
  5
277
  8
1_FORMATIVE
  0
POLYLINE
  5
41
  8
1_FORMATIVE
 66
     1
 10
0.0
 20
0.0
 30
1.909999999999999
 70
     1
  0
VERTEX
  5
278
  8
1_FORMATIVE
 10
524.9919119128898
 20
9835.5217961715571
 30
1.909999999999999
  0
VERTEX
  5
279
  8
1_FORMATIVE
 10
524.9917125009564
 20
9835.6574215023611
 30
1.909999999999999
  0
VERTEX
  5
27A
  8
1_FORMATIVE
 10
525.02147933743322
 20
9835.6578180098877
 30
1.909999999999999
  0
VERTEX
  5
27B
  8
1_FORMATIVE
 10
525.08116329813674
 20
9835.658577872422
 30
1.909999999999999
  0
VERTEX
  5
27C
  8
1_FORMATIVE
 10
525.07402093951373
 20
9835.6448704026006
 30
1.909999999999999
  0
VERTEX
  5
27D
  8
1_FORMATIVE
 10
525.06744245457253
 20
9835.6330406375273
 30
1.909999999999999
  0
VERTEX
  5
27E
  8
1_FORMATIVE
 10
525.0644657275069
 20
9835.6228576634221
 30
1.909999999999999
  0
VERTEX
  5
27F
  8
1_FORMATIVE
 10
525.06632891104414
 20
9835.5539858340817
 30
1.909999999999999
  0
VERTEX
  5
280
  8
1_FORMATIVE
 10
525.0712662016582
 20
9835.5380923804605
 30
1.909999999999999
  0
VERTEX
  5
281
  8
1_FORMATIVE
 10
525.07071758624511
 20
9835.5221989268448
 30
1.909999999999999
  0
VERTEX
  5
282
  8
1_FORMATIVE
 10
524.99339047639603
 20
9835.5216998097312
 30
1.909999999999999
  0
SEQEND
  5
283
  8
1_FORMATIVE
  0
POLYLINE
  5
42
  8
1_FORMATIVE
 66
     1
 10
0.0
 20
0.0
 30
0.318
 70
     1
  0
VERTEX
  5
284
  8
1_FORMATIVE
 10
524.70122892024085
 20
9835.6927934410305
 30
0.318
  0
VERTEX
  5
285
  8
1_FORMATIVE
 10
524.69519582538726
 20
9835.6772949752158
 30
0.318
  0
VERTEX
  5
286
  8
1_FORMATIVE
 10
524.69691957563475
 20
9835.6617964812613
 30
0.318
  0
VERTEX
  5
287
  8
1_FORMATIVE
 10
524.69519582538726
 20
9835.6342436406321
 30
0.318
  0
VERTEX
  5
288
  8
1_FORMATIVE
 10
524.69605766949826
 20
9835.6213282571443
 30
0.318
  0
VERTEX
  5
289
  8
1_FORMATIVE
 10
524.70640010895795
 20
9835.6092738823372
 30
0.318
  0
VERTEX
  5
28A
  8
1_FORMATIVE
 10
524.71258088649085
 20
9835.5950384206226
 30
0.318
  0
VERTEX
  5
28B
  8
1_FORMATIVE
 10
524.81979106857546
 20
9835.5931281262128
 30
0.318
  0
VERTEX
  5
28C
  8
1_FORMATIVE
 10
524.81773920351361
 20
9835.6904472669612
 30
0.318
  0
VERTEX
  5
28D
  8
1_FORMATIVE
 10
524.70797425373632
 20
9835.6910363855677
 30
0.318
  0
SEQEND
  5
28E
  8
1_FORMATIVE
  0
POLYLINE
  5
43
  8
1_FORMATIVE
 66
     1
 10
0.0
 20
0.0
 30
0.318
 70
     1
  0
VERTEX
  5
28F
  8
1_FORMATIVE
 10
524.82079786624456
 20
9835.6030847457132
 30
0.318
  0
VERTEX
  5
290
  8
1_FORMATIVE
 10
524.82104050994099
 20
9835.5927812911814
 30
0.318
  0
VERTEX
  5
291
  8
1_FORMATIVE
 10
524.91115249878942
 20
9835.5941994479563
 30
0.318
  0
VERTEX
  5
292
  8
1_FORMATIVE
 10
524.91070275199922
 20
9835.6562850294395
 30
0.318
  0
VERTEX
  5
293
  8
1_FORMATIVE
 10
524.90844124079865
 20
9835.7520722028839
 30
0.318
  0
VERTEX
  5
294
  8
1_FORMATIVE
 10
524.81982077878286
 20
9835.7802143309764
 30
0.318
  0
VERTEX
  5
295
  8
1_FORMATIVE
 10
524.82035841568495
 20
9835.6913080786362
 30
0.318
  0
VERTEX
  5
296
  8
1_FORMATIVE
 10
524.81994848925603
 20
9835.6378739823886
 30
0.318
  0
SEQEND
  5
297
  8
1_FORMATIVE
  0
POLYLINE
  5
44
  8
1_FORMATIVE
 66
     1
 10
0.0
 20
0.0
 30
0.637
 70
     1
  0
VERTEX
  5
298
  8
1_FORMATIVE
 10
525.02654483472406
 20
9835.6592979688176
 30
0.637
  0
VERTEX
  5
299
  8
1_FORMATIVE
 10
525.03862578649682
 20
9835.6588979152621
 30
0.637
  0
VERTEX
  5
29A
  8
1_FORMATIVE
 10
525.06882525073001
 20
9835.65907437223
 30
0.637
  0
VERTEX
  5
29B
  8
1_FORMATIVE
 10
525.08224719348345
 20
9835.6594272298753
 30
0.637
  0
VERTEX
  5
29C
  8
1_FORMATIVE
 10
525.11115584535321
 20
9835.7106470585568
 30
0.637
  0
VERTEX
  5
29D
  8
1_FORMATIVE
 10
525.11215941769694
 20
9835.7382197963198
 30
0.637
  0
VERTEX
  5
29E
  8
1_FORMATIVE
 10
525.11040310406975
 20
9835.7492488914286
 30
0.637
  0
VERTEX
  5
29F
  8
1_FORMATIVE
 10
525.09359239895548
 20
9835.766544516564
 30
0.637
  0
VERTEX
  5
2A0
  8
1_FORMATIVE
 10
525.07678169384121
 20
9835.7888533769856
 30
0.637
  0
VERTEX
  5
2A1
  8
1_FORMATIVE
 10
525.05243309358718
 20
9835.798278430424
 30
0.637
  0
VERTEX
  5
2A2
  8
1_FORMATIVE
 10
525.03467569349857
 20
9835.7899665474506
 30
0.637
  0
VERTEX
  5
2A3
  8
1_FORMATIVE
 10
525.01845454061686
 20
9835.7612389874939
 30
0.637
  0
VERTEX
  5
2A4
  8
1_FORMATIVE
 10
525.00970038774631
 20
9835.7367066567276
 30
0.637
  0
VERTEX
  5
2A5
  8
1_FORMATIVE
 10
525.00998117711606
 20
9835.6592979688176
 30
0.637
  0
SEQEND
  5
2A6
  8
1_FORMATIVE
  0
POLYLINE
  5
45
  8
1_FORMATIVE
 66
     1
 10
0.0
 20
0.0
 30
2.545999999999998
 70
     1
  0
VERTEX
  5
2A7
  8
1_FORMATIVE
 10
524.92926635933895
 20
9835.7668296338743
 30
2.545999999999998
  0
VERTEX
  5
2A8
  8
1_FORMATIVE
 10
524.95186429028513
 20
9835.7629752170978
 30
2.545999999999998
  0
VERTEX
  5
2A9
  8
1_FORMATIVE
 10
524.94779076657198
 20
9835.7866695320627
 30
2.545999999999998
  0
VERTEX
  5
2AA
  8
1_FORMATIVE
 10
524.94348725236159
 20
9835.8096156357169
 30
2.545999999999998
  0
VERTEX
  5
2AB
  8
1_FORMATIVE
 10
524.93747853352374
 20
9835.8270857759489
 30
2.545999999999998
  0
VERTEX
  5
2AC
  8
1_FORMATIVE
 10
524.92850090283116
 20
9835.8403588014025
 30
2.545999999999998
  0
VERTEX
  5
2AD
  8
1_FORMATIVE
 10
524.90198289922137
 20
9835.8556118034758
 30
2.545999999999998
  0
VERTEX
  5
2AE
  8
1_FORMATIVE
 10
524.86983992844807
 20
9835.8596257632416
 30
2.545999999999998
  0
VERTEX
  5
2AF
  8
1_FORMATIVE
 10
524.83528627518319
 20
9835.8572173930115
 30
2.545999999999998
  0
VERTEX
  5
2B0
  8
1_FORMATIVE
 10
524.81278615842655
 20
9835.8339364714084
 30
2.545999999999998
  0
VERTEX
  5
2B1
  8
1_FORMATIVE
 10
524.79072747704492
 20
9835.8215384417344
 30
2.545999999999998
  0
VERTEX
  5
2B2
  8
1_FORMATIVE
 10
524.77168949879774
 20
9835.8064813997644
 30
2.545999999999998
  0
VERTEX
  5
2B3
  8
1_FORMATIVE
 10
524.89840092747568
 20
9835.7750891144715
 30
2.545999999999998
  0
SEQEND
  5
2B4
  8
1_FORMATIVE
  0
POLYLINE
  5
46
  8
1_FORMATIVE
 66
     1
 10
0.0
 20
0.0
 30
0.1273
 70
     1
  0
VERTEX
  5
2B5
  8
1_FORMATIVE
 10
524.81800045485545
 20
9835.7282139546187
 30
0.1273
  0
VERTEX
  5
2B6
  8
1_FORMATIVE
 10
524.81721446791232
 20
9835.6928785456366
 30
0.1273
  0
VERTEX
  5
2B7
  8
1_FORMATIVE
 10
524.70776460759771
 20
9835.6927461044106
 30
0.1273
  0
VERTEX
  5
2B8
  8
1_FORMATIVE
 10
524.70121434425187
 20
9835.6946707517764
 30
0.1273
  0
VERTEX
  5
2B9
  8
1_FORMATIVE
 10
524.67687982378288
 20
9835.7254861888341
 30
0.1273
  0
VERTEX
  5
2BA
  8
1_FORMATIVE
 10
524.67609309253396
 20
9835.7537814714397
 30
0.1273
  0
VERTEX
  5
2BB
  8
1_FORMATIVE
 10
524.67530636128515
 20
9835.7742169611411
 30
0.1273
  0
VERTEX
  5
2BC
  8
1_FORMATIVE
 10
524.67687982378288
 20
9835.8048702097603
 30
0.1273
  0
VERTEX
  5
2BD
  8
1_FORMATIVE
 10
524.71936424160833
 20
9835.8009403133074
 30
0.1273
  0
VERTEX
  5
2BE
  8
1_FORMATIVE
 10
524.74926064932299
 20
9835.7907225543895
 30
0.1273
  0
VERTEX
  5
2BF
  8
1_FORMATIVE
 10
524.77364981424387
 20
9835.7907225543895
 30
0.1273
  0
VERTEX
  5
2C0
  8
1_FORMATIVE
 10
524.79017154262499
 20
9835.7852206993575
 30
0.1273
  0
VERTEX
  5
2C1
  8
1_FORMATIVE
 10
524.80511974648221
 20
9835.7828627614836
 30
0.1273
  0
VERTEX
  5
2C2
  8
1_FORMATIVE
 10
524.81839344832713
 20
9835.7804318486615
 30
0.1273
  0
SEQEND
  5
2C3
  8
1_FORMATIVE
  0
POLYLINE
  5
47
  8
1_FORMATIVE
 66
     1
 10
0.0
 20
0.0
 30
0.318
 70
     1
  0
VERTEX
  5
2C4
  8
1_FORMATIVE
 10
524.74907339438448
 20
9835.4395993365324
 30
0.318
  0
VERTEX
  5
2C5
  8
1_FORMATIVE
 10
524.76005494443905
 20
9835.3740368210929
 30
0.318
  0
VERTEX
  5
2C6
  8
1_FORMATIVE
 10
524.76141956712979
 20
9835.3317745333952
 30
0.318
  0
VERTEX
  5
2C7
  8
1_FORMATIVE
 10
524.76551343520157
 20
9835.3126883625555
 30
0.318
  0
VERTEX
  5
2C8
  8
1_FORMATIVE
 10
524.81736940757321
 20
9835.3099617506396
 30
0.318
  0
VERTEX
  5
2C9
  8
1_FORMATIVE
 10
524.86240220446632
 20
9835.3113250565984
 30
0.318
  0
VERTEX
  5
2CA
  8
1_FORMATIVE
 10
524.88015594505111
 20
9835.319122456347
 30
0.318
  0
VERTEX
  5
2CB
  8
1_FORMATIVE
 10
524.86786075725433
 20
9835.4435650872401
 30
0.318
  0
VERTEX
  5
2CC
  8
1_FORMATIVE
 10
524.86680347084064
 20
9835.4507539215301
 30
0.318
  0
VERTEX
  5
2CD
  8
1_FORMATIVE
 10
524.81967861637145
 20
9835.4504258297766
 30
0.318
  0
VERTEX
  5
2CE
  8
1_FORMATIVE
 10
524.7914365523867
 20
9835.4471450810688
 30
0.318
  0
VERTEX
  5
2CF
  8
1_FORMATIVE
 10
524.76241650274665
 20
9835.4375166096161
 30
0.318
  0
SEQEND
  5
2D0
  8
1_FORMATIVE
  0
POLYLINE
  5
48
  8
1_FORMATIVE
 66
     1
 10
0.0
 20
0.0
 30
0.119
 70
     1
  0
VERTEX
  5
2D1
  8
1_FORMATIVE
 10
524.92410838205024
 20
9834.9271072925167
 30
0.119
  0
VERTEX
  5
2D2
  8
1_FORMATIVE
 10
524.92410838205024
 20
9834.9046342173588
 30
0.119
  0
VERTEX
  5
2D3
  8
1_FORMATIVE
 10
524.90000658120005
 20
9834.8966080989921
 30
0.119
  0
VERTEX
  5
2D4
  8
1_FORMATIVE
 10
524.86626403519938
 20
9834.9078446365693
 30
0.119
  0
VERTEX
  5
2D5
  8
1_FORMATIVE
 10
524.84376894250715
 20
9834.9303177398651
 30
0.119
  0
VERTEX
  5
2D6
  8
1_FORMATIVE
 10
524.82770105459849
 20
9834.9592117378597
 30
0.119
  0
VERTEX
  5
2D7
  8
1_FORMATIVE
 10
524.82930788680721
 20
9834.9784743938144
 30
0.119
  0
VERTEX
  5
2D8
  8
1_FORMATIVE
 10
524.86144366262431
 20
9834.9913161550685
 30
0.119
  0
VERTEX
  5
2D9
  8
1_FORMATIVE
 10
524.89036583604968
 20
9834.9929213787418
 30
0.119
  0
VERTEX
  5
2DA
  8
1_FORMATIVE
 10
524.91286086671676
 20
9834.9720534991138
 30
0.119
  0
VERTEX
  5
2DB
  8
1_FORMATIVE
 10
524.92571521425884
 20
9834.9576065141882
 30
0.119
  0
SEQEND
  5
2DC
  8
1_FORMATIVE
  0
POLYLINE
  5
49
  8
1_FORMATIVE
 66
     1
 10
0.0
 20
0.0
 30
0.008
 70
     1
  0
VERTEX
  5
2DD
  8
1_FORMATIVE
 10
524.67234148108719
 20
9832.2523994190633
 30
0.008
  0
VERTEX
  5
2DE
  8
1_FORMATIVE
 10
524.67934515072636
 20
9832.2472165655836
 30
0.008
  0
VERTEX
  5
2DF
  8
1_FORMATIVE
 10
524.68898564777464
 20
9832.2428162860742
 30
0.008
  0
VERTEX
  5
2E0
  8
1_FORMATIVE
 10
524.71168046252842
 20
9832.2428162860742
 30
0.008
  0
VERTEX
  5
2E1
  8
1_FORMATIVE
 10
524.73306567119607
 20
9832.2278983833785
 30
0.008
  0
VERTEX
  5
2E2
  8
1_FORMATIVE
 10
524.74412152778154
 20
9832.2078163986207
 30
0.008
  0
VERTEX
  5
2E3
  8
1_FORMATIVE
 10
524.74010122193465
 20
9832.1927549100437
 30
0.008
  0
VERTEX
  5
2E4
  8
1_FORMATIVE
 10
524.72753771189059
 20
9832.175685245511
 30
0.008
  0
VERTEX
  5
2E5
  8
1_FORMATIVE
 10
524.70592852919719
 20
9832.1686565452128
 30
0.008
  0
VERTEX
  5
2E6
  8
1_FORMATIVE
 10
524.68532440745935
 20
9832.1666483411136
 30
0.008
  0
VERTEX
  5
2E7
  8
1_FORMATIVE
 10
524.66439967599058
 20
9832.1804665257205
 30
0.008
  0
VERTEX
  5
2E8
  8
1_FORMATIVE
 10
524.65305223760095
 20
9832.2003051011834
 30
0.008
  0
VERTEX
  5
2E9
  8
1_FORMATIVE
 10
524.62846626581666
 20
9832.2220330326218
 30
0.008
  0
VERTEX
  5
2EA
  8
1_FORMATIVE
 10
524.61239074877335
 20
9832.2362034557318
 30
0.008
  0
VERTEX
  5
2EB
  8
1_FORMATIVE
 10
524.60067214988305
 20
9832.2554386159154
 30
0.008
  0
VERTEX
  5
2EC
  8
1_FORMATIVE
 10
524.59804809972388
 20
9832.2769348455677
 30
0.008
  0
VERTEX
  5
2ED
  8
1_FORMATIVE
 10
524.6017217451365
 20
9832.2926637748787
 30
0.008
  0
VERTEX
  5
2EE
  8
1_FORMATIVE
 10
524.61956529862346
 20
9832.3026254319793
 30
0.008
  0
VERTEX
  5
2EF
  8
1_FORMATIVE
 10
524.62901190400635
 20
9832.3047226244325
 30
0.008
  0
VERTEX
  5
2F0
  8
1_FORMATIVE
 10
524.65201783859141
 20
9832.2969732367364
 30
0.008
  0
VERTEX
  5
2F1
  8
1_FORMATIVE
 10
524.66587538632416
 20
9832.2965065967164
 30
0.008
  0
VERTEX
  5
2F2
  8
1_FORMATIVE
 10
524.66926048918174
 20
9832.2866147906789
 30
0.008
  0
VERTEX
  5
2F3
  8
1_FORMATIVE
 10
524.66867806987955
 20
9832.2720850370188
 30
0.008
  0
VERTEX
  5
2F4
  8
1_FORMATIVE
 10
524.66378140595828
 20
9832.2622468716436
 30
0.008
  0
VERTEX
  5
2F5
  8
1_FORMATIVE
 10
524.66767232664392
 20
9832.2575823006955
 30
0.008
  0
SEQEND
  5
2F6
  8
1_FORMATIVE
  0
POLYLINE
  5
4A
  8
1_FORMATIVE
 66
     1
 10
0.0
 20
0.0
 30
0.044
 70
     1
  0
VERTEX
  5
2F7
  8
1_FORMATIVE
 10
523.48163167507221
 20
9831.9863306259376
 30
0.044
  0
VERTEX
  5
2F8
  8
1_FORMATIVE
 10
523.46908547013845
 20
9831.9961787820957
 30
0.044
  0
VERTEX
  5
2F9
  8
1_FORMATIVE
 10
523.46684504760265
 20
9832.014532107738
 30
0.044
  0
VERTEX
  5
2FA
  8
1_FORMATIVE
 10
523.46684504760265
 20
9832.0355713222925
 30
0.044
  0
VERTEX
  5
2FB
  8
1_FORMATIVE
 10
523.47894324245965
 20
9832.0458670937696
 30
0.044
  0
VERTEX
  5
2FC
  8
1_FORMATIVE
 10
523.49328173580182
 20
9832.0463147372266
 30
0.044
  0
VERTEX
  5
2FD
  8
1_FORMATIVE
 10
523.50179529181707
 20
9832.0400477287658
 30
0.044
  0
VERTEX
  5
2FE
  8
1_FORMATIVE
 10
523.5040356523275
 20
9832.0266184530556
 30
0.044
  0
VERTEX
  5
2FF
  8
1_FORMATIVE
 10
523.50179529181707
 20
9832.0078174839546
 30
0.044
  0
VERTEX
  5
300
  8
1_FORMATIVE
 10
523.49776258087331
 20
9831.993492921325
 30
0.044
  0
SEQEND
  5
301
  8
1_FORMATIVE
  0
POLYLINE
  5
4B
  8
1_FORMATIVE
 66
     1
 10
0.0
 20
0.0
 30
0.033
 70
     1
  0
VERTEX
  5
302
  8
1_FORMATIVE
 10
524.83005157236994
 20
9832.9943316456247
 30
0.033
  0
VERTEX
  5
303
  8
1_FORMATIVE
 10
524.80121883969355
 20
9832.9922741911705
 30
0.033
  0
VERTEX
  5
304
  8
1_FORMATIVE
 10
524.78474301017161
 20
9832.9716994496266
 30
0.033
  0
VERTEX
  5
305
  8
1_FORMATIVE
 10
524.78062402177841
 20
9832.9428948339755
 30
0.033
  0
VERTEX
  5
306
  8
1_FORMATIVE
 10
524.79915934549695
 20
9832.9326074772744
 30
0.033
  0
VERTEX
  5
307
  8
1_FORMATIVE
 10
524.82387315180551
 20
9832.9326074772744
 30
0.033
  0
VERTEX
  5
308
  8
1_FORMATIVE
 10
524.85682487287488
 20
9832.9367224143261
 30
0.033
  0
VERTEX
  5
309
  8
1_FORMATIVE
 10
524.86506278763591
 20
9832.9511247362261
 30
0.033
  0
VERTEX
  5
30A
  8
1_FORMATIVE
 10
524.86506278763591
 20
9832.9634695755212
 30
0.033
  0
VERTEX
  5
30B
  8
1_FORMATIVE
 10
524.85270588448168
 20
9832.9819868063223
 30
0.033
  0
VERTEX
  5
30C
  8
1_FORMATIVE
 10
524.84858689608848
 20
9832.9922741911705
 30
0.033
  0
SEQEND
  5
30D
  8
1_FORMATIVE
  0
POLYLINE
  5
4C
  8
1_FORMATIVE
 66
     1
 10
0.0
 20
0.0
 30
0.036
 70
     1
  0
VERTEX
  5
30E
  8
1_FORMATIVE
 10
524.61234646257731
 20
9832.7824232928942
 30
0.036
  0
VERTEX
  5
30F
  8
1_FORMATIVE
 10
524.59354585586016
 20
9832.7737545559648
 30
0.036
  0
VERTEX
  5
310
  8
1_FORMATIVE
 10
524.57474524914335
 20
9832.7578618903517
 30
0.036
  0
VERTEX
  5
311
  8
1_FORMATIVE
 10
524.57185287673678
 20
9832.7188525741603
 30
0.036
  0
VERTEX
  5
312
  8
1_FORMATIVE
 10
524.60366922130765
 20
9832.7015151284413
 30
0.036
  0
VERTEX
  5
313
  8
1_FORMATIVE
 10
524.64416280714795
 20
9832.7130734255898
 30
0.036
  0
VERTEX
  5
314
  8
1_FORMATIVE
 10
524.65862485525565
 20
9832.7275213110934
 30
0.036
  0
VERTEX
  5
315
  8
1_FORMATIVE
 10
524.64850142778255
 20
9832.7549723019929
 30
0.036
  0
VERTEX
  5
316
  8
1_FORMATIVE
 10
524.62825463486263
 20
9832.77664414432
 30
0.036
  0
SEQEND
  5
317
  8
1_FORMATIVE
  0
POLYLINE
  5
4D
  8
1_FORMATIVE
 66
     1
 10
0.0
 20
0.0
 30
0.02
 70
     1
  0
VERTEX
  5
318
  8
1_FORMATIVE
 10
522.19781108809946
 20
9829.2953065031197
 30
0.02
  0
VERTEX
  5
319
  8
1_FORMATIVE
 10
522.20610501187321
 20
9829.2953065031197
 30
0.02
  0
VERTEX
  5
31A
  8
1_FORMATIVE
 10
522.21457167662197
 20
9829.2908183328436
 30
0.02
  0
VERTEX
  5
31B
  8
1_FORMATIVE
 10
522.22822212126141
 20
9829.2825325103477
 30
0.02
  0
VERTEX
  5
31C
  8
1_FORMATIVE
 10
522.25403650777184
 20
9829.2746253245368
 30
0.02
  0
VERTEX
  5
31D
  8
1_FORMATIVE
 10
522.27493915816808
 20
9829.2722613077567
 30
0.02
  0
VERTEX
  5
31E
  8
1_FORMATIVE
 10
522.30729338774245
 20
9829.2683494228622
 30
0.02
  0
VERTEX
  5
31F
  8
1_FORMATIVE
 10
522.31888564072051
 20
9829.2685958153234
 30
0.02
  0
VERTEX
  5
320
  8
1_FORMATIVE
 10
522.32657580842545
 20
9829.2666506516689
 30
0.02
  0
VERTEX
  5
321
  8
1_FORMATIVE
 10
522.33553359096277
 20
9829.2612086850568
 30
0.02
  0
VERTEX
  5
322
  8
1_FORMATIVE
 10
522.33831772889801
 20
9829.2546783138732
 30
0.02
  0
VERTEX
  5
323
  8
1_FORMATIVE
 10
522.33492828425676
 20
9829.2479060812493
 30
0.02
  0
VERTEX
  5
324
  8
1_FORMATIVE
 10
522.33015356243845
 20
9829.2423170108832
 30
0.02
  0
VERTEX
  5
325
  8
1_FORMATIVE
 10
522.29584174653883
 20
9829.2454690332434
 30
0.02
  0
VERTEX
  5
326
  8
1_FORMATIVE
 10
522.24812070310986
 20
9829.2498030639945
 30
0.02
  0
VERTEX
  5
327
  8
1_FORMATIVE
 10
522.21656957951234
 20
9829.2576831480437
 30
0.02
  0
VERTEX
  5
328
  8
1_FORMATIVE
 10
522.18580723400464
 20
9829.2730493133477
 30
0.02
  0
VERTEX
  5
329
  8
1_FORMATIVE
 10
522.18554300543951
 20
9829.2804610687908
 30
0.02
  0
VERTEX
  5
32A
  8
1_FORMATIVE
 10
522.18801341847256
 20
9829.2909049571772
 30
0.02
  0
VERTEX
  5
32B
  8
1_FORMATIVE
 10
522.19321506170274
 20
9829.2937767591193
 30
0.02
  0
SEQEND
  5
32C
  8
1_FORMATIVE
  0
POLYLINE
  5
4E
  8
1_FORMATIVE
 66
     1
 10
0.0
 20
0.0
 30
0.106
 70
     1
  0
VERTEX
  5
32D
  8
1_FORMATIVE
 10
524.28288160139164
 20
9829.0784326483445
 30
0.106
  0
VERTEX
  5
32E
  8
1_FORMATIVE
 10
524.29219658869567
 20
9829.0800748801375
 30
0.106
  0
VERTEX
  5
32F
  8
1_FORMATIVE
 10
524.29548424951668
 20
9829.0833593155821
 30
0.106
  0
VERTEX
  5
330
  8
1_FORMATIVE
 10
524.29603218264913
 20
9829.0904755970714
 30
0.106
  0
VERTEX
  5
331
  8
1_FORMATIVE
 10
524.2905527892982
 20
9829.0964970573623
 30
0.106
  0
VERTEX
  5
332
  8
1_FORMATIVE
 10
524.28452546281483
 20
9829.0986866716139
 30
0.106
  0
VERTEX
  5
333
  8
1_FORMATIVE
 10
524.27356661408726
 20
9829.1085399779477
 30
0.106
  0
VERTEX
  5
334
  8
1_FORMATIVE
 10
524.25685645228396
 20
9829.1149128043035
 30
0.106
  0
VERTEX
  5
335
  8
1_FORMATIVE
 10
524.2415860880584
 20
9829.125264749322
 30
0.106
  0
VERTEX
  5
336
  8
1_FORMATIVE
 10
524.22577033374569
 20
9829.1432444195962
 30
0.106
  0
VERTEX
  5
337
  8
1_FORMATIVE
 10
524.21566935949841
 20
9829.156334346324
 30
0.106
  0
VERTEX
  5
338
  8
1_FORMATIVE
 10
524.19440379799073
 20
9829.1647301518879
 30
0.106
  0
VERTEX
  5
339
  8
1_FORMATIVE
 10
524.17029957814646
 20
9829.1647301518879
 30
0.106
  0
VERTEX
  5
33A
  8
1_FORMATIVE
 10
524.1500831156884
 20
9829.1577389662907
 30
0.106
  0
VERTEX
  5
33B
  8
1_FORMATIVE
 10
524.139601863194
 20
9829.147058282224
 30
0.106
  0
VERTEX
  5
33C
  8
1_FORMATIVE
 10
524.13414814839382
 20
9829.1312579539826
 30
0.106
  0
VERTEX
  5
33D
  8
1_FORMATIVE
 10
524.1303305418312
 20
9829.1078299286237
 30
0.106
  0
VERTEX
  5
33E
  8
1_FORMATIVE
 10
524.13297685913915
 20
9829.0862735854007
 30
0.106
  0
VERTEX
  5
33F
  8
1_FORMATIVE
 10
524.14697290977972
 20
9829.0730680470006
 30
0.106
  0
VERTEX
  5
340
  8
1_FORMATIVE
 10
524.1648566557808
 20
9829.0590856757954
 30
0.106
  0
VERTEX
  5
341
  8
1_FORMATIVE
 10
524.1862479429459
 20
9829.0527599890593
 30
0.106
  0
VERTEX
  5
342
  8
1_FORMATIVE
 10
524.21426832784823
 20
9829.0569589331353
 30
0.106
  0
VERTEX
  5
343
  8
1_FORMATIVE
 10
524.24789283935104
 20
9829.0667565162184
 30
0.106
  0
VERTEX
  5
344
  8
1_FORMATIVE
 10
524.25769993685151
 20
9829.0737547938716
 30
0.106
  0
SEQEND
  5
345
  8
1_FORMATIVE
  0
POLYLINE
  5
4F
  8
1_FORMATIVE
 66
     1
 10
0.0
 20
0.0
 30
0.08
 70
     1
  0
VERTEX
  5
346
  8
1_FORMATIVE
 10
523.27605614503238
 20
9829.3042524517696
 30
0.08
  0
VERTEX
  5
347
  8
1_FORMATIVE
 10
523.28560378992995
 20
9829.3137908091576
 30
0.08
  0
VERTEX
  5
348
  8
1_FORMATIVE
 10
523.2951514968529
 20
9829.3198606755086
 30
0.08
  0
VERTEX
  5
349
  8
1_FORMATIVE
 10
523.31097525245355
 20
9829.3274850798862
 30
0.08
  0
VERTEX
  5
34A
  8
1_FORMATIVE
 10
523.32923884252318
 20
9829.3268769084316
 30
0.08
  0
VERTEX
  5
34B
  8
1_FORMATIVE
 10
523.33837066857086
 20
9829.3134966579291
 30
0.08
  0
VERTEX
  5
34C
  8
1_FORMATIVE
 10
523.33837066857086
 20
9829.2891689834705
 30
0.08
  0
VERTEX
  5
34D
  8
1_FORMATIVE
 10
523.32802128225705
 20
9829.2666658796716
 30
0.08
  0
VERTEX
  5
34E
  8
1_FORMATIVE
 10
523.30732257165482
 20
9829.2478119171974
 30
0.08
  0
VERTEX
  5
34F
  8
1_FORMATIVE
 10
523.28723264118571
 20
9829.2435545481349
 30
0.08
  0
VERTEX
  5
350
  8
1_FORMATIVE
 10
523.27618732893268
 20
9829.2456127624482
 30
0.08
  0
VERTEX
  5
351
  8
1_FORMATIVE
 10
523.26233858881835
 20
9829.2579107435577
 30
0.08
  0
VERTEX
  5
352
  8
1_FORMATIVE
 10
523.25861966480215
 20
9829.2794379024326
 30
0.08
  0
VERTEX
  5
353
  8
1_FORMATIVE
 10
523.26650843810921
 20
9829.2947140943797
 30
0.08
  0
SEQEND
  5
354
  8
1_FORMATIVE
  0
POLYLINE
  5
50
  8
1_FORMATIVE
 66
     1
 10
0.0
 20
0.0
 30
0.007
 70
     1
  0
VERTEX
  5
355
  8
1_FORMATIVE
 10
525.88986601430452
 20
9829.1809100173978
 30
0.007
  0
VERTEX
  5
356
  8
1_FORMATIVE
 10
525.88133147247356
 20
9829.1626399952038
 30
0.007
  0
VERTEX
  5
357
  8
1_FORMATIVE
 10
525.86426226273124
 20
9829.0871238997188
 30
0.007
  0
VERTEX
  5
358
  8
1_FORMATIVE
 10
525.87198408711618
 20
9829.0696658891447
 30
0.007
  0
VERTEX
  5
359
  8
1_FORMATIVE
 10
525.8947429493852
 20
9829.0542378654009
 30
0.007
  0
VERTEX
  5
35A
  8
1_FORMATIVE
 10
525.92847488406574
 20
9829.0562678522274
 30
0.007
  0
VERTEX
  5
35B
  8
1_FORMATIVE
 10
525.94920170055775
 20
9829.074131882684
 30
0.007
  0
VERTEX
  5
35C
  8
1_FORMATIVE
 10
525.95692346190197
 20
9829.0976799100426
 30
0.007
  0
VERTEX
  5
35D
  8
1_FORMATIVE
 10
525.95285943338854
 20
9829.1524899766191
 30
0.007
  0
VERTEX
  5
35E
  8
1_FORMATIVE
 10
525.93253897561954
 20
9829.180098005776
 30
0.007
  0
VERTEX
  5
35F
  8
1_FORMATIVE
 10
525.92197232497142
 20
9829.1870000060317
 30
0.007
  0
VERTEX
  5
360
  8
1_FORMATIVE
 10
525.90571595875633
 20
9829.1930900228126
 30
0.007
  0
VERTEX
  5
361
  8
1_FORMATIVE
 10
525.89596215163522
 20
9829.1890300210052
 30
0.007
  0
SEQEND
  5
362
  8
1_FORMATIVE
  0
POLYLINE
  5
51
  8
1_FORMATIVE
 66
     1
 10
0.0
 20
0.0
 30
0.159
 70
     1
  0
VERTEX
  5
363
  8
1_FORMATIVE
 10
526.60736564342278
 20
9832.2165788047823
 30
0.159
  0
VERTEX
  5
364
  8
1_FORMATIVE
 10
526.59491337757925
 20
9832.223094853498
 30
0.159
  0
VERTEX
  5
365
  8
1_FORMATIVE
 10
526.59016964524835
 20
9832.2284261558507
 30
0.159
  0
VERTEX
  5
366
  8
1_FORMATIVE
 10
526.58305410980313
 20
9832.2414582532856
 30
0.159
  0
VERTEX
  5
367
  8
1_FORMATIVE
 10
526.5812752417047
 20
9832.2544903507205
 30
0.159
  0
VERTEX
  5
368
  8
1_FORMATIVE
 10
526.58779784213425
 20
9832.2627834908362
 30
0.159
  0
VERTEX
  5
369
  8
1_FORMATIVE
 10
526.5889837121656
 20
9832.2669300749712
 30
0.159
  0
VERTEX
  5
36A
  8
1_FORMATIVE
 10
526.5889837121656
 20
9832.2746308419046
 30
0.159
  0
VERTEX
  5
36B
  8
1_FORMATIVE
 10
526.58839077714993
 20
9832.2858858479394
 30
0.159
  0
VERTEX
  5
36C
  8
1_FORMATIVE
 10
526.58720484406706
 20
9832.2959561076077
 30
0.159
  0
VERTEX
  5
36D
  8
1_FORMATIVE
 10
526.59728524374498
 20
9832.3036568745429
 30
0.159
  0
VERTEX
  5
36E
  8
1_FORMATIVE
 10
526.61033044460407
 20
9832.3036568745429
 30
0.159
  0
VERTEX
  5
36F
  8
1_FORMATIVE
 10
526.63227011205788
 20
9832.3042492477289
 30
0.159
  0
VERTEX
  5
370
  8
1_FORMATIVE
 10
526.6399786455703
 20
9832.3036568745429
 30
0.159
  0
VERTEX
  5
371
  8
1_FORMATIVE
 10
526.64235044868428
 20
9832.3036568745429
 30
0.159
  0
VERTEX
  5
372
  8
1_FORMATIVE
 10
526.65124491527945
 20
9832.294178988057
 30
0.159
  0
VERTEX
  5
373
  8
1_FORMATIVE
 10
526.65895344879175
 20
9832.2787774260396
 30
0.159
  0
VERTEX
  5
374
  8
1_FORMATIVE
 10
526.66429011613855
 20
9832.2734461236887
 30
0.159
  0
VERTEX
  5
375
  8
1_FORMATIVE
 10
526.67496345083225
 20
9832.2479743019994
 30
0.159
  0
VERTEX
  5
376
  8
1_FORMATIVE
 10
526.6755564488991
 20
9832.2438277178662
 30
0.159
  0
VERTEX
  5
377
  8
1_FORMATIVE
 10
526.66132531495725
 20
9832.2266490363018
 30
0.159
  0
VERTEX
  5
378
  8
1_FORMATIVE
 10
526.65895344879175
 20
9832.2225024803156
 30
0.159
  0
VERTEX
  5
379
  8
1_FORMATIVE
 10
526.64709418101563
 20
9832.2177635230037
 30
0.159
  0
VERTEX
  5
37A
  8
1_FORMATIVE
 10
526.63404898015654
 20
9832.2159864315963
 30
0.159
  0
VERTEX
  5
37B
  8
1_FORMATIVE
 10
526.6221897123803
 20
9832.2136169670175
 30
0.159
  0
VERTEX
  5
37C
  8
1_FORMATIVE
 10
526.61744598004918
 20
9832.2130245938279
 30
0.159
  0
SEQEND
  5
37D
  8
1_FORMATIVE
  0
POLYLINE
  5
52
  8
1_FORMATIVE
 66
     1
 10
0.0
 20
0.0
 30
0.019
 70
     1
  0
VERTEX
  5
37E
  8
1_FORMATIVE
 10
526.67037211364482
 20
9832.3505889031021
 30
0.019
  0
VERTEX
  5
37F
  8
1_FORMATIVE
 10
526.66202764408752
 20
9832.3553643964351
 30
0.019
  0
VERTEX
  5
380
  8
1_FORMATIVE
 10
526.65938100008282
 20
9832.3672622167396
 30
0.019
  0
VERTEX
  5
381
  8
1_FORMATIVE
 10
526.65408777512516
 20
9832.3864309006549
 30
0.019
  0
VERTEX
  5
382
  8
1_FORMATIVE
 10
526.64747122816505
 20
9832.3963457556001
 30
0.019
  0
VERTEX
  5
383
  8
1_FORMATIVE
 10
526.64283966420828
 20
9832.4036166192036
 30
0.019
  0
VERTEX
  5
384
  8
1_FORMATIVE
 10
526.64217800320716
 20
9832.4115485087877
 30
0.019
  0
VERTEX
  5
385
  8
1_FORMATIVE
 10
526.64482458416057
 20
9832.4234463009507
 30
0.019
  0
VERTEX
  5
386
  8
1_FORMATIVE
 10
526.65144113112081
 20
9832.4293952251755
 30
0.019
  0
VERTEX
  5
387
  8
1_FORMATIVE
 10
526.66064593652334
 20
9832.4303985299866
 30
0.019
  0
VERTEX
  5
388
  8
1_FORMATIVE
 10
526.66825774924519
 20
9832.4309834721207
 30
0.019
  0
VERTEX
  5
389
  8
1_FORMATIVE
 10
526.67879716284415
 20
9832.4303985299866
 30
0.019
  0
VERTEX
  5
38A
  8
1_FORMATIVE
 10
526.68758002852678
 20
9832.4292286738764
 30
0.019
  0
VERTEX
  5
38B
  8
1_FORMATIVE
 10
526.69987605309325
 20
9832.4233793088752
 30
0.019
  0
VERTEX
  5
38C
  8
1_FORMATIVE
 10
526.70924447678249
 20
9832.4122655210067
 30
0.019
  0
VERTEX
  5
38D
  8
1_FORMATIVE
 10
526.7174417844592
 20
9832.4023216173955
 30
0.019
  0
VERTEX
  5
38E
  8
1_FORMATIVE
 10
526.72329704926494
 20
9832.3929626277677
 30
0.019
  0
VERTEX
  5
38F
  8
1_FORMATIVE
 10
526.72620806763371
 20
9832.3765160738531
 30
0.019
  0
VERTEX
  5
390
  8
1_FORMATIVE
 10
526.72356148668041
 20
9832.3666012189078
 30
0.019
  0
VERTEX
  5
391
  8
1_FORMATIVE
 10
526.71495995671683
 20
9832.3553643964351
 30
0.019
  0
VERTEX
  5
392
  8
1_FORMATIVE
 10
526.69946413854018
 20
9832.3552389411125
 30
0.019
  0
VERTEX
  5
393
  8
1_FORMATIVE
 10
526.68026342228575
 20
9832.3494263936027
 30
0.019
  0
SEQEND
  5
394
  8
1_FORMATIVE
  0
POLYLINE
  5
53
  8
1_FORMATIVE
 66
     1
 10
0.0
 20
0.0
 30
0.318
 70
     1
  0
VERTEX
  5
395
  8
1_FORMATIVE
 10
526.28024432842085
 20
9832.2043994488795
 30
0.318
  0
VERTEX
  5
396
  8
1_FORMATIVE
 10
526.29042025091314
 20
9832.2385931881017
 30
0.318
  0
VERTEX
  5
397
  8
1_FORMATIVE
 10
526.29689587807763
 20
9832.2496830502278
 30
0.318
  0
VERTEX
  5
398
  8
1_FORMATIVE
 10
526.33389927271912
 20
9832.250607203061
 30
0.318
  0
VERTEX
  5
399
  8
1_FORMATIVE
 10
526.35332602810922
 20
9832.2422897994238
 30
0.318
  0
VERTEX
  5
39A
  8
1_FORMATIVE
 10
526.35887656567854
 20
9832.2293516316349
 30
0.318
  0
VERTEX
  5
39B
  8
1_FORMATIVE
 10
526.35425111770405
 20
9832.1979303509088
 30
0.318
  0
VERTEX
  5
39C
  8
1_FORMATIVE
 10
526.32372335022637
 20
9832.1896129472734
 30
0.318
  0
VERTEX
  5
39D
  8
1_FORMATIVE
 10
526.3061467109751
 20
9832.1877646416106
 30
0.318
  0
VERTEX
  5
39E
  8
1_FORMATIVE
 10
526.28579486599017
 20
9832.1923854339202
 30
0.318
  0
SEQEND
  5
39F
  8
1_FORMATIVE
  0
POLYLINE
  5
54
  8
1_FORMATIVE
 66
     1
 10
0.0
 20
0.0
 30
0.036
 70
     1
  0
VERTEX
  5
3A0
  8
1_FORMATIVE
 10
526.97814473084406
 20
9832.665674943577
 30
0.036
  0
VERTEX
  5
3A1
  8
1_FORMATIVE
 10
526.95868783690241
 20
9832.6741476393454
 30
0.036
  0
VERTEX
  5
3A2
  8
1_FORMATIVE
 10
526.93095097494802
 20
9832.6649277004835
 30
0.036
  0
VERTEX
  5
3A3
  8
1_FORMATIVE
 10
526.9124432562221
 20
9832.6567103064444
 30
0.036
  0
VERTEX
  5
3A4
  8
1_FORMATIVE
 10
526.90331051852695
 20
9832.6447424259404
 30
0.036
  0
VERTEX
  5
3A5
  8
1_FORMATIVE
 10
526.89981822964478
 20
9832.6287938089081
 30
0.036
  0
VERTEX
  5
3A6
  8
1_FORMATIVE
 10
526.90131494289437
 20
9832.6178291487704
 30
0.036
  0
VERTEX
  5
3A7
  8
1_FORMATIVE
 10
526.91578289775509
 20
9832.6098548683985
 30
0.036
  0
VERTEX
  5
3A8
  8
1_FORMATIVE
 10
526.93873201752751
 20
9832.6083596785156
 30
0.036
  0
VERTEX
  5
3A9
  8
1_FORMATIVE
 10
526.95619333583659
 20
9832.6163339870327
 30
0.036
  0
VERTEX
  5
3AA
  8
1_FORMATIVE
 10
526.97066129069685
 20
9832.6317841886776
 30
0.036
  0
VERTEX
  5
3AB
  8
1_FORMATIVE
 10
526.98562817099116
 20
9832.6442440105475
 30
0.036
  0
SEQEND
  5
3AC
  8
1_FORMATIVE
  0
POLYLINE
  5
55
  8
1_FORMATIVE
 66
     1
 10
0.0
 20
0.0
 30
0.013
 70
     1
  0
VERTEX
  5
3AD
  8
1_FORMATIVE
 10
526.96400413865922
 20
9833.5941552099466
 30
0.013
  0
VERTEX
  5
3AE
  8
1_FORMATIVE
 10
526.96735040058525
 20
9833.5830122889765
 30
0.013
  0
VERTEX
  5
3AF
  8
1_FORMATIVE
 10
526.95893102600894
 20
9833.5723724840918
 30
0.013
  0
VERTEX
  5
3B0
  8
1_FORMATIVE
 10
526.95893102600894
 20
9833.5552886047535
 30
0.013
  0
VERTEX
  5
3B1
  8
1_FORMATIVE
 10
526.9368002498743
 20
9833.5361948506306
 30
0.013
  0
VERTEX
  5
3B2
  8
1_FORMATIVE
 10
526.91253663529039
 20
9833.5380765397385
 30
0.013
  0
VERTEX
  5
3B3
  8
1_FORMATIVE
 10
526.89097344752338
 20
9833.5393436750965
 30
0.013
  0
VERTEX
  5
3B4
  8
1_FORMATIVE
 10
526.86537812510585
 20
9833.5351899132402
 30
0.013
  0
VERTEX
  5
3B5
  8
1_FORMATIVE
 10
526.86236029772886
 20
9833.5392096628002
 30
0.013
  0
VERTEX
  5
3B6
  8
1_FORMATIVE
 10
526.85632464297396
 20
9833.5452392589941
 30
0.013
  0
VERTEX
  5
3B7
  8
1_FORMATIVE
 10
526.84156192299247
 20
9833.5569109106891
 30
0.013
  0
VERTEX
  5
3B8
  8
1_FORMATIVE
 10
526.83222225072484
 20
9833.5788646352157
 30
0.013
  0
VERTEX
  5
3B9
  8
1_FORMATIVE
 10
526.83222225072484
 20
9833.5953299075027
 30
0.013
  0
VERTEX
  5
3BA
  8
1_FORMATIVE
 10
526.83771616817035
 20
9833.6134417210924
 30
0.013
  0
VERTEX
  5
3BB
  8
1_FORMATIVE
 10
526.85364861703431
 20
9833.622772056131
 30
0.013
  0
VERTEX
  5
3BC
  8
1_FORMATIVE
 10
526.87177865809713
 20
9833.6238697409481
 30
0.013
  0
VERTEX
  5
3BD
  8
1_FORMATIVE
 10
526.89210629135857
 20
9833.6244185692849
 30
0.013
  0
VERTEX
  5
3BE
  8
1_FORMATIVE
 10
526.90881975745378
 20
9833.6256378250127
 30
0.013
  0
VERTEX
  5
3BF
  8
1_FORMATIVE
 10
526.92279578558146
 20
9833.6238925689213
 30
0.013
  0
VERTEX
  5
3C0
  8
1_FORMATIVE
 10
526.93502478654943
 20
9833.6238925689213
 30
0.013
  0
VERTEX
  5
3C1
  8
1_FORMATIVE
 10
526.94950377539828
 20
9833.6153267316604
 30
0.013
  0
VERTEX
  5
3C2
  8
1_FORMATIVE
 10
526.95842711951752
 20
9833.605298130924
 30
0.013
  0
SEQEND
  5
3C3
  8
1_FORMATIVE
  0
POLYLINE
  5
56
  8
1_FORMATIVE
 66
     1
 10
0.0
 20
0.0
 30
0.7410000000000001
 70
     1
  0
VERTEX
  5
3C4
  8
1_FORMATIVE
 10
526.89619220882173
 20
9835.2032532356116
 30
0.7410000000000001
  0
VERTEX
  5
3C5
  8
1_FORMATIVE
 10
526.88139001868706
 20
9835.2032532356116
 30
0.7410000000000001
  0
VERTEX
  5
3C6
  8
1_FORMATIVE
 10
526.86793353378857
 20
9835.1992203409663
 30
0.7410000000000001
  0
VERTEX
  5
3C7
  8
1_FORMATIVE
 10
526.84371172225815
 20
9835.192498812361
 30
0.7410000000000001
  0
VERTEX
  5
3C8
  8
1_FORMATIVE
 10
526.83563780609848
 20
9835.184433023067
 30
0.7410000000000001
  0
VERTEX
  5
3C9
  8
1_FORMATIVE
 10
526.83563780609848
 20
9835.1669570993636
 30
0.7410000000000001
  0
VERTEX
  5
3CA
  8
1_FORMATIVE
 10
526.83967479570401
 20
9835.1521697814733
 30
0.7410000000000001
  0
VERTEX
  5
3CB
  8
1_FORMATIVE
 10
526.85043999623315
 20
9835.1454482810113
 30
0.7410000000000001
  0
VERTEX
  5
3CC
  8
1_FORMATIVE
 10
526.86389654418315
 20
9835.1454482810113
 30
0.7410000000000001
  0
VERTEX
  5
3CD
  8
1_FORMATIVE
 10
526.87869873431771
 20
9835.1427596752001
 30
0.7410000000000001
  0
VERTEX
  5
3CE
  8
1_FORMATIVE
 10
526.89888355624237
 20
9835.1441039640304
 30
0.7410000000000001
  0
VERTEX
  5
3CF
  8
1_FORMATIVE
 10
526.91234004114119
 20
9835.1441039640304
 30
0.7410000000000001
  0
VERTEX
  5
3D0
  8
1_FORMATIVE
 10
526.92041402035215
 20
9835.1454482810113
 30
0.7410000000000001
  0
VERTEX
  5
3D1
  8
1_FORMATIVE
 10
526.92983357869662
 20
9835.1494811756547
 30
0.7410000000000001
  0
VERTEX
  5
3D2
  8
1_FORMATIVE
 10
526.93521614743543
 20
9835.1562026761112
 30
0.7410000000000001
  0
VERTEX
  5
3D3
  8
1_FORMATIVE
 10
526.93521614743543
 20
9835.1669570993636
 30
0.7410000000000001
  0
VERTEX
  5
3D4
  8
1_FORMATIVE
 10
526.93387050525075
 20
9835.1763672056331
 30
0.7410000000000001
  0
VERTEX
  5
3D5
  8
1_FORMATIVE
 10
526.93117922088129
 20
9835.184433023067
 30
0.7410000000000001
  0
VERTEX
  5
3D6
  8
1_FORMATIVE
 10
526.92714223127575
 20
9835.1898102346968
 30
0.7410000000000001
  0
VERTEX
  5
3D7
  8
1_FORMATIVE
 10
526.92041402035215
 20
9835.1938431293383
 30
0.7410000000000001
  0
SEQEND
  5
3D8
  8
1_FORMATIVE
  0
POLYLINE
  5
57
  8
1_FORMATIVE
 66
     1
 10
0.0
 20
0.0
 30
0.4770000000000002
 70
     1
  0
VERTEX
  5
3D9
  8
1_FORMATIVE
 10
526.42794038032412
 20
9833.3320110906825
 30
0.4770000000000002
  0
VERTEX
  5
3DA
  8
1_FORMATIVE
 10
526.48266511709483
 20
9833.377001587638
 30
0.4770000000000002
  0
VERTEX
  5
3DB
  8
1_FORMATIVE
 10
526.49231102983174
 20
9833.3664204148972
 30
0.4770000000000002
  0
VERTEX
  5
3DC
  8
1_FORMATIVE
 10
526.5404566091006
 20
9833.3171103084842
 30
0.4770000000000002
  0
VERTEX
  5
3DD
  8
1_FORMATIVE
 10
526.54638658977115
 20
9833.2767193802974
 30
0.4770000000000002
  0
VERTEX
  5
3DE
  8
1_FORMATIVE
 10
526.53856052851836
 20
9833.2485295945062
 30
0.4770000000000002
  0
VERTEX
  5
3DF
  8
1_FORMATIVE
 10
526.51914297862743
 20
9833.2508117160614
 30
0.4770000000000002
  0
VERTEX
  5
3E0
  8
1_FORMATIVE
 10
526.50277125091895
 20
9833.2470081707488
 30
0.4770000000000002
  0
VERTEX
  5
3E1
  8
1_FORMATIVE
 10
526.46850491593625
 20
9833.2466278359225
 30
0.4770000000000002
  0
VERTEX
  5
3E2
  8
1_FORMATIVE
 10
526.44680288906852
 20
9833.2420635646613
 30
0.4770000000000002
  0
VERTEX
  5
3E3
  8
1_FORMATIVE
 10
526.45085526320645
 20
9833.2800187961875
 30
0.4770000000000002
  0
VERTEX
  5
3E4
  8
1_FORMATIVE
 10
526.4470387642167
 20
9833.3005117838966
 30
0.4770000000000002
  0
VERTEX
  5
3E5
  8
1_FORMATIVE
 10
526.44131401573202
 20
9833.3143326426198
 30
0.4770000000000002
  0
SEQEND
  5
3E6
  8
1_FORMATIVE
  0
POLYLINE
  5
58
  8
1_FORMATIVE
 66
     1
 10
0.0
 20
0.0
 30
0.318
 70
     1
  0
VERTEX
  5
3E7
  8
1_FORMATIVE
 10
526.44369691588577
 20
9833.4095404819163
 30
0.318
  0
VERTEX
  5
3E8
  8
1_FORMATIVE
 10
526.4194175384614
 20
9833.4346259451158
 30
0.318
  0
VERTEX
  5
3E9
  8
1_FORMATIVE
 10
526.39958000344279
 20
9833.4551269549902
 30
0.318
  0
VERTEX
  5
3EA
  8
1_FORMATIVE
 10
526.37742413286571
 20
9833.4658789012228
 30
0.318
  0
VERTEX
  5
3EB
  8
1_FORMATIVE
 10
526.35853671883308
 20
9833.4619606249507
 30
0.318
  0
VERTEX
  5
3EC
  8
1_FORMATIVE
 10
526.32843833113623
 20
9833.4353093205555
 30
0.318
  0
VERTEX
  5
3ED
  8
1_FORMATIVE
 10
526.31927652676313
 20
9833.4278488806467
 30
0.318
  0
VERTEX
  5
3EE
  8
1_FORMATIVE
 10
526.33582839221503
 20
9833.3966048192906
 30
0.318
  0
VERTEX
  5
3EF
  8
1_FORMATIVE
 10
526.34622373345007
 20
9833.3908904517612
 30
0.318
  0
VERTEX
  5
3F0
  8
1_FORMATIVE
 10
526.36391487397646
 20
9833.3739602601181
 30
0.318
  0
VERTEX
  5
3F1
  8
1_FORMATIVE
 10
526.37905836113782
 20
9833.359455547441
 30
0.318
  0
VERTEX
  5
3F2
  8
1_FORMATIVE
 10
526.38658291077365
 20
9833.3533052247749
 30
0.318
  0
VERTEX
  5
3F3
  8
1_FORMATIVE
 10
526.39975434046096
 20
9833.3436928193332
 30
0.318
  0
VERTEX
  5
3F4
  8
1_FORMATIVE
 10
526.41350975187027
 20
9833.3411812640006
 30
0.318
  0
VERTEX
  5
3F5
  8
1_FORMATIVE
 10
526.42702512674191
 20
9833.3332181302067
 30
0.318
  0
VERTEX
  5
3F6
  8
1_FORMATIVE
 10
526.48208491845458
 20
9833.3778381159646
 30
0.318
  0
VERTEX
  5
3F7
  8
1_FORMATIVE
 10
526.45430436190543
 20
9833.3970407462748
 30
0.318
  0
SEQEND
  5
3F8
  8
1_FORMATIVE
  0
POLYLINE
  5
59
  8
1_FORMATIVE
 66
     1
 10
0.0
 20
0.0
 30
0.159
 70
     1
  0
VERTEX
  5
3F9
  8
1_FORMATIVE
 10
526.44528038781107
 20
9833.2406025463606
 30
0.159
  0
VERTEX
  5
3FA
  8
1_FORMATIVE
 10
526.45003458666849
 20
9833.2103420299663
 30
0.159
  0
VERTEX
  5
3FB
  8
1_FORMATIVE
 10
526.45583600561031
 20
9833.1753322259647
 30
0.159
  0
VERTEX
  5
3FC
  8
1_FORMATIVE
 10
526.46075956042807
 20
9833.1479722692948
 30
0.159
  0
VERTEX
  5
3FD
  8
1_FORMATIVE
 10
526.46302304130086
 20
9833.1367669725041
 30
0.159
  0
VERTEX
  5
3FE
  8
1_FORMATIVE
 10
526.4506474459148
 20
9833.1347682443065
 30
0.159
  0
VERTEX
  5
3FF
  8
1_FORMATIVE
 10
526.42125094598873
 20
9833.1382232056567
 30
0.159
  0
VERTEX
  5
400
  8
1_FORMATIVE
 10
526.38839601576205
 20
9833.1347682443065
 30
0.159
  0
VERTEX
  5
401
  8
1_FORMATIVE
 10
526.37040708364907
 20
9833.1343694725801
 30
0.159
  0
VERTEX
  5
402
  8
1_FORMATIVE
 10
526.36198108867961
 20
9833.1507368745188
 30
0.159
  0
VERTEX
  5
403
  8
1_FORMATIVE
 10
526.35683187303425
 20
9833.1792629436277
 30
0.159
  0
VERTEX
  5
404
  8
1_FORMATIVE
 10
526.35402318702745
 20
9833.2003067863243
 30
0.159
  0
VERTEX
  5
405
  8
1_FORMATIVE
 10
526.35308700039275
 20
9833.2129330750558
 30
0.159
  0
VERTEX
  5
406
  8
1_FORMATIVE
 10
526.35729996635177
 20
9833.2325739686366
 30
0.159
  0
VERTEX
  5
407
  8
1_FORMATIVE
 10
526.37744216555518
 20
9833.2329074371592
 30
0.159
  0
VERTEX
  5
408
  8
1_FORMATIVE
 10
526.40384542813547
 20
9833.2312057259114
 30
0.159
  0
VERTEX
  5
409
  8
1_FORMATIVE
 10
526.41952169931278
 20
9833.2315065991352
 30
0.159
  0
SEQEND
  5
40A
  8
1_FORMATIVE
  0
POLYLINE
  5
5A
  8
1_FORMATIVE
 66
     1
 10
0.0
 20
0.0
 30
0.4770000000000002
 70
     1
  0
VERTEX
  5
40B
  8
1_FORMATIVE
 10
526.44535787793598
 20
9833.2418156658405
 30
0.4770000000000002
  0
VERTEX
  5
40C
  8
1_FORMATIVE
 10
526.419771508812
 20
9833.2324630376461
 30
0.4770000000000002
  0
VERTEX
  5
40D
  8
1_FORMATIVE
 10
526.40281687125434
 20
9833.2322341668278
 30
0.4770000000000002
  0
VERTEX
  5
40E
  8
1_FORMATIVE
 10
526.37759115592576
 20
9833.2342732873058
 30
0.4770000000000002
  0
VERTEX
  5
40F
  8
1_FORMATIVE
 10
526.35749145334046
 20
9833.234112647071
 30
0.4770000000000002
  0
VERTEX
  5
410
  8
1_FORMATIVE
 10
526.34734352565306
 20
9833.2450568999593
 30
0.4770000000000002
  0
VERTEX
  5
411
  8
1_FORMATIVE
 10
526.34567209707677
 20
9833.2642596428632
 30
0.4770000000000002
  0
VERTEX
  5
412
  8
1_FORMATIVE
 10
526.34316485963552
 20
9833.2751133720121
 30
0.4770000000000002
  0
VERTEX
  5
413
  8
1_FORMATIVE
 10
526.34232911382173
 20
9833.2859670730104
 30
0.4770000000000002
  0
VERTEX
  5
414
  8
1_FORMATIVE
 10
526.33763172424233
 20
9833.2978127914994
 30
0.4770000000000002
  0
VERTEX
  5
415
  8
1_FORMATIVE
 10
526.34232911382173
 20
9833.3101792185407
 30
0.4770000000000002
  0
VERTEX
  5
416
  8
1_FORMATIVE
 10
526.34900291141923
 20
9833.3143641964525
 30
0.4770000000000002
  0
VERTEX
  5
417
  8
1_FORMATIVE
 10
526.3641132335639
 20
9833.3231532186473
 30
0.4770000000000002
  0
VERTEX
  5
418
  8
1_FORMATIVE
 10
526.37258884995583
 20
9833.3281338822417
 30
0.4770000000000002
  0
VERTEX
  5
419
  8
1_FORMATIVE
 10
526.37832229952869
 20
9833.3311222635002
 30
0.4770000000000002
  0
VERTEX
  5
41A
  8
1_FORMATIVE
 10
526.38729652609766
 20
9833.3356048494788
 30
0.4770000000000002
  0
VERTEX
  5
41B
  8
1_FORMATIVE
 10
526.4004180191057
 20
9833.3430377044133
 30
0.4770000000000002
  0
VERTEX
  5
41C
  8
1_FORMATIVE
 10
526.41346612032714
 20
9833.3406677050189
 30
0.4770000000000002
  0
VERTEX
  5
41D
  8
1_FORMATIVE
 10
526.42645293562441
 20
9833.3324183349305
 30
0.4770000000000002
  0
VERTEX
  5
41E
  8
1_FORMATIVE
 10
526.43224741891652
 20
9833.3250652230763
 30
0.4770000000000002
  0
VERTEX
  5
41F
  8
1_FORMATIVE
 10
526.44010702349397
 20
9833.3146024686757
 30
0.4770000000000002
  0
VERTEX
  5
420
  8
1_FORMATIVE
 10
526.44607552854745
 20
9833.3004911796124
 30
0.4770000000000002
  0
VERTEX
  5
421
  8
1_FORMATIVE
 10
526.45027575813106
 20
9833.2799963341367
 30
0.4770000000000002
  0
SEQEND
  5
422
  8
1_FORMATIVE
  0
POLYLINE
  5
5B
  8
1_FORMATIVE
 66
     1
 10
0.0
 20
0.0
 30
0.006
 70
     1
  0
VERTEX
  5
423
  8
1_FORMATIVE
 10
526.32004266387241
 20
9833.3779029124998
 30
0.006
  0
VERTEX
  5
424
  8
1_FORMATIVE
 10
526.33436333074906
 20
9833.3959739960337
 30
0.006
  0
VERTEX
  5
425
  8
1_FORMATIVE
 10
526.31778151589958
 20
9833.4268454350986
 30
0.006
  0
VERTEX
  5
426
  8
1_FORMATIVE
 10
526.27538426632555
 20
9833.4390676040002
 30
0.006
  0
VERTEX
  5
427
  8
1_FORMATIVE
 10
526.26608286623468
 20
9833.4457047732612
 30
0.006
  0
VERTEX
  5
428
  8
1_FORMATIVE
 10
526.2581102736151
 20
9833.449687086073
 30
0.006
  0
VERTEX
  5
429
  8
1_FORMATIVE
 10
526.23817866596335
 20
9833.4483596578521
 30
0.006
  0
VERTEX
  5
42A
  8
1_FORMATIVE
 10
526.22223341767256
 20
9833.4417224885929
 30
0.006
  0
VERTEX
  5
42B
  8
1_FORMATIVE
 10
526.21293201758215
 20
9833.4284481219238
 30
0.006
  0
VERTEX
  5
42C
  8
1_FORMATIVE
 10
526.20495942496245
 20
9833.4151737552584
 30
0.006
  0
VERTEX
  5
42D
  8
1_FORMATIVE
 10
526.20628816938199
 20
9833.4045542731856
 30
0.006
  0
VERTEX
  5
42E
  8
1_FORMATIVE
 10
526.20894572127224
 20
9833.3846427372591
 30
0.006
  0
VERTEX
  5
42F
  8
1_FORMATIVE
 10
526.22489096956303
 20
9833.3806604244455
 30
0.006
  0
VERTEX
  5
430
  8
1_FORMATIVE
 10
526.23506418084696
 20
9833.3768835915162
 30
0.006
  0
VERTEX
  5
431
  8
1_FORMATIVE
 10
526.24251407766906
 20
9833.3719219559298
 30
0.006
  0
VERTEX
  5
432
  8
1_FORMATIVE
 10
526.26175974954492
 20
9833.3644795025448
 30
0.006
  0
VERTEX
  5
433
  8
1_FORMATIVE
 10
526.27665960624086
 20
9833.3619986847498
 30
0.006
  0
VERTEX
  5
434
  8
1_FORMATIVE
 10
526.28721364775583
 20
9833.3595178669566
 30
0.006
  0
VERTEX
  5
435
  8
1_FORMATIVE
 10
526.30119970105045
 20
9833.3605847860872
 30
0.006
  0
SEQEND
  5
436
  8
1_FORMATIVE
  0
POLYLINE
  5
5C
  8
1_FORMATIVE
 66
     1
 10
0.0
 20
0.0
 30
0.5570000000000001
 70
     1
  0
VERTEX
  5
437
  8
1_FORMATIVE
 10
526.1166936330352
 20
9832.4672747106233
 30
0.5570000000000001
  0
VERTEX
  5
438
  8
1_FORMATIVE
 10
526.12273143153618
 20
9832.4603813107606
 30
0.5570000000000001
  0
VERTEX
  5
439
  8
1_FORMATIVE
 10
526.1356695711811
 20
9832.4569345967502
 30
0.5570000000000001
  0
VERTEX
  5
43A
  8
1_FORMATIVE
 10
526.15119533875531
 20
9832.4569345967502
 30
0.5570000000000001
  0
VERTEX
  5
43B
  8
1_FORMATIVE
 10
526.16930867120675
 20
9832.4586579537518
 30
0.5570000000000001
  0
VERTEX
  5
43C
  8
1_FORMATIVE
 10
526.17620901235102
 20
9832.4655513536181
 30
0.5570000000000001
  0
VERTEX
  5
43D
  8
1_FORMATIVE
 10
526.17448392706467
 20
9832.483646531784
 30
0.5570000000000001
  0
VERTEX
  5
43E
  8
1_FORMATIVE
 10
526.17362138442195
 20
9832.5051883958058
 30
0.5570000000000001
  0
VERTEX
  5
43F
  8
1_FORMATIVE
 10
526.16758358592085
 20
9832.5129434882456
 30
0.5570000000000001
  0
VERTEX
  5
440
  8
1_FORMATIVE
 10
526.16327087270577
 20
9832.5215602451117
 30
0.5570000000000001
  0
VERTEX
  5
441
  8
1_FORMATIVE
 10
526.15982070213374
 20
9832.5267302879729
 30
0.5570000000000001
  0
VERTEX
  5
442
  8
1_FORMATIVE
 10
526.1494702534693
 20
9832.5293153094062
 30
0.5570000000000001
  0
VERTEX
  5
443
  8
1_FORMATIVE
 10
526.13825719911006
 20
9832.5275919524047
 30
0.5570000000000001
  0
VERTEX
  5
444
  8
1_FORMATIVE
 10
526.13135685796624
 20
9832.5275919524047
 30
0.5570000000000001
  0
VERTEX
  5
445
  8
1_FORMATIVE
 10
526.12531905946526
 20
9832.5267302879729
 30
0.5570000000000001
  0
VERTEX
  5
446
  8
1_FORMATIVE
 10
526.1166936330352
 20
9832.5250069309714
 30
0.5570000000000001
  0
VERTEX
  5
447
  8
1_FORMATIVE
 10
526.11144019348728
 20
9832.5235738072715
 30
0.5570000000000001
  0
VERTEX
  5
448
  8
1_FORMATIVE
 10
526.10748693609173
 20
9832.514271901644
 30
0.5570000000000001
  0
VERTEX
  5
449
  8
1_FORMATIVE
 10
526.10289295074722
 20
9832.5069117528074
 30
0.5570000000000001
  0
VERTEX
  5
44A
  8
1_FORMATIVE
 10
526.10461803603312
 20
9832.4939866175064
 30
0.5570000000000001
  0
VERTEX
  5
44B
  8
1_FORMATIVE
 10
526.10720566396219
 20
9832.4845081962103
 30
0.5570000000000001
  0
VERTEX
  5
44C
  8
1_FORMATIVE
 10
526.10979329189126
 20
9832.4810615103506
 30
0.5570000000000001
  0
SEQEND
  5
44D
  8
1_FORMATIVE
  0
POLYLINE
  5
5D
  8
1_FORMATIVE
 66
     1
 10
0.0
 20
0.0
 30
0.04
 70
     1
  0
VERTEX
  5
44E
  8
1_FORMATIVE
 10
526.09440781359922
 20
9832.5875874351914
 30
0.04
  0
VERTEX
  5
44F
  8
1_FORMATIVE
 10
526.08601157887313
 20
9832.5852998529372
 30
0.04
  0
VERTEX
  5
450
  8
1_FORMATIVE
 10
526.07227218250955
 20
9832.5852998529372
 30
0.04
  0
VERTEX
  5
451
  8
1_FORMATIVE
 10
526.06158604838959
 20
9832.5852998529372
 30
0.04
  0
VERTEX
  5
452
  8
1_FORMATIVE
 10
526.05547965000585
 20
9832.5860623803565
 30
0.04
  0
VERTEX
  5
453
  8
1_FORMATIVE
 10
526.04097701689579
 20
9832.5868249077721
 30
0.04
  0
VERTEX
  5
454
  8
1_FORMATIVE
 10
526.03563391831005
 20
9832.5921626278541
 30
0.04
  0
VERTEX
  5
455
  8
1_FORMATIVE
 10
526.03334401891595
 20
9832.6051256502687
 30
0.04
  0
VERTEX
  5
456
  8
1_FORMATIVE
 10
526.03181741932008
 20
9832.6135134800188
 30
0.04
  0
VERTEX
  5
457
  8
1_FORMATIVE
 10
526.03105411952231
 20
9832.6333392773577
 30
0.04
  0
VERTEX
  5
458
  8
1_FORMATIVE
 10
526.02952751992632
 20
9832.6455397723548
 30
0.04
  0
VERTEX
  5
459
  8
1_FORMATIVE
 10
526.029114344346
 20
9832.6530922278434
 30
0.04
  0
VERTEX
  5
45A
  8
1_FORMATIVE
 10
526.03792381770393
 20
9832.654690157673
 30
0.04
  0
VERTEX
  5
45B
  8
1_FORMATIVE
 10
526.05547965000585
 20
9832.6539276302537
 30
0.04
  0
VERTEX
  5
45C
  8
1_FORMATIVE
 10
526.06692914697521
 20
9832.6524025472663
 30
0.04
  0
VERTEX
  5
45D
  8
1_FORMATIVE
 10
526.07422973817017
 20
9832.6534678338194
 30
0.04
  0
VERTEX
  5
45E
  8
1_FORMATIVE
 10
526.08400471704692
 20
9832.6512143105574
 30
0.04
  0
VERTEX
  5
45F
  8
1_FORMATIVE
 10
526.09211797725686
 20
9832.6478273827543
 30
0.04
  0
VERTEX
  5
460
  8
1_FORMATIVE
 10
526.09211797725686
 20
9832.6417271352566
 30
0.04
  0
VERTEX
  5
461
  8
1_FORMATIVE
 10
526.09288127705474
 20
9832.6363894151782
 30
0.04
  0
VERTEX
  5
462
  8
1_FORMATIVE
 10
526.09440781359922
 20
9832.6272390298545
 30
0.04
  0
VERTEX
  5
463
  8
1_FORMATIVE
 10
526.09288127705474
 20
9832.6203762549394
 30
0.04
  0
VERTEX
  5
464
  8
1_FORMATIVE
 10
526.09517111339721
 20
9832.6066507051037
 30
0.04
  0
VERTEX
  5
465
  8
1_FORMATIVE
 10
526.0941556711997
 20
9832.6020128832988
 30
0.04
  0
VERTEX
  5
466
  8
1_FORMATIVE
 10
526.09565950925355
 20
9832.5967547092732
 30
0.04
  0
SEQEND
  5
467
  8
1_FORMATIVE
  0
POLYLINE
  5
5E
  8
1_FORMATIVE
 66
     1
 10
0.0
 20
0.0
 30
0.1
 70
     1
  0
VERTEX
  5
468
  8
1_FORMATIVE
 10
528.04839022738622
 20
9833.7889117778323
 30
0.1
  0
VERTEX
  5
469
  8
1_FORMATIVE
 10
528.06940436388572
 20
9833.7871623558476
 30
0.1
  0
VERTEX
  5
46A
  8
1_FORMATIVE
 10
528.09216975198683
 20
9833.7871623558476
 30
0.1
  0
VERTEX
  5
46B
  8
1_FORMATIVE
 10
528.10793032283595
 20
9833.8029071255733
 30
0.1
  0
VERTEX
  5
46C
  8
1_FORMATIVE
 10
528.10092563168655
 20
9833.8256496113918
 30
0.1
  0
VERTEX
  5
46D
  8
1_FORMATIVE
 10
528.08866737488665
 20
9833.834396693177
 30
0.1
  0
VERTEX
  5
46E
  8
1_FORMATIVE
 10
528.06765323838704
 20
9833.8378955371481
 30
0.1
  0
VERTEX
  5
46F
  8
1_FORMATIVE
 10
528.04663903883602
 20
9833.834396693177
 30
0.1
  0
VERTEX
  5
470
  8
1_FORMATIVE
 10
528.03262959348558
 20
9833.8256496113918
 30
0.1
  0
VERTEX
  5
471
  8
1_FORMATIVE
 10
528.01862014813537
 20
9833.8064059695462
 30
0.1
  0
VERTEX
  5
472
  8
1_FORMATIVE
 10
528.03087840493538
 20
9833.7871623558476
 30
0.1
  0
SEQEND
  5
473
  8
1_FORMATIVE
  0
POLYLINE
  5
5F
  8
1_FORMATIVE
 66
     1
 10
0.0
 20
0.0
 30
0.086
 70
     1
  0
VERTEX
  5
474
  8
1_FORMATIVE
 10
529.13695548654175
 20
9834.3176862052696
 30
0.086
  0
VERTEX
  5
475
  8
1_FORMATIVE
 10
529.13263243290305
 20
9834.3122878545528
 30
0.086
  0
VERTEX
  5
476
  8
1_FORMATIVE
 10
529.13263243290305
 20
9834.3014911531136
 30
0.086
  0
VERTEX
  5
477
  8
1_FORMATIVE
 10
529.1347939597224
 20
9834.2928537919579
 30
0.086
  0
VERTEX
  5
478
  8
1_FORMATIVE
 10
529.14127847712894
 20
9834.2842164308095
 30
0.086
  0
VERTEX
  5
479
  8
1_FORMATIVE
 10
529.14668223112562
 20
9834.2809774203724
 30
0.086
  0
VERTEX
  5
47A
  8
1_FORMATIVE
 10
529.15586711229776
 20
9834.2785204438751
 30
0.086
  0
VERTEX
  5
47B
  8
1_FORMATIVE
 10
529.17023992265183
 20
9834.2758615059811
 30
0.086
  0
VERTEX
  5
47C
  8
1_FORMATIVE
 10
529.18567735526653
 20
9834.2774568743462
 30
0.086
  0
VERTEX
  5
47D
  8
1_FORMATIVE
 10
529.19366224290195
 20
9834.2817111806125
 30
0.086
  0
VERTEX
  5
47E
  8
1_FORMATIVE
 10
529.19855855953085
 20
9834.287455441241
 30
0.086
  0
VERTEX
  5
47F
  8
1_FORMATIVE
 10
529.19855855953085
 20
9834.3047301635452
 30
0.086
  0
VERTEX
  5
480
  8
1_FORMATIVE
 10
529.19100059267294
 20
9834.3141504030664
 30
0.086
  0
VERTEX
  5
481
  8
1_FORMATIVE
 10
529.17556316005823
 20
9834.3231908144262
 30
0.086
  0
VERTEX
  5
482
  8
1_FORMATIVE
 10
529.16331972032845
 20
9834.3242544121022
 30
0.086
  0
VERTEX
  5
483
  8
1_FORMATIVE
 10
529.14841456731835
 20
9834.320000077696
 30
0.086
  0
SEQEND
  5
484
  8
1_FORMATIVE
  0
POLYLINE
  5
60
  8
1_FORMATIVE
 66
     1
 10
0.0
 20
0.0
 30
0.16
 70
     1
  0
VERTEX
  5
485
  8
1_FORMATIVE
 10
526.00240629147766
 20
9832.9950270304325
 30
0.16
  0
VERTEX
  5
486
  8
1_FORMATIVE
 10
526.01845815962326
 20
9832.9984632452597
 30
0.16
  0
VERTEX
  5
487
  8
1_FORMATIVE
 10
526.02119320163843
 20
9833.0113056537957
 30
0.16
  0
VERTEX
  5
488
  8
1_FORMATIVE
 10
526.01937303489706
 20
9833.0307017729792
 30
0.16
  0
VERTEX
  5
489
  8
1_FORMATIVE
 10
526.018159548369
 20
9833.0458549576688
 30
0.16
  0
VERTEX
  5
48A
  8
1_FORMATIVE
 10
526.01391234551966
 20
9833.0616142798717
 30
0.16
  0
VERTEX
  5
48B
  8
1_FORMATIVE
 10
526.00125970244562
 20
9833.0637516647748
 30
0.16
  0
VERTEX
  5
48C
  8
1_FORMATIVE
 10
525.98979412737845
 20
9833.0671879077508
 30
0.16
  0
VERTEX
  5
48D
  8
1_FORMATIVE
 10
525.97259567020092
 20
9833.0671879077508
 30
0.16
  0
VERTEX
  5
48E
  8
1_FORMATIVE
 10
525.94737127895087
 20
9833.0637516647748
 30
0.16
  0
VERTEX
  5
48F
  8
1_FORMATIVE
 10
525.92558659174665
 20
9833.0660424840426
 30
0.16
  0
VERTEX
  5
490
  8
1_FORMATIVE
 10
525.92433754424962
 20
9833.0539164684724
 30
0.16
  0
VERTEX
  5
491
  8
1_FORMATIVE
 10
525.92377279319305
 20
9833.0409405261562
 30
0.16
  0
VERTEX
  5
492
  8
1_FORMATIVE
 10
525.92433754424962
 20
9833.0206303873965
 30
0.16
  0
VERTEX
  5
493
  8
1_FORMATIVE
 10
525.92603173436783
 20
9833.0070903042706
 30
0.16
  0
VERTEX
  5
494
  8
1_FORMATIVE
 10
525.92673318077891
 20
9832.9950270304325
 30
0.16
  0
VERTEX
  5
495
  8
1_FORMATIVE
 10
525.94049193391072
 20
9832.9915907874565
 30
0.16
  0
VERTEX
  5
496
  8
1_FORMATIVE
 10
525.96113003208245
 20
9832.9915907874565
 30
0.16
  0
VERTEX
  5
497
  8
1_FORMATIVE
 10
525.97603537424686
 20
9832.9950270304325
 30
0.16
  0
SEQEND
  5
498
  8
1_FORMATIVE
  0
POLYLINE
  5
61
  8
1_FORMATIVE
 66
     1
 10
0.0
 20
0.0
 30
5.7300000000000004
 70
     1
  0
VERTEX
  5
499
  8
1_FORMATIVE
 10
525.92097507812321
 20
9833.0643918612914
 30
5.7300000000000004
  0
VERTEX
  5
49A
  8
1_FORMATIVE
 10
525.88131419464275
 20
9833.0656699461942
 30
5.7300000000000004
  0
VERTEX
  5
49B
  8
1_FORMATIVE
 10
525.86084400224991
 20
9833.0669480592423
 30
5.7300000000000004
  0
VERTEX
  5
49C
  8
1_FORMATIVE
 10
525.84165324811056
 20
9833.0669480592423
 30
5.7300000000000004
  0
VERTEX
  5
49D
  8
1_FORMATIVE
 10
525.83269755864251
 20
9833.0643918612914
 30
5.7300000000000004
  0
VERTEX
  5
49E
  8
1_FORMATIVE
 10
525.823741869174
 20
9833.0567232674402
 30
5.7300000000000004
  0
VERTEX
  5
49F
  8
1_FORMATIVE
 10
525.81827367668461
 20
9833.0452183077905
 30
5.7300000000000004
  0
VERTEX
  5
4A0
  8
1_FORMATIVE
 10
525.81740571162425
 20
9833.0335131319171
 30
5.7300000000000004
  0
VERTEX
  5
4A1
  8
1_FORMATIVE
 10
525.81566990760655
 20
9833.0144380680194
 30
5.7300000000000004
  0
VERTEX
  5
4A2
  8
1_FORMATIVE
 10
525.82060682931331
 20
9833.0027634607977
 30
5.7300000000000004
  0
VERTEX
  5
4A3
  8
1_FORMATIVE
 10
525.82731580957125
 20
9832.9971744922987
 30
5.7300000000000004
  0
VERTEX
  5
4A4
  8
1_FORMATIVE
 10
525.85146763408886
 20
9832.9943271321608
 30
5.7300000000000004
  0
VERTEX
  5
4A5
  8
1_FORMATIVE
 10
525.87666951600261
 20
9832.9932781151128
 30
5.7300000000000004
  0
VERTEX
  5
4A6
  8
1_FORMATIVE
 10
525.89047057659877
 20
9832.992528817218
 30
5.7300000000000004
  0
VERTEX
  5
4A7
  8
1_FORMATIVE
 10
525.90397157575933
 20
9832.9931282555317
 30
5.7300000000000004
  0
VERTEX
  5
4A8
  8
1_FORMATIVE
 10
525.9194227535711
 20
9832.9934279746922
 30
5.7300000000000004
  0
VERTEX
  5
4A9
  8
1_FORMATIVE
 10
525.92560418307664
 20
9832.9948633783697
 30
5.7300000000000004
  0
VERTEX
  5
4AA
  8
1_FORMATIVE
 10
525.92308528113324
 20
9833.0209453064344
 30
5.7300000000000004
  0
VERTEX
  5
4AB
  8
1_FORMATIVE
 10
525.92205281506745
 20
9833.0439808966476
 30
5.7300000000000004
  0
VERTEX
  5
4AC
  8
1_FORMATIVE
 10
525.92308528113324
 20
9833.0601402009379
 30
5.7300000000000004
  0
VERTEX
  5
4AD
  8
1_FORMATIVE
 10
525.92411774719892
 20
9833.0666726880481
 30
5.7300000000000004
  0
SEQEND
  5
4AE
  8
1_FORMATIVE
  0
POLYLINE
  5
62
  8
1_FORMATIVE
 66
     1
 10
0.0
 20
0.0
 30
3.3420000000000001
 70
     1
  0
VERTEX
  5
4AF
  8
1_FORMATIVE
 10
525.44304259558805
 20
9833.1369096825092
 30
3.3420000000000001
  0
VERTEX
  5
4B0
  8
1_FORMATIVE
 10
525.4181281648373
 20
9833.1347453881863
 30
3.3420000000000001
  0
VERTEX
  5
4B1
  8
1_FORMATIVE
 10
525.40621252914252
 20
9833.1282524770668
 30
3.3420000000000001
  0
VERTEX
  5
4B2
  8
1_FORMATIVE
 10
525.4040460843172
 20
9833.1185131526126
 30
3.3420000000000001
  0
VERTEX
  5
4B3
  8
1_FORMATIVE
 10
525.40621252914252
 20
9833.1033630641959
 30
3.3420000000000001
  0
VERTEX
  5
4B4
  8
1_FORMATIVE
 10
525.41596165696035
 20
9833.0914594172682
 30
3.3420000000000001
  0
VERTEX
  5
4B5
  8
1_FORMATIVE
 10
525.42462756236523
 20
9833.0838843589881
 30
3.3420000000000001
  0
VERTEX
  5
4B6
  8
1_FORMATIVE
 10
525.44195937317522
 20
9833.0849665061469
 30
3.3420000000000001
  0
VERTEX
  5
4B7
  8
1_FORMATIVE
 10
525.4592911839851
 20
9833.0871308004716
 30
3.3420000000000001
  0
VERTEX
  5
4B8
  8
1_FORMATIVE
 10
525.47120681967976
 20
9833.088212947634
 30
3.3420000000000001
  0
VERTEX
  5
4B9
  8
1_FORMATIVE
 10
525.48312239232268
 20
9833.0936237115875
 30
3.3420000000000001
  0
VERTEX
  5
4BA
  8
1_FORMATIVE
 10
525.48528890019975
 20
9833.1120202414932
 30
3.3420000000000001
  0
VERTEX
  5
4BB
  8
1_FORMATIVE
 10
525.48420567778714
 20
9833.1250060355796
 30
3.3420000000000001
  0
VERTEX
  5
4BC
  8
1_FORMATIVE
 10
525.47229004209225
 20
9833.1358275353505
 30
3.3420000000000001
  0
VERTEX
  5
4BD
  8
1_FORMATIVE
 10
525.46351266187776
 20
9833.1400858667621
 30
3.3420000000000001
  0
VERTEX
  5
4BE
  8
1_FORMATIVE
 10
525.45040680560794
 20
9833.1389636369477
 30
3.3420000000000001
  0
SEQEND
  5
4BF
  8
1_FORMATIVE
  0
POLYLINE
  5
63
  8
1_FORMATIVE
 66
     1
 10
0.0
 20
0.0
 30
2.706
 70
     1
  0
VERTEX
  5
4C0
  8
1_FORMATIVE
 10
525.40669253916758
 20
9833.0477864404656
 30
2.706
  0
VERTEX
  5
4C1
  8
1_FORMATIVE
 10
525.39915758605684
 20
9833.0682178968018
 30
2.706
  0
VERTEX
  5
4C2
  8
1_FORMATIVE
 10
525.39808117319137
 20
9833.0843479835385
 30
2.706
  0
VERTEX
  5
4C3
  8
1_FORMATIVE
 10
525.38839339434958
 20
9833.0918753592305
 30
2.706
  0
VERTEX
  5
4C4
  8
1_FORMATIVE
 10
525.37332348812879
 20
9833.0929506945922
 30
2.706
  0
VERTEX
  5
4C5
  8
1_FORMATIVE
 10
525.36040647069024
 20
9833.0811219774532
 30
2.706
  0
VERTEX
  5
4C6
  8
1_FORMATIVE
 10
525.35610075617637
 20
9833.0671425614382
 30
2.706
  0
VERTEX
  5
4C7
  8
1_FORMATIVE
 10
525.35825358190755
 20
9833.0531631454232
 30
2.706
  0
VERTEX
  5
4C8
  8
1_FORMATIVE
 10
525.35717716904196
 20
9833.0305809902129
 30
2.706
  0
VERTEX
  5
4C9
  8
1_FORMATIVE
 10
525.35717716904196
 20
9833.0241289498881
 30
2.706
  0
VERTEX
  5
4CA
  8
1_FORMATIVE
 10
525.36255929642152
 20
9833.0144509034762
 30
2.706
  0
VERTEX
  5
4CB
  8
1_FORMATIVE
 10
525.37009424953203
 20
9833.0133755681145
 30
2.706
  0
VERTEX
  5
4CC
  8
1_FORMATIVE
 10
525.3862405686184
 20
9833.015526238838
 30
2.706
  0
VERTEX
  5
4CD
  8
1_FORMATIVE
 10
525.39700476032579
 20
9833.0230536145245
 30
2.706
  0
VERTEX
  5
4CE
  8
1_FORMATIVE
 10
525.40238688770512
 20
9833.0327316890889
 30
2.706
  0
SEQEND
  5
4CF
  8
1_FORMATIVE
  0
POLYLINE
  5
64
  8
1_FORMATIVE
 66
     1
 10
0.0
 20
0.0
 30
1.909999999999999
 70
     1
  0
VERTEX
  5
4D0
  8
1_FORMATIVE
 10
525.363635709287
 20
9832.9832660653647
 30
1.909999999999999
  0
VERTEX
  5
4D1
  8
1_FORMATIVE
 10
525.34533656446922
 20
9832.9821907299956
 30
1.909999999999999
  0
VERTEX
  5
4D2
  8
1_FORMATIVE
 10
525.33457230971055
 20
9832.9735879908003
 30
1.909999999999999
  0
VERTEX
  5
4D3
  8
1_FORMATIVE
 10
525.33349589684497
 20
9832.9596085747889
 30
1.909999999999999
  0
VERTEX
  5
4D4
  8
1_FORMATIVE
 10
525.33457230971055
 20
9832.9467045222846
 30
1.909999999999999
  0
VERTEX
  5
4D5
  8
1_FORMATIVE
 10
525.33780161135883
 20
9832.9155196560241
 30
1.909999999999999
  0
VERTEX
  5
4D6
  8
1_FORMATIVE
 10
525.33995443708989
 20
9832.9112182864264
 30
1.909999999999999
  0
VERTEX
  5
4D7
  8
1_FORMATIVE
 10
525.35179510471403
 20
9832.9069169449722
 30
1.909999999999999
  0
VERTEX
  5
4D8
  8
1_FORMATIVE
 10
525.36578853501817
 20
9832.9079922803339
 30
1.909999999999999
  0
VERTEX
  5
4D9
  8
1_FORMATIVE
 10
525.37439990099438
 20
9832.9101429510647
 30
1.909999999999999
  0
VERTEX
  5
4DA
  8
1_FORMATIVE
 10
525.39915758605684
 20
9832.9477798576463
 30
1.909999999999999
  0
VERTEX
  5
4DB
  8
1_FORMATIVE
 10
525.40023399892254
 20
9832.9606839101471
 30
1.909999999999999
  0
VERTEX
  5
4DC
  8
1_FORMATIVE
 10
525.39485193459461
 20
9832.9725126554367
 30
1.909999999999999
  0
VERTEX
  5
4DD
  8
1_FORMATIVE
 10
525.38301126697036
 20
9832.9800400311251
 30
1.909999999999999
  0
SEQEND
  5
4DE
  8
1_FORMATIVE
  0
POLYLINE
  5
65
  8
1_FORMATIVE
 66
     1
 10
0.0
 20
0.0
 30
0.102
 70
     1
  0
VERTEX
  5
4DF
  8
1_FORMATIVE
 10
525.24305369797673
 20
9833.0806501055577
 30
0.102
  0
VERTEX
  5
4E0
  8
1_FORMATIVE
 10
525.26171639695235
 20
9833.0772602785146
 30
0.102
  0
VERTEX
  5
4E1
  8
1_FORMATIVE
 10
525.27444098163176
 20
9833.0925144298235
 30
0.102
  0
VERTEX
  5
4E2
  8
1_FORMATIVE
 10
525.27953080289308
 20
9833.1018363767798
 30
0.102
  0
VERTEX
  5
4E3
  8
1_FORMATIVE
 10
525.27783415377178
 20
9833.1128532513249
 30
0.102
  0
VERTEX
  5
4E4
  8
1_FORMATIVE
 10
525.26935116037032
 20
9833.1238701258717
 30
0.102
  0
VERTEX
  5
4E5
  8
1_FORMATIVE
 10
525.25747486872615
 20
9833.1340395506995
 30
0.102
  0
VERTEX
  5
4E6
  8
1_FORMATIVE
 10
525.23541899761017
 20
9833.1475987744143
 30
0.102
  0
VERTEX
  5
4E7
  8
1_FORMATIVE
 10
525.22354276901717
 20
9833.1484462241388
 30
0.102
  0
VERTEX
  5
4E8
  8
1_FORMATIVE
 10
525.21081818433811
 20
9833.1408191484825
 30
0.102
  0
VERTEX
  5
4E9
  8
1_FORMATIVE
 10
525.2082732421818
 20
9833.1314972015261
 30
0.102
  0
VERTEX
  5
4EA
  8
1_FORMATIVE
 10
525.20657665611157
 20
9833.1187854275377
 30
0.102
  0
VERTEX
  5
4EB
  8
1_FORMATIVE
 10
525.20572836307679
 20
9833.1077685529908
 30
0.102
  0
VERTEX
  5
4EC
  8
1_FORMATIVE
 10
525.20912159826821
 20
9833.0959042287159
 30
0.102
  0
VERTEX
  5
4ED
  8
1_FORMATIVE
 10
525.21760459166956
 20
9833.0899720525067
 30
0.102
  0
VERTEX
  5
4EE
  8
1_FORMATIVE
 10
525.22863259027883
 20
9833.0823450050029
 30
0.102
  0
SEQEND
  5
4EF
  8
1_FORMATIVE
  0
POLYLINE
  5
66
  8
1_FORMATIVE
 66
     1
 10
0.0
 20
0.0
 30
1.1939999999999991
 70
     1
  0
VERTEX
  5
4F0
  8
1_FORMATIVE
 10
525.4914618177711
 20
9832.9129993185343
 30
1.1939999999999991
  0
VERTEX
  5
4F1
  8
1_FORMATIVE
 10
525.51268812210674
 20
9832.937385052348
 30
1.1939999999999991
  0
VERTEX
  5
4F2
  8
1_FORMATIVE
 10
525.53072175763566
 20
9832.9631037313793
 30
1.1939999999999991
  0
VERTEX
  5
4F3
  8
1_FORMATIVE
 10
525.56995925121521
 20
9832.9648636525435
 30
1.1939999999999991
  0
VERTEX
  5
4F4
  8
1_FORMATIVE
 10
525.60375162910395
 20
9832.9634237170467
 30
1.1939999999999991
  0
VERTEX
  5
4F5
  8
1_FORMATIVE
 10
525.61012725680655
 20
9832.9629967129513
 30
1.1939999999999991
  0
VERTEX
  5
4F6
  8
1_FORMATIVE
 10
525.58387626326748
 20
9832.9300683920665
 30
1.1939999999999991
  0
VERTEX
  5
4F7
  8
1_FORMATIVE
 10
525.5540793871877
 20
9832.8932080305694
 30
1.1939999999999991
  0
VERTEX
  5
4F8
  8
1_FORMATIVE
 10
525.53132560053723
 20
9832.8750619327966
 30
1.1939999999999991
  0
VERTEX
  5
4F9
  8
1_FORMATIVE
 10
525.52130749560592
 20
9832.878502200927
 30
1.1939999999999991
  0
VERTEX
  5
4FA
  8
1_FORMATIVE
 10
525.51587208982505
 20
9832.8857862940604
 30
1.1939999999999991
  0
VERTEX
  5
4FB
  8
1_FORMATIVE
 10
525.50172122026788
 20
9832.8988626963346
 30
1.1939999999999991
  0
SEQEND
  5
4FC
  8
1_FORMATIVE
  0
POLYLINE
  5
67
  8
1_FORMATIVE
 66
     1
 10
0.0
 20
0.0
 30
4.7750000000000004
 70
     1
  0
VERTEX
  5
4FD
  8
1_FORMATIVE
 10
525.60463680718624
 20
9833.0345852021146
 30
4.7750000000000004
  0
VERTEX
  5
4FE
  8
1_FORMATIVE
 10
525.57383098319883
 20
9833.0380046407827
 30
4.7750000000000004
  0
VERTEX
  5
4FF
  8
1_FORMATIVE
 10
525.56191963499691
 20
9833.0357527219512
 30
4.7750000000000004
  0
VERTEX
  5
500
  8
1_FORMATIVE
 10
525.54644802854352
 20
9833.0345852021146
 30
4.7750000000000004
  0
VERTEX
  5
501
  8
1_FORMATIVE
 10
525.53690142170308
 20
9833.0325128952281
 30
4.7750000000000004
  0
VERTEX
  5
502
  8
1_FORMATIVE
 10
525.52948866213364
 20
9833.0209420412739
 30
4.7750000000000004
  0
VERTEX
  5
503
  8
1_FORMATIVE
 10
525.52809875789205
 20
9833.0033543421396
 30
4.7750000000000004
  0
VERTEX
  5
504
  8
1_FORMATIVE
 10
525.52933368188405
 20
9832.9815840013707
 30
4.7750000000000004
  0
VERTEX
  5
505
  8
1_FORMATIVE
 10
525.53088190809729
 20
9832.9651836382109
 30
4.7750000000000004
  0
VERTEX
  5
506
  8
1_FORMATIVE
 10
525.54625660460601
 20
9832.9653436310455
 30
4.7750000000000004
  0
VERTEX
  5
507
  8
1_FORMATIVE
 10
525.57092021703545
 20
9832.9667835665405
 30
4.7750000000000004
  0
VERTEX
  5
508
  8
1_FORMATIVE
 10
525.58560954523068
 20
9832.965001887027
 30
4.7750000000000004
  0
VERTEX
  5
509
  8
1_FORMATIVE
 10
525.59113511446049
 20
9832.9650041951591
 30
4.7750000000000004
  0
VERTEX
  5
50A
  8
1_FORMATIVE
 10
525.59977825832345
 20
9832.9643762148426
 30
4.7750000000000004
  0
VERTEX
  5
50B
  8
1_FORMATIVE
 10
525.61046439244342
 20
9832.9645331958473
 30
4.7750000000000004
  0
VERTEX
  5
50C
  8
1_FORMATIVE
 10
525.60951275822481
 20
9832.9745997399914
 30
4.7750000000000004
  0
VERTEX
  5
50D
  8
1_FORMATIVE
 10
525.60996735855065
 20
9832.9841369060123
 30
4.7750000000000004
  0
VERTEX
  5
50E
  8
1_FORMATIVE
 10
525.60996735855065
 20
9832.9963989886837
 30
4.7750000000000004
  0
VERTEX
  5
50F
  8
1_FORMATIVE
 10
525.61087662225361
 20
9833.0018488219648
 30
4.7750000000000004
  0
VERTEX
  5
510
  8
1_FORMATIVE
 10
525.61115026516802
 20
9833.0171782126927
 30
4.7750000000000004
  0
VERTEX
  5
511
  8
1_FORMATIVE
 10
525.60650615399015
 20
9833.0281968042636
 30
4.7750000000000004
  0
SEQEND
  5
512
  8
1_FORMATIVE
  0
POLYLINE
  5
68
  8
1_FORMATIVE
 66
     1
 10
0.0
 20
0.0
 30
0.025
 70
     1
  0
VERTEX
  5
513
  8
1_FORMATIVE
 10
525.61782765669318
 20
9832.9604280736148
 30
0.025
  0
VERTEX
  5
514
  8
1_FORMATIVE
 10
525.63046466302956
 20
9832.9733072151994
 30
0.025
  0
VERTEX
  5
515
  8
1_FORMATIVE
 10
525.64780712951949
 20
9832.9733072151994
 30
0.025
  0
VERTEX
  5
516
  8
1_FORMATIVE
 10
525.66041992413273
 20
9832.9701571803726
 30
0.025
  0
VERTEX
  5
517
  8
1_FORMATIVE
 10
525.69352832083769
 20
9832.9670071736946
 30
0.025
  0
VERTEX
  5
518
  8
1_FORMATIVE
 10
525.69983471814419
 20
9832.9654321562812
 30
0.025
  0
VERTEX
  5
519
  8
1_FORMATIVE
 10
525.7061410523994
 20
9832.9575571255136
 30
0.025
  0
VERTEX
  5
51A
  8
1_FORMATIVE
 10
525.71560058530781
 20
9832.9402320465633
 30
0.025
  0
VERTEX
  5
51B
  8
1_FORMATIVE
 10
525.71560058530781
 20
9832.9339320050622
 30
0.025
  0
VERTEX
  5
51C
  8
1_FORMATIVE
 10
525.67776239062289
 20
9832.9229069394642
 30
0.025
  0
VERTEX
  5
51D
  8
1_FORMATIVE
 10
525.65645891141935
 20
9832.9107546055784
 30
0.025
  0
VERTEX
  5
51E
  8
1_FORMATIVE
 10
525.64307184607128
 20
9832.9111367137248
 30
0.025
  0
VERTEX
  5
51F
  8
1_FORMATIVE
 10
525.62100513012115
 20
9832.9370820117365
 30
0.025
  0
SEQEND
  5
520
  8
1_FORMATIVE
  0
POLYLINE
  5
69
  8
1_FORMATIVE
 66
     1
 10
0.0
 20
0.0
 30
0.12
 70
     1
  0
VERTEX
  5
521
  8
1_FORMATIVE
 10
525.86364196952525
 20
9832.4921543561595
 30
0.12
  0
VERTEX
  5
522
  8
1_FORMATIVE
 10
525.86364196952525
 20
9832.4706540666321
 30
0.12
  0
VERTEX
  5
523
  8
1_FORMATIVE
 10
525.86210471424874
 20
9832.4552967250129
 30
0.12
  0
VERTEX
  5
524
  8
1_FORMATIVE
 10
525.85134373816095
 20
9832.4476180542006
 30
0.12
  0
VERTEX
  5
525
  8
1_FORMATIVE
 10
525.82828459376071
 20
9832.4476180542006
 30
0.12
  0
VERTEX
  5
526
  8
1_FORMATIVE
 10
525.8129117887928
 20
9832.4476180542006
 30
0.12
  0
VERTEX
  5
527
  8
1_FORMATIVE
 10
525.77233136423706
 20
9832.4513329335368
 30
0.12
  0
VERTEX
  5
528
  8
1_FORMATIVE
 10
525.76833069221675
 20
9832.4614396729194
 30
0.12
  0
VERTEX
  5
529
  8
1_FORMATIVE
 10
525.7652561186128
 20
9832.4752612916363
 30
0.12
  0
VERTEX
  5
52A
  8
1_FORMATIVE
 10
525.77606091539769
 20
9832.4986500820723
 30
0.12
  0
VERTEX
  5
52B
  8
1_FORMATIVE
 10
525.7865035451548
 20
9832.5098273435233
 30
0.12
  0
VERTEX
  5
52C
  8
1_FORMATIVE
 10
525.8129117887928
 20
9832.5105831998844
 30
0.12
  0
VERTEX
  5
52D
  8
1_FORMATIVE
 10
525.83289642264083
 20
9832.5105831998844
 30
0.12
  0
VERTEX
  5
52E
  8
1_FORMATIVE
 10
525.84212008040095
 20
9832.5075117259312
 30
0.12
  0
VERTEX
  5
52F
  8
1_FORMATIVE
 10
525.85441831176513
 20
9832.5075117259312
 30
0.12
  0
VERTEX
  5
530
  8
1_FORMATIVE
 10
525.8605674589727
 20
9832.5029045009269
 30
0.12
  0
SEQEND
  5
531
  8
1_FORMATIVE
  0
POLYLINE
  5
6A
  8
1_FORMATIVE
 66
     1
 10
0.0
 20
0.0
 30
0.05
 70
     1
  0
VERTEX
  5
532
  8
1_FORMATIVE
 10
525.71998164620015
 20
9832.6922601284823
 30
0.05
  0
VERTEX
  5
533
  8
1_FORMATIVE
 10
525.74379709169716
 20
9832.7060586377502
 30
0.05
  0
VERTEX
  5
534
  8
1_FORMATIVE
 10
525.74709026437586
 20
9832.7277715567398
 30
0.05
  0
VERTEX
  5
535
  8
1_FORMATIVE
 10
525.74116255355443
 20
9832.7508004477477
 30
0.05
  0
VERTEX
  5
536
  8
1_FORMATIVE
 10
525.72535545079961
 20
9832.7639598019705
 30
0.05
  0
VERTEX
  5
537
  8
1_FORMATIVE
 10
525.7082310789732
 20
9832.7771191561969
 30
0.05
  0
VERTEX
  5
538
  8
1_FORMATIVE
 10
525.68715496298421
 20
9832.763301815965
 30
0.05
  0
VERTEX
  5
539
  8
1_FORMATIVE
 10
525.68254458428521
 20
9832.7488265178727
 30
0.05
  0
VERTEX
  5
53A
  8
1_FORMATIVE
 10
525.67529960439231
 20
9832.7172440902486
 30
0.05
  0
VERTEX
  5
53B
  8
1_FORMATIVE
 10
525.67925141160651
 20
9832.7007948904284
 30
0.05
  0
VERTEX
  5
53C
  8
1_FORMATIVE
 10
525.69711783492164
 20
9832.6922601284823
 30
0.05
  0
SEQEND
  5
53D
  8
1_FORMATIVE
  0
POLYLINE
  5
6B
  8
1_FORMATIVE
 66
     1
 10
0.0
 20
0.0
 30
0.05
 70
     1
  0
VERTEX
  5
53E
  8
1_FORMATIVE
 10
530.07994202160785
 20
9839.4218674145704
 30
0.05
  0
VERTEX
  5
53F
  8
1_FORMATIVE
 10
530.10110268947483
 20
9839.434988431316
 30
0.05
  0
VERTEX
  5
540
  8
1_FORMATIVE
 10
530.12810084166313
 20
9839.4597725709336
 30
0.05
  0
VERTEX
  5
541
  8
1_FORMATIVE
 10
530.1307890995671
 20
9839.4850068522355
 30
0.05
  0
VERTEX
  5
542
  8
1_FORMATIVE
 10
530.13164420214923
 20
9839.4981050973111
 30
0.05
  0
VERTEX
  5
543
  8
1_FORMATIVE
 10
530.1321857503043
 20
9839.5133747018281
 30
0.05
  0
VERTEX
  5
544
  8
1_FORMATIVE
 10
530.12394027138635
 20
9839.5331440625632
 30
0.05
  0
VERTEX
  5
545
  8
1_FORMATIVE
 10
530.10250192531794
 20
9839.5364389466376
 30
0.05
  0
VERTEX
  5
546
  8
1_FORMATIVE
 10
530.08106357924942
 20
9839.5331440625632
 30
0.05
  0
VERTEX
  5
547
  8
1_FORMATIVE
 10
530.05467790799935
 20
9839.5191407771053
 30
0.05
  0
VERTEX
  5
548
  8
1_FORMATIVE
 10
530.03571325604707
 20
9839.5010188584074
 30
0.05
  0
VERTEX
  5
549
  8
1_FORMATIVE
 10
530.02156774585615
 20
9839.4838277636027
 30
0.05
  0
VERTEX
  5
54A
  8
1_FORMATIVE
 10
530.02156774585615
 20
9839.4721646407397
 30
0.05
  0
VERTEX
  5
54B
  8
1_FORMATIVE
 10
530.02010842206425
 20
9839.4553988893003
 30
0.05
  0
VERTEX
  5
54C
  8
1_FORMATIVE
 10
530.02156774585615
 20
9839.4430068194924
 30
0.05
  0
VERTEX
  5
54D
  8
1_FORMATIVE
 10
530.03178326460431
 20
9839.4335305374407
 30
0.05
  0
VERTEX
  5
54E
  8
1_FORMATIVE
 10
530.04491749398767
 20
9839.4269700149944
 30
0.05
  0
VERTEX
  5
54F
  8
1_FORMATIVE
 10
530.0602407405845
 20
9839.4204095206951
 30
0.05
  0
SEQEND
  5
550
  8
1_FORMATIVE
  0
POLYLINE
  5
6C
  8
1_FORMATIVE
 66
     1
 10
0.0
 20
0.0
 30
0.353
 70
     1
  0
VERTEX
  5
551
  8
1_FORMATIVE
 10
530.14635503085913
 20
9839.6423873604017
 30
0.353
  0
VERTEX
  5
552
  8
1_FORMATIVE
 10
530.1468607027889
 20
9839.6600682854823
 30
0.353
  0
VERTEX
  5
553
  8
1_FORMATIVE
 10
530.15242315706564
 20
9839.6812853505398
 30
0.353
  0
VERTEX
  5
554
  8
1_FORMATIVE
 10
530.16506508140833
 20
9839.6939145666547
 30
0.353
  0
VERTEX
  5
555
  8
1_FORMATIVE
 10
530.18815676031193
 20
9839.7071705245762
 30
0.353
  0
VERTEX
  5
556
  8
1_FORMATIVE
 10
530.20378498635057
 20
9839.7089774527794
 30
0.353
  0
VERTEX
  5
557
  8
1_FORMATIVE
 10
530.2184692704368
 20
9839.70121121376
 30
0.353
  0
VERTEX
  5
558
  8
1_FORMATIVE
 10
530.23315361757443
 20
9839.696033711698
 30
0.353
  0
VERTEX
  5
559
  8
1_FORMATIVE
 10
530.2365195515257
 20
9839.6927795013835
 30
0.353
  0
VERTEX
  5
55A
  8
1_FORMATIVE
 10
530.23920686365898
 20
9839.684427335058
 30
0.353
  0
VERTEX
  5
55B
  8
1_FORMATIVE
 10
530.24010269742178
 20
9839.678163182165
 30
0.353
  0
VERTEX
  5
55C
  8
1_FORMATIVE
 10
530.24069985687879
 20
9839.6695127040766
 30
0.353
  0
VERTEX
  5
55D
  8
1_FORMATIVE
 10
530.24069985687879
 20
9839.6608622259901
 30
0.353
  0
VERTEX
  5
55E
  8
1_FORMATIVE
 10
530.2373294462808
 20
9839.6515368449873
 30
0.353
  0
VERTEX
  5
55F
  8
1_FORMATIVE
 10
530.22447239068811
 20
9839.6404765944826
 30
0.353
  0
VERTEX
  5
560
  8
1_FORMATIVE
 10
530.21340101274143
 20
9839.633697756688
 30
0.353
  0
VERTEX
  5
561
  8
1_FORMATIVE
 10
530.20375825257247
 20
9839.6237078593622
 30
0.353
  0
VERTEX
  5
562
  8
1_FORMATIVE
 10
530.19447261532275
 20
9839.6176425715967
 30
0.353
  0
VERTEX
  5
563
  8
1_FORMATIVE
 10
530.17982981903344
 20
9839.6172857965848
 30
0.353
  0
VERTEX
  5
564
  8
1_FORMATIVE
 10
530.16950370819484
 20
9839.6159634631385
 30
0.353
  0
VERTEX
  5
565
  8
1_FORMATIVE
 10
530.15747993941295
 20
9839.6297581442832
 30
0.353
  0
SEQEND
  5
566
  8
1_FORMATIVE
  0
POLYLINE
  5
6D
  8
1_FORMATIVE
 66
     1
 10
0.0
 20
0.0
 30
0.239
 70
     1
  0
VERTEX
  5
567
  8
1_FORMATIVE
 10
529.57388320885002
 20
9839.4650415256183
 30
0.239
  0
VERTEX
  5
568
  8
1_FORMATIVE
 10
529.5861965725411
 20
9839.4702739161403
 30
0.239
  0
VERTEX
  5
569
  8
1_FORMATIVE
 10
529.58747487587038
 20
9839.4804899820865
 30
0.239
  0
VERTEX
  5
56A
  8
1_FORMATIVE
 10
529.59003148252884
 20
9839.503476088239
 30
0.239
  0
VERTEX
  5
56B
  8
1_FORMATIVE
 10
529.56238881931029
 20
9839.531498253109
 30
0.239
  0
VERTEX
  5
56C
  8
1_FORMATIVE
 10
529.53399206179256
 20
9839.5384103432007
 30
0.239
  0
VERTEX
  5
56D
  8
1_FORMATIVE
 10
529.50100724575861
 20
9839.5339574251466
 30
0.239
  0
VERTEX
  5
56E
  8
1_FORMATIVE
 10
529.47515429547275
 20
9839.5205986146866
 30
0.239
  0
VERTEX
  5
56F
  8
1_FORMATIVE
 10
529.46956403554475
 20
9839.5063517088984
 30
0.239
  0
VERTEX
  5
570
  8
1_FORMATIVE
 10
529.47802237586336
 20
9839.4950853029513
 30
0.239
  0
VERTEX
  5
571
  8
1_FORMATIVE
 10
529.48836027730692
 20
9839.4800634002131
 30
0.239
  0
VERTEX
  5
572
  8
1_FORMATIVE
 10
529.50527695794415
 20
9839.4716135887174
 30
0.239
  0
VERTEX
  5
573
  8
1_FORMATIVE
 10
529.53535094476354
 20
9839.4641026514182
 30
0.239
  0
VERTEX
  5
574
  8
1_FORMATIVE
 10
529.55884621544055
 20
9839.4622249030217
 30
0.239
  0
SEQEND
  5
575
  8
1_FORMATIVE
  0
POLYLINE
  5
6E
  8
1_FORMATIVE
 66
     1
 10
0.0
 20
0.0
 30
0.69
 70
     1
  0
VERTEX
  5
576
  8
1_FORMATIVE
 10
529.61496697243444
 20
9839.3895830620295
 30
0.69
  0
VERTEX
  5
577
  8
1_FORMATIVE
 10
529.60451343479167
 20
9839.3890334173993
 30
0.69
  0
VERTEX
  5
578
  8
1_FORMATIVE
 10
529.59791120049113
 20
9839.3785903946955
 30
0.69
  0
VERTEX
  5
579
  8
1_FORMATIVE
 10
529.59350971095705
 20
9839.3588036103956
 30
0.69
  0
VERTEX
  5
57A
  8
1_FORMATIVE
 10
529.59461008334085
 20
9839.3395664425734
 30
0.69
  0
VERTEX
  5
57B
  8
1_FORMATIVE
 10
529.59075877999851
 20
9839.3186803690223
 30
0.69
  0
VERTEX
  5
57C
  8
1_FORMATIVE
 10
529.59130896619047
 20
9839.3065884405914
 30
0.69
  0
VERTEX
  5
57D
  8
1_FORMATIVE
 10
529.58965840761505
 20
9839.2922979899522
 30
0.69
  0
VERTEX
  5
57E
  8
1_FORMATIVE
 10
529.60274862714721
 20
9839.2686802161097
 30
0.69
  0
VERTEX
  5
57F
  8
1_FORMATIVE
 10
529.61838687835257
 20
9839.269796112636
 30
0.69
  0
VERTEX
  5
580
  8
1_FORMATIVE
 10
529.62620600395508
 20
9839.2820709463176
 30
0.69
  0
VERTEX
  5
581
  8
1_FORMATIVE
 10
529.62542051007745
 20
9839.2922979899522
 30
0.69
  0
VERTEX
  5
582
  8
1_FORMATIVE
 10
529.62817144103622
 20
9839.3054891794891
 30
0.69
  0
VERTEX
  5
583
  8
1_FORMATIVE
 10
529.62597069626906
 20
9839.3252759637871
 30
0.69
  0
VERTEX
  5
584
  8
1_FORMATIVE
 10
529.62762125484448
 20
9839.3362686311157
 30
0.69
  0
VERTEX
  5
585
  8
1_FORMATIVE
 10
529.62982199961129
 20
9839.3588036103956
 30
0.69
  0
VERTEX
  5
586
  8
1_FORMATIVE
 10
529.63147255818626
 20
9839.3708955388283
 30
0.69
  0
VERTEX
  5
587
  8
1_FORMATIVE
 10
529.62762125484448
 20
9839.3785903946955
 30
0.69
  0
VERTEX
  5
588
  8
1_FORMATIVE
 10
529.62376995150237
 20
9839.3901326785035
 30
0.69
  0
SEQEND
  5
589
  8
1_FORMATIVE
  0
POLYLINE
  5
6F
  8
1_FORMATIVE
 66
     1
 10
0.0
 20
0.0
 30
0.199
 70
     1
  0
VERTEX
  5
58A
  8
1_FORMATIVE
 10
530.00766857733925
 20
9838.1117205012033
 30
0.199
  0
VERTEX
  5
58B
  8
1_FORMATIVE
 10
529.99696403222117
 20
9838.0948667311895
 30
0.199
  0
VERTEX
  5
58C
  8
1_FORMATIVE
 10
529.98379878156754
 20
9838.0795227035378
 30
0.199
  0
VERTEX
  5
58D
  8
1_FORMATIVE
 10
529.97941034366556
 20
9838.0685626596587
 30
0.199
  0
VERTEX
  5
58E
  8
1_FORMATIVE
 10
529.9706335309138
 20
9838.055410623896
 30
0.199
  0
VERTEX
  5
58F
  8
1_FORMATIVE
 10
529.93991459170434
 20
9838.0422585881315
 30
0.199
  0
VERTEX
  5
590
  8
1_FORMATIVE
 10
529.92402476556163
 20
9838.0581228176725
 30
0.199
  0
VERTEX
  5
591
  8
1_FORMATIVE
 10
529.90480721459335
 20
9838.0751386916163
 30
0.199
  0
VERTEX
  5
592
  8
1_FORMATIVE
 10
529.88691027441882
 20
9838.0954414837634
 30
0.199
  0
VERTEX
  5
593
  8
1_FORMATIVE
 10
529.86750558700578
 20
9838.1189788108277
 30
0.199
  0
VERTEX
  5
594
  8
1_FORMATIVE
 10
529.85653452377687
 20
9838.1321308465922
 30
0.199
  0
VERTEX
  5
595
  8
1_FORMATIVE
 10
529.84966614967402
 20
9838.1534642470433
 30
0.199
  0
VERTEX
  5
596
  8
1_FORMATIVE
 10
529.86750558700578
 20
9838.1672029701076
 30
0.199
  0
VERTEX
  5
597
  8
1_FORMATIVE
 10
529.8869157598873
 20
9838.1735682585149
 30
0.199
  0
VERTEX
  5
598
  8
1_FORMATIVE
 10
529.9091955894437
 20
9838.1737789739163
 30
0.199
  0
VERTEX
  5
599
  8
1_FORMATIVE
 10
529.91797246524709
 20
9838.1759709939506
 30
0.199
  0
VERTEX
  5
59A
  8
1_FORMATIVE
 10
529.9224004363532
 20
9838.1826399140773
 30
0.199
  0
VERTEX
  5
59B
  8
1_FORMATIVE
 10
529.93864543082236
 20
9838.1700388458903
 30
0.199
  0
VERTEX
  5
59C
  8
1_FORMATIVE
 10
529.96405090558665
 20
9838.1496669224234
 30
0.199
  0
VERTEX
  5
59D
  8
1_FORMATIVE
 10
529.9706335309138
 20
9838.1430908904695
 30
0.199
  0
VERTEX
  5
59E
  8
1_FORMATIVE
 10
529.99257565737094
 20
9838.1255548427853
 30
0.199
  0
SEQEND
  5
59F
  8
1_FORMATIVE
  0
POLYLINE
  5
70
  8
1_FORMATIVE
 66
     1
 10
0.0
 20
0.0
 30
0.12
 70
     1
  0
VERTEX
  5
5A0
  8
1_FORMATIVE
 10
530.44666633893951
 20
9838.2384390753414
 30
0.12
  0
VERTEX
  5
5A1
  8
1_FORMATIVE
 10
530.46408497147593
 20
9838.2326387158901
 30
0.12
  0
VERTEX
  5
5A2
  8
1_FORMATIVE
 10
530.47279425621832
 20
9838.2239381344862
 30
0.12
  0
VERTEX
  5
5A3
  8
1_FORMATIVE
 10
530.46989118232125
 20
9838.2123373874274
 30
0.12
  0
VERTEX
  5
5A4
  8
1_FORMATIVE
 10
530.45827876063026
 20
9838.20798709673
 30
0.12
  0
VERTEX
  5
5A5
  8
1_FORMATIVE
 10
530.42198992708325
 20
9838.20798709673
 30
0.12
  0
VERTEX
  5
5A6
  8
1_FORMATIVE
 10
530.39876508370128
 20
9838.20798709673
 30
0.12
  0
VERTEX
  5
5A7
  8
1_FORMATIVE
 10
530.3799620954436
 20
9838.2041284940697
 30
0.12
  0
VERTEX
  5
5A8
  8
1_FORMATIVE
 10
530.362400084108
 20
9838.2066348138851
 30
0.12
  0
VERTEX
  5
5A9
  8
1_FORMATIVE
 10
530.35838585604461
 20
9838.2221741318717
 30
0.12
  0
VERTEX
  5
5AA
  8
1_FORMATIVE
 10
530.3578840932995
 20
9838.2352071018922
 30
0.12
  0
VERTEX
  5
5AB
  8
1_FORMATIVE
 10
530.36942488864224
 20
9838.2432274041275
 30
0.12
  0
VERTEX
  5
5AC
  8
1_FORMATIVE
 10
530.38698689997773
 20
9838.2462350104306
 30
0.12
  0
VERTEX
  5
5AD
  8
1_FORMATIVE
 10
530.40304362307756
 20
9838.2482401000598
 30
0.12
  0
VERTEX
  5
5AE
  8
1_FORMATIVE
 10
530.42160922295466
 20
9838.2487413583985
 30
0.12
  0
VERTEX
  5
5AF
  8
1_FORMATIVE
 10
530.43766588300355
 20
9838.2457337520918
 30
0.12
  0
SEQEND
  5
5B0
  8
1_FORMATIVE
  0
POLYLINE
  5
71
  8
1_FORMATIVE
 66
     1
 10
0.0
 20
0.0
 30
0.029
 70
     1
  0
VERTEX
  5
5B1
  8
1_FORMATIVE
 10
529.76099701817895
 20
9838.6641063691986
 30
0.029
  0
VERTEX
  5
5B2
  8
1_FORMATIVE
 10
529.75434427973664
 20
9838.6717018910258
 30
0.029
  0
VERTEX
  5
5B3
  8
1_FORMATIVE
 10
529.73628681079231
 20
9838.6717018910258
 30
0.029
  0
VERTEX
  5
5B4
  8
1_FORMATIVE
 10
529.72242326629555
 20
9838.6642845174483
 30
0.029
  0
VERTEX
  5
5B5
  8
1_FORMATIVE
 10
529.71165661558507
 20
9838.6572698563032
 30
0.029
  0
VERTEX
  5
5B6
  8
1_FORMATIVE
 10
529.70369865088162
 20
9838.6432405340074
 30
0.029
  0
VERTEX
  5
5B7
  8
1_FORMATIVE
 10
529.69152765716763
 20
9838.628275912306
 30
0.029
  0
VERTEX
  5
5B8
  8
1_FORMATIVE
 10
529.67467554112602
 20
9838.6156495109844
 30
0.029
  0
VERTEX
  5
5B9
  8
1_FORMATIVE
 10
529.66203645409485
 20
9838.5936702281324
 30
0.029
  0
VERTEX
  5
5BA
  8
1_FORMATIVE
 10
529.65173795975295
 20
9838.5763673860438
 30
0.029
  0
VERTEX
  5
5BB
  8
1_FORMATIVE
 10
529.6412476001143
 20
9838.5672637544358
 30
0.029
  0
VERTEX
  5
5BC
  8
1_FORMATIVE
 10
529.64504915593125
 20
9838.5539716545718
 30
0.029
  0
VERTEX
  5
5BD
  8
1_FORMATIVE
 10
529.65170195742485
 20
9838.5463761327483
 30
0.029
  0
VERTEX
  5
5BE
  8
1_FORMATIVE
 10
529.66120587849264
 20
9838.53973006874
 30
0.029
  0
VERTEX
  5
5BF
  8
1_FORMATIVE
 10
529.66690818069242
 20
9838.5406795265626
 30
0.029
  0
VERTEX
  5
5C0
  8
1_FORMATIVE
 10
529.68401527644517
 20
9838.5511233374109
 30
0.029
  0
VERTEX
  5
5C1
  8
1_FORMATIVE
 10
529.69541994389556
 20
9838.5577694014119
 30
0.029
  0
VERTEX
  5
5C2
  8
1_FORMATIVE
 10
529.70931602289556
 20
9838.5782379848697
 30
0.029
  0
VERTEX
  5
5C3
  8
1_FORMATIVE
 10
529.71822940489949
 20
9838.5938480104542
 30
0.029
  0
VERTEX
  5
5C4
  8
1_FORMATIVE
 10
529.73553044664425
 20
9838.6081672001274
 30
0.029
  0
VERTEX
  5
5C5
  8
1_FORMATIVE
 10
529.74864191448546
 20
9838.6232805836444
 30
0.029
  0
VERTEX
  5
5C6
  8
1_FORMATIVE
 10
529.76099701817895
 20
9838.6346738241627
 30
0.029
  0
VERTEX
  5
5C7
  8
1_FORMATIVE
 10
529.76860019286414
 20
9838.6574603051995
 30
0.029
  0
SEQEND
  5
5C8
  8
1_FORMATIVE
  0
POLYLINE
  5
72
  8
1_FORMATIVE
 66
     1
 10
0.0
 20
0.0
 30
0.027
 70
     1
  0
VERTEX
  5
5C9
  8
1_FORMATIVE
 10
529.58536070062462
 20
9838.0528968167255
 30
0.027
  0
VERTEX
  5
5CA
  8
1_FORMATIVE
 10
529.59462761161956
 20
9838.0556740885186
 30
0.027
  0
VERTEX
  5
5CB
  8
1_FORMATIVE
 10
529.60852804116337
 20
9838.0593771457225
 30
0.027
  0
VERTEX
  5
5CC
  8
1_FORMATIVE
 10
529.62150174177725
 20
9838.0649317455991
 30
0.027
  0
VERTEX
  5
5CD
  8
1_FORMATIVE
 10
529.62613526032624
 20
9838.0769666463239
 30
0.027
  0
VERTEX
  5
5CE
  8
1_FORMATIVE
 10
529.62798859208385
 20
9838.0927046324014
 30
0.027
  0
VERTEX
  5
5CF
  8
1_FORMATIVE
 10
529.62706192620522
 20
9838.109368375739
 30
0.027
  0
VERTEX
  5
5D0
  8
1_FORMATIVE
 10
529.61964834696801
 20
9838.1177002474105
 30
0.027
  0
VERTEX
  5
5D1
  8
1_FORMATIVE
 10
529.60667464635424
 20
9838.1112198902683
 30
0.027
  0
VERTEX
  5
5D2
  8
1_FORMATIVE
 10
529.59462761161956
 20
9838.1028880186004
 30
0.027
  0
VERTEX
  5
5D3
  8
1_FORMATIVE
 10
529.58721409543375
 20
9838.0964076896034
 30
0.027
  0
VERTEX
  5
5D4
  8
1_FORMATIVE
 10
529.58072718207575
 20
9838.0843727607316
 30
0.027
  0
VERTEX
  5
5D5
  8
1_FORMATIVE
 10
529.57424033176892
 20
9838.0760408890637
 30
0.027
  0
VERTEX
  5
5D6
  8
1_FORMATIVE
 10
529.5640466918436
 20
9838.0640059601883
 30
0.027
  0
VERTEX
  5
5D7
  8
1_FORMATIVE
 10
529.5705336052016
 20
9838.0565998739312
 30
0.027
  0
SEQEND
  5
5D8
  8
1_FORMATIVE
  0
POLYLINE
  5
73
  8
1_FORMATIVE
 66
     1
 10
0.0
 20
0.0
 30
0.04
 70
     1
  0
VERTEX
  5
5D9
  8
1_FORMATIVE
 10
529.75743367041082
 20
9838.0154332450911
 30
0.04
  0
VERTEX
  5
5DA
  8
1_FORMATIVE
 10
529.75172878310525
 20
9838.0181152079913
 30
0.04
  0
VERTEX
  5
5DB
  8
1_FORMATIVE
 10
529.74567881569124
 20
9838.0195693300502
 30
0.04
  0
VERTEX
  5
5DC
  8
1_FORMATIVE
 10
529.73919190233312
 20
9838.0214208727284
 30
0.04
  0
VERTEX
  5
5DD
  8
1_FORMATIVE
 10
529.72714493064973
 20
9838.0195693300502
 30
0.04
  0
VERTEX
  5
5DE
  8
1_FORMATIVE
 10
529.7058309218686
 20
9838.0241981445142
 30
0.04
  0
VERTEX
  5
5DF
  8
1_FORMATIVE
 10
529.70490425598973
 20
9838.0362330733878
 30
0.04
  0
VERTEX
  5
5E0
  8
1_FORMATIVE
 10
529.7095377114872
 20
9838.0464164595833
 30
0.04
  0
VERTEX
  5
5E1
  8
1_FORMATIVE
 10
529.72045808142002
 20
9838.0511326452252
 30
0.04
  0
VERTEX
  5
5E2
  8
1_FORMATIVE
 10
529.73130720331312
 20
9838.0589361239581
 30
0.04
  0
VERTEX
  5
5E3
  8
1_FORMATIVE
 10
529.74197202607263
 20
9838.0640059601883
 30
0.04
  0
VERTEX
  5
5E4
  8
1_FORMATIVE
 10
529.74753214744896
 20
9838.0732636172706
 30
0.04
  0
VERTEX
  5
5E5
  8
1_FORMATIVE
 10
529.75123893706768
 20
9838.0797439462658
 30
0.04
  0
VERTEX
  5
5E6
  8
1_FORMATIVE
 10
529.75772578737451
 20
9838.0899273324649
 30
0.04
  0
VERTEX
  5
5E7
  8
1_FORMATIVE
 10
529.75865251630478
 20
9838.0899273324649
 30
0.04
  0
VERTEX
  5
5E8
  8
1_FORMATIVE
 10
529.75939519830706
 20
9838.0951259454741
 30
0.04
  0
VERTEX
  5
5E9
  8
1_FORMATIVE
 10
529.79013298987377
 20
9838.0646352634576
 30
0.04
  0
VERTEX
  5
5EA
  8
1_FORMATIVE
 10
529.80809947570174
 20
9838.0520929962986
 30
0.04
  0
VERTEX
  5
5EB
  8
1_FORMATIVE
 10
529.81905969409604
 20
9838.0379931915886
 30
0.04
  0
VERTEX
  5
5EC
  8
1_FORMATIVE
 10
529.82795239525285
 20
9838.0246318478185
 30
0.04
  0
VERTEX
  5
5ED
  8
1_FORMATIVE
 10
529.83313836984257
 20
9838.0194511087466
 30
0.04
  0
VERTEX
  5
5EE
  8
1_FORMATIVE
 10
529.85172969467556
 20
9837.9909799562465
 30
0.04
  0
VERTEX
  5
5EF
  8
1_FORMATIVE
 10
529.87078980639069
 20
9837.9739311773737
 30
0.04
  0
VERTEX
  5
5F0
  8
1_FORMATIVE
 10
529.88144580195944
 20
9837.9664794914679
 30
0.04
  0
VERTEX
  5
5F1
  8
1_FORMATIVE
 10
529.88815566493679
 20
9837.961981424136
 30
0.04
  0
VERTEX
  5
5F2
  8
1_FORMATIVE
 10
529.87505220461833
 20
9837.9622213852417
 30
0.04
  0
VERTEX
  5
5F3
  8
1_FORMATIVE
 10
529.8540954448589
 20
9837.9654149649123
 30
0.04
  0
VERTEX
  5
5F4
  8
1_FORMATIVE
 10
529.83633551529556
 20
9837.9639956055526
 30
0.04
  0
VERTEX
  5
5F5
  8
1_FORMATIVE
 10
529.81822035435448
 20
9837.9764150632927
 30
0.04
  0
VERTEX
  5
5F6
  8
1_FORMATIVE
 10
529.80773415610565
 20
9837.9861665758053
 30
0.04
  0
VERTEX
  5
5F7
  8
1_FORMATIVE
 10
529.79635168273489
 20
9837.9973704370495
 30
0.04
  0
VERTEX
  5
5F8
  8
1_FORMATIVE
 10
529.78982347073395
 20
9838.0005476346287
 30
0.04
  0
VERTEX
  5
5F9
  8
1_FORMATIVE
 10
529.78312785736512
 20
9838.0037248603512
 30
0.04
  0
VERTEX
  5
5FA
  8
1_FORMATIVE
 10
529.7762396220827
 20
9838.0067456398847
 30
0.04
  0
VERTEX
  5
5FB
  8
1_FORMATIVE
 10
529.76078951614397
 20
9838.0147627614024
 30
0.04
  0
SEQEND
  5
5FC
  8
1_FORMATIVE
  0
POLYLINE
  5
74
  8
1_FORMATIVE
 66
     1
 10
0.0
 20
0.0
 30
0.071
 70
     1
  0
VERTEX
  5
5FD
  8
1_FORMATIVE
 10
529.32220726302467
 20
9836.8620388595718
 30
0.071
  0
VERTEX
  5
5FE
  8
1_FORMATIVE
 10
529.33391899061189
 20
9836.8632088564209
 30
0.071
  0
VERTEX
  5
5FF
  8
1_FORMATIVE
 10
529.33743246475228
 20
9836.8749087967826
 30
0.071
  0
VERTEX
  5
600
  8
1_FORMATIVE
 10
529.33157663248437
 20
9836.8854387684405
 30
0.071
  0
VERTEX
  5
601
  8
1_FORMATIVE
 10
529.31166671450114
 20
9836.8936287463948
 30
0.071
  0
VERTEX
  5
602
  8
1_FORMATIVE
 10
529.28472972213478
 20
9836.8971387369475
 30
0.071
  0
VERTEX
  5
603
  8
1_FORMATIVE
 10
529.26407586112225
 20
9836.8951000386878
 30
0.071
  0
VERTEX
  5
604
  8
1_FORMATIVE
 10
529.25852166657376
 20
9836.8851125339315
 30
0.071
  0
VERTEX
  5
605
  8
1_FORMATIVE
 10
529.261298763848
 20
9836.8673569886905
 30
0.071
  0
VERTEX
  5
606
  8
1_FORMATIVE
 10
529.27887388986699
 20
9836.8643788532718
 30
0.071
  0
VERTEX
  5
607
  8
1_FORMATIVE
 10
529.29878380784999
 20
9836.8632088564209
 30
0.071
  0
VERTEX
  5
608
  8
1_FORMATIVE
 10
529.30932435637351
 20
9836.8608688627191
 30
0.071
  0
SEQEND
  5
609
  8
1_FORMATIVE
  0
POLYLINE
  5
75
  8
1_FORMATIVE
 66
     1
 10
0.0
 20
0.0
 30
0.057
 70
     1
  0
VERTEX
  5
60A
  8
1_FORMATIVE
 10
527.10676257529076
 20
9838.9570409740827
 30
0.057
  0
VERTEX
  5
60B
  8
1_FORMATIVE
 10
527.10475193038246
 20
9838.9474442751834
 30
0.057
  0
VERTEX
  5
60C
  8
1_FORMATIVE
 10
527.10631573028274
 20
9838.9391866577571
 30
0.057
  0
VERTEX
  5
60D
  8
1_FORMATIVE
 10
527.11122245038655
 20
9838.9329972939122
 30
0.057
  0
VERTEX
  5
60E
  8
1_FORMATIVE
 10
527.11765646365131
 20
9838.9276409962004
 30
0.057
  0
VERTEX
  5
60F
  8
1_FORMATIVE
 10
527.12444797814305
 20
9838.9262126576468
 30
0.057
  0
VERTEX
  5
610
  8
1_FORMATIVE
 10
527.13338405863772
 20
9838.9251413755901
 30
0.057
  0
VERTEX
  5
611
  8
1_FORMATIVE
 10
527.14227921879785
 20
9838.9274640583135
 30
0.057
  0
VERTEX
  5
612
  8
1_FORMATIVE
 10
527.15075351111125
 20
9838.9361855536263
 30
0.057
  0
VERTEX
  5
613
  8
1_FORMATIVE
 10
527.15075351111125
 20
9838.9444605383305
 30
0.057
  0
VERTEX
  5
614
  8
1_FORMATIVE
 10
527.1469752212472
 20
9838.9561482624886
 30
0.057
  0
VERTEX
  5
615
  8
1_FORMATIVE
 10
527.13535819680669
 20
9838.9632899833905
 30
0.057
  0
VERTEX
  5
616
  8
1_FORMATIVE
 10
527.12418801737454
 20
9838.9652985915145
 30
0.057
  0
VERTEX
  5
617
  8
1_FORMATIVE
 10
527.11480509187174
 20
9838.9628436416679
 30
0.057
  0
SEQEND
  5
618
  8
1_FORMATIVE
  0
POLYLINE
  5
76
  8
1_FORMATIVE
 66
     1
 10
0.0
 20
0.0
 30
0.2
 70
     1
  0
VERTEX
  5
619
  8
1_FORMATIVE
 10
527.80265479180912
 20
9838.8130231889372
 30
0.2
  0
VERTEX
  5
61A
  8
1_FORMATIVE
 10
527.79460723111913
 20
9838.7985521130358
 30
0.2
  0
VERTEX
  5
61B
  8
1_FORMATIVE
 10
527.79138820684295
 20
9838.780865276889
 30
0.2
  0
VERTEX
  5
61C
  8
1_FORMATIVE
 10
527.79621674325711
 20
9838.763178440744
 30
0.2
  0
VERTEX
  5
61D
  8
1_FORMATIVE
 10
527.79460723111913
 20
9838.7487073648426
 30
0.2
  0
VERTEX
  5
61E
  8
1_FORMATIVE
 10
527.80587381608518
 20
9838.7294126345023
 30
0.2
  0
VERTEX
  5
61F
  8
1_FORMATIVE
 10
527.82416911476957
 20
9838.7240109904742
 30
0.2
  0
VERTEX
  5
620
  8
1_FORMATIVE
 10
527.8389752140888
 20
9838.7227783926282
 30
0.2
  0
VERTEX
  5
621
  8
1_FORMATIVE
 10
527.85131367222232
 20
9838.7357207263121
 30
0.2
  0
VERTEX
  5
622
  8
1_FORMATIVE
 10
527.85254966808725
 20
9838.7551389697674
 30
0.2
  0
VERTEX
  5
623
  8
1_FORMATIVE
 10
527.85094015594905
 20
9838.769610017529
 30
0.2
  0
VERTEX
  5
624
  8
1_FORMATIVE
 10
527.8493306438113
 20
9838.790512642061
 30
0.2
  0
VERTEX
  5
625
  8
1_FORMATIVE
 10
527.84128308312131
 20
9838.7985521130358
 30
0.2
  0
VERTEX
  5
626
  8
1_FORMATIVE
 10
527.83001649815515
 20
9838.8146310831326
 30
0.2
  0
VERTEX
  5
627
  8
1_FORMATIVE
 10
527.81553088891314
 20
9838.8194547657185
 30
0.2
  0
SEQEND
  5
628
  8
1_FORMATIVE
  0
POLYLINE
  5
77
  8
1_FORMATIVE
 66
     1
 10
0.0
 20
0.0
 30
0.03
 70
     1
  0
VERTEX
  5
629
  8
1_FORMATIVE
 10
527.61519401083046
 20
9837.8346346726448
 30
0.03
  0
VERTEX
  5
62A
  8
1_FORMATIVE
 10
527.59896112222305
 20
9837.8307735929648
 30
0.03
  0
VERTEX
  5
62B
  8
1_FORMATIVE
 10
527.59509613673515
 20
9837.8346346726448
 30
0.03
  0
VERTEX
  5
62C
  8
1_FORMATIVE
 10
527.59123115124714
 20
9837.8439013089155
 30
0.03
  0
VERTEX
  5
62D
  8
1_FORMATIVE
 10
527.59045814153933
 20
9837.8562568145626
 30
0.03
  0
VERTEX
  5
62E
  8
1_FORMATIVE
 10
527.59432312702734
 20
9837.8639790020716
 30
0.03
  0
VERTEX
  5
62F
  8
1_FORMATIVE
 10
527.60514507378286
 20
9837.8732456383477
 30
0.03
  0
VERTEX
  5
630
  8
1_FORMATIVE
 10
527.61828598661054
 20
9837.8809678258549
 30
0.03
  0
VERTEX
  5
631
  8
1_FORMATIVE
 10
527.62524294787852
 20
9837.8886900133657
 30
0.03
  0
VERTEX
  5
632
  8
1_FORMATIVE
 10
527.64843286080543
 20
9837.9002733087036
 30
0.03
  0
VERTEX
  5
633
  8
1_FORMATIVE
 10
527.66234678334092
 20
9837.9002733087036
 30
0.03
  0
VERTEX
  5
634
  8
1_FORMATIVE
 10
527.68476362350873
 20
9837.9002733087036
 30
0.03
  0
VERTEX
  5
635
  8
1_FORMATIVE
 10
527.7056345073122
 20
9837.8933233315001
 30
0.03
  0
VERTEX
  5
636
  8
1_FORMATIVE
 10
527.71413748799546
 20
9837.8871455646022
 30
0.03
  0
VERTEX
  5
637
  8
1_FORMATIVE
 10
527.71722946377565
 20
9837.8771067180242
 30
0.03
  0
VERTEX
  5
638
  8
1_FORMATIVE
 10
527.71722946377565
 20
9837.8686123202096
 30
0.03
  0
VERTEX
  5
639
  8
1_FORMATIVE
 10
527.70795353643575
 20
9837.8601179223933
 30
0.03
  0
VERTEX
  5
63A
  8
1_FORMATIVE
 10
527.69403961390003
 20
9837.8508512861226
 30
0.03
  0
VERTEX
  5
63B
  8
1_FORMATIVE
 10
527.66311972999745
 20
9837.8469901782919
 30
0.03
  0
VERTEX
  5
63C
  8
1_FORMATIVE
 10
527.6522978462931
 20
9837.8462179679827
 30
0.03
  0
VERTEX
  5
63D
  8
1_FORMATIVE
 10
527.64224884619409
 20
9837.8446735192283
 30
0.03
  0
VERTEX
  5
63E
  8
1_FORMATIVE
 10
527.63219990914638
 20
9837.8439013089155
 30
0.03
  0
VERTEX
  5
63F
  8
1_FORMATIVE
 10
527.6198320060264
 20
9837.8400402010884
 30
0.03
  0
SEQEND
  5
640
  8
1_FORMATIVE
  0
POLYLINE
  5
78
  8
1_FORMATIVE
 66
     1
 10
0.0
 20
0.0
 30
0.1
 70
     1
  0
VERTEX
  5
641
  8
1_FORMATIVE
 10
527.81584551521337
 20
9837.6482788544163
 30
0.1
  0
VERTEX
  5
642
  8
1_FORMATIVE
 10
527.82321212118518
 20
9837.641706819466
 30
0.1
  0
VERTEX
  5
643
  8
1_FORMATIVE
 10
527.82940527824428
 20
9837.6347326913401
 30
0.1
  0
VERTEX
  5
644
  8
1_FORMATIVE
 10
527.83424806426615
 20
9837.6269920387858
 30
0.1
  0
VERTEX
  5
645
  8
1_FORMATIVE
 10
527.83715372326924
 20
9837.6202189431733
 30
0.1
  0
VERTEX
  5
646
  8
1_FORMATIVE
 10
527.83424806426615
 20
9837.6047376380739
 30
0.1
  0
VERTEX
  5
647
  8
1_FORMATIVE
 10
527.83231093724714
 20
9837.592159060081
 30
0.1
  0
VERTEX
  5
648
  8
1_FORMATIVE
 10
527.8264996192413
 20
9837.5853859644685
 30
0.1
  0
VERTEX
  5
649
  8
1_FORMATIVE
 10
527.81293985621039
 20
9837.5844184075304
 30
0.1
  0
VERTEX
  5
64A
  8
1_FORMATIVE
 10
527.8013171571472
 20
9837.5892563048183
 30
0.1
  0
VERTEX
  5
64B
  8
1_FORMATIVE
 10
527.78678886213288
 20
9837.5960294004326
 30
0.1
  0
VERTEX
  5
64C
  8
1_FORMATIVE
 10
527.77613475810494
 20
9837.6057052231554
 30
0.1
  0
VERTEX
  5
64D
  8
1_FORMATIVE
 10
527.76644918606075
 20
9837.6163486309724
 30
0.1
  0
VERTEX
  5
64E
  8
1_FORMATIVE
 10
527.76257493202274
 20
9837.626024453697
 30
0.1
  0
VERTEX
  5
64F
  8
1_FORMATIVE
 10
527.75773214600076
 20
9837.6376354466047
 30
0.1
  0
VERTEX
  5
650
  8
1_FORMATIVE
 10
527.75773214600076
 20
9837.6511816096809
 30
0.1
  0
VERTEX
  5
651
  8
1_FORMATIVE
 10
527.75966927301965
 20
9837.6579546771427
 30
0.1
  0
VERTEX
  5
652
  8
1_FORMATIVE
 10
527.76451205904186
 20
9837.6685980849561
 30
0.1
  0
VERTEX
  5
653
  8
1_FORMATIVE
 10
527.77502896330418
 20
9837.6736377747566
 30
0.1
  0
VERTEX
  5
654
  8
1_FORMATIVE
 10
527.78600135061163
 20
9837.6731612021558
 30
0.1
  0
VERTEX
  5
655
  8
1_FORMATIVE
 10
527.79268019231802
 20
9837.6679187909704
 30
0.1
  0
VERTEX
  5
656
  8
1_FORMATIVE
 10
527.7984049408027
 20
9837.6621998353257
 30
0.1
  0
VERTEX
  5
657
  8
1_FORMATIVE
 10
527.81033148438325
 20
9837.6560042507881
 30
0.1
  0
SEQEND
  5
658
  8
1_FORMATIVE
  0
POLYLINE
  5
79
  8
1_FORMATIVE
 66
     1
 10
0.0
 20
0.0
 30
0.2
 70
     1
  0
VERTEX
  5
659
  8
1_FORMATIVE
 10
527.26331835248834
 20
9838.2553564596783
 30
0.2
  0
VERTEX
  5
65A
  8
1_FORMATIVE
 10
527.24751124973352
 20
9838.263778432869
 30
0.2
  0
VERTEX
  5
65B
  8
1_FORMATIVE
 10
527.23591931973544
 20
9838.2722004342122
 30
0.2
  0
VERTEX
  5
65C
  8
1_FORMATIVE
 10
527.22221983488475
 20
9838.2922026346205
 30
0.2
  0
VERTEX
  5
65D
  8
1_FORMATIVE
 10
527.20641273212993
 20
9838.2995718752409
 30
0.2
  0
VERTEX
  5
65E
  8
1_FORMATIVE
 10
527.19482086518315
 20
9838.2953608886437
 30
0.2
  0
VERTEX
  5
65F
  8
1_FORMATIVE
 10
527.18639039356697
 20
9838.2858861547265
 30
0.2
  0
VERTEX
  5
660
  8
1_FORMATIVE
 10
527.1800675398548
 20
9838.2722004342122
 30
0.2
  0
VERTEX
  5
661
  8
1_FORMATIVE
 10
527.18955185194875
 20
9838.2616729395722
 30
0.2
  0
VERTEX
  5
662
  8
1_FORMATIVE
 10
527.19798226051375
 20
9838.2511454449395
 30
0.2
  0
VERTEX
  5
663
  8
1_FORMATIVE
 10
527.21168180841585
 20
9838.2469344583387
 30
0.2
  0
VERTEX
  5
664
  8
1_FORMATIVE
 10
527.21800459907661
 20
9838.2437762043155
 30
0.2
  0
VERTEX
  5
665
  8
1_FORMATIVE
 10
527.2317040839273
 20
9838.2311432445276
 30
0.2
  0
VERTEX
  5
666
  8
1_FORMATIVE
 10
527.24224217344761
 20
9838.2237740039072
 30
0.2
  0
VERTEX
  5
667
  8
1_FORMATIVE
 10
527.24856502715966
 20
9838.2227212431844
 30
0.2
  0
VERTEX
  5
668
  8
1_FORMATIVE
 10
527.25699549877595
 20
9838.2248267364794
 30
0.2
  0
VERTEX
  5
669
  8
1_FORMATIVE
 10
527.26542597039258
 20
9838.2269322297798
 30
0.2
  0
VERTEX
  5
66A
  8
1_FORMATIVE
 10
527.27069498362675
 20
9838.2332487378226
 30
0.2
  0
VERTEX
  5
66B
  8
1_FORMATIVE
 10
527.27385637895725
 20
9838.2458817257666
 30
0.2
  0
VERTEX
  5
66C
  8
1_FORMATIVE
 10
527.27385637895725
 20
9838.2511454449395
 30
0.2
  0
SEQEND
  5
66D
  8
1_FORMATIVE
  0
POLYLINE
  5
7A
  8
1_FORMATIVE
 66
     1
 10
0.0
 20
0.0
 30
0.04
 70
     1
  0
VERTEX
  5
66E
  8
1_FORMATIVE
 10
526.33126240167599
 20
9837.8308557849195
 30
0.04
  0
VERTEX
  5
66F
  8
1_FORMATIVE
 10
526.31978150512771
 20
9837.8243018772355
 30
0.04
  0
VERTEX
  5
670
  8
1_FORMATIVE
 10
526.31404105685351
 20
9837.8185672150521
 30
0.04
  0
VERTEX
  5
671
  8
1_FORMATIVE
 10
526.30666051653054
 20
9837.8095555708787
 30
0.04
  0
VERTEX
  5
672
  8
1_FORMATIVE
 10
526.29763982110717
 20
9837.7972670010076
 30
0.04
  0
VERTEX
  5
673
  8
1_FORMATIVE
 10
526.29681977508267
 20
9837.7915323106736
 30
0.04
  0
VERTEX
  5
674
  8
1_FORMATIVE
 10
526.29681977508267
 20
9837.7743282959709
 30
0.04
  0
VERTEX
  5
675
  8
1_FORMATIVE
 10
526.30420031540575
 20
9837.7661358972928
 30
0.04
  0
VERTEX
  5
676
  8
1_FORMATIVE
 10
526.31158091878001
 20
9837.761220480601
 30
0.04
  0
VERTEX
  5
677
  8
1_FORMATIVE
 10
526.32060161420316
 20
9837.758762744108
 30
0.04
  0
VERTEX
  5
678
  8
1_FORMATIVE
 10
526.33782289597434
 20
9837.7604012351039
 30
0.04
  0
VERTEX
  5
679
  8
1_FORMATIVE
 10
526.35750444192115
 20
9837.7644974344494
 30
0.04
  0
VERTEX
  5
67A
  8
1_FORMATIVE
 10
526.37062543051854
 20
9837.7677743882887
 30
0.04
  0
VERTEX
  5
67B
  8
1_FORMATIVE
 10
526.38374641911571
 20
9837.7743282959709
 30
0.04
  0
VERTEX
  5
67C
  8
1_FORMATIVE
 10
526.38969468468144
 20
9837.783789856654
 30
0.04
  0
VERTEX
  5
67D
  8
1_FORMATIVE
 10
526.39160249281679
 20
9837.7858689753411
 30
0.04
  0
VERTEX
  5
67E
  8
1_FORMATIVE
 10
526.39394384212267
 20
9837.7875149818337
 30
0.04
  0
VERTEX
  5
67F
  8
1_FORMATIVE
 10
526.3837978690276
 20
9837.8005095580775
 30
0.04
  0
VERTEX
  5
680
  8
1_FORMATIVE
 10
526.37460580000015
 20
9837.8119448234575
 30
0.04
  0
VERTEX
  5
681
  8
1_FORMATIVE
 10
526.36496556188615
 20
9837.8234788317695
 30
0.04
  0
VERTEX
  5
682
  8
1_FORMATIVE
 10
526.35693017010908
 20
9837.8333661861925
 30
0.04
  0
VERTEX
  5
683
  8
1_FORMATIVE
 10
526.35203051175779
 20
9837.8397293353555
 30
0.04
  0
VERTEX
  5
684
  8
1_FORMATIVE
 10
526.34766363742187
 20
9837.8382289381007
 30
0.04
  0
SEQEND
  5
685
  8
1_FORMATIVE
  0
POLYLINE
  5
7B
  8
1_FORMATIVE
 66
     1
 10
0.0
 20
0.0
 30
0.086
 70
     1
  0
VERTEX
  5
686
  8
1_FORMATIVE
 10
526.35340408569618
 20
9837.8406866464447
 30
0.086
  0
VERTEX
  5
687
  8
1_FORMATIVE
 10
526.35750444192115
 20
9837.8341327387625
 30
0.086
  0
VERTEX
  5
688
  8
1_FORMATIVE
 10
526.36570502826885
 20
9837.8243018772355
 30
0.086
  0
VERTEX
  5
689
  8
1_FORMATIVE
 10
526.39440726963937
 20
9837.7882553568343
 30
0.086
  0
VERTEX
  5
68A
  8
1_FORMATIVE
 10
526.43131009735725
 20
9837.8128325247162
 30
0.086
  0
VERTEX
  5
68B
  8
1_FORMATIVE
 10
526.44361103992992
 20
9837.8218441688914
 30
0.086
  0
VERTEX
  5
68C
  8
1_FORMATIVE
 10
526.4501715342285
 20
9837.8283980765755
 30
0.086
  0
VERTEX
  5
68D
  8
1_FORMATIVE
 10
526.45345178137768
 20
9837.8406866464447
 30
0.086
  0
VERTEX
  5
68E
  8
1_FORMATIVE
 10
526.45263173535307
 20
9837.8578906892963
 30
0.086
  0
VERTEX
  5
68F
  8
1_FORMATIVE
 10
526.42884989623235
 20
9837.8669023053226
 30
0.086
  0
VERTEX
  5
690
  8
1_FORMATIVE
 10
526.42146935590915
 20
9837.8669023053226
 30
0.086
  0
VERTEX
  5
691
  8
1_FORMATIVE
 10
526.40588810313625
 20
9837.8644445969803
 30
0.086
  0
VERTEX
  5
692
  8
1_FORMATIVE
 10
526.38128621799081
 20
9837.8595291521433
 30
0.086
  0
VERTEX
  5
693
  8
1_FORMATIVE
 10
526.3710116201155
 20
9837.8542893868616
 30
0.086
  0
VERTEX
  5
694
  8
1_FORMATIVE
 10
526.36185984090901
 20
9837.8483268390355
 30
0.086
  0
SEQEND
  5
695
  8
1_FORMATIVE
  0
POLYLINE
  5
7C
  8
1_FORMATIVE
 66
     1
 10
0.0
 20
0.0
 30
0.318
 70
     1
  0
VERTEX
  5
696
  8
1_FORMATIVE
 10
526.61582637969298
 20
9837.9090386303451
 30
0.318
  0
VERTEX
  5
697
  8
1_FORMATIVE
 10
526.59980433484247
 20
9837.916152372205
 30
0.318
  0
VERTEX
  5
698
  8
1_FORMATIVE
 10
526.5917933439431
 20
9837.9183754394035
 30
0.318
  0
VERTEX
  5
699
  8
1_FORMATIVE
 10
526.57488113995237
 20
9837.9179308147086
 30
0.318
  0
VERTEX
  5
69A
  8
1_FORMATIVE
 10
526.57087567602855
 20
9837.8997018212849
 30
0.318
  0
VERTEX
  5
69B
  8
1_FORMATIVE
 10
526.58333727347349
 20
9837.8828066738115
 30
0.318
  0
VERTEX
  5
69C
  8
1_FORMATIVE
 10
526.59891423875399
 20
9837.8708022010032
 30
0.318
  0
VERTEX
  5
69D
  8
1_FORMATIVE
 10
526.61360110794612
 20
9837.8681345372497
 30
0.318
  0
VERTEX
  5
69E
  8
1_FORMATIVE
 10
526.62873299365685
 20
9837.8743590860031
 30
0.318
  0
VERTEX
  5
69F
  8
1_FORMATIVE
 10
526.63006816931534
 20
9837.881472827863
 30
0.318
  0
VERTEX
  5
6A0
  8
1_FORMATIVE
 10
526.63095832845511
 20
9837.8925880794268
 30
0.318
  0
VERTEX
  5
6A1
  8
1_FORMATIVE
 10
526.62739788104955
 20
9837.8974787822317
 30
0.318
  0
VERTEX
  5
6A2
  8
1_FORMATIVE
 10
526.62161209884562
 20
9837.9063709665916
 30
0.318
  0
SEQEND
  5
6A3
  8
1_FORMATIVE
  0
POLYLINE
  5
7D
  8
1_FORMATIVE
 66
     1
 10
0.0
 20
0.0
 30
0.023
 70
     1
  0
VERTEX
  5
6A4
  8
1_FORMATIVE
 10
526.75476056201717
 20
9838.5700102886876
 30
0.023
  0
VERTEX
  5
6A5
  8
1_FORMATIVE
 10
526.74495367915142
 20
9838.5691901143073
 30
0.023
  0
VERTEX
  5
6A6
  8
1_FORMATIVE
 10
526.73070722372847
 20
9838.567608763613
 30
0.023
  0
VERTEX
  5
6A7
  8
1_FORMATIVE
 10
526.71962664028263
 20
9838.5502139059427
 30
0.023
  0
VERTEX
  5
6A8
  8
1_FORMATIVE
 10
526.71646076830552
 20
9838.5296563750308
 30
0.023
  0
VERTEX
  5
6A9
  8
1_FORMATIVE
 10
526.71962664028263
 20
9838.5138428962055
 30
0.023
  0
VERTEX
  5
6AA
  8
1_FORMATIVE
 10
526.74495367915142
 20
9838.5059361708645
 30
0.023
  0
VERTEX
  5
6AB
  8
1_FORMATIVE
 10
526.77661246197454
 20
9838.5154242468998
 30
0.023
  0
VERTEX
  5
6AC
  8
1_FORMATIVE
 10
526.78769304542016
 20
9838.5280750243273
 30
0.023
  0
VERTEX
  5
6AD
  8
1_FORMATIVE
 10
526.78769304542016
 20
9838.5423071806035
 30
0.023
  0
VERTEX
  5
6AE
  8
1_FORMATIVE
 10
526.78136130146595
 20
9838.5612833608247
 30
0.023
  0
VERTEX
  5
6AF
  8
1_FORMATIVE
 10
526.77028071802022
 20
9838.5691901143073
 30
0.023
  0
SEQEND
  5
6B0
  8
1_FORMATIVE
  0
POLYLINE
  5
7E
  8
1_FORMATIVE
 66
     1
 10
0.0
 20
0.0
 30
3.1829999999999989
 70
     1
  0
VERTEX
  5
6B1
  8
1_FORMATIVE
 10
526.3682878642943
 20
9838.5111074803845
 30
3.1829999999999989
  0
VERTEX
  5
6B2
  8
1_FORMATIVE
 10
526.38523380076401
 20
9838.5156235342438
 30
3.1829999999999989
  0
VERTEX
  5
6B3
  8
1_FORMATIVE
 10
526.41167489416193
 20
9838.5172994056884
 30
3.1829999999999989
  0
VERTEX
  5
6B4
  8
1_FORMATIVE
 10
526.42575817265765
 20
9838.5210213501523
 30
3.1829999999999989
  0
VERTEX
  5
6B5
  8
1_FORMATIVE
 10
526.43494368434369
 20
9838.5156235342438
 30
3.1829999999999989
  0
VERTEX
  5
6B6
  8
1_FORMATIVE
 10
526.44088728410861
 20
9838.4994300865183
 30
3.1829999999999989
  0
VERTEX
  5
6B7
  8
1_FORMATIVE
 10
526.44250820854325
 20
9838.4772990300262
 30
3.1829999999999989
  0
VERTEX
  5
6B8
  8
1_FORMATIVE
 10
526.43332269685754
 20
9838.4686625133145
 30
3.1829999999999989
  0
VERTEX
  5
6B9
  8
1_FORMATIVE
 10
526.41787303227818
 20
9838.4615721342343
 30
3.1829999999999989
  0
VERTEX
  5
6BA
  8
1_FORMATIVE
 10
526.39803896508477
 20
9838.4603337379158
 30
3.1829999999999989
  0
VERTEX
  5
6BB
  8
1_FORMATIVE
 10
526.38192379337147
 20
9838.4628105305565
 30
3.1829999999999989
  0
VERTEX
  5
6BC
  8
1_FORMATIVE
 10
526.37324641261841
 20
9838.4739559566951
 30
3.1829999999999989
  0
VERTEX
  5
6BD
  8
1_FORMATIVE
 10
526.36952751713807
 20
9838.4900549681224
 30
3.1829999999999989
  0
VERTEX
  5
6BE
  8
1_FORMATIVE
 10
526.3682878642943
 20
9838.5024387905887
 30
3.1829999999999989
  0
SEQEND
  5
6BF
  8
1_FORMATIVE
  0
POLYLINE
  5
7F
  8
1_FORMATIVE
 66
     1
 10
0.0
 20
0.0
 30
0.183
 70
     1
  0
VERTEX
  5
6C0
  8
1_FORMATIVE
 10
526.52659747819905
 20
9838.4483045512188
 30
0.183
  0
VERTEX
  5
6C1
  8
1_FORMATIVE
 10
526.51999373066576
 20
9838.4490693867701
 30
0.183
  0
VERTEX
  5
6C2
  8
1_FORMATIVE
 10
526.50109358025759
 20
9838.4422702261745
 30
0.183
  0
VERTEX
  5
6C3
  8
1_FORMATIVE
 10
526.48184046832091
 20
9838.4361375241133
 30
0.183
  0
VERTEX
  5
6C4
  8
1_FORMATIVE
 10
526.47025818518125
 20
9838.4259281573777
 30
0.183
  0
VERTEX
  5
6C5
  8
1_FORMATIVE
 10
526.47162078818246
 20
9838.4136769116594
 30
0.183
  0
VERTEX
  5
6C6
  8
1_FORMATIVE
 10
526.48115913529455
 20
9838.4068706859362
 30
0.183
  0
VERTEX
  5
6C7
  8
1_FORMATIVE
 10
526.49274135538246
 20
9838.3939388232793
 30
0.183
  0
VERTEX
  5
6C8
  8
1_FORMATIVE
 10
526.50227970249455
 20
9838.3857713355192
 30
0.183
  0
VERTEX
  5
6C9
  8
1_FORMATIVE
 10
526.51386192258281
 20
9838.3728394728623
 30
0.183
  0
VERTEX
  5
6CA
  8
1_FORMATIVE
 10
526.53021334775258
 20
9838.3748813518396
 30
0.183
  0
VERTEX
  5
6CB
  8
1_FORMATIVE
 10
526.53907036183818
 20
9838.3796457267363
 30
0.183
  0
VERTEX
  5
6CC
  8
1_FORMATIVE
 10
526.54860870895016
 20
9838.3844100734877
 30
0.183
  0
VERTEX
  5
6CD
  8
1_FORMATIVE
 10
526.55678439000906
 20
9838.3898550653284
 30
0.183
  0
VERTEX
  5
6CE
  8
1_FORMATIVE
 10
526.56359746806697
 20
9838.3953000571655
 30
0.183
  0
VERTEX
  5
6CF
  8
1_FORMATIVE
 10
526.56496007106853
 20
9838.4048288069607
 30
0.183
  0
VERTEX
  5
6D0
  8
1_FORMATIVE
 10
526.55337785098016
 20
9838.4177606696157
 30
0.183
  0
VERTEX
  5
6D1
  8
1_FORMATIVE
 10
526.54656477292235
 20
9838.4252475404355
 30
0.183
  0
VERTEX
  5
6D2
  8
1_FORMATIVE
 10
526.53566382280906
 20
9838.4415825159522
 30
0.183
  0
VERTEX
  5
6D3
  8
1_FORMATIVE
 10
526.53163118374766
 20
9838.4466283420006
 30
0.183
  0
SEQEND
  5
6D4
  8
1_FORMATIVE
  0
POLYLINE
  5
80
  8
1_FORMATIVE
 66
     1
 10
0.0
 20
0.0
 30
0.033
 70
     1
  0
VERTEX
  5
6D5
  8
1_FORMATIVE
 10
526.70574443258249
 20
9838.3719384294818
 30
0.033
  0
VERTEX
  5
6D6
  8
1_FORMATIVE
 10
526.69337369215145
 20
9838.3609532776518
 30
0.033
  0
VERTEX
  5
6D7
  8
1_FORMATIVE
 10
526.68512651084654
 20
9838.3609532776518
 30
0.033
  0
VERTEX
  5
6D8
  8
1_FORMATIVE
 10
526.67000673099756
 20
9838.3691921485624
 30
0.033
  0
VERTEX
  5
6D9
  8
1_FORMATIVE
 10
526.66725769157983
 20
9838.3829235813137
 30
0.033
  0
VERTEX
  5
6DA
  8
1_FORMATIVE
 10
526.67000673099756
 20
9838.4035207726592
 30
0.033
  0
VERTEX
  5
6DB
  8
1_FORMATIVE
 10
526.67138125070653
 20
9838.4172522054105
 30
0.033
  0
VERTEX
  5
6DC
  8
1_FORMATIVE
 10
526.67825391230224
 20
9838.4351030876915
 30
0.033
  0
VERTEX
  5
6DD
  8
1_FORMATIVE
 10
526.69612273156895
 20
9838.4433419586003
 30
0.033
  0
VERTEX
  5
6DE
  8
1_FORMATIVE
 10
526.72773681097556
 20
9838.4433419586003
 30
0.033
  0
VERTEX
  5
6DF
  8
1_FORMATIVE
 10
526.75935089038273
 20
9838.4584465599619
 30
0.033
  0
VERTEX
  5
6E0
  8
1_FORMATIVE
 10
526.77584525299187
 20
9838.4611928408813
 30
0.033
  0
VERTEX
  5
6E1
  8
1_FORMATIVE
 10
526.78684141066276
 20
9838.4598197004198
 30
0.033
  0
VERTEX
  5
6E2
  8
1_FORMATIVE
 10
526.80333577327235
 20
9838.4433419586003
 30
0.033
  0
VERTEX
  5
6E3
  8
1_FORMATIVE
 10
526.80333577327235
 20
9838.4254910763193
 30
0.033
  0
VERTEX
  5
6E4
  8
1_FORMATIVE
 10
526.80196125356315
 20
9838.4103864749595
 30
0.033
  0
VERTEX
  5
6E5
  8
1_FORMATIVE
 10
526.77721977270085
 20
9838.4076401940401
 30
0.033
  0
VERTEX
  5
6E6
  8
1_FORMATIVE
 10
526.76897259139605
 20
9838.4062670535805
 30
0.033
  0
VERTEX
  5
6E7
  8
1_FORMATIVE
 10
526.74285659082477
 20
9838.4021476040507
 30
0.033
  0
VERTEX
  5
6E8
  8
1_FORMATIVE
 10
526.72636229126704
 20
9838.3884161712995
 30
0.033
  0
VERTEX
  5
6E9
  8
1_FORMATIVE
 10
526.71811510996247
 20
9838.3815504408522
 30
0.033
  0
SEQEND
  5
6EA
  8
1_FORMATIVE
  0
POLYLINE
  5
81
  8
1_FORMATIVE
 66
     1
 10
0.0
 20
0.0
 30
0.113
 70
     1
  0
VERTEX
  5
6EB
  8
1_FORMATIVE
 10
526.91831466217661
 20
9838.3720460390196
 30
0.113
  0
VERTEX
  5
6EC
  8
1_FORMATIVE
 10
526.92199995128055
 20
9838.384125526065
 30
0.113
  0
VERTEX
  5
6ED
  8
1_FORMATIVE
 10
526.93484256811075
 20
9838.3901630599721
 30
0.113
  0
VERTEX
  5
6EE
  8
1_FORMATIVE
 10
526.95284272336608
 20
9838.3950416310217
 30
0.113
  0
VERTEX
  5
6EF
  8
1_FORMATIVE
 10
526.96367507359673
 20
9838.3882782182955
 30
0.113
  0
VERTEX
  5
6F0
  8
1_FORMATIVE
 10
526.9650291016128
 20
9838.3761040697664
 30
0.113
  0
VERTEX
  5
6F1
  8
1_FORMATIVE
 10
526.97179930474385
 20
9838.3652826262914
 30
0.113
  0
VERTEX
  5
6F2
  8
1_FORMATIVE
 10
526.97332022971727
 20
9838.3486778247207
 30
0.113
  0
VERTEX
  5
6F3
  8
1_FORMATIVE
 10
526.96191669719121
 20
9838.3368111078726
 30
0.113
  0
VERTEX
  5
6F4
  8
1_FORMATIVE
 10
526.94718720527794
 20
9838.3277924267168
 30
0.113
  0
VERTEX
  5
6F5
  8
1_FORMATIVE
 10
526.92846996687342
 20
9838.3294365472975
 30
0.113
  0
VERTEX
  5
6F6
  8
1_FORMATIVE
 10
526.91425251507735
 20
9838.3341709446486
 30
0.113
  0
VERTEX
  5
6F7
  8
1_FORMATIVE
 10
526.90748231194596
 20
9838.3470214034915
 30
0.113
  0
VERTEX
  5
6F8
  8
1_FORMATIVE
 10
526.90951338549576
 20
9838.3632535827728
 30
0.113
  0
SEQEND
  5
6F9
  8
1_FORMATIVE
  0
POLYLINE
  5
82
  8
1_FORMATIVE
 66
     1
 10
0.0
 20
0.0
 30
0.25
 70
     1
  0
VERTEX
  5
6FA
  8
1_FORMATIVE
 10
526.67223118307675
 20
9838.0444403060264
 30
0.25
  0
VERTEX
  5
6FB
  8
1_FORMATIVE
 10
526.65301337990331
 20
9838.0564393462882
 30
0.25
  0
VERTEX
  5
6FC
  8
1_FORMATIVE
 10
526.63975159761276
 20
9838.0594634472745
 30
0.25
  0
VERTEX
  5
6FD
  8
1_FORMATIVE
 10
526.62218277673026
 20
9838.0550252224457
 30
0.25
  0
VERTEX
  5
6FE
  8
1_FORMATIVE
 10
526.6169800304782
 20
9838.0420404979741
 30
0.25
  0
VERTEX
  5
6FF
  8
1_FORMATIVE
 10
526.61638186219943
 20
9838.0251157107305
 30
0.25
  0
VERTEX
  5
700
  8
1_FORMATIVE
 10
526.62353522846206
 20
9838.0199185051206
 30
0.25
  0
VERTEX
  5
701
  8
1_FORMATIVE
 10
526.63914245839715
 20
9838.0182943977143
 30
0.25
  0
VERTEX
  5
702
  8
1_FORMATIVE
 10
526.65474968833166
 20
9838.0205681593361
 30
0.25
  0
VERTEX
  5
703
  8
1_FORMATIVE
 10
526.66287845917714
 20
9838.0231667480712
 30
0.25
  0
VERTEX
  5
704
  8
1_FORMATIVE
 10
526.67160344370893
 20
9838.0264139495503
 30
0.25
  0
VERTEX
  5
705
  8
1_FORMATIVE
 10
526.67337821346882
 20
9838.0346881179648
 30
0.25
  0
SEQEND
  5
706
  8
1_FORMATIVE
  0
POLYLINE
  5
83
  8
1_FORMATIVE
 66
     1
 10
0.0
 20
0.0
 30
0.092
 70
     1
  0
VERTEX
  5
707
  8
1_FORMATIVE
 10
526.50724613223906
 20
9837.9789968758614
 30
0.092
  0
VERTEX
  5
708
  8
1_FORMATIVE
 10
526.49743962768105
 20
9837.9905223553524
 30
0.092
  0
VERTEX
  5
709
  8
1_FORMATIVE
 10
526.49455534309016
 20
9838.0043529532613
 30
0.092
  0
VERTEX
  5
70A
  8
1_FORMATIVE
 10
526.49743962768105
 20
9838.0187598237317
 30
0.092
  0
VERTEX
  5
70B
  8
1_FORMATIVE
 10
526.50263133994508
 20
9838.0239463049857
 30
0.092
  0
VERTEX
  5
70C
  8
1_FORMATIVE
 10
526.52628234748806
 20
9838.025675122688
 30
0.092
  0
VERTEX
  5
70D
  8
1_FORMATIVE
 10
526.55454821037654
 20
9838.0262513952548
 30
0.092
  0
VERTEX
  5
70E
  8
1_FORMATIVE
 10
526.56781585644353
 20
9838.0233700324206
 30
0.092
  0
VERTEX
  5
70F
  8
1_FORMATIVE
 10
526.57819921791952
 20
9838.003200408124
 30
0.092
  0
VERTEX
  5
710
  8
1_FORMATIVE
 10
526.5776223610012
 20
9837.9778443307241
 30
0.092
  0
VERTEX
  5
711
  8
1_FORMATIVE
 10
526.56031677955843
 20
9837.9709290317733
 30
0.092
  0
VERTEX
  5
712
  8
1_FORMATIVE
 10
526.54877964119453
 20
9837.9743866671797
 30
0.092
  0
VERTEX
  5
713
  8
1_FORMATIVE
 10
526.53724256588202
 20
9837.9743866671797
 30
0.092
  0
VERTEX
  5
714
  8
1_FORMATIVE
 10
526.51243784450287
 20
9837.9738103946074
 30
0.092
  0
SEQEND
  5
715
  8
1_FORMATIVE
  0
POLYLINE
  5
84
  8
1_FORMATIVE
 66
     1
 10
0.0
 20
0.0
 30
0.093
 70
     1
  0
VERTEX
  5
716
  8
1_FORMATIVE
 10
526.36265725149428
 20
9838.0637636909578
 30
0.093
  0
VERTEX
  5
717
  8
1_FORMATIVE
 10
526.36237307900217
 20
9838.049287689164
 30
0.093
  0
VERTEX
  5
718
  8
1_FORMATIVE
 10
526.36549853505596
 20
9838.0297024721913
 30
0.093
  0
VERTEX
  5
719
  8
1_FORMATIVE
 10
526.36748742724365
 20
9838.0226063790851
 30
0.093
  0
VERTEX
  5
71A
  8
1_FORMATIVE
 10
526.37803075002716
 20
9838.0141496431952
 30
0.093
  0
VERTEX
  5
71B
  8
1_FORMATIVE
 10
526.39987811028595
 20
9838.0104010989417
 30
0.093
  0
VERTEX
  5
71C
  8
1_FORMATIVE
 10
526.42118783157434
 20
9838.0101172552168
 30
0.093
  0
VERTEX
  5
71D
  8
1_FORMATIVE
 10
526.43790596347037
 20
9838.0173144838354
 30
0.093
  0
VERTEX
  5
71E
  8
1_FORMATIVE
 10
526.43860047423129
 20
9838.0343192674918
 30
0.093
  0
VERTEX
  5
71F
  8
1_FORMATIVE
 10
526.43860047423129
 20
9838.0516075008036
 30
0.093
  0
VERTEX
  5
720
  8
1_FORMATIVE
 10
526.43340876196783
 20
9838.0625567358766
 30
0.093
  0
VERTEX
  5
721
  8
1_FORMATIVE
 10
526.42879396967373
 20
9838.0654380987089
 30
0.093
  0
VERTEX
  5
722
  8
1_FORMATIVE
 10
526.41379575285214
 20
9838.0706245799647
 30
0.093
  0
VERTEX
  5
723
  8
1_FORMATIVE
 10
526.39706696527605
 20
9838.0735059428007
 30
0.093
  0
VERTEX
  5
724
  8
1_FORMATIVE
 10
526.37745389310885
 20
9838.072929670232
 30
0.093
  0
VERTEX
  5
725
  8
1_FORMATIVE
 10
526.36556549560305
 20
9838.0716289543943
 30
0.093
  0
SEQEND
  5
726
  8
1_FORMATIVE
  0
POLYLINE
  5
85
  8
1_FORMATIVE
 66
     1
 10
0.0
 20
0.0
 30
0.318
 70
     1
  0
VERTEX
  5
727
  8
1_FORMATIVE
 10
525.19102333509227
 20
9835.8255183941801
 30
0.318
  0
VERTEX
  5
728
  8
1_FORMATIVE
 10
525.21498001564203
 20
9835.8166982685216
 30
0.318
  0
VERTEX
  5
729
  8
1_FORMATIVE
 10
525.23468079225472
 20
9835.8068577804042
 30
0.318
  0
VERTEX
  5
72A
  8
1_FORMATIVE
 10
525.24781464333
 20
9835.8046709958835
 30
0.318
  0
VERTEX
  5
72B
  8
1_FORMATIVE
 10
525.26313751161831
 20
9835.8002974549945
 30
0.318
  0
VERTEX
  5
72C
  8
1_FORMATIVE
 10
525.27208733731004
 20
9835.797634773422
 30
0.318
  0
VERTEX
  5
72D
  8
1_FORMATIVE
 10
525.26915204416662
 20
9835.7416762948724
 30
0.318
  0
VERTEX
  5
72E
  8
1_FORMATIVE
 10
525.26792903688226
 20
9835.7023343274359
 30
0.318
  0
VERTEX
  5
72F
  8
1_FORMATIVE
 10
525.26768439759485
 20
9835.6920711981547
 30
0.318
  0
VERTEX
  5
730
  8
1_FORMATIVE
 10
525.26768439759485
 20
9835.6818080688736
 30
0.318
  0
VERTEX
  5
731
  8
1_FORMATIVE
 10
525.23559541532325
 20
9835.6867501135021
 30
0.318
  0
VERTEX
  5
732
  8
1_FORMATIVE
 10
525.20107681183788
 20
9835.6992173664275
 30
0.318
  0
VERTEX
  5
733
  8
1_FORMATIVE
 10
525.1336329128053
 20
9835.7302528516284
 30
0.318
  0
VERTEX
  5
734
  8
1_FORMATIVE
 10
525.14462673757589
 20
9835.7709765164946
 30
0.318
  0
VERTEX
  5
735
  8
1_FORMATIVE
 10
525.15433664744592
 20
9835.7950160307719
 30
0.318
  0
VERTEX
  5
736
  8
1_FORMATIVE
 10
525.15852325793526
 20
9835.8124522377475
 30
0.318
  0
VERTEX
  5
737
  8
1_FORMATIVE
 10
525.17239525131447
 20
9835.8247265084683
 30
0.318
  0
SEQEND
  5
738
  8
1_FORMATIVE
  0
POLYLINE
  5
86
  8
1_FORMATIVE
 66
     1
 10
0.0
 20
0.0
 30
0.318
 70
     1
  0
VERTEX
  5
739
  8
1_FORMATIVE
 10
525.2702588477888
 20
9835.682031366403
 30
0.318
  0
VERTEX
  5
73A
  8
1_FORMATIVE
 10
525.31694037441389
 20
9835.6727310933547
 30
0.318
  0
VERTEX
  5
73B
  8
1_FORMATIVE
 10
525.34690313862905
 20
9835.6724057314314
 30
0.318
  0
VERTEX
  5
73C
  8
1_FORMATIVE
 10
525.37442846326155
 20
9835.703478568932
 30
0.318
  0
VERTEX
  5
73D
  8
1_FORMATIVE
 10
525.40634512615873
 20
9835.7461276366466
 30
0.318
  0
VERTEX
  5
73E
  8
1_FORMATIVE
 10
525.38687770263948
 20
9835.7617839374288
 30
0.318
  0
VERTEX
  5
73F
  8
1_FORMATIVE
 10
525.37195004029297
 20
9835.8074541224451
 30
0.318
  0
VERTEX
  5
740
  8
1_FORMATIVE
 10
525.35543449242573
 20
9835.8036457356866
 30
0.318
  0
VERTEX
  5
741
  8
1_FORMATIVE
 10
525.30420916934145
 20
9835.7968225649074
 30
0.318
  0
VERTEX
  5
742
  8
1_FORMATIVE
 10
525.28466059871835
 20
9835.7946491788025
 30
0.318
  0
VERTEX
  5
743
  8
1_FORMATIVE
 10
525.27423171415853
 20
9835.7971297714139
 30
0.318
  0
SEQEND
  5
744
  8
1_FORMATIVE
  0
POLYLINE
  5
87
  8
1_FORMATIVE
 66
     1
 10
0.0
 20
0.0
 30
0.318
 70
     1
  0
VERTEX
  5
745
  8
1_FORMATIVE
 10
525.44391377626755
 20
9835.5900571612838
 30
0.318
  0
VERTEX
  5
746
  8
1_FORMATIVE
 10
525.49994909866541
 20
9835.6117918667678
 30
0.318
  0
VERTEX
  5
747
  8
1_FORMATIVE
 10
525.53353309180011
 20
9835.6259186653424
 30
0.318
  0
VERTEX
  5
748
  8
1_FORMATIVE
 10
525.5533730858217
 20
9835.5904095170663
 30
0.318
  0
VERTEX
  5
749
  8
1_FORMATIVE
 10
525.57572120000395
 20
9835.5660904938431
 30
0.318
  0
VERTEX
  5
74A
  8
1_FORMATIVE
 10
525.59128511365259
 20
9835.5497449065606
 30
0.318
  0
VERTEX
  5
74B
  8
1_FORMATIVE
 10
525.58108428587184
 20
9835.5322621429023
 30
0.318
  0
VERTEX
  5
74C
  8
1_FORMATIVE
 10
525.56931083100039
 20
9835.5087388616557
 30
0.318
  0
VERTEX
  5
74D
  8
1_FORMATIVE
 10
525.54797525865308
 20
9835.4872710266936
 30
0.318
  0
VERTEX
  5
74E
  8
1_FORMATIVE
 10
525.50282808694192
 20
9835.4780100481566
 30
0.318
  0
VERTEX
  5
74F
  8
1_FORMATIVE
 10
525.47365579766176
 20
9835.4958396787497
 30
0.318
  0
VERTEX
  5
750
  8
1_FORMATIVE
 10
525.45894099671591
 20
9835.5404841813506
 30
0.318
  0
VERTEX
  5
751
  8
1_FORMATIVE
 10
525.45341555358914
 20
9835.5626970638696
 30
0.318
  0
VERTEX
  5
752
  8
1_FORMATIVE
 10
525.44782623943138
 20
9835.5744228158837
 30
0.318
  0
VERTEX
  5
753
  8
1_FORMATIVE
 10
525.44559056420974
 20
9835.5844734564434
 30
0.318
  0
SEQEND
  5
754
  8
1_FORMATIVE
  0
POLYLINE
  5
88
  8
1_FORMATIVE
 66
     1
 10
0.0
 20
0.0
 30
0.318
 70
     1
  0
VERTEX
  5
755
  8
1_FORMATIVE
 10
525.61646889982478
 20
9835.549450591805
 30
0.318
  0
VERTEX
  5
756
  8
1_FORMATIVE
 10
525.63308198815048
 20
9835.5494235697934
 30
0.318
  0
VERTEX
  5
757
  8
1_FORMATIVE
 10
525.65319303998081
 20
9835.5416963156513
 30
0.318
  0
VERTEX
  5
758
  8
1_FORMATIVE
 10
525.67639814828601
 20
9835.5355145235972
 30
0.318
  0
VERTEX
  5
759
  8
1_FORMATIVE
 10
525.70733827167601
 20
9835.5324235994285
 30
0.318
  0
VERTEX
  5
75A
  8
1_FORMATIVE
 10
525.72435533008286
 20
9835.5293327034051
 30
0.318
  0
VERTEX
  5
75B
  8
1_FORMATIVE
 10
525.72388219265645
 20
9835.5073920958075
 30
0.318
  0
VERTEX
  5
75C
  8
1_FORMATIVE
 10
525.71525966658919
 20
9835.4557089500249
 30
0.318
  0
VERTEX
  5
75D
  8
1_FORMATIVE
 10
525.71571344724725
 20
9835.4371211267917
 30
0.318
  0
VERTEX
  5
75E
  8
1_FORMATIVE
 10
525.69496223493024
 20
9835.4319692674962
 30
0.318
  0
VERTEX
  5
75F
  8
1_FORMATIVE
 10
525.68103916994733
 20
9835.4257874472987
 30
0.318
  0
VERTEX
  5
760
  8
1_FORMATIVE
 10
525.65474006821808
 20
9835.4273329093812
 30
0.318
  0
VERTEX
  5
761
  8
1_FORMATIVE
 10
525.64081700323516
 20
9835.4427874176563
 30
0.318
  0
VERTEX
  5
762
  8
1_FORMATIVE
 10
525.63772300981145
 20
9835.4474237757677
 30
0.318
  0
VERTEX
  5
763
  8
1_FORMATIVE
 10
525.6222529796421
 20
9835.4474237757677
 30
0.318
  0
VERTEX
  5
764
  8
1_FORMATIVE
 10
525.59750084309917
 20
9835.4597873880157
 30
0.318
  0
VERTEX
  5
765
  8
1_FORMATIVE
 10
525.57429579784525
 20
9835.4613328501055
 30
0.318
  0
VERTEX
  5
766
  8
1_FORMATIVE
 10
525.56501375452319
 20
9835.495332762679
 30
0.318
  0
VERTEX
  5
767
  8
1_FORMATIVE
 10
525.56232076776701
 20
9835.4999763266605
 30
0.318
  0
VERTEX
  5
768
  8
1_FORMATIVE
 10
525.57045451966985
 20
9835.5082866088705
 30
0.318
  0
VERTEX
  5
769
  8
1_FORMATIVE
 10
525.58191574419266
 20
9835.5321094122355
 30
0.318
  0
VERTEX
  5
76A
  8
1_FORMATIVE
 10
525.59289033829793
 20
9835.5491822294407
 30
0.318
  0
VERTEX
  5
76B
  8
1_FORMATIVE
 10
525.60562148031875
 20
9835.5505210012798
 30
0.318
  0
SEQEND
  5
76C
  8
1_FORMATIVE
  0
POLYLINE
  5
89
  8
1_FORMATIVE
 66
     1
 10
0.0
 20
0.0
 30
0.637
 70
     1
  0
VERTEX
  5
76D
  8
1_FORMATIVE
 10
525.72111543580593
 20
9835.4383191589804
 30
0.637
  0
VERTEX
  5
76E
  8
1_FORMATIVE
 10
525.73838583458837
 20
9835.4391407126077
 30
0.637
  0
VERTEX
  5
76F
  8
1_FORMATIVE
 10
525.76716979052492
 20
9835.4424270115633
 30
0.637
  0
VERTEX
  5
770
  8
1_FORMATIVE
 10
525.78526256823238
 20
9835.4424270115633
 30
0.637
  0
VERTEX
  5
771
  8
1_FORMATIVE
 10
525.82638252329934
 20
9835.4506427448741
 30
0.637
  0
VERTEX
  5
772
  8
1_FORMATIVE
 10
525.84200810118068
 20
9835.4539290438297
 30
0.637
  0
VERTEX
  5
773
  8
1_FORMATIVE
 10
525.85269934246105
 20
9835.4621447489917
 30
0.637
  0
VERTEX
  5
774
  8
1_FORMATIVE
 10
525.85352172138585
 20
9835.4818625145672
 30
0.637
  0
VERTEX
  5
775
  8
1_FORMATIVE
 10
525.85023214263504
 20
9835.4991155348216
 30
0.637
  0
VERTEX
  5
776
  8
1_FORMATIVE
 10
525.84529774298312
 20
9835.5286921691131
 30
0.637
  0
VERTEX
  5
777
  8
1_FORMATIVE
 10
525.83871852242964
 20
9835.5426588904083
 30
0.637
  0
VERTEX
  5
778
  8
1_FORMATIVE
 10
525.82802734420045
 20
9835.5443020539606
 30
0.637
  0
VERTEX
  5
779
  8
1_FORMATIVE
 10
525.79595374646135
 20
9835.5426588904083
 30
0.637
  0
VERTEX
  5
77A
  8
1_FORMATIVE
 10
525.78197298948135
 20
9835.5385510378237
 30
0.637
  0
VERTEX
  5
77B
  8
1_FORMATIVE
 10
525.7408530344145
 20
9835.5336216034684
 30
0.637
  0
VERTEX
  5
77C
  8
1_FORMATIVE
 10
525.7258240485279
 20
9835.5294284345127
 30
0.637
  0
VERTEX
  5
77D
  8
1_FORMATIVE
 10
525.7258240485279
 20
9835.5058563447583
 30
0.637
  0
VERTEX
  5
77E
  8
1_FORMATIVE
 10
525.71618645857075
 20
9835.4552352485116
 30
0.637
  0
VERTEX
  5
77F
  8
1_FORMATIVE
 10
525.71674301295025
 20
9835.4381377455738
 30
0.637
  0
SEQEND
  5
780
  8
1_FORMATIVE
  0
POLYLINE
  5
8A
  8
1_FORMATIVE
 66
     1
 10
0.0
 20
0.0
 30
0.318
 70
     1
  0
VERTEX
  5
781
  8
1_FORMATIVE
 10
525.78174556321585
 20
9835.6379990812711
 30
0.318
  0
VERTEX
  5
782
  8
1_FORMATIVE
 10
525.78746917677586
 20
9835.6278340193767
 30
0.318
  0
VERTEX
  5
783
  8
1_FORMATIVE
 10
525.78365343440259
 20
9835.6100451469829
 30
0.318
  0
VERTEX
  5
784
  8
1_FORMATIVE
 10
525.76902646400515
 20
9835.5967035067661
 30
0.318
  0
VERTEX
  5
785
  8
1_FORMATIVE
 10
525.74231633044189
 20
9835.5992447581648
 30
0.318
  0
VERTEX
  5
786
  8
1_FORMATIVE
 10
525.71624213292432
 20
9835.6024213364872
 30
0.318
  0
VERTEX
  5
787
  8
1_FORMATIVE
 10
525.69716342105676
 20
9835.6176689574822
 30
0.318
  0
VERTEX
  5
788
  8
1_FORMATIVE
 10
525.68762412817455
 20
9835.6405403608205
 30
0.318
  0
VERTEX
  5
789
  8
1_FORMATIVE
 10
525.6812645785692
 20
9835.6557879536595
 30
0.318
  0
VERTEX
  5
78A
  8
1_FORMATIVE
 10
525.66525659417255
 20
9835.6730990712385
 30
0.318
  0
VERTEX
  5
78B
  8
1_FORMATIVE
 10
525.6877617692993
 20
9835.6908860858639
 30
0.318
  0
VERTEX
  5
78C
  8
1_FORMATIVE
 10
525.69652748501176
 20
9835.6939069779946
 30
0.318
  0
VERTEX
  5
78D
  8
1_FORMATIVE
 10
525.7133560198439
 20
9835.7001251371657
 30
0.318
  0
VERTEX
  5
78E
  8
1_FORMATIVE
 10
525.72387361767096
 20
9835.6894597458195
 30
0.318
  0
VERTEX
  5
78F
  8
1_FORMATIVE
 10
525.71815000411095
 20
9835.6754827786754
 30
0.318
  0
VERTEX
  5
790
  8
1_FORMATIVE
 10
525.73341291055351
 20
9835.6646823898554
 30
0.318
  0
VERTEX
  5
791
  8
1_FORMATIVE
 10
525.7454960737191
 20
9835.6576939062834
 30
0.318
  0
VERTEX
  5
792
  8
1_FORMATIVE
 10
525.76203091530328
 20
9835.6494347970129
 30
0.318
  0
VERTEX
  5
793
  8
1_FORMATIVE
 10
525.78110962717051
 20
9835.6456228917668
 30
0.318
  0
SEQEND
  5
794
  8
1_FORMATIVE
  0
POLYLINE
  5
8B
  8
1_FORMATIVE
 66
     1
 10
0.0
 20
0.0
 30
0.014
 70
     1
  0
VERTEX
  5
795
  8
1_FORMATIVE
 10
526.63065637547857
 20
9836.5770027326816
 30
0.014
  0
VERTEX
  5
796
  8
1_FORMATIVE
 10
526.6498628294072
 20
9836.5843824161857
 30
0.014
  0
VERTEX
  5
797
  8
1_FORMATIVE
 10
526.67128547568632
 20
9836.585120398604
 30
0.014
  0
VERTEX
  5
798
  8
1_FORMATIVE
 10
526.67379428941206
 20
9836.5772685335833
 30
0.014
  0
VERTEX
  5
799
  8
1_FORMATIVE
 10
526.67845384817349
 20
9836.5704652352433
 30
0.014
  0
VERTEX
  5
79A
  8
1_FORMATIVE
 10
526.68466106568656
 20
9836.5634793975787
 30
0.014
  0
VERTEX
  5
79B
  8
1_FORMATIVE
 10
526.69602903724387
 20
9836.5500948599092
 30
0.014
  0
VERTEX
  5
79C
  8
1_FORMATIVE
 10
526.68014999288425
 20
9836.5423182061586
 30
0.014
  0
VERTEX
  5
79D
  8
1_FORMATIVE
 10
526.66980805615344
 20
9836.5319866211103
 30
0.014
  0
VERTEX
  5
79E
  8
1_FORMATIVE
 10
526.64329508420201
 20
9836.5260004571737
 30
0.014
  0
VERTEX
  5
79F
  8
1_FORMATIVE
 10
526.61292727803186
 20
9836.5120614615844
 30
0.014
  0
VERTEX
  5
7A0
  8
1_FORMATIVE
 10
526.58781108292055
 20
9836.50689569721
 30
0.014
  0
VERTEX
  5
7A1
  8
1_FORMATIVE
 10
526.55900140202755
 20
9836.504681778084
 30
0.014
  0
VERTEX
  5
7A2
  8
1_FORMATIVE
 10
526.52354327018566
 20
9836.5054197605132
 30
0.014
  0
VERTEX
  5
7A3
  8
1_FORMATIVE
 10
526.52649810925141
 20
9836.5231310009094
 30
0.014
  0
VERTEX
  5
7A4
  8
1_FORMATIVE
 10
526.53979488504797
 20
9836.5342005402345
 30
0.014
  0
VERTEX
  5
7A5
  8
1_FORMATIVE
 10
526.53979488504797
 20
9836.5548636821804
 30
0.014
  0
VERTEX
  5
7A6
  8
1_FORMATIVE
 10
526.53314649714957
 20
9836.564457256658
 30
0.014
  0
VERTEX
  5
7A7
  8
1_FORMATIVE
 10
526.53166907761681
 20
9836.5770027326816
 30
0.014
  0
VERTEX
  5
7A8
  8
1_FORMATIVE
 10
526.54201101434717
 20
9836.5784786693821
 30
0.014
  0
VERTEX
  5
7A9
  8
1_FORMATIVE
 10
526.55087553154488
 20
9836.5762647784068
 30
0.014
  0
VERTEX
  5
7AA
  8
1_FORMATIVE
 10
526.56786591922526
 20
9836.564457256658
 30
0.014
  0
VERTEX
  5
7AB
  8
1_FORMATIVE
 10
526.57968527548928
 20
9836.5592914922818
 30
0.014
  0
VERTEX
  5
7AC
  8
1_FORMATIVE
 10
526.59445953387012
 20
9836.5548636821804
 30
0.014
  0
VERTEX
  5
7AD
  8
1_FORMATIVE
 10
526.60110792176806
 20
9836.5600294465567
 30
0.014
  0
VERTEX
  5
7AE
  8
1_FORMATIVE
 10
526.62400792452911
 20
9836.5688850667593
 30
0.014
  0
SEQEND
  5
7AF
  8
1_FORMATIVE
  0
POLYLINE
  5
8C
  8
1_FORMATIVE
 66
     1
 10
0.0
 20
0.0
 30
0.01
 70
     1
  0
VERTEX
  5
7B0
  8
1_FORMATIVE
 10
526.36173462090244
 20
9836.3988024111914
 30
0.01
  0
VERTEX
  5
7B1
  8
1_FORMATIVE
 10
526.36487823574862
 20
9836.37917480344
 30
0.01
  0
VERTEX
  5
7B2
  8
1_FORMATIVE
 10
526.38334673652696
 20
9836.3756418160265
 30
0.01
  0
VERTEX
  5
7B3
  8
1_FORMATIVE
 10
526.39496678743285
 20
9836.3866075176375
 30
0.01
  0
VERTEX
  5
7B4
  8
1_FORMATIVE
 10
526.39704237524461
 20
9836.3938647857904
 30
0.01
  0
VERTEX
  5
7B5
  8
1_FORMATIVE
 10
526.39743486997793
 20
9836.3999547029962
 30
0.01
  0
VERTEX
  5
7B6
  8
1_FORMATIVE
 10
526.39289119962086
 20
9836.4090704945138
 30
0.01
  0
VERTEX
  5
7B7
  8
1_FORMATIVE
 10
526.3866644361857
 20
9836.4114895838957
 30
0.01
  0
VERTEX
  5
7B8
  8
1_FORMATIVE
 10
526.3688076597291
 20
9836.4090087942477
 30
0.01
  0
SEQEND
  5
7B9
  8
1_FORMATIVE
  0
POLYLINE
  5
8D
  8
1_FORMATIVE
 66
     1
 10
0.0
 20
0.0
 30
0.013
 70
     1
  0
VERTEX
  5
7BA
  8
1_FORMATIVE
 10
528.27503654762097
 20
9837.5214441700646
 30
0.013
  0
VERTEX
  5
7BB
  8
1_FORMATIVE
 10
528.25802383975815
 20
9837.5193197050594
 30
0.013
  0
VERTEX
  5
7BC
  8
1_FORMATIVE
 10
528.24909217285926
 20
9837.5048734274842
 30
0.013
  0
VERTEX
  5
7BD
  8
1_FORMATIVE
 10
528.25887446569345
 20
9837.4934014009123
 30
0.013
  0
VERTEX
  5
7BE
  8
1_FORMATIVE
 10
528.27333529575003
 20
9837.4938262939122
 30
0.013
  0
VERTEX
  5
7BF
  8
1_FORMATIVE
 10
528.28566946639103
 20
9837.4946760799121
 30
0.013
  0
VERTEX
  5
7C0
  8
1_FORMATIVE
 10
528.2907732850548
 20
9837.5006245256263
 30
0.013
  0
VERTEX
  5
7C1
  8
1_FORMATIVE
 10
528.28864668869062
 20
9837.5116716873436
 30
0.013
  0
VERTEX
  5
7C2
  8
1_FORMATIVE
 10
528.27758848847873
 20
9837.5218690349157
 30
0.013
  0
SEQEND
  5
7C3
  8
1_FORMATIVE
  0
POLYLINE
  5
8E
  8
1_FORMATIVE
 66
     1
 10
0.0
 20
0.0
 30
0.009
 70
     1
  0
VERTEX
  5
7C4
  8
1_FORMATIVE
 10
528.06506876302615
 20
9837.2439630601275
 30
0.009
  0
VERTEX
  5
7C5
  8
1_FORMATIVE
 10
528.06717373277274
 20
9837.2203063858433
 30
0.009
  0
VERTEX
  5
7C6
  8
1_FORMATIVE
 10
528.07243606256304
 20
9837.2071638077887
 30
0.009
  0
VERTEX
  5
7C7
  8
1_FORMATIVE
 10
528.08401317549055
 20
9837.2029581692987
 30
0.009
  0
VERTEX
  5
7C8
  8
1_FORMATIVE
 10
528.0934853186717
 20
9837.2029581692987
 30
0.009
  0
VERTEX
  5
7C9
  8
1_FORMATIVE
 10
528.10453620492569
 20
9837.204535269655
 30
0.009
  0
VERTEX
  5
7CA
  8
1_FORMATIVE
 10
528.11979696762194
 20
9837.209792317768
 30
0.009
  0
VERTEX
  5
7CB
  8
1_FORMATIVE
 10
528.12760657246872
 20
9837.2143167034155
 30
0.009
  0
VERTEX
  5
7CC
  8
1_FORMATIVE
 10
528.12592663195835
 20
9837.2407489606176
 30
0.009
  0
VERTEX
  5
7CD
  8
1_FORMATIVE
 10
528.12340678424437
 20
9837.2545944206304
 30
0.009
  0
VERTEX
  5
7CE
  8
1_FORMATIVE
 10
528.11948530473535
 20
9837.2734597543022
 30
0.009
  0
VERTEX
  5
7CF
  8
1_FORMATIVE
 10
528.11033415604265
 20
9837.2790102164345
 30
0.009
  0
VERTEX
  5
7D0
  8
1_FORMATIVE
 10
528.09106818162775
 20
9837.2776702060874
 30
0.009
  0
VERTEX
  5
7D1
  8
1_FORMATIVE
 10
528.07594884313835
 20
9837.2734745882608
 30
0.009
  0
VERTEX
  5
7D2
  8
1_FORMATIVE
 10
528.06559505275129
 20
9837.2597341763212
 30
0.009
  0
SEQEND
  5
7D3
  8
1_FORMATIVE
  0
POLYLINE
  5
8F
  8
1_FORMATIVE
 66
     1
 10
0.0
 20
0.0
 30
0.008
 70
     1
  0
VERTEX
  5
7D4
  8
1_FORMATIVE
 10
527.70176006411987
 20
9837.2415152880039
 30
0.008
  0
VERTEX
  5
7D5
  8
1_FORMATIVE
 10
527.71141669558835
 20
9837.2511622309557
 30
0.008
  0
VERTEX
  5
7D6
  8
1_FORMATIVE
 10
527.71417576017291
 20
9837.2566748059744
 30
0.008
  0
VERTEX
  5
7D7
  8
1_FORMATIVE
 10
527.71187652917706
 20
9837.262187352846
 30
0.008
  0
VERTEX
  5
7D8
  8
1_FORMATIVE
 10
527.69164353601127
 20
9837.2704561731516
 30
0.008
  0
VERTEX
  5
7D9
  8
1_FORMATIVE
 10
527.67646877537391
 20
9837.2695374247269
 30
0.008
  0
VERTEX
  5
7DA
  8
1_FORMATIVE
 10
527.65531605197873
 20
9837.2681592739318
 30
0.008
  0
VERTEX
  5
7DB
  8
1_FORMATIVE
 10
527.64336018951474
 20
9837.2667811512893
 30
0.008
  0
VERTEX
  5
7DC
  8
1_FORMATIVE
 10
527.63002476323265
 20
9837.2571341801904
 30
0.008
  0
VERTEX
  5
7DD
  8
1_FORMATIVE
 10
527.62910509605501
 20
9837.2456496840841
 30
0.008
  0
VERTEX
  5
7DE
  8
1_FORMATIVE
 10
527.63186416063945
 20
9837.2254369934581
 30
0.008
  0
VERTEX
  5
7DF
  8
1_FORMATIVE
 10
527.63508299576142
 20
9837.2144118715696
 30
0.008
  0
VERTEX
  5
7E0
  8
1_FORMATIVE
 10
527.65301682098311
 20
9837.2093586989104
 30
0.008
  0
VERTEX
  5
7E1
  8
1_FORMATIVE
 10
527.66267351550312
 20
9837.2084399504784
 30
0.008
  0
VERTEX
  5
7E2
  8
1_FORMATIVE
 10
527.67600894178474
 20
9837.2047649286142
 30
0.008
  0
VERTEX
  5
7E3
  8
1_FORMATIVE
 10
527.68520573966464
 20
9837.215330648145
 30
0.008
  0
VERTEX
  5
7E4
  8
1_FORMATIVE
 10
527.69486243418453
 20
9837.2341652161249
 30
0.008
  0
SEQEND
  5
7E5
  8
1_FORMATIVE
  0
POLYLINE
  5
90
  8
1_FORMATIVE
 66
     1
 10
0.0
 20
0.0
 30
0.013
 70
     1
  0
VERTEX
  5
7E6
  8
1_FORMATIVE
 10
527.71463559376173
 20
9837.262646727062
 30
0.013
  0
VERTEX
  5
7E7
  8
1_FORMATIVE
 10
527.71555526093925
 20
9837.2557560293953
 30
0.013
  0
VERTEX
  5
7E8
  8
1_FORMATIVE
 10
527.73164975180566
 20
9837.2548372809706
 30
0.013
  0
VERTEX
  5
7E9
  8
1_FORMATIVE
 10
527.75004341061651
 20
9837.2548372809706
 30
0.013
  0
VERTEX
  5
7EA
  8
1_FORMATIVE
 10
527.76751733919809
 20
9837.2511622309557
 30
0.013
  0
VERTEX
  5
7EB
  8
1_FORMATIVE
 10
527.79142912717771
 20
9837.2447309356576
 30
0.013
  0
VERTEX
  5
7EC
  8
1_FORMATIVE
 10
527.80154565528619
 20
9837.2557560293953
 30
0.013
  0
VERTEX
  5
7ED
  8
1_FORMATIVE
 10
527.80522438704816
 20
9837.2644842520676
 30
0.013
  0
VERTEX
  5
7EE
  8
1_FORMATIVE
 10
527.8075235549926
 20
9837.2768874966023
 30
0.013
  0
VERTEX
  5
7EF
  8
1_FORMATIVE
 10
527.80384482323052
 20
9837.2837781942635
 30
0.013
  0
VERTEX
  5
7F0
  8
1_FORMATIVE
 10
527.79234879435535
 20
9837.2906688919302
 30
0.013
  0
VERTEX
  5
7F1
  8
1_FORMATIVE
 10
527.78545116441956
 20
9837.2902094895635
 30
0.013
  0
VERTEX
  5
7F2
  8
1_FORMATIVE
 10
527.75602131032258
 20
9837.2938845395784
 30
0.013
  0
VERTEX
  5
7F3
  8
1_FORMATIVE
 10
527.74590484526527
 20
9837.2865344676993
 30
0.013
  0
VERTEX
  5
7F4
  8
1_FORMATIVE
 10
527.73854738174123
 20
9837.2778062450307
 30
0.013
  0
VERTEX
  5
7F5
  8
1_FORMATIVE
 10
527.72889068722122
 20
9837.2709155473676
 30
0.013
  0
VERTEX
  5
7F6
  8
1_FORMATIVE
 10
527.71831432552358
 20
9837.2672405255034
 30
0.013
  0
VERTEX
  5
7F7
  8
1_FORMATIVE
 10
527.71463559376173
 20
9837.2658623747138
 30
0.013
  0
SEQEND
  5
7F8
  8
1_FORMATIVE
  0
POLYLINE
  5
91
  8
1_FORMATIVE
 66
     1
 10
0.0
 20
0.0
 30
0.08
 70
     1
  0
VERTEX
  5
7F9
  8
1_FORMATIVE
 10
527.17021910614062
 20
9837.3094660794613
 30
0.08
  0
VERTEX
  5
7FA
  8
1_FORMATIVE
 10
527.18177024190686
 20
9837.3210055766194
 30
0.08
  0
VERTEX
  5
7FB
  8
1_FORMATIVE
 10
527.19678661752096
 20
9837.3186976715606
 30
0.08
  0
VERTEX
  5
7FC
  8
1_FORMATIVE
 10
527.22450929291904
 20
9837.3083121269301
 30
0.08
  0
VERTEX
  5
7FD
  8
1_FORMATIVE
 10
527.22122709117764
 20
9837.2935635124395
 30
0.08
  0
VERTEX
  5
7FE
  8
1_FORMATIVE
 10
527.2125081595766
 20
9837.2761432090447
 30
0.08
  0
VERTEX
  5
7FF
  8
1_FORMATIVE
 10
527.20509710239367
 20
9837.2587228774955
 30
0.08
  0
VERTEX
  5
800
  8
1_FORMATIVE
 10
527.19463435925195
 20
9837.2478352019498
 30
0.08
  0
VERTEX
  5
801
  8
1_FORMATIVE
 10
527.18068411913146
 20
9837.2500127258027
 30
0.08
  0
VERTEX
  5
802
  8
1_FORMATIVE
 10
527.16629787883721
 20
9837.2543678016482
 30
0.08
  0
VERTEX
  5
803
  8
1_FORMATIVE
 10
527.15954343854673
 20
9837.2631835362281
 30
0.08
  0
VERTEX
  5
804
  8
1_FORMATIVE
 10
527.15058226360986
 20
9837.2771554930423
 30
0.08
  0
VERTEX
  5
805
  8
1_FORMATIVE
 10
527.14942716264352
 20
9837.2898489427316
 30
0.08
  0
VERTEX
  5
806
  8
1_FORMATIVE
 10
527.15751293245921
 20
9837.2967726579154
 30
0.08
  0
SEQEND
  5
807
  8
1_FORMATIVE
  0
POLYLINE
  5
92
  8
1_FORMATIVE
 66
     1
 10
0.0
 20
0.0
 30
0.025
 70
     1
  0
VERTEX
  5
808
  8
1_FORMATIVE
 10
526.92331232513425
 20
9837.2834427980633
 30
0.025
  0
VERTEX
  5
809
  8
1_FORMATIVE
 10
526.9101265827876
 20
9837.2679457019676
 30
0.025
  0
VERTEX
  5
80A
  8
1_FORMATIVE
 10
526.8899601088093
 20
9837.2539983183051
 30
0.025
  0
VERTEX
  5
80B
  8
1_FORMATIVE
 10
526.8589347399768
 20
9837.2539983183051
 30
0.025
  0
VERTEX
  5
80C
  8
1_FORMATIVE
 10
526.85272966621039
 20
9837.2640714490626
 30
0.025
  0
VERTEX
  5
80D
  8
1_FORMATIVE
 10
526.8589347399768
 20
9837.279568517004
 30
0.025
  0
VERTEX
  5
80E
  8
1_FORMATIVE
 10
526.85971039784192
 20
9837.2919661882461
 30
0.025
  0
VERTEX
  5
80F
  8
1_FORMATIVE
 10
526.86979363483113
 20
9837.3035890032825
 30
0.025
  0
VERTEX
  5
810
  8
1_FORMATIVE
 10
526.88220378236394
 20
9837.3043638594936
 30
0.025
  0
VERTEX
  5
811
  8
1_FORMATIVE
 10
526.90392150902085
 20
9837.2989398941572
 30
0.025
  0
VERTEX
  5
812
  8
1_FORMATIVE
 10
526.92098541459052
 20
9837.2966153255202
 30
0.025
  0
VERTEX
  5
813
  8
1_FORMATIVE
 10
526.92641489354321
 20
9837.2911913320368
 30
0.025
  0
SEQEND
  5
814
  8
1_FORMATIVE
  0
POLYLINE
  5
93
  8
1_FORMATIVE
 66
     1
 10
0.0
 20
0.0
 30
0.022
 70
     1
  0
VERTEX
  5
815
  8
1_FORMATIVE
 10
531.20503936646833
 20
9834.3157479669717
 30
0.022
  0
VERTEX
  5
816
  8
1_FORMATIVE
 10
531.21575576524265
 20
9834.3341853958118
 30
0.022
  0
VERTEX
  5
817
  8
1_FORMATIVE
 10
531.23571788975403
 20
9834.3343398716515
 30
0.022
  0
VERTEX
  5
818
  8
1_FORMATIVE
 10
531.27137166997511
 20
9834.3391694090042
 30
0.022
  0
VERTEX
  5
819
  8
1_FORMATIVE
 10
531.29735664981445
 20
9834.3639208970217
 30
0.022
  0
VERTEX
  5
81A
  8
1_FORMATIVE
 10
531.31065128186481
 20
9834.3657319911199
 30
0.022
  0
VERTEX
  5
81B
  8
1_FORMATIVE
 10
531.32213299808075
 20
9834.3554691714635
 30
0.022
  0
VERTEX
  5
81C
  8
1_FORMATIVE
 10
531.33059322994006
 20
9834.3433952858559
 30
0.022
  0
VERTEX
  5
81D
  8
1_FORMATIVE
 10
531.32345398718246
 20
9834.3221903244084
 30
0.022
  0
VERTEX
  5
81E
  8
1_FORMATIVE
 10
531.30290573720265
 20
9834.3089077666973
 30
0.022
  0
VERTEX
  5
81F
  8
1_FORMATIVE
 10
531.28527058628606
 20
9834.2950997152784
 30
0.022
  0
VERTEX
  5
820
  8
1_FORMATIVE
 10
531.26714155404522
 20
9834.2944959984816
 30
0.022
  0
VERTEX
  5
821
  8
1_FORMATIVE
 10
531.2388435980132
 20
9834.296832727021
 30
0.022
  0
VERTEX
  5
822
  8
1_FORMATIVE
 10
531.21456731010528
 20
9834.3035514408311
 30
0.022
  0
SEQEND
  5
823
  8
1_FORMATIVE
  0
POLYLINE
  5
94
  8
1_FORMATIVE
 66
     1
 10
0.0
 20
0.0
 30
0.038
 70
     1
  0
VERTEX
  5
824
  8
1_FORMATIVE
 10
531.05466514487875
 20
9834.1058565105595
 30
0.038
  0
VERTEX
  5
825
  8
1_FORMATIVE
 10
531.03548706406377
 20
9834.0671002170966
 30
0.038
  0
VERTEX
  5
826
  8
1_FORMATIVE
 10
531.00903436921499
 20
9834.0532585570472
 30
0.038
  0
VERTEX
  5
827
  8
1_FORMATIVE
 10
530.98270897506802
 20
9834.0462455003362
 30
0.038
  0
VERTEX
  5
828
  8
1_FORMATIVE
 10
530.96077113610318
 20
9834.0567650854064
 30
0.038
  0
VERTEX
  5
829
  8
1_FORMATIVE
 10
530.95111847687065
 20
9834.0778042555485
 30
0.038
  0
VERTEX
  5
82A
  8
1_FORMATIVE
 10
530.9608852590701
 20
9834.1009760817415
 30
0.038
  0
VERTEX
  5
82B
  8
1_FORMATIVE
 10
530.99173175118631
 20
9834.1097963762913
 30
0.038
  0
VERTEX
  5
82C
  8
1_FORMATIVE
 10
531.02658465299714
 20
9834.1330320982834
 30
0.038
  0
VERTEX
  5
82D
  8
1_FORMATIVE
 10
531.05027752664512
 20
9834.1330320982834
 30
0.038
  0
SEQEND
  5
82E
  8
1_FORMATIVE
  0
POLYLINE
  5
95
  8
1_FORMATIVE
 66
     1
 10
0.0
 20
0.0
 30
0.075
 70
     1
  0
VERTEX
  5
82F
  8
1_FORMATIVE
 10
527.84316213983504
 20
9835.5947636640376
 30
0.075
  0
VERTEX
  5
830
  8
1_FORMATIVE
 10
527.84637845290251
 20
9835.5829824043049
 30
0.075
  0
VERTEX
  5
831
  8
1_FORMATIVE
 10
527.85066083841207
 20
9835.5748393770955
 30
0.075
  0
VERTEX
  5
832
  8
1_FORMATIVE
 10
527.88497402055725
 20
9835.5765562600754
 30
0.075
  0
VERTEX
  5
833
  8
1_FORMATIVE
 10
527.89462289670826
 20
9835.581911375577
 30
0.075
  0
VERTEX
  5
834
  8
1_FORMATIVE
 10
527.89676714745406
 20
9835.6022608088497
 30
0.075
  0
VERTEX
  5
835
  8
1_FORMATIVE
 10
527.8977233213709
 20
9835.6225592662195
 30
0.075
  0
VERTEX
  5
836
  8
1_FORMATIVE
 10
527.88973320047216
 20
9835.6258851693074
 30
0.075
  0
VERTEX
  5
837
  8
1_FORMATIVE
 10
527.87103670596616
 20
9835.6247522995745
 30
0.075
  0
VERTEX
  5
838
  8
1_FORMATIVE
 10
527.84959470291858
 20
9835.6226102421151
 30
0.075
  0
VERTEX
  5
839
  8
1_FORMATIVE
 10
527.84423420215683
 20
9835.6097579818052
 30
0.075
  0
SEQEND
  5
83A
  8
1_FORMATIVE
  0
POLYLINE
  5
96
  8
1_FORMATIVE
 66
     1
 10
0.0
 20
0.0
 30
0.025
 70
     1
  0
VERTEX
  5
83B
  8
1_FORMATIVE
 10
528.13798961868793
 20
9835.6140420685751
 30
0.025
  0
VERTEX
  5
83C
  8
1_FORMATIVE
 10
528.13798961868793
 20
9835.5947636640376
 30
0.025
  0
VERTEX
  5
83D
  8
1_FORMATIVE
 10
528.14013380638221
 20
9835.5690591152652
 30
0.025
  0
VERTEX
  5
83E
  8
1_FORMATIVE
 10
528.13752688473642
 20
9835.5495762160117
 30
0.025
  0
VERTEX
  5
83F
  8
1_FORMATIVE
 10
528.10747256994205
 20
9835.5450073003412
 30
0.025
  0
VERTEX
  5
840
  8
1_FORMATIVE
 10
528.08032523822965
 20
9835.5437879601704
 30
0.025
  0
VERTEX
  5
841
  8
1_FORMATIVE
 10
528.07289545479227
 20
9835.5474991239753
 30
0.025
  0
VERTEX
  5
842
  8
1_FORMATIVE
 10
528.07215245753321
 20
9835.5779306953409
 30
0.025
  0
VERTEX
  5
843
  8
1_FORMATIVE
 10
528.06954168975403
 20
9835.6082225122336
 30
0.025
  0
VERTEX
  5
844
  8
1_FORMATIVE
 10
528.07517930125516
 20
9835.6183600736003
 30
0.025
  0
VERTEX
  5
845
  8
1_FORMATIVE
 10
528.09369887363744
 20
9835.6224646891733
 30
0.025
  0
VERTEX
  5
846
  8
1_FORMATIVE
 10
528.11333130257299
 20
9835.6226102421151
 30
0.025
  0
VERTEX
  5
847
  8
1_FORMATIVE
 10
528.12619649179135
 20
9835.6226102421151
 30
0.025
  0
VERTEX
  5
848
  8
1_FORMATIVE
 10
528.13584543099353
 20
9835.6226102421151
 30
0.025
  0
SEQEND
  5
849
  8
1_FORMATIVE
  0
POLYLINE
  5
97
  8
1_FORMATIVE
 66
     1
 10
0.0
 20
0.0
 30
0.011
 70
     1
  0
VERTEX
  5
84A
  8
1_FORMATIVE
 10
529.76746413340925
 20
9835.0171607975553
 30
0.011
  0
VERTEX
  5
84B
  8
1_FORMATIVE
 10
529.77335880531666
 20
9835.0504039248917
 30
0.011
  0
VERTEX
  5
84C
  8
1_FORMATIVE
 10
529.78898488760888
 20
9835.0931027581446
 30
0.011
  0
VERTEX
  5
84D
  8
1_FORMATIVE
 10
529.8186801248919
 20
9835.1027180346737
 30
0.011
  0
VERTEX
  5
84E
  8
1_FORMATIVE
 10
529.83126706844598
 20
9835.0784106928404
 30
0.011
  0
VERTEX
  5
84F
  8
1_FORMATIVE
 10
529.82437322159251
 20
9835.0384666130394
 30
0.011
  0
VERTEX
  5
850
  8
1_FORMATIVE
 10
529.81350669752317
 20
9835.0099870443155
 30
0.011
  0
SEQEND
  5
851
  8
1_FORMATIVE
  0
POLYLINE
  5
98
  8
1_FORMATIVE
 66
     1
 10
0.0
 20
0.0
 30
0.05
 70
     1
  0
VERTEX
  5
852
  8
1_FORMATIVE
 10
530.19861092846816
 20
9835.875904624103
 30
0.05
  0
VERTEX
  5
853
  8
1_FORMATIVE
 10
530.15961782197098
 20
9835.8786373940147
 30
0.05
  0
VERTEX
  5
854
  8
1_FORMATIVE
 10
530.12117263181665
 20
9835.8738860516096
 30
0.05
  0
VERTEX
  5
855
  8
1_FORMATIVE
 10
530.11245306970204
 20
9835.8540888244261
 30
0.05
  0
VERTEX
  5
856
  8
1_FORMATIVE
 10
530.12513604048172
 20
9835.8366672543707
 30
0.05
  0
VERTEX
  5
857
  8
1_FORMATIVE
 10
530.14378581392805
 20
9835.8334371668334
 30
0.05
  0
VERTEX
  5
858
  8
1_FORMATIVE
 10
530.17433829753963
 20
9835.8290769117648
 30
0.05
  0
VERTEX
  5
859
  8
1_FORMATIVE
 10
530.20489084420262
 20
9835.8290769117648
 30
0.05
  0
VERTEX
  5
85A
  8
1_FORMATIVE
 10
530.21652987356845
 20
9835.8392508402576
 30
0.05
  0
VERTEX
  5
85B
  8
1_FORMATIVE
 10
530.21362011622705
 20
9835.8726795187467
 30
0.05
  0
SEQEND
  5
85C
  8
1_FORMATIVE
  0
POLYLINE
  5
99
  8
1_FORMATIVE
 66
     1
 10
0.0
 20
0.0
 30
0.9549999999999999
 70
     1
  0
VERTEX
  5
85D
  8
1_FORMATIVE
 10
525.17567329166604
 20
9835.8310525586603
 30
0.9549999999999999
  0
VERTEX
  5
85E
  8
1_FORMATIVE
 10
525.18492708797794
 20
9835.8489252837371
 30
0.9549999999999999
  0
VERTEX
  5
85F
  8
1_FORMATIVE
 10
525.195414736408
 20
9835.8704958305007
 30
0.9549999999999999
  0
VERTEX
  5
860
  8
1_FORMATIVE
 10
525.210220835727
 20
9835.8982293664922
 30
0.9549999999999999
  0
VERTEX
  5
861
  8
1_FORMATIVE
 10
525.21824084297168
 20
9835.9050086827974
 30
0.9549999999999999
  0
VERTEX
  5
862
  8
1_FORMATIVE
 10
525.22996234352001
 20
9835.9142531947964
 30
0.9549999999999999
  0
VERTEX
  5
863
  8
1_FORMATIVE
 10
525.2466191894913
 20
9835.9167184186372
 30
0.9549999999999999
  0
VERTEX
  5
864
  8
1_FORMATIVE
 10
525.26574373969925
 20
9835.9148695218664
 30
0.9549999999999999
  0
VERTEX
  5
865
  8
1_FORMATIVE
 10
525.27443019984878
 20
9835.9151829209186
 30
0.9549999999999999
  0
VERTEX
  5
866
  8
1_FORMATIVE
 10
525.26952524518265
 20
9835.9013351527719
 30
0.9549999999999999
  0
VERTEX
  5
867
  8
1_FORMATIVE
 10
525.27251085331375
 20
9835.8798178337438
 30
0.9549999999999999
  0
VERTEX
  5
868
  8
1_FORMATIVE
 10
525.27464343955762
 20
9835.8738526400139
 30
0.9549999999999999
  0
VERTEX
  5
869
  8
1_FORMATIVE
 10
525.27622697453421
 20
9835.8365404197993
 30
0.9549999999999999
  0
VERTEX
  5
86A
  8
1_FORMATIVE
 10
525.26876755695605
 20
9835.800635764961
 30
0.9549999999999999
  0
VERTEX
  5
86B
  8
1_FORMATIVE
 10
525.24740651185846
 20
9835.8067327754507
 30
0.9549999999999999
  0
VERTEX
  5
86C
  8
1_FORMATIVE
 10
525.23553929961065
 20
9835.8084264082354
 30
0.9549999999999999
  0
VERTEX
  5
86D
  8
1_FORMATIVE
 10
525.21519546214881
 20
9835.8185880923811
 30
0.9549999999999999
  0
VERTEX
  5
86E
  8
1_FORMATIVE
 10
525.19180006483043
 20
9835.8273949040722
 30
0.9549999999999999
  0
VERTEX
  5
86F
  8
1_FORMATIVE
 10
525.17247343500446
 20
9835.8263787356536
 30
0.9549999999999999
  0
SEQEND
  5
870
  8
1_FORMATIVE
  0
POLYLINE
  5
9A
  8
1_FORMATIVE
 66
     1
 10
0.0
 20
0.0
 30
0.1
 70
     1
  0
VERTEX
  5
871
  8
1_FORMATIVE
 10
526.37099156978206
 20
9835.3681053865585
 30
0.1
  0
VERTEX
  5
872
  8
1_FORMATIVE
 10
526.34403805795876
 20
9835.3723569061767
 30
0.1
  0
VERTEX
  5
873
  8
1_FORMATIVE
 10
526.32985200574126
 20
9835.3553507714205
 30
0.1
  0
VERTEX
  5
874
  8
1_FORMATIVE
 10
526.34120087273595
 20
9835.3425961562752
 30
0.1
  0
VERTEX
  5
875
  8
1_FORMATIVE
 10
526.35680551756479
 20
9835.3369274165416
 30
0.1
  0
VERTEX
  5
876
  8
1_FORMATIVE
 10
526.37666600327952
 20
9835.3383446085099
 30
0.1
  0
VERTEX
  5
877
  8
1_FORMATIVE
 10
526.38659621461113
 20
9835.3539335794467
 30
0.1
  0
VERTEX
  5
878
  8
1_FORMATIVE
 10
526.37808459589075
 20
9835.365271030767
 30
0.1
  0
SEQEND
  5
879
  8
1_FORMATIVE
  0
POLYLINE
  5
9B
  8
1_FORMATIVE
 66
     1
 10
0.0
 20
0.0
 30
0.07
 70
     1
  0
VERTEX
  5
87A
  8
1_FORMATIVE
 10
526.25532479050992
 20
9835.3721003659484
 30
0.07
  0
VERTEX
  5
87B
  8
1_FORMATIVE
 10
526.2607854168358
 20
9835.3866473849648
 30
0.07
  0
VERTEX
  5
87C
  8
1_FORMATIVE
 10
526.24944550313478
 20
9835.4033396140021
 30
0.07
  0
VERTEX
  5
87D
  8
1_FORMATIVE
 10
526.22508560912001
 20
9835.4186619114516
 30
0.07
  0
VERTEX
  5
87E
  8
1_FORMATIVE
 10
526.20313162900652
 20
9835.4261728487527
 30
0.07
  0
VERTEX
  5
87F
  8
1_FORMATIVE
 10
526.18058017417934
 20
9835.4321828821357
 30
0.07
  0
VERTEX
  5
880
  8
1_FORMATIVE
 10
526.14680765746994
 20
9835.4410614428962
 30
0.07
  0
VERTEX
  5
881
  8
1_FORMATIVE
 10
526.12903272168239
 20
9835.4250800335249
 30
0.07
  0
VERTEX
  5
882
  8
1_FORMATIVE
 10
526.13259783488866
 20
9835.4064218686162
 30
0.07
  0
VERTEX
  5
883
  8
1_FORMATIVE
 10
526.13609983368065
 20
9835.3915532595001
 30
0.07
  0
VERTEX
  5
884
  8
1_FORMATIVE
 10
526.14147521456425
 20
9835.3735843810955
 30
0.07
  0
VERTEX
  5
885
  8
1_FORMATIVE
 10
526.15214016342679
 20
9835.3682572446396
 30
0.07
  0
VERTEX
  5
886
  8
1_FORMATIVE
 10
526.16813768129714
 20
9835.3700329567946
 30
0.07
  0
VERTEX
  5
887
  8
1_FORMATIVE
 10
526.19124512304165
 20
9835.3789115175587
 30
0.07
  0
VERTEX
  5
888
  8
1_FORMATIVE
 10
526.20546509689211
 20
9835.3771358054037
 30
0.07
  0
VERTEX
  5
889
  8
1_FORMATIVE
 10
526.22501757669954
 20
9835.3735843810955
 30
0.07
  0
SEQEND
  5
88A
  8
1_FORMATIVE
  0
POLYLINE
  5
9C
  8
1_FORMATIVE
 66
     1
 10
0.0
 20
0.0
 30
0.318
 70
     1
  0
VERTEX
  5
88B
  8
1_FORMATIVE
 10
525.73785065462096
 20
9835.7094578929245
 30
0.318
  0
VERTEX
  5
88C
  8
1_FORMATIVE
 10
525.74893565166224
 20
9835.7155310621147
 30
0.318
  0
VERTEX
  5
88D
  8
1_FORMATIVE
 10
525.76695863151087
 20
9835.7226044116942
 30
0.318
  0
VERTEX
  5
88E
  8
1_FORMATIVE
 10
525.77275172767293
 20
9835.7187462312468
 30
0.318
  0
VERTEX
  5
88F
  8
1_FORMATIVE
 10
525.77339541903575
 20
9835.7071716617684
 30
0.318
  0
VERTEX
  5
890
  8
1_FORMATIVE
 10
525.78556256661648
 20
9835.7035492765317
 30
0.318
  0
VERTEX
  5
891
  8
1_FORMATIVE
 10
525.80071027821907
 20
9835.7013874873755
 30
0.318
  0
VERTEX
  5
892
  8
1_FORMATIVE
 10
525.81523964510711
 20
9835.7010786482915
 30
0.318
  0
VERTEX
  5
893
  8
1_FORMATIVE
 10
525.82080411702736
 20
9835.6933580089117
 30
0.318
  0
VERTEX
  5
894
  8
1_FORMATIVE
 10
525.82295870819667
 20
9835.6763061056226
 30
0.318
  0
VERTEX
  5
895
  8
1_FORMATIVE
 10
525.82167132547136
 20
9835.6640884966855
 30
0.318
  0
VERTEX
  5
896
  8
1_FORMATIVE
 10
525.81880822613834
 20
9835.6617107847596
 30
0.318
  0
VERTEX
  5
897
  8
1_FORMATIVE
 10
525.81500345470204
 20
9835.6575514496144
 30
0.318
  0
VERTEX
  5
898
  8
1_FORMATIVE
 10
525.81377697959294
 20
9835.6540327332023
 30
0.318
  0
VERTEX
  5
899
  8
1_FORMATIVE
 10
525.81132938874055
 20
9835.6444745406734
 30
0.318
  0
VERTEX
  5
89A
  8
1_FORMATIVE
 10
525.79886898927145
 20
9835.6442522564703
 30
0.318
  0
VERTEX
  5
89B
  8
1_FORMATIVE
 10
525.78129096289001
 20
9835.6464750984869
 30
0.318
  0
VERTEX
  5
89C
  8
1_FORMATIVE
 10
525.76213009509695
 20
9835.6498993785954
 30
0.318
  0
VERTEX
  5
89D
  8
1_FORMATIVE
 10
525.74606038341619
 20
9835.6578954173146
 30
0.318
  0
VERTEX
  5
89E
  8
1_FORMATIVE
 10
525.73413610968475
 20
9835.6650276523651
 30
0.318
  0
VERTEX
  5
89F
  8
1_FORMATIVE
 10
525.71902187835565
 20
9835.6758018354594
 30
0.318
  0
VERTEX
  5
8A0
  8
1_FORMATIVE
 10
525.72471819067584
 20
9835.6897627582857
 30
0.318
  0
VERTEX
  5
8A1
  8
1_FORMATIVE
 10
525.7295565000511
 20
9835.6962619463902
 30
0.318
  0
VERTEX
  5
8A2
  8
1_FORMATIVE
 10
525.73416441974678
 20
9835.7033202368275
 30
0.318
  0
SEQEND
  5
8A3
  8
1_FORMATIVE
  0
POLYLINE
  5
9D
  8
1_FORMATIVE
 66
     1
 10
0.0
 20
0.0
 30
0.1
 70
     1
  0
VERTEX
  5
8A4
  8
1_FORMATIVE
 10
526.3006756811742
 20
9835.6352313516236
 30
0.1
  0
VERTEX
  5
8A5
  8
1_FORMATIVE
 10
526.32139019759757
 20
9835.6402785850678
 30
0.1
  0
VERTEX
  5
8A6
  8
1_FORMATIVE
 10
526.32491710167835
 20
9835.6550769369514
 30
0.1
  0
VERTEX
  5
8A7
  8
1_FORMATIVE
 10
526.31987450588747
 20
9835.6700572933496
 30
0.1
  0
VERTEX
  5
8A8
  8
1_FORMATIVE
 10
526.30370706459428
 20
9835.6786375986467
 30
0.1
  0
VERTEX
  5
8A9
  8
1_FORMATIVE
 10
526.28901590790974
 20
9835.6735218812901
 30
0.1
  0
VERTEX
  5
8AA
  8
1_FORMATIVE
 10
526.27978417957502
 20
9835.6653241345048
 30
0.1
  0
VERTEX
  5
8AB
  8
1_FORMATIVE
 10
526.27591932019004
 20
9835.6554203135493
 30
0.1
  0
VERTEX
  5
8AC
  8
1_FORMATIVE
 10
526.27978417957502
 20
9835.6397061687676
 30
0.1
  0
SEQEND
  5
8AD
  8
1_FORMATIVE
  0
POLYLINE
  5
9E
  8
1_FORMATIVE
 66
     1
 10
0.0
 20
0.0
 30
0.008
 70
     1
  0
VERTEX
  5
8AE
  8
1_FORMATIVE
 10
527.12248783737675
 20
9835.9799208795157
 30
0.008
  0
VERTEX
  5
8AF
  8
1_FORMATIVE
 10
527.12672640218886
 20
9835.9676287067123
 30
0.008
  0
VERTEX
  5
8B0
  8
1_FORMATIVE
 10
527.13852873458484
 20
9835.9647704251802
 30
0.008
  0
VERTEX
  5
8B1
  8
1_FORMATIVE
 10
527.15498041142155
 20
9835.9654849885246
 30
0.008
  0
VERTEX
  5
8B2
  8
1_FORMATIVE
 10
527.16749799847662
 20
9835.9715588614163
 30
0.008
  0
VERTEX
  5
8B3
  8
1_FORMATIVE
 10
527.17008014093699
 20
9835.9809544715026
 30
0.008
  0
VERTEX
  5
8B4
  8
1_FORMATIVE
 10
527.17008014093699
 20
9835.9861223469707
 30
0.008
  0
VERTEX
  5
8B5
  8
1_FORMATIVE
 10
527.16076858957695
 20
9835.99335737826
 30
0.008
  0
VERTEX
  5
8B6
  8
1_FORMATIVE
 10
527.14735352942398
 20
9835.9961427003582
 30
0.008
  0
VERTEX
  5
8B7
  8
1_FORMATIVE
 10
527.13179938873645
 20
9835.9954245059307
 30
0.008
  0
VERTEX
  5
8B8
  8
1_FORMATIVE
 10
527.12559166681285
 20
9835.9923237862749
 30
0.008
  0
SEQEND
  5
8B9
  8
1_FORMATIVE
  0
POLYLINE
  5
9F
  8
1_FORMATIVE
 66
     1
 10
0.0
 20
0.0
 30
0.318
 70
     1
  0
VERTEX
  5
8BA
  8
1_FORMATIVE
 10
526.92125235127185
 20
9836.1660316137204
 30
0.318
  0
VERTEX
  5
8BB
  8
1_FORMATIVE
 10
526.92125235127185
 20
9836.1475280090981
 30
0.318
  0
VERTEX
  5
8BC
  8
1_FORMATIVE
 10
526.91850835596313
 20
9836.1317657032105
 30
0.318
  0
VERTEX
  5
8BD
  8
1_FORMATIVE
 10
526.89449808175482
 20
9836.1324510208578
 30
0.318
  0
VERTEX
  5
8BE
  8
1_FORMATIVE
 10
526.8821499137116
 20
9836.1365629267457
 30
0.318
  0
VERTEX
  5
8BF
  8
1_FORMATIVE
 10
526.87117380637392
 20
9836.1434161032139
 30
0.318
  0
VERTEX
  5
8C0
  8
1_FORMATIVE
 10
526.86980180871944
 20
9836.1516399149823
 30
0.318
  0
VERTEX
  5
8C1
  8
1_FORMATIVE
 10
526.8684298110652
 20
9836.1626050254854
 30
0.318
  0
VERTEX
  5
8C2
  8
1_FORMATIVE
 10
526.87048780754674
 20
9836.1701435196064
 30
0.318
  0
VERTEX
  5
8C3
  8
1_FORMATIVE
 10
526.88077791605713
 20
9836.1708288372538
 30
0.318
  0
VERTEX
  5
8C4
  8
1_FORMATIVE
 10
526.88763803043162
 20
9836.1708288372538
 30
0.318
  0
VERTEX
  5
8C5
  8
1_FORMATIVE
 10
526.89792813894223
 20
9836.1701435196064
 30
0.318
  0
VERTEX
  5
8C6
  8
1_FORMATIVE
 10
526.915764297603
 20
9836.1680875666643
 30
0.318
  0
SEQEND
  5
8C7
  8
1_FORMATIVE
  0
POLYLINE
  5
A0
  8
1_FORMATIVE
 66
     1
 10
0.0
 20
0.0
 30
25.464999999999989
 70
     1
  0
VERTEX
  5
8C8
  8
1_FORMATIVE
 10
525.61693749755329
 20
9836.0399562197781
 30
25.464999999999989
  0
VERTEX
  5
8C9
  8
1_FORMATIVE
 10
525.64825265044897
 20
9836.0550531086028
 30
25.464999999999989
  0
VERTEX
  5
8CA
  8
1_FORMATIVE
 10
525.65900271865098
 20
9836.0550531086028
 30
25.464999999999989
  0
VERTEX
  5
8CB
  8
1_FORMATIVE
 10
525.70963863759619
 20
9836.0578695623117
 30
25.464999999999989
  0
VERTEX
  5
8CC
  8
1_FORMATIVE
 10
525.71540846780522
 20
9836.0830391878262
 30
25.464999999999989
  0
VERTEX
  5
8CD
  8
1_FORMATIVE
 10
525.7200243319727
 20
9836.1049425275596
 30
25.464999999999989
  0
VERTEX
  5
8CE
  8
1_FORMATIVE
 10
525.7373116915719
 20
9836.1525166666997
 30
25.464999999999989
  0
VERTEX
  5
8CF
  8
1_FORMATIVE
 10
525.74060555781546
 20
9836.1598228841067
 30
25.464999999999989
  0
VERTEX
  5
8D0
  8
1_FORMATIVE
 10
525.69447579366636
 20
9836.1851884192074
 30
25.464999999999989
  0
VERTEX
  5
8D1
  8
1_FORMATIVE
 10
525.66376927557576
 20
9836.1419671603817
 30
25.464999999999989
  0
VERTEX
  5
8D2
  8
1_FORMATIVE
 10
525.64006095434388
 20
9836.1130194352827
 30
25.464999999999989
  0
VERTEX
  5
8D3
  8
1_FORMATIVE
 10
525.62688971381056
 20
9836.0961771214752
 30
25.464999999999989
  0
VERTEX
  5
8D4
  8
1_FORMATIVE
 10
525.62267485631071
 20
9836.0751242151437
 30
25.464999999999989
  0
SEQEND
  5
8D5
  8
1_FORMATIVE
  0
POLYLINE
  5
A1
  8
1_FORMATIVE
 66
     1
 10
0.0
 20
0.0
 30
6.3659999999999988
 70
     1
  0
VERTEX
  5
8D6
  8
1_FORMATIVE
 10
525.85720083145634
 20
9836.2660828672997
 30
6.3659999999999988
  0
VERTEX
  5
8D7
  8
1_FORMATIVE
 10
525.86235805462445
 20
9836.2322509134247
 30
6.3659999999999988
  0
VERTEX
  5
8D8
  8
1_FORMATIVE
 10
525.86146215781048
 20
9836.1883989157832
 30
6.3659999999999988
  0
VERTEX
  5
8D9
  8
1_FORMATIVE
 10
525.85339965394746
 20
9836.1508115214074
 30
6.3659999999999988
  0
VERTEX
  5
8DA
  8
1_FORMATIVE
 10
525.84981631889718
 20
9836.1329127594981
 30
6.3659999999999988
  0
VERTEX
  5
8DB
  8
1_FORMATIVE
 10
525.84903700405323
 20
9836.1216409491517
 30
6.3659999999999988
  0
VERTEX
  5
8DC
  8
1_FORMATIVE
 10
525.82612117540043
 20
9836.1182379770325
 30
6.3659999999999988
  0
VERTEX
  5
8DD
  8
1_FORMATIVE
 10
525.76821228175743
 20
9836.1225690426909
 30
6.3659999999999988
  0
VERTEX
  5
8DE
  8
1_FORMATIVE
 10
525.73817404506076
 20
9836.1228783884417
 30
6.3659999999999988
  0
VERTEX
  5
8DF
  8
1_FORMATIVE
 10
525.72578710042899
 20
9836.1231877623395
 30
6.3659999999999988
  0
VERTEX
  5
8E0
  8
1_FORMATIVE
 10
525.74231569992855
 20
9836.1588659670797
 30
6.3659999999999988
  0
VERTEX
  5
8E1
  8
1_FORMATIVE
 10
525.77456584148308
 20
9836.2134571880888
 30
6.3659999999999988
  0
VERTEX
  5
8E2
  8
1_FORMATIVE
 10
525.79696181164991
 20
9836.2036128718555
 30
6.3659999999999988
  0
VERTEX
  5
8E3
  8
1_FORMATIVE
 10
525.84175375198299
 20
9836.2528344811744
 30
6.3659999999999988
  0
VERTEX
  5
8E4
  8
1_FORMATIVE
 10
525.85250382018512
 20
9836.2626787974095
 30
6.3659999999999988
  0
SEQEND
  5
8E5
  8
1_FORMATIVE
  0
POLYLINE
  5
A2
  8
1_FORMATIVE
 66
     1
 10
0.0
 20
0.0
 30
1.272999999999999
 70
     1
  0
VERTEX
  5
8E6
  8
1_FORMATIVE
 10
525.71156189331555
 20
9836.0586381133871
 30
1.272999999999999
  0
VERTEX
  5
8E7
  8
1_FORMATIVE
 10
525.75306576813045
 20
9836.0640024895583
 30
1.272999999999999
  0
VERTEX
  5
8E8
  8
1_FORMATIVE
 10
525.77635757205974
 20
9836.0640024895583
 30
1.272999999999999
  0
VERTEX
  5
8E9
  8
1_FORMATIVE
 10
525.79696181164991
 20
9836.0541581733232
 30
1.272999999999999
  0
VERTEX
  5
8EA
  8
1_FORMATIVE
 10
525.82562868120567
 20
9836.0469986629305
 30
1.272999999999999
  0
VERTEX
  5
8EB
  8
1_FORMATIVE
 10
525.8444412532707
 20
9836.0478935982119
 30
1.272999999999999
  0
VERTEX
  5
8EC
  8
1_FORMATIVE
 10
525.85071215265998
 20
9836.0631075542769
 30
1.272999999999999
  0
VERTEX
  5
8ED
  8
1_FORMATIVE
 10
525.85347291963114
 20
9836.0934659128761
 30
1.272999999999999
  0
VERTEX
  5
8EE
  8
1_FORMATIVE
 10
525.85007148776265
 20
9836.1198003841673
 30
1.272999999999999
  0
VERTEX
  5
8EF
  8
1_FORMATIVE
 10
525.82616499609765
 20
9836.1172834244317
 30
1.272999999999999
  0
VERTEX
  5
8F0
  8
1_FORMATIVE
 10
525.76894348841176
 20
9836.1214895414378
 30
1.272999999999999
  0
VERTEX
  5
8F1
  8
1_FORMATIVE
 10
525.72549101122945
 20
9836.1213969910423
 30
1.272999999999999
  0
VERTEX
  5
8F2
  8
1_FORMATIVE
 10
525.71156189331555
 20
9836.0586381133871
 30
1.272999999999999
  0
SEQEND
  5
8F3
  8
1_FORMATIVE
  0
POLYLINE
  5
A3
  8
1_FORMATIVE
 66
     1
 10
0.0
 20
0.0
 30
0.121
 70
     1
  0
VERTEX
  5
8F4
  8
1_FORMATIVE
 10
525.87576876423361
 20
9836.2875480563616
 30
0.121
  0
VERTEX
  5
8F5
  8
1_FORMATIVE
 10
525.85927931963067
 20
9836.2660065582659
 30
0.121
  0
VERTEX
  5
8F6
  8
1_FORMATIVE
 10
525.86370382291204
 20
9836.2325853389757
 30
0.121
  0
VERTEX
  5
8F7
  8
1_FORMATIVE
 10
525.86329739382745
 20
9836.1905612116061
 30
0.121
  0
VERTEX
  5
8F8
  8
1_FORMATIVE
 10
525.86004589809966
 20
9836.1763501381301
 30
0.121
  0
VERTEX
  5
8F9
  8
1_FORMATIVE
 10
525.93257079120303
 20
9836.1603996633348
 30
0.121
  0
VERTEX
  5
8FA
  8
1_FORMATIVE
 10
525.95182907335175
 20
9836.1787114116669
 30
0.121
  0
VERTEX
  5
8FB
  8
1_FORMATIVE
 10
525.96202138919841
 20
9836.1937791955352
 30
0.121
  0
VERTEX
  5
8FC
  8
1_FORMATIVE
 10
525.96709506931074
 20
9836.2153206936327
 30
0.121
  0
VERTEX
  5
8FD
  8
1_FORMATIVE
 10
525.95441090055522
 20
9836.2305264305032
 30
0.121
  0
VERTEX
  5
8FE
  8
1_FORMATIVE
 10
525.88718459177551
 20
9836.2786780244223
 30
0.121
  0
SEQEND
  5
8FF
  8
1_FORMATIVE
  0
POLYLINE
  5
A4
  8
1_FORMATIVE
 66
     1
 10
0.0
 20
0.0
 30
0.041
 70
     1
  0
VERTEX
  5
900
  8
1_FORMATIVE
 10
525.86154204388708
 20
9836.1747252988825
 30
0.041
  0
VERTEX
  5
901
  8
1_FORMATIVE
 10
525.93117861711255
 20
9836.1587771040686
 30
0.041
  0
VERTEX
  5
902
  8
1_FORMATIVE
 10
525.93117861711255
 20
9836.1413925485394
 30
0.041
  0
VERTEX
  5
903
  8
1_FORMATIVE
 10
525.93739693166515
 20
9836.1221620799242
 30
0.041
  0
VERTEX
  5
904
  8
1_FORMATIVE
 10
525.93915076837266
 20
9836.0862438859313
 30
0.041
  0
VERTEX
  5
905
  8
1_FORMATIVE
 10
525.93515797777252
 20
9836.0442829788117
 30
0.041
  0
VERTEX
  5
906
  8
1_FORMATIVE
 10
525.92545058995711
 20
9836.0435196913968
 30
0.041
  0
VERTEX
  5
907
  8
1_FORMATIVE
 10
525.87217584537632
 20
9836.0445207162247
 30
0.041
  0
VERTEX
  5
908
  8
1_FORMATIVE
 10
525.84758108503513
 20
9836.0517119774813
 30
0.041
  0
VERTEX
  5
909
  8
1_FORMATIVE
 10
525.85245936897434
 20
9836.0605239965407
 30
0.041
  0
VERTEX
  5
90A
  8
1_FORMATIVE
 10
525.85556345061593
 20
9836.0940150226907
 30
0.041
  0
VERTEX
  5
90B
  8
1_FORMATIVE
 10
525.85245936897434
 20
9836.1182029610027
 30
0.041
  0
VERTEX
  5
90C
  8
1_FORMATIVE
 10
525.85245936897434
 20
9836.1237847799275
 30
0.041
  0
VERTEX
  5
90D
  8
1_FORMATIVE
 10
525.85990926579632
 20
9836.1727808961859
 30
0.041
  0
SEQEND
  5
90E
  8
1_FORMATIVE
  0
POLYLINE
  5
A5
  8
1_FORMATIVE
 66
     1
 10
0.0
 20
0.0
 30
0.02
 70
     1
  0
VERTEX
  5
90F
  8
1_FORMATIVE
 10
526.08834548811831
 20
9836.1530940933335
 30
0.02
  0
VERTEX
  5
910
  8
1_FORMATIVE
 10
526.13379082972415
 20
9836.1458564724344
 30
0.02
  0
VERTEX
  5
911
  8
1_FORMATIVE
 10
526.17199131753955
 20
9836.1320391603476
 30
0.02
  0
VERTEX
  5
912
  8
1_FORMATIVE
 10
526.18779835724297
 20
9836.1280913568971
 30
0.02
  0
VERTEX
  5
913
  8
1_FORMATIVE
 10
526.20755720416082
 20
9836.1780968297699
 30
0.02
  0
VERTEX
  5
914
  8
1_FORMATIVE
 10
526.21677802460965
 20
9836.2136270045467
 30
0.02
  0
VERTEX
  5
915
  8
1_FORMATIVE
 10
526.18779835724297
 20
9836.2267863587713
 30
0.02
  0
VERTEX
  5
916
  8
1_FORMATIVE
 10
526.1469633943359
 20
9836.2386297409794
 30
0.02
  0
VERTEX
  5
917
  8
1_FORMATIVE
 10
526.12259416871916
 20
9836.2432355022956
 30
0.02
  0
VERTEX
  5
918
  8
1_FORMATIVE
 10
526.10942160410764
 20
9836.2024415802007
 30
0.02
  0
VERTEX
  5
919
  8
1_FORMATIVE
 10
526.09295586681708
 20
9836.1728330824462
 30
0.02
  0
VERTEX
  5
91A
  8
1_FORMATIVE
 10
526.07912473072065
 20
9836.1524361354732
 30
0.02
  0
SEQEND
  5
91B
  8
1_FORMATIVE
  0
POLYLINE
  5
A6
  8
1_FORMATIVE
 66
     1
 10
0.0
 20
0.0
 30
0.013
 70
     1
  0
VERTEX
  5
91C
  8
1_FORMATIVE
 10
525.95846396825834
 20
9835.8926210603659
 30
0.013
  0
VERTEX
  5
91D
  8
1_FORMATIVE
 10
525.98547977482815
 20
9835.8719826885917
 30
0.013
  0
VERTEX
  5
91E
  8
1_FORMATIVE
 10
525.99342557061846
 20
9835.8561070309916
 30
0.013
  0
VERTEX
  5
91F
  8
1_FORMATIVE
 10
525.98706892137602
 20
9835.8338811159811
 30
0.013
  0
VERTEX
  5
920
  8
1_FORMATIVE
 10
525.9687935469218
 20
9835.824355715793
 30
0.013
  0
VERTEX
  5
921
  8
1_FORMATIVE
 10
525.95925854153234
 20
9835.8164178869938
 30
0.013
  0
VERTEX
  5
922
  8
1_FORMATIVE
 10
525.94813445264595
 20
9835.8037173440225
 30
0.013
  0
VERTEX
  5
923
  8
1_FORMATIVE
 10
525.92270785567564
 20
9835.7933981722144
 30
0.013
  0
VERTEX
  5
924
  8
1_FORMATIVE
 10
525.8877462533153
 20
9835.792604400589
 30
0.013
  0
VERTEX
  5
925
  8
1_FORMATIVE
 10
525.87900588425077
 20
9835.7989546580011
 30
0.013
  0
VERTEX
  5
926
  8
1_FORMATIVE
 10
525.87264923500834
 20
9835.8211805730134
 30
0.013
  0
VERTEX
  5
927
  8
1_FORMATIVE
 10
525.87582752810397
 20
9835.8322935445904
 30
0.013
  0
VERTEX
  5
928
  8
1_FORMATIVE
 10
525.88933539986294
 20
9835.8434065161746
 30
0.013
  0
VERTEX
  5
929
  8
1_FORMATIVE
 10
525.90204869834849
 20
9835.8537256879827
 30
0.013
  0
VERTEX
  5
92A
  8
1_FORMATIVE
 10
525.91873492625439
 20
9835.8608697170112
 30
0.013
  0
VERTEX
  5
92B
  8
1_FORMATIVE
 10
525.92588614877116
 20
9835.8703951172047
 30
0.013
  0
VERTEX
  5
92C
  8
1_FORMATIVE
 10
525.93224279801382
 20
9835.8807143171634
 30
0.013
  0
VERTEX
  5
92D
  8
1_FORMATIVE
 10
525.9513127457418
 20
9835.8950024033747
 30
0.013
  0
SEQEND
  5
92E
  8
1_FORMATIVE
  0
POLYLINE
  5
A7
  8
1_FORMATIVE
 66
     1
 10
0.0
 20
0.0
 30
1.272999999999999
 70
     1
  0
VERTEX
  5
92F
  8
1_FORMATIVE
 10
525.07762835947256
 20
9835.5311031518922
 30
1.272999999999999
  0
VERTEX
  5
930
  8
1_FORMATIVE
 10
525.09163276071376
 20
9835.5295334544426
 30
1.272999999999999
  0
VERTEX
  5
931
  8
1_FORMATIVE
 10
525.14918421618108
 20
9835.5312827356865
 30
1.272999999999999
  0
VERTEX
  5
932
  8
1_FORMATIVE
 10
525.18434197133115
 20
9835.5346322830355
 30
1.272999999999999
  0
VERTEX
  5
933
  8
1_FORMATIVE
 10
525.15658127596123
 20
9835.5646793255346
 30
1.272999999999999
  0
VERTEX
  5
934
  8
1_FORMATIVE
 10
525.14684904590865
 20
9835.5718654638695
 30
1.272999999999999
  0
VERTEX
  5
935
  8
1_FORMATIVE
 10
525.13669374121218
 20
9835.6069506761723
 30
1.272999999999999
  0
VERTEX
  5
936
  8
1_FORMATIVE
 10
525.12780784960239
 20
9835.6276636399562
 30
1.272999999999999
  0
VERTEX
  5
937
  8
1_FORMATIVE
 10
525.12146078416686
 20
9835.6517582960296
 30
1.272999999999999
  0
VERTEX
  5
938
  8
1_FORMATIVE
 10
525.11595993107142
 20
9835.6796573699994
 30
1.272999999999999
  0
VERTEX
  5
939
  8
1_FORMATIVE
 10
525.11215169181003
 20
9835.6914933493044
 30
1.272999999999999
  0
VERTEX
  5
93A
  8
1_FORMATIVE
 10
525.09353363319906
 20
9835.6534491421717
 30
1.272999999999999
  0
VERTEX
  5
93B
  8
1_FORMATIVE
 10
525.07693845146093
 20
9835.629446220204
 30
1.272999999999999
  0
VERTEX
  5
93C
  8
1_FORMATIVE
 10
525.07176502409243
 20
9835.5967022119621
 30
1.272999999999999
  0
VERTEX
  5
93D
  8
1_FORMATIVE
 10
525.07384918688945
 20
9835.5567264657384
 30
1.272999999999999
  0
VERTEX
  5
93E
  8
1_FORMATIVE
 10
525.07787747540704
 20
9835.5359348284928
 30
1.272999999999999
  0
SEQEND
  5
93F
  8
1_FORMATIVE
  0
POLYLINE
  5
A8
  8
1_FORMATIVE
 66
     1
 10
0.0
 20
0.0
 30
0.06
 70
     1
  0
VERTEX
  5
940
  8
1_FORMATIVE
 10
526.04476047697153
 20
9830.7720141547652
 30
0.06
  0
VERTEX
  5
941
  8
1_FORMATIVE
 10
526.0500381282427
 20
9830.7403799912463
 30
0.06
  0
VERTEX
  5
942
  8
1_FORMATIVE
 10
526.07620116513078
 20
9830.7382417056106
 30
0.06
  0
VERTEX
  5
943
  8
1_FORMATIVE
 10
526.09886976939015
 20
9830.7374029817438
 30
0.06
  0
VERTEX
  5
944
  8
1_FORMATIVE
 10
526.10985161440158
 20
9830.7544396007124
 30
0.06
  0
VERTEX
  5
945
  8
1_FORMATIVE
 10
526.11337006959945
 20
9830.7913461248208
 30
0.06
  0
VERTEX
  5
946
  8
1_FORMATIVE
 10
526.10473985126612
 20
9830.8112460919456
 30
0.06
  0
VERTEX
  5
947
  8
1_FORMATIVE
 10
526.08651510705624
 20
9830.8121797306285
 30
0.06
  0
VERTEX
  5
948
  8
1_FORMATIVE
 10
526.06595386849563
 20
9830.8103124251102
 30
0.06
  0
VERTEX
  5
949
  8
1_FORMATIVE
 10
526.04827886911801
 20
9830.7878312365228
 30
0.06
  0
SEQEND
  5
94A
  8
1_FORMATIVE
  0
POLYLINE
  5
A9
  8
1_FORMATIVE
 66
     1
 10
0.0
 20
0.0
 30
0.08
 70
     1
  0
VERTEX
  5
94B
  8
1_FORMATIVE
 10
526.1805163662001
 20
9830.8368042433303
 30
0.08
  0
VERTEX
  5
94C
  8
1_FORMATIVE
 10
526.20500343481376
 20
9830.8340861666347
 30
0.08
  0
VERTEX
  5
94D
  8
1_FORMATIVE
 10
526.23351715260935
 20
9830.8422202990987
 30
0.08
  0
VERTEX
  5
94E
  8
1_FORMATIVE
 10
526.25235816083887
 20
9830.8752328104456
 30
0.08
  0
VERTEX
  5
94F
  8
1_FORMATIVE
 10
526.22650136442019
 20
9830.9161316961745
 30
0.08
  0
VERTEX
  5
950
  8
1_FORMATIVE
 10
526.16544885593055
 20
9830.9024929827046
 30
0.08
  0
VERTEX
  5
951
  8
1_FORMATIVE
 10
526.15602923453491
 20
9830.8830111530733
 30
0.08
  0
VERTEX
  5
952
  8
1_FORMATIVE
 10
526.15602923453491
 20
9830.8639847850955
 30
0.08
  0
VERTEX
  5
953
  8
1_FORMATIVE
 10
526.16147081934946
 20
9830.8544715729586
 30
0.08
  0
VERTEX
  5
954
  8
1_FORMATIVE
 10
526.16691240416401
 20
9830.843599378768
 30
0.08
  0
SEQEND
  5
955
  8
1_FORMATIVE
  0
POLYLINE
  5
AA
  8
1_FORMATIVE
 66
     1
 10
0.0
 20
0.0
 30
0.043
 70
     1
  0
VERTEX
  5
956
  8
1_FORMATIVE
 10
526.35080863939834
 20
9830.7790262825984
 30
0.043
  0
VERTEX
  5
957
  8
1_FORMATIVE
 10
526.3662625284187
 20
9830.7814014049181
 30
0.043
  0
VERTEX
  5
958
  8
1_FORMATIVE
 10
526.38766026940971
 20
9830.7814014049181
 30
0.043
  0
VERTEX
  5
959
  8
1_FORMATIVE
 10
526.39954791029913
 20
9830.7802138437564
 30
0.043
  0
VERTEX
  5
95A
  8
1_FORMATIVE
 10
526.40668046961218
 20
9830.761212752619
 30
0.043
  0
VERTEX
  5
95B
  8
1_FORMATIVE
 10
526.40430292882411
 20
9830.7493370565862
 30
0.043
  0
VERTEX
  5
95C
  8
1_FORMATIVE
 10
526.40073668069306
 20
9830.7279608149893
 30
0.043
  0
VERTEX
  5
95D
  8
1_FORMATIVE
 10
526.39308325407205
 20
9830.7116436289543
 30
0.043
  0
VERTEX
  5
95E
  8
1_FORMATIVE
 10
526.37890022832005
 20
9830.7024755948823
 30
0.043
  0
VERTEX
  5
95F
  8
1_FORMATIVE
 10
526.35553995061082
 20
9830.7033090550849
 30
0.043
  0
VERTEX
  5
960
  8
1_FORMATIVE
 10
526.34385981175615
 20
9830.7208116630336
 30
0.043
  0
VERTEX
  5
961
  8
1_FORMATIVE
 10
526.33551685543159
 20
9830.7483157371025
 30
0.043
  0
VERTEX
  5
962
  8
1_FORMATIVE
 10
526.34248730969091
 20
9830.7730884205066
 30
0.043
  0
SEQEND
  5
963
  8
1_FORMATIVE
  0
POLYLINE
  5
AB
  8
1_FORMATIVE
 66
     1
 10
0.0
 20
0.0
 30
0.041
 70
     1
  0
VERTEX
  5
964
  8
1_FORMATIVE
 10
526.44286848403033
 20
9830.1718142709706
 30
0.041
  0
VERTEX
  5
965
  8
1_FORMATIVE
 10
526.45053149445846
 20
9830.1845731364483
 30
0.041
  0
VERTEX
  5
966
  8
1_FORMATIVE
 10
526.47321043914155
 20
9830.186720823498
 30
0.041
  0
VERTEX
  5
967
  8
1_FORMATIVE
 10
526.50026041954993
 20
9830.1829502112596
 30
0.041
  0
VERTEX
  5
968
  8
1_FORMATIVE
 10
526.50277667333614
 20
9830.1735236665954
 30
0.041
  0
VERTEX
  5
969
  8
1_FORMATIVE
 10
526.50780924396031
 20
9830.1508999650432
 30
0.041
  0
VERTEX
  5
96A
  8
1_FORMATIVE
 10
526.49711503926574
 20
9830.1326753064004
 30
0.041
  0
VERTEX
  5
96B
  8
1_FORMATIVE
 10
526.48013020010524
 20
9830.1131937864011
 30
0.041
  0
VERTEX
  5
96C
  8
1_FORMATIVE
 10
526.45937098026525
 20
9830.0930838075692
 30
0.041
  0
VERTEX
  5
96D
  8
1_FORMATIVE
 10
526.43735357048092
 20
9830.1131937864011
 30
0.041
  0
VERTEX
  5
96E
  8
1_FORMATIVE
 10
526.43043380951724
 20
9830.1307899862113
 30
0.041
  0
VERTEX
  5
96F
  8
1_FORMATIVE
 10
526.42477223849801
 20
9830.1471293528084
 30
0.041
  0
VERTEX
  5
970
  8
1_FORMATIVE
 10
526.43609544358765
 20
9830.1622118017494
 30
0.041
  0
SEQEND
  5
971
  8
1_FORMATIVE
  0
POLYLINE
  5
AC
  8
1_FORMATIVE
 66
     1
 10
0.0
 20
0.0
 30
0.064
 70
     1
  0
VERTEX
  5
972
  8
1_FORMATIVE
 10
526.97505275506387
 20
9832.0782413844663
 30
0.064
  0
VERTEX
  5
973
  8
1_FORMATIVE
 10
526.97684871008175
 20
9832.1051537609019
 30
0.064
  0
VERTEX
  5
974
  8
1_FORMATIVE
 10
526.97505275506387
 20
9832.1248895130084
 30
0.064
  0
VERTEX
  5
975
  8
1_FORMATIVE
 10
526.99301236829308
 20
9832.1392427616775
 30
0.064
  0
VERTEX
  5
976
  8
1_FORMATIVE
 10
527.02893159475161
 20
9832.1374486126278
 30
0.064
  0
VERTEX
  5
977
  8
1_FORMATIVE
 10
527.03791143289175
 20
9832.1266836620562
 30
0.064
  0
VERTEX
  5
978
  8
1_FORMATIVE
 10
527.04329929794517
 20
9832.0943888103284
 30
0.064
  0
VERTEX
  5
979
  8
1_FORMATIVE
 10
527.04212376833721
 20
9832.0816124931316
 30
0.064
  0
VERTEX
  5
97A
  8
1_FORMATIVE
 10
527.03252356783855
 20
9832.0674764338874
 30
0.064
  0
VERTEX
  5
97B
  8
1_FORMATIVE
 10
527.01635990962711
 20
9832.0513290080289
 30
0.064
  0
VERTEX
  5
97C
  8
1_FORMATIVE
 10
526.99121641327542
 20
9832.0459465608892
 30
0.064
  0
VERTEX
  5
97D
  8
1_FORMATIVE
 10
526.97864466509975
 20
9832.0495348589811
 30
0.064
  0
VERTEX
  5
97E
  8
1_FORMATIVE
 10
526.97146084502845
 20
9832.0638881357991
 30
0.064
  0
SEQEND
  5
97F
  8
1_FORMATIVE
  0
POLYLINE
  5
AD
  8
1_FORMATIVE
 66
     1
 10
0.0
 20
0.0
 30
0.006
 70
     1
  0
VERTEX
  5
980
  8
1_FORMATIVE
 10
527.61682237532636
 20
9831.9113912653065
 30
0.006
  0
VERTEX
  5
981
  8
1_FORMATIVE
 10
527.61199516299075
 20
9831.8923589018195
 30
0.006
  0
VERTEX
  5
982
  8
1_FORMATIVE
 10
527.60426960561063
 20
9831.8869080552122
 30
0.006
  0
VERTEX
  5
983
  8
1_FORMATIVE
 10
527.59590105043264
 20
9831.8857137666982
 30
0.006
  0
VERTEX
  5
984
  8
1_FORMATIVE
 10
527.58095724693715
 20
9831.8869080552122
 30
0.006
  0
VERTEX
  5
985
  8
1_FORMATIVE
 10
527.5624269558233
 20
9831.8886995020584
 30
0.006
  0
VERTEX
  5
986
  8
1_FORMATIVE
 10
527.54956725207364
 20
9831.8870276557664
 30
0.006
  0
VERTEX
  5
987
  8
1_FORMATIVE
 10
527.54195247593771
 20
9831.8972972590727
 30
0.006
  0
VERTEX
  5
988
  8
1_FORMATIVE
 10
527.54307958209915
 20
9831.9082079314794
 30
0.006
  0
VERTEX
  5
989
  8
1_FORMATIVE
 10
527.55223243317892
 20
9831.914413255201
 30
0.006
  0
VERTEX
  5
98A
  8
1_FORMATIVE
 10
527.56541571652235
 20
9831.9203485558337
 30
0.006
  0
VERTEX
  5
98B
  8
1_FORMATIVE
 10
527.57976173004715
 20
9831.9203485558337
 30
0.006
  0
VERTEX
  5
98C
  8
1_FORMATIVE
 10
527.59948753805088
 20
9831.921542844344
 30
0.006
  0
SEQEND
  5
98D
  8
1_FORMATIVE
  0
POLYLINE
  5
AE
  8
1_FORMATIVE
 66
     1
 10
0.0
 20
0.0
 30
0.318
 70
     1
  0
VERTEX
  5
98E
  8
1_FORMATIVE
 10
527.68010507356894
 20
9831.8791516961155
 30
0.318
  0
VERTEX
  5
98F
  8
1_FORMATIVE
 10
527.69886619572185
 20
9831.8752602166696
 30
0.318
  0
VERTEX
  5
990
  8
1_FORMATIVE
 10
527.70772384032091
 20
9831.8651811467025
 30
0.318
  0
VERTEX
  5
991
  8
1_FORMATIVE
 10
527.70918221834233
 20
9831.8346051764565
 30
0.318
  0
VERTEX
  5
992
  8
1_FORMATIVE
 10
527.69732692280195
 20
9831.8267095695537
 30
0.318
  0
VERTEX
  5
993
  8
1_FORMATIVE
 10
527.6775680758841
 20
9831.8352631343168
 30
0.318
  0
VERTEX
  5
994
  8
1_FORMATIVE
 10
527.66571271729231
 20
9831.8464485868171
 30
0.318
  0
VERTEX
  5
995
  8
1_FORMATIVE
 10
527.66159848976747
 20
9831.8584935926483
 30
0.318
  0
VERTEX
  5
996
  8
1_FORMATIVE
 10
527.6624196076649
 20
9831.8688194918141
 30
0.318
  0
SEQEND
  5
997
  8
1_FORMATIVE
  0
POLYLINE
  5
AF
  8
1_FORMATIVE
 66
     1
 10
0.0
 20
0.0
 30
0.014
 70
     1
  0
VERTEX
  5
998
  8
1_FORMATIVE
 10
527.94976894268495
 20
9831.817575594474
 30
0.014
  0
VERTEX
  5
999
  8
1_FORMATIVE
 10
527.9245630254843
 20
9831.8264628529432
 30
0.014
  0
VERTEX
  5
99A
  8
1_FORMATIVE
 10
527.90973605616421
 20
9831.8235004522212
 30
0.014
  0
VERTEX
  5
99B
  8
1_FORMATIVE
 10
527.90380525582577
 20
9831.7998010775282
 30
0.014
  0
VERTEX
  5
99C
  8
1_FORMATIVE
 10
527.91566685650253
 20
9831.780545332067
 30
0.014
  0
VERTEX
  5
99D
  8
1_FORMATIVE
 10
527.94383814234675
 20
9831.7775829031962
 30
0.014
  0
VERTEX
  5
99E
  8
1_FORMATIVE
 10
527.95577099106345
 20
9831.7911961709397
 30
0.014
  0
VERTEX
  5
99F
  8
1_FORMATIVE
 10
527.95935880276045
 20
9831.8014366692878
 30
0.014
  0
SEQEND
  5
9A0
  8
1_FORMATIVE
  0
POLYLINE
  5
B0
  8
1_FORMATIVE
 66
     1
 10
0.0
 20
0.0
 30
0.167
 70
     1
  0
VERTEX
  5
9A1
  8
1_FORMATIVE
 10
526.51497786865275
 20
9832.0722021335314
 30
0.167
  0
VERTEX
  5
9A2
  8
1_FORMATIVE
 10
526.51014302710234
 20
9832.0963522973198
 30
0.167
  0
VERTEX
  5
9A3
  8
1_FORMATIVE
 10
526.51497786865275
 20
9832.1108423730766
 30
0.167
  0
VERTEX
  5
9A4
  8
1_FORMATIVE
 10
526.53310872938346
 20
9832.1205024329647
 30
0.167
  0
VERTEX
  5
9A5
  8
1_FORMATIVE
 10
526.55607443166423
 20
9832.1289549748089
 30
0.167
  0
VERTEX
  5
9A6
  8
1_FORMATIVE
 10
526.56816163011695
 20
9832.1410300426287
 30
0.167
  0
VERTEX
  5
9A7
  8
1_FORMATIVE
 10
526.58179112795483
 20
9832.1387542825032
 30
0.167
  0
VERTEX
  5
9A8
  8
1_FORMATIVE
 10
526.5948889767019
 20
9832.1262643986447
 30
0.167
  0
VERTEX
  5
9A9
  8
1_FORMATIVE
 10
526.59965175054447
 20
9832.1108007422881
 30
0.167
  0
VERTEX
  5
9AA
  8
1_FORMATIVE
 10
526.59131680174312
 20
9832.0893895128083
 30
0.167
  0
VERTEX
  5
9AB
  8
1_FORMATIVE
 10
526.57541398701926
 20
9832.0806547035245
 30
0.167
  0
VERTEX
  5
9AC
  8
1_FORMATIVE
 10
526.54277847553533
 20
9832.0697871255943
 30
0.167
  0
VERTEX
  5
9AD
  8
1_FORMATIVE
 10
526.52464767785625
 20
9832.0673721176627
 30
0.167
  0
SEQEND
  5
9AE
  8
1_FORMATIVE
  0
POLYLINE
  5
B1
  8
1_FORMATIVE
 66
     1
 10
0.0
 20
0.0
 30
0.013
 70
     1
  0
VERTEX
  5
9AF
  8
1_FORMATIVE
 10
527.09918632353765
 20
9832.0094151360972
 30
0.013
  0
VERTEX
  5
9B0
  8
1_FORMATIVE
 10
527.10594631234812
 20
9832.0064759292618
 30
0.013
  0
VERTEX
  5
9B1
  8
1_FORMATIVE
 10
527.12145537131084
 20
9831.9827192735338
 30
0.013
  0
VERTEX
  5
9B2
  8
1_FORMATIVE
 10
527.14110015831352
 20
9831.9656764338743
 30
0.013
  0
VERTEX
  5
9B3
  8
1_FORMATIVE
 10
527.14411439176308
 20
9831.9378641962703
 30
0.013
  0
VERTEX
  5
9B4
  8
1_FORMATIVE
 10
527.13908560422078
 20
9831.9275656005939
 30
0.013
  0
VERTEX
  5
9B5
  8
1_FORMATIVE
 10
527.12817595301965
 20
9831.926942771348
 30
0.013
  0
VERTEX
  5
9B6
  8
1_FORMATIVE
 10
527.11887051764188
 20
9831.9279756596334
 30
0.013
  0
VERTEX
  5
9B7
  8
1_FORMATIVE
 10
527.10025964688646
 20
9831.9367552804233
 30
0.013
  0
VERTEX
  5
9B8
  8
1_FORMATIVE
 10
527.09043725338529
 20
9831.9486336223672
 30
0.013
  0
VERTEX
  5
9B9
  8
1_FORMATIVE
 10
527.07906398551336
 20
9831.9620613108036
 30
0.013
  0
VERTEX
  5
9BA
  8
1_FORMATIVE
 10
527.07434629339514
 20
9831.9803154121764
 30
0.013
  0
VERTEX
  5
9BB
  8
1_FORMATIVE
 10
527.08113705127073
 20
9831.9837074066072
 30
0.013
  0
VERTEX
  5
9BC
  8
1_FORMATIVE
 10
527.09043725338529
 20
9831.9976962803248
 30
0.013
  0
VERTEX
  5
9BD
  8
1_FORMATIVE
 10
527.09507613129995
 20
9832.0038808308709
 30
0.013
  0
SEQEND
  5
9BE
  8
1_FORMATIVE
  0
POLYLINE
  5
B2
  8
1_FORMATIVE
 66
     1
 10
0.0
 20
0.0
 30
0.053
 70
     1
  0
VERTEX
  5
9BF
  8
1_FORMATIVE
 10
526.71648321459054
 20
9830.1233019050342
 30
0.053
  0
VERTEX
  5
9C0
  8
1_FORMATIVE
 10
526.76701390081087
 20
9830.1169481572797
 30
0.053
  0
VERTEX
  5
9C1
  8
1_FORMATIVE
 10
526.75895789123854
 20
9830.1030190134716
 30
0.053
  0
VERTEX
  5
9C2
  8
1_FORMATIVE
 10
526.74625411350894
 20
9830.0878517266738
 30
0.053
  0
VERTEX
  5
9C3
  8
1_FORMATIVE
 10
526.73270267325802
 20
9830.0712226897285
 30
0.053
  0
VERTEX
  5
9C4
  8
1_FORMATIVE
 10
526.71503032203759
 20
9830.0607904195367
 30
0.053
  0
VERTEX
  5
9C5
  8
1_FORMATIVE
 10
526.69253826159422
 20
9830.0607904195367
 30
0.053
  0
VERTEX
  5
9C6
  8
1_FORMATIVE
 10
526.6780790708732
 20
9830.0672102586286
 30
0.053
  0
VERTEX
  5
9C7
  8
1_FORMATIVE
 10
526.67165274987462
 20
9830.0784449981547
 30
0.053
  0
VERTEX
  5
9C8
  8
1_FORMATIVE
 10
526.67727579651125
 20
9830.0928896712976
 30
0.053
  0
VERTEX
  5
9C9
  8
1_FORMATIVE
 10
526.69655469645545
 20
9830.111346747397
 30
0.053
  0
SEQEND
  5
9CA
  8
1_FORMATIVE
  0
POLYLINE
  5
B3
  8
1_FORMATIVE
 66
     1
 10
0.0
 20
0.0
 30
0.086
 70
     1
  0
VERTEX
  5
9CB
  8
1_FORMATIVE
 10
526.91015468090654
 20
9829.8736341023305
 30
0.086
  0
VERTEX
  5
9CC
  8
1_FORMATIVE
 10
526.92802709410114
 20
9829.8748243938353
 30
0.086
  0
VERTEX
  5
9CD
  8
1_FORMATIVE
 10
526.94470796264159
 20
9829.8736341023305
 30
0.086
  0
VERTEX
  5
9CE
  8
1_FORMATIVE
 10
526.96615488369525
 20
9829.8748243938353
 30
0.086
  0
VERTEX
  5
9CF
  8
1_FORMATIVE
 10
526.97449531796565
 20
9829.8926788509052
 30
0.086
  0
VERTEX
  5
9D0
  8
1_FORMATIVE
 10
526.98045278903055
 20
9829.9033915307773
 30
0.086
  0
VERTEX
  5
9D1
  8
1_FORMATIVE
 10
526.98521877849259
 20
9829.9176751133145
 30
0.086
  0
VERTEX
  5
9D2
  8
1_FORMATIVE
 10
526.98164433368447
 20
9829.9367198618893
 30
0.086
  0
VERTEX
  5
9D3
  8
1_FORMATIVE
 10
526.97211235476016
 20
9829.9426713475805
 30
0.086
  0
VERTEX
  5
9D4
  8
1_FORMATIVE
 10
526.95304845996316
 20
9829.9414810560738
 30
0.086
  0
VERTEX
  5
9D5
  8
1_FORMATIVE
 10
526.92683554944711
 20
9829.9331489592205
 30
0.086
  0
VERTEX
  5
9D6
  8
1_FORMATIVE
 10
526.9113461625094
 20
9829.9271974735275
 30
0.086
  0
VERTEX
  5
9D7
  8
1_FORMATIVE
 10
526.90419720984198
 20
9829.8998206562555
 30
0.086
  0
VERTEX
  5
9D8
  8
1_FORMATIVE
 10
526.9018141835852
 20
9829.8807758795265
 30
0.086
  0
SEQEND
  5
9D9
  8
1_FORMATIVE
  0
POLYLINE
  5
B4
  8
1_FORMATIVE
 66
     1
 10
0.0
 20
0.0
 30
0.054
 70
     1
  0
VERTEX
  5
9DA
  8
1_FORMATIVE
 10
527.10844478565002
 20
9829.9722135006559
 30
0.054
  0
VERTEX
  5
9DB
  8
1_FORMATIVE
 10
527.11909088215498
 20
9829.9962831050743
 30
0.054
  0
VERTEX
  5
9DC
  8
1_FORMATIVE
 10
527.13285222039246
 20
9830.0189297753404
 30
0.054
  0
VERTEX
  5
9DD
  8
1_FORMATIVE
 10
527.15821929687672
 20
9830.0270357035788
 30
0.054
  0
VERTEX
  5
9DE
  8
1_FORMATIVE
 10
527.17305887646955
 20
9830.0029455511794
 30
0.054
  0
VERTEX
  5
9DF
  8
1_FORMATIVE
 10
527.17120396842745
 20
9829.9732960981892
 30
0.054
  0
VERTEX
  5
9E0
  8
1_FORMATIVE
 10
527.15086410320146
 20
9829.9384055569662
 30
0.054
  0
VERTEX
  5
9E1
  8
1_FORMATIVE
 10
527.1427617508773
 20
9829.9414599732772
 30
0.054
  0
VERTEX
  5
9E2
  8
1_FORMATIVE
 10
527.13695251356614
 20
9829.9448198509162
 30
0.054
  0
VERTEX
  5
9E3
  8
1_FORMATIVE
 10
527.12090070847262
 20
9829.9512341167192
 30
0.054
  0
VERTEX
  5
9E4
  8
1_FORMATIVE
 10
527.11692595056195
 20
9829.9545939662148
 30
0.054
  0
VERTEX
  5
9E5
  8
1_FORMATIVE
 10
527.10956546057253
 20
9829.958779281902
 30
0.054
  0
VERTEX
  5
9E6
  8
1_FORMATIVE
 10
527.10302835832942
 20
9829.9615780587083
 30
0.054
  0
SEQEND
  5
9E7
  8
1_FORMATIVE
  0
POLYLINE
  5
B5
  8
1_FORMATIVE
 66
     1
 10
0.0
 20
0.0
 30
0.5710000000000001
 70
     1
  0
VERTEX
  5
9E8
  8
1_FORMATIVE
 10
527.12013633680135
 20
9829.9500123558246
 30
0.5710000000000001
  0
VERTEX
  5
9E9
  8
1_FORMATIVE
 10
527.10143246528594
 20
9829.9607500310558
 30
0.5710000000000001
  0
VERTEX
  5
9EA
  8
1_FORMATIVE
 10
527.07987608706605
 20
9829.9353698308823
 30
0.5710000000000001
  0
VERTEX
  5
9EB
  8
1_FORMATIVE
 10
527.06524854920644
 20
9829.9238333736976
 30
0.5710000000000001
  0
VERTEX
  5
9EC
  8
1_FORMATIVE
 10
527.05391140976542
 20
9829.9063979267139
 30
0.5710000000000001
  0
VERTEX
  5
9ED
  8
1_FORMATIVE
 10
527.050448628921
 20
9829.8861301224406
 30
0.5710000000000001
  0
VERTEX
  5
9EE
  8
1_FORMATIVE
 10
527.06344017307015
 20
9829.8750743474557
 30
0.5710000000000001
  0
VERTEX
  5
9EF
  8
1_FORMATIVE
 10
527.08221504042035
 20
9829.8745884015916
 30
0.5710000000000001
  0
VERTEX
  5
9F0
  8
1_FORMATIVE
 10
527.10199854042105
 20
9829.8892460138286
 30
0.5710000000000001
  0
VERTEX
  5
9F1
  8
1_FORMATIVE
 10
527.11803672642031
 20
9829.9015381303361
 30
0.5710000000000001
  0
VERTEX
  5
9F2
  8
1_FORMATIVE
 10
527.14987829514405
 20
9829.9377656700763
 30
0.5710000000000001
  0
SEQEND
  5
9F3
  8
1_FORMATIVE
  0
POLYLINE
  5
B6
  8
1_FORMATIVE
 66
     1
 10
0.0
 20
0.0
 30
0.004
 70
     1
  0
VERTEX
  5
9F4
  8
1_FORMATIVE
 10
528.0965731961129
 20
9831.4918981354185
 30
0.004
  0
VERTEX
  5
9F5
  8
1_FORMATIVE
 10
528.09937475731601
 20
9831.5128891444474
 30
0.004
  0
VERTEX
  5
9F6
  8
1_FORMATIVE
 10
528.11898612709638
 20
9831.5296819460436
 30
0.004
  0
VERTEX
  5
9F7
  8
1_FORMATIVE
 10
528.12739093680796
 20
9831.5492735807475
 30
0.004
  0
VERTEX
  5
9F8
  8
1_FORMATIVE
 10
528.1287917489351
 20
9831.5772615740316
 30
0.004
  0
VERTEX
  5
9F9
  8
1_FORMATIVE
 10
528.13289298787925
 20
9831.587029890854
 30
0.004
  0
VERTEX
  5
9FA
  8
1_FORMATIVE
 10
528.14502772705976
 20
9831.5936972909894
 30
0.004
  0
VERTEX
  5
9FB
  8
1_FORMATIVE
 10
528.15958937624532
 20
9831.5930911534724
 30
0.004
  0
VERTEX
  5
9FC
  8
1_FORMATIVE
 10
528.17172411542549
 20
9831.5912727972045
 30
0.004
  0
VERTEX
  5
9FD
  8
1_FORMATIVE
 10
528.17779148501575
 20
9831.5809686282391
 30
0.004
  0
VERTEX
  5
9FE
  8
1_FORMATIVE
 10
528.18385885460555
 20
9831.5700583499038
 30
0.004
  0
VERTEX
  5
9FF
  8
1_FORMATIVE
 10
528.18237197736835
 20
9831.5599920872392
 30
0.004
  0
VERTEX
  5
A00
  8
1_FORMATIVE
 10
528.17892218510485
 20
9831.5344889932039
 30
0.004
  0
VERTEX
  5
A01
  8
1_FORMATIVE
 10
528.16029309250519
 20
9831.5069180677983
 30
0.004
  0
VERTEX
  5
A02
  8
1_FORMATIVE
 10
528.14560143140955
 20
9831.4960963428475
 30
0.004
  0
VERTEX
  5
A03
  8
1_FORMATIVE
 10
528.1287917489351
 20
9831.4890993304562
 30
0.004
  0
VERTEX
  5
A04
  8
1_FORMATIVE
 10
528.1021763815703
 20
9831.4876999279786
 30
0.004
  0
SEQEND
  5
A05
  8
1_FORMATIVE
  0
POLYLINE
  5
B7
  8
1_FORMATIVE
 66
     1
 10
0.0
 20
0.0
 30
0.159
 70
     1
  0
VERTEX
  5
A06
  8
1_FORMATIVE
 10
527.63687434802955
 20
9830.3876472205611
 30
0.159
  0
VERTEX
  5
A07
  8
1_FORMATIVE
 10
527.64546597892922
 20
9830.4065298370606
 30
0.159
  0
VERTEX
  5
A08
  8
1_FORMATIVE
 10
527.64031102561
 20
9830.4460116434075
 30
0.159
  0
VERTEX
  5
A09
  8
1_FORMATIVE
 10
527.65681150420153
 20
9830.4978526990799
 30
0.159
  0
VERTEX
  5
A0A
  8
1_FORMATIVE
 10
527.64773620629785
 20
9830.5143850478853
 30
0.159
  0
VERTEX
  5
A0B
  8
1_FORMATIVE
 10
527.61677363662284
 20
9830.5106519286965
 30
0.159
  0
VERTEX
  5
A0C
  8
1_FORMATIVE
 10
527.58704283837108
 20
9830.4648942599088
 30
0.159
  0
VERTEX
  5
A0D
  8
1_FORMATIVE
 10
527.56642296204313
 20
9830.4408618389116
 30
0.159
  0
VERTEX
  5
A0E
  8
1_FORMATIVE
 10
527.55783126809195
 20
9830.4116796415601
 30
0.159
  0
VERTEX
  5
A0F
  8
1_FORMATIVE
 10
527.56298628446268
 20
9830.3842140175602
 30
0.159
  0
VERTEX
  5
A10
  8
1_FORMATIVE
 10
527.56985957657196
 20
9830.3721978070607
 30
0.159
  0
VERTEX
  5
A11
  8
1_FORMATIVE
 10
527.60078948564114
 20
9830.3550318202069
 30
0.159
  0
VERTEX
  5
A12
  8
1_FORMATIVE
 10
527.62484603954965
 20
9830.3550318202069
 30
0.159
  0
VERTEX
  5
A13
  8
1_FORMATIVE
 10
527.63687434802955
 20
9830.3721978070607
 30
0.159
  0
SEQEND
  5
A14
  8
1_FORMATIVE
  0
POLYLINE
  5
B8
  8
1_FORMATIVE
 66
     1
 10
0.0
 20
0.0
 30
0.03
 70
     1
  0
VERTEX
  5
A15
  8
1_FORMATIVE
 10
526.46822534619355
 20
9832.0005539426038
 30
0.03
  0
VERTEX
  5
A16
  8
1_FORMATIVE
 10
526.47073125955649
 20
9831.9918213288565
 30
0.03
  0
VERTEX
  5
A17
  8
1_FORMATIVE
 10
526.47152602198435
 20
9831.9630461505749
 30
0.03
  0
VERTEX
  5
A18
  8
1_FORMATIVE
 10
526.46946310749661
 20
9831.9519174724464
 30
0.03
  0
VERTEX
  5
A19
  8
1_FORMATIVE
 10
526.45670283574589
 20
9831.9446180386967
 30
0.03
  0
VERTEX
  5
A1A
  8
1_FORMATIVE
 10
526.43519696166777
 20
9831.9380074973778
 30
0.03
  0
VERTEX
  5
A1B
  8
1_FORMATIVE
 10
526.40757491624493
 20
9831.9407887661746
 30
0.03
  0
VERTEX
  5
A1C
  8
1_FORMATIVE
 10
526.39313432567565
 20
9831.9469713745166
 30
0.03
  0
VERTEX
  5
A1D
  8
1_FORMATIVE
 10
526.37455769181042
 20
9831.9546778836284
 30
0.03
  0
VERTEX
  5
A1E
  8
1_FORMATIVE
 10
526.3814287771221
 20
9831.984229438116
 30
0.03
  0
VERTEX
  5
A1F
  8
1_FORMATIVE
 10
526.38901158621695
 20
9832.0165373786276
 30
0.03
  0
VERTEX
  5
A20
  8
1_FORMATIVE
 10
526.42884901351329
 20
9832.0065884365413
 30
0.03
  0
VERTEX
  5
A21
  8
1_FORMATIVE
 10
526.45225380548459
 20
9832.0065884365413
 30
0.03
  0
SEQEND
  5
A22
  8
1_FORMATIVE
  0
POLYLINE
  5
B9
  8
1_FORMATIVE
 66
     1
 10
0.0
 20
0.0
 30
0.318
 70
     1
  0
VERTEX
  5
A23
  8
1_FORMATIVE
 10
526.38750182133469
 20
9832.0169000365568
 30
0.318
  0
VERTEX
  5
A24
  8
1_FORMATIVE
 10
526.37307945260977
 20
9831.9551701346245
 30
0.318
  0
VERTEX
  5
A25
  8
1_FORMATIVE
 10
526.33969993504468
 20
9831.9636055625288
 30
0.318
  0
VERTEX
  5
A26
  8
1_FORMATIVE
 10
526.29847525166417
 20
9831.9764053832496
 30
0.318
  0
VERTEX
  5
A27
  8
1_FORMATIVE
 10
526.30520869585075
 20
9832.0005233176598
 30
0.318
  0
VERTEX
  5
A28
  8
1_FORMATIVE
 10
526.31790024161603
 20
9832.0337730597566
 30
0.318
  0
VERTEX
  5
A29
  8
1_FORMATIVE
 10
526.32662364986379
 20
9832.031548050345
 30
0.318
  0
VERTEX
  5
A2A
  8
1_FORMATIVE
 10
526.35056658521637
 20
9832.0259855127515
 30
0.318
  0
VERTEX
  5
A2B
  8
1_FORMATIVE
 10
526.37788661461184
 20
9832.0189821952226
 30
0.318
  0
SEQEND
  5
A2C
  8
1_FORMATIVE
  0
POLYLINE
  5
BA
  8
1_FORMATIVE
 66
     1
 10
0.0
 20
0.0
 30
0.5570000000000001
 70
     1
  0
VERTEX
  5
A2D
  8
1_FORMATIVE
 10
527.22971386766085
 20
9830.2680140433167
 30
0.5570000000000001
  0
VERTEX
  5
A2E
  8
1_FORMATIVE
 10
527.23713463475315
 20
9830.2445385572519
 30
0.5570000000000001
  0
VERTEX
  5
A2F
  8
1_FORMATIVE
 10
527.25939693603084
 20
9830.2210630711925
 30
0.5570000000000001
  0
VERTEX
  5
A30
  8
1_FORMATIVE
 10
527.24702896985946
 20
9830.2087075374002
 30
0.5570000000000001
  0
VERTEX
  5
A31
  8
1_FORMATIVE
 10
527.22914281146802
 20
9830.2057260242327
 30
0.5570000000000001
  0
VERTEX
  5
A32
  8
1_FORMATIVE
 10
527.21515480358084
 20
9830.2018963294886
 30
0.5570000000000001
  0
VERTEX
  5
A33
  8
1_FORMATIVE
 10
527.1923985579275
 20
9830.2071163349246
 30
0.5570000000000001
  0
VERTEX
  5
A34
  8
1_FORMATIVE
 10
527.16710531458921
 20
9830.2122319115442
 30
0.5570000000000001
  0
VERTEX
  5
A35
  8
1_FORMATIVE
 10
527.17046336712019
 20
9830.2327959164868
 30
0.5570000000000001
  0
VERTEX
  5
A36
  8
1_FORMATIVE
 10
527.16611345360093
 20
9830.2501780794355
 30
0.5570000000000001
  0
VERTEX
  5
A37
  8
1_FORMATIVE
 10
527.16785341900845
 20
9830.2701675569824
 30
0.5570000000000001
  0
VERTEX
  5
A38
  8
1_FORMATIVE
 10
527.16561421291055
 20
9830.2807620155436
 30
0.5570000000000001
  0
VERTEX
  5
A39
  8
1_FORMATIVE
 10
527.18617349687895
 20
9830.2809772909113
 30
0.5570000000000001
  0
VERTEX
  5
A3A
  8
1_FORMATIVE
 10
527.20513209590024
 20
9830.2769467043963
 30
0.5570000000000001
  0
VERTEX
  5
A3B
  8
1_FORMATIVE
 10
527.22088724433218
 20
9830.2769467043963
 30
0.5570000000000001
  0
VERTEX
  5
A3C
  8
1_FORMATIVE
 10
527.23387834712173
 20
9830.277222835588
 30
0.5570000000000001
  0
SEQEND
  5
A3D
  8
1_FORMATIVE
  0
POLYLINE
  5
BB
  8
1_FORMATIVE
 66
     1
 10
0.0
 20
0.0
 30
0.014
 70
     1
  0
VERTEX
  5
A3E
  8
1_FORMATIVE
 10
527.30764673920226
 20
9829.9252933786702
 30
0.014
  0
VERTEX
  5
A3F
  8
1_FORMATIVE
 10
527.30485476180661
 20
9829.8696126357427
 30
0.014
  0
VERTEX
  5
A40
  8
1_FORMATIVE
 10
527.30827763113825
 20
9829.852515470584
 30
0.014
  0
VERTEX
  5
A41
  8
1_FORMATIVE
 10
527.31341196666199
 20
9829.8046434137541
 30
0.014
  0
VERTEX
  5
A42
  8
1_FORMATIVE
 10
527.31736522405765
 20
9829.7881733563208
 30
0.014
  0
VERTEX
  5
A43
  8
1_FORMATIVE
 10
527.36109903642046
 20
9829.7724892735296
 30
0.014
  0
VERTEX
  5
A44
  8
1_FORMATIVE
 10
527.38099527225791
 20
9829.7831821654054
 30
0.014
  0
VERTEX
  5
A45
  8
1_FORMATIVE
 10
527.39761737692822
 20
9829.7922396907052
 30
0.014
  0
VERTEX
  5
A46
  8
1_FORMATIVE
 10
527.41438664347925
 20
9829.8012240032403
 30
0.014
  0
VERTEX
  5
A47
  8
1_FORMATIVE
 10
527.39651965270195
 20
9829.8348426239554
 30
0.014
  0
VERTEX
  5
A48
  8
1_FORMATIVE
 10
527.374228095592
 20
9829.8895877015493
 30
0.014
  0
VERTEX
  5
A49
  8
1_FORMATIVE
 10
527.36652361923825
 20
9829.9365154084699
 30
0.014
  0
SEQEND
  5
A4A
  8
1_FORMATIVE
  0
POLYLINE
  5
BC
  8
1_FORMATIVE
 66
     1
 10
0.0
 20
0.0
 30
0.1
 70
     1
  0
VERTEX
  5
A4B
  8
1_FORMATIVE
 10
528.46274076991108
 20
9831.9321129268046
 30
0.1
  0
VERTEX
  5
A4C
  8
1_FORMATIVE
 10
528.47402418959075
 20
9831.9420251358424
 30
0.1
  0
VERTEX
  5
A4D
  8
1_FORMATIVE
 10
528.49289817368344
 20
9831.9420251358424
 30
0.1
  0
VERTEX
  5
A4E
  8
1_FORMATIVE
 10
528.51428866376762
 20
9831.9369971274373
 30
0.1
  0
VERTEX
  5
A4F
  8
1_FORMATIVE
 10
528.53442090085593
 20
9831.9143710896024
 30
0.1
  0
VERTEX
  5
A50
  8
1_FORMATIVE
 10
528.53064614186826
 20
9831.9055721030363
 30
0.1
  0
VERTEX
  5
A51
  8
1_FORMATIVE
 10
528.52561306683322
 20
9831.8917450799163
 30
0.1
  0
VERTEX
  5
A52
  8
1_FORMATIVE
 10
528.49345725011722
 20
9831.8690929208042
 30
0.1
  0
VERTEX
  5
A53
  8
1_FORMATIVE
 10
528.4646281494048
 20
9831.8660290749394
 30
0.1
  0
VERTEX
  5
A54
  8
1_FORMATIVE
 10
528.42537155126274
 20
9831.8972802295757
 30
0.1
  0
VERTEX
  5
A55
  8
1_FORMATIVE
 10
528.43395895772085
 20
9831.9150504961854
 30
0.1
  0
VERTEX
  5
A56
  8
1_FORMATIVE
 10
528.4536761907392
 20
9831.9219255717471
 30
0.1
  0
SEQEND
  5
A57
  8
1_FORMATIVE
  0
POLYLINE
  5
BD
  8
1_FORMATIVE
 66
     1
 10
0.0
 20
0.0
 30
0.019
 70
     1
  0
VERTEX
  5
A58
  8
1_FORMATIVE
 10
528.38482693988124
 20
9831.8582150407346
 30
0.019
  0
VERTEX
  5
A59
  8
1_FORMATIVE
 10
528.39389624790522
 20
9831.8696594541907
 30
0.019
  0
VERTEX
  5
A5A
  8
1_FORMATIVE
 10
528.40146140261845
 20
9831.8785258268963
 30
0.019
  0
VERTEX
  5
A5B
  8
1_FORMATIVE
 10
528.41158051583307
 20
9831.8878914312882
 30
0.019
  0
VERTEX
  5
A5C
  8
1_FORMATIVE
 10
528.42422931277429
 20
9831.8960677293508
 30
0.019
  0
VERTEX
  5
A5D
  8
1_FORMATIVE
 10
528.46393218846265
 20
9831.8633393150631
 30
0.019
  0
VERTEX
  5
A5E
  8
1_FORMATIVE
 10
528.45288186967082
 20
9831.8501374856096
 30
0.019
  0
VERTEX
  5
A5F
  8
1_FORMATIVE
 10
528.44019725955548
 20
9831.8300808752556
 30
0.019
  0
VERTEX
  5
A60
  8
1_FORMATIVE
 10
528.43208261221525
 20
9831.8071920483508
 30
0.019
  0
VERTEX
  5
A61
  8
1_FORMATIVE
 10
528.41776276500639
 20
9831.7871643459166
 30
0.019
  0
VERTEX
  5
A62
  8
1_FORMATIVE
 10
528.37384837354045
 20
9831.819113315878
 30
0.019
  0
VERTEX
  5
A63
  8
1_FORMATIVE
 10
528.37480303422444
 20
9831.8353262419714
 30
0.019
  0
VERTEX
  5
A64
  8
1_FORMATIVE
 10
528.37957633764461
 20
9831.8482011895194
 30
0.019
  0
SEQEND
  5
A65
  8
1_FORMATIVE
  0
POLYLINE
  5
BE
  8
1_FORMATIVE
 66
     1
 10
0.0
 20
0.0
 30
0.123
 70
     1
  0
VERTEX
  5
A66
  8
1_FORMATIVE
 10
528.58779596015472
 20
9831.8586934992436
 30
0.123
  0
VERTEX
  5
A67
  8
1_FORMATIVE
 10
528.60661073901736
 20
9831.857127151392
 30
0.123
  0
VERTEX
  5
A68
  8
1_FORMATIVE
 10
528.61497286295651
 20
9831.8566050635927
 30
0.123
  0
VERTEX
  5
A69
  8
1_FORMATIVE
 10
528.62386632072969
 20
9831.8511345697298
 30
0.123
  0
VERTEX
  5
A6A
  8
1_FORMATIVE
 10
528.62627406312049
 20
9831.8379052678956
 30
0.123
  0
VERTEX
  5
A6B
  8
1_FORMATIVE
 10
528.64018533749891
 20
9831.8161520973663
 30
0.123
  0
VERTEX
  5
A6C
  8
1_FORMATIVE
 10
528.57900464558918
 20
9831.7887462314247
 30
0.123
  0
VERTEX
  5
A6D
  8
1_FORMATIVE
 10
528.57552900226665
 20
9831.7965585204547
 30
0.123
  0
VERTEX
  5
A6E
  8
1_FORMATIVE
 10
528.56897437174484
 20
9831.8059850088193
 30
0.123
  0
VERTEX
  5
A6F
  8
1_FORMATIVE
 10
528.56246879518324
 20
9831.8186626675251
 30
0.123
  0
VERTEX
  5
A70
  8
1_FORMATIVE
 10
528.55885721312245
 20
9831.8403105929447
 30
0.123
  0
VERTEX
  5
A71
  8
1_FORMATIVE
 10
528.57054907953045
 20
9831.8524281922837
 30
0.123
  0
SEQEND
  5
A72
  8
1_FORMATIVE
  0
POLYLINE
  5
BF
  8
1_FORMATIVE
 66
     1
 10
0.0
 20
0.0
 30
0.029
 70
     1
  0
VERTEX
  5
A73
  8
1_FORMATIVE
 10
528.64053464204881
 20
9831.814232887069
 30
0.029
  0
VERTEX
  5
A74
  8
1_FORMATIVE
 10
528.64134132118443
 20
9831.8023560651181
 30
0.029
  0
VERTEX
  5
A75
  8
1_FORMATIVE
 10
528.64444647469929
 20
9831.7647251258932
 30
0.029
  0
VERTEX
  5
A76
  8
1_FORMATIVE
 10
528.64717785973551
 20
9831.7274981657538
 30
0.029
  0
VERTEX
  5
A77
  8
1_FORMATIVE
 10
528.59520550410446
 20
9831.727336427748
 30
0.029
  0
VERTEX
  5
A78
  8
1_FORMATIVE
 10
528.58738562188569
 20
9831.7552245521747
 30
0.029
  0
VERTEX
  5
A79
  8
1_FORMATIVE
 10
528.5796253232046
 20
9831.7871341713326
 30
0.029
  0
VERTEX
  5
A7A
  8
1_FORMATIVE
 10
528.6012395825752
 20
9831.7980984936967
 30
0.029
  0
VERTEX
  5
A7B
  8
1_FORMATIVE
 10
528.62499084178501
 20
9831.808126306285
 30
0.029
  0
SEQEND
  5
A7C
  8
1_FORMATIVE
  0
POLYLINE
  5
C0
  8
1_FORMATIVE
 66
     1
 10
0.0
 20
0.0
 30
0.057
 70
     1
  0
VERTEX
  5
A7D
  8
1_FORMATIVE
 10
528.55774240197695
 20
9831.8388732470576
 30
0.057
  0
VERTEX
  5
A7E
  8
1_FORMATIVE
 10
528.55314753391337
 20
9831.8327055852678
 30
0.057
  0
VERTEX
  5
A7F
  8
1_FORMATIVE
 10
528.54365174647126
 20
9831.8282786477503
 30
0.057
  0
VERTEX
  5
A80
  8
1_FORMATIVE
 10
528.53542203039422
 20
9831.8181599736436
 30
0.057
  0
VERTEX
  5
A81
  8
1_FORMATIVE
 10
528.51832962560877
 20
9831.8067764441639
 30
0.057
  0
VERTEX
  5
A82
  8
1_FORMATIVE
 10
528.50818421997621
 20
9831.7742089515887
 30
0.057
  0
VERTEX
  5
A83
  8
1_FORMATIVE
 10
528.5102636539209
 20
9831.7430491369832
 30
0.057
  0
VERTEX
  5
A84
  8
1_FORMATIVE
 10
528.53668816481058
 20
9831.7441670883109
 30
0.057
  0
VERTEX
  5
A85
  8
1_FORMATIVE
 10
528.55211758990231
 20
9831.7431994469298
 30
0.057
  0
VERTEX
  5
A86
  8
1_FORMATIVE
 10
528.57128886117005
 20
9831.7583735736716
 30
0.057
  0
VERTEX
  5
A87
  8
1_FORMATIVE
 10
528.58290109370705
 20
9831.7663016914412
 30
0.057
  0
VERTEX
  5
A88
  8
1_FORMATIVE
 10
528.57846971782715
 20
9831.7852742405757
 30
0.057
  0
VERTEX
  5
A89
  8
1_FORMATIVE
 10
528.56011117862556
 20
9831.8187924013328
 30
0.057
  0
VERTEX
  5
A8A
  8
1_FORMATIVE
 10
528.55821200852677
 20
9831.8308083303527
 30
0.057
  0
SEQEND
  5
A8B
  8
1_FORMATIVE
  0
POLYLINE
  5
C1
  8
1_FORMATIVE
 66
     1
 10
0.0
 20
0.0
 30
0.017
 70
     1
  0
VERTEX
  5
A8C
  8
1_FORMATIVE
 10
528.95061563269121
 20
9831.5182289474742
 30
0.017
  0
VERTEX
  5
A8D
  8
1_FORMATIVE
 10
528.92982955297055
 20
9831.5253967333556
 30
0.017
  0
VERTEX
  5
A8E
  8
1_FORMATIVE
 10
528.91812885937168
 20
9831.5328333038251
 30
0.017
  0
VERTEX
  5
A8F
  8
1_FORMATIVE
 10
528.90675849186255
 20
9831.5506830601862
 30
0.017
  0
VERTEX
  5
A90
  8
1_FORMATIVE
 10
528.92137751778819
 20
9831.5636647165302
 30
0.017
  0
VERTEX
  5
A91
  8
1_FORMATIVE
 10
528.96198600020034
 20
9831.5652874165353
 30
0.017
  0
VERTEX
  5
A92
  8
1_FORMATIVE
 10
528.97660502612598
 20
9831.5506830601862
 30
0.017
  0
VERTEX
  5
A93
  8
1_FORMATIVE
 10
528.9814780137508
 20
9831.5344560038284
 30
0.017
  0
VERTEX
  5
A94
  8
1_FORMATIVE
 10
528.96685898782505
 20
9831.5149835474604
 30
0.017
  0
SEQEND
  5
A95
  8
1_FORMATIVE
  0
POLYLINE
  5
C2
  8
1_FORMATIVE
 66
     1
 10
0.0
 20
0.0
 30
0.009
 70
     1
  0
VERTEX
  5
A96
  8
1_FORMATIVE
 10
527.40519476360566
 20
9829.7447837165746
 30
0.009
  0
VERTEX
  5
A97
  8
1_FORMATIVE
 10
527.40143400202055
 20
9829.6994715732235
 30
0.009
  0
VERTEX
  5
A98
  8
1_FORMATIVE
 10
527.39524223209162
 20
9829.6870246431026
 30
0.009
  0
VERTEX
  5
A99
  8
1_FORMATIVE
 10
527.36600046020965
 20
9829.6714555727576
 30
0.009
  0
VERTEX
  5
A9A
  8
1_FORMATIVE
 10
527.32890160580507
 20
9829.6777639178981
 30
0.009
  0
VERTEX
  5
A9B
  8
1_FORMATIVE
 10
527.31285516007711
 20
9829.7122345483021
 30
0.009
  0
VERTEX
  5
A9C
  8
1_FORMATIVE
 10
527.31278466865353
 20
9829.7425856728842
 30
0.009
  0
VERTEX
  5
A9D
  8
1_FORMATIVE
 10
527.31756717757276
 20
9829.7861559660396
 30
0.009
  0
VERTEX
  5
A9E
  8
1_FORMATIVE
 10
527.3432136976968
 20
9829.7776829888007
 30
0.009
  0
VERTEX
  5
A9F
  8
1_FORMATIVE
 10
527.36078251857941
 20
9829.7712273736834
 30
0.009
  0
VERTEX
  5
AA0
  8
1_FORMATIVE
 10
527.41490265583218
 20
9829.7998741411157
 30
0.009
  0
SEQEND
  5
AA1
  8
1_FORMATIVE
  0
POLYLINE
  5
C3
  8
1_FORMATIVE
 66
     1
 10
0.0
 20
0.0
 30
0.08
 70
     1
  0
VERTEX
  5
AA2
  8
1_FORMATIVE
 10
527.12881535688985
 20
9829.5105032330357
 30
0.08
  0
VERTEX
  5
AA3
  8
1_FORMATIVE
 10
527.12694462295565
 20
9829.5219032572058
 30
0.08
  0
VERTEX
  5
AA4
  8
1_FORMATIVE
 10
527.11860463004496
 20
9829.5297720109866
 30
0.08
  0
VERTEX
  5
AA5
  8
1_FORMATIVE
 10
527.10702133808365
 20
9829.5339378201534
 30
0.08
  0
VERTEX
  5
AA6
  8
1_FORMATIVE
 10
527.09100219359584
 20
9829.5285695877192
 30
0.08
  0
VERTEX
  5
AA7
  8
1_FORMATIVE
 10
527.07949386970495
 20
9829.5187151945247
 30
0.08
  0
VERTEX
  5
AA8
  8
1_FORMATIVE
 10
527.07291767561685
 20
9829.4940792537636
 30
0.08
  0
VERTEX
  5
AA9
  8
1_FORMATIVE
 10
527.07949386970495
 20
9829.4743704955254
 30
0.08
  0
VERTEX
  5
AAA
  8
1_FORMATIVE
 10
527.1123748401443
 20
9829.4760128990802
 30
0.08
  0
VERTEX
  5
AAB
  8
1_FORMATIVE
 10
527.127171292605
 20
9829.4957216573184
 30
0.08
  0
SEQEND
  5
AAC
  8
1_FORMATIVE
  0
POLYLINE
  5
C4
  8
1_FORMATIVE
 66
     1
 10
0.0
 20
0.0
 30
0.029
 70
     1
  0
VERTEX
  5
AAD
  8
1_FORMATIVE
 10
526.58353525475263
 20
9829.5029487790398
 30
0.029
  0
VERTEX
  5
AAE
  8
1_FORMATIVE
 10
526.5855822172457
 20
9829.5080610342011
 30
0.029
  0
VERTEX
  5
AAF
  8
1_FORMATIVE
 10
526.59172310472468
 20
9829.516240681869
 30
0.029
  0
VERTEX
  5
AB0
  8
1_FORMATIVE
 10
526.60195791719013
 20
9829.5193080462268
 30
0.029
  0
VERTEX
  5
AB1
  8
1_FORMATIVE
 10
526.61423975519983
 20
9829.5244203295333
 30
0.029
  0
VERTEX
  5
AB2
  8
1_FORMATIVE
 10
526.62856849265108
 20
9829.5182856008196
 30
0.029
  0
VERTEX
  5
AB3
  8
1_FORMATIVE
 10
526.63061545514415
 20
9829.5060161433976
 30
0.029
  0
VERTEX
  5
AB4
  8
1_FORMATIVE
 10
526.62652153015824
 20
9829.4978364957333
 30
0.029
  0
VERTEX
  5
AB5
  8
1_FORMATIVE
 10
526.61321624242771
 20
9829.4896568480635
 30
0.029
  0
VERTEX
  5
AB6
  8
1_FORMATIVE
 10
526.59684054248305
 20
9829.4835221193534
 30
0.029
  0
VERTEX
  5
AB7
  8
1_FORMATIVE
 10
526.5886526294596
 20
9829.4814772004047
 30
0.029
  0
VERTEX
  5
AB8
  8
1_FORMATIVE
 10
526.58046477948722
 20
9829.4896568480635
 30
0.029
  0
SEQEND
  5
AB9
  8
1_FORMATIVE
  0
POLYLINE
  5
C5
  8
1_FORMATIVE
 66
     1
 10
0.0
 20
0.0
 30
0.111
 70
     1
  0
VERTEX
  5
ABA
  8
1_FORMATIVE
 10
526.7135175937417
 20
9829.545891880025
 30
0.111
  0
VERTEX
  5
ABB
  8
1_FORMATIVE
 10
526.71658800595571
 20
9829.5489592443846
 30
0.111
  0
VERTEX
  5
ABC
  8
1_FORMATIVE
 10
526.72784633119318
 20
9829.5561164184965
 30
0.111
  0
VERTEX
  5
ABD
  8
1_FORMATIVE
 10
526.73910465643053
 20
9829.5612287018048
 30
0.111
  0
VERTEX
  5
ABE
  8
1_FORMATIVE
 10
526.74115161892371
 20
9829.5765655235882
 30
0.111
  0
VERTEX
  5
ABF
  8
1_FORMATIVE
 10
526.7319402561792
 20
9829.5888349810084
 30
0.111
  0
VERTEX
  5
AC0
  8
1_FORMATIVE
 10
526.72375240620693
 20
9829.5888349810084
 30
0.111
  0
VERTEX
  5
AC1
  8
1_FORMATIVE
 10
526.71044711847617
 20
9829.5837226977055
 30
0.111
  0
VERTEX
  5
AC2
  8
1_FORMATIVE
 10
526.701235755732
 20
9829.5714532402762
 30
0.111
  0
VERTEX
  5
AC3
  8
1_FORMATIVE
 10
526.70021230601117
 20
9829.5510041351863
 30
0.111
  0
SEQEND
  5
AC4
  8
1_FORMATIVE
  0
POLYLINE
  5
C6
  8
1_FORMATIVE
 66
     1
 10
0.0
 20
0.0
 30
0.022
 70
     1
  0
VERTEX
  5
AC5
  8
1_FORMATIVE
 10
528.77940331400714
 20
9832.6661706567702
 30
0.022
  0
VERTEX
  5
AC6
  8
1_FORMATIVE
 10
528.76054137272479
 20
9832.6698407245985
 30
0.022
  0
VERTEX
  5
AC7
  8
1_FORMATIVE
 10
528.73872692527743
 20
9832.672953913785
 30
0.022
  0
VERTEX
  5
AC8
  8
1_FORMATIVE
 10
528.72644748321954
 20
9832.6661706567702
 30
0.022
  0
VERTEX
  5
AC9
  8
1_FORMATIVE
 10
528.72107519185272
 20
9832.6569701962835
 30
0.022
  0
VERTEX
  5
ACA
  8
1_FORMATIVE
 10
528.7233776384677
 20
9832.6454696277124
 30
0.022
  0
VERTEX
  5
ACB
  8
1_FORMATIVE
 10
528.73028491526168
 20
9832.6263020415681
 30
0.022
  0
VERTEX
  5
ACC
  8
1_FORMATIVE
 10
528.74807599219821
 20
9832.6169161425187
 30
0.022
  0
VERTEX
  5
ACD
  8
1_FORMATIVE
 10
528.7698903765945
 20
9832.6153595338528
 30
0.022
  0
VERTEX
  5
ACE
  8
1_FORMATIVE
 10
528.78858844738477
 20
9832.6246991577045
 30
0.022
  0
VERTEX
  5
ACF
  8
1_FORMATIVE
 10
528.79170476099046
 20
9832.6480482314128
 30
0.022
  0
SEQEND
  5
AD0
  8
1_FORMATIVE
  0
POLYLINE
  5
C7
  8
1_FORMATIVE
 66
     1
 10
0.0
 20
0.0
 30
0.01
 70
     1
  0
VERTEX
  5
AD1
  8
1_FORMATIVE
 10
528.60803185368343
 20
9832.4216168262537
 30
0.01
  0
VERTEX
  5
AD2
  8
1_FORMATIVE
 10
528.62549260453022
 20
9832.4274312315229
 30
0.01
  0
VERTEX
  5
AD3
  8
1_FORMATIVE
 10
528.63519305669593
 20
9832.429369385376
 30
0.01
  0
VERTEX
  5
AD4
  8
1_FORMATIVE
 10
528.639073237562
 20
9832.4526270064598
 30
0.01
  0
VERTEX
  5
AD5
  8
1_FORMATIVE
 10
528.63519305669593
 20
9832.4720083761295
 30
0.01
  0
VERTEX
  5
AD6
  8
1_FORMATIVE
 10
528.61579221541604
 20
9832.4855753405245
 30
0.01
  0
VERTEX
  5
AD7
  8
1_FORMATIVE
 10
528.60027149195093
 20
9832.4855753405245
 30
0.01
  0
VERTEX
  5
AD8
  8
1_FORMATIVE
 10
528.58087065067116
 20
9832.4836372148166
 30
0.01
  0
VERTEX
  5
AD9
  8
1_FORMATIVE
 10
528.57117019850546
 20
9832.4758846556924
 30
0.01
  0
VERTEX
  5
ADA
  8
1_FORMATIVE
 10
528.56534999025735
 20
9832.4681321247153
 30
0.01
  0
VERTEX
  5
ADB
  8
1_FORMATIVE
 10
528.56340989982425
 20
9832.4565032860246
 30
0.01
  0
VERTEX
  5
ADC
  8
1_FORMATIVE
 10
528.56146980939116
 20
9832.4274312315229
 30
0.01
  0
VERTEX
  5
ADD
  8
1_FORMATIVE
 10
528.57505037937176
 20
9832.4216168262537
 30
0.01
  0
SEQEND
  5
ADE
  8
1_FORMATIVE
  0
POLYLINE
  5
C8
  8
1_FORMATIVE
 66
     1
 10
0.0
 20
0.0
 30
0.08
 70
     1
  0
VERTEX
  5
ADF
  8
1_FORMATIVE
 10
528.26060957614641
 20
9832.0361934720931
 30
0.08
  0
VERTEX
  5
AE0
  8
1_FORMATIVE
 10
528.27549764223716
 20
9832.0372504831521
 30
0.08
  0
VERTEX
  5
AE1
  8
1_FORMATIVE
 10
528.2909493875112
 20
9832.0458261721906
 30
0.08
  0
VERTEX
  5
AE2
  8
1_FORMATIVE
 10
528.30811802139397
 20
9832.0578321086941
 30
0.08
  0
VERTEX
  5
AE3
  8
1_FORMATIVE
 10
528.32013598945036
 20
9832.0749834586259
 30
0.08
  0
VERTEX
  5
AE4
  8
1_FORMATIVE
 10
528.32700348083472
 20
9832.0852742854677
 30
0.08
  0
VERTEX
  5
AE5
  8
1_FORMATIVE
 10
528.32700348083472
 20
9832.0972802219785
 30
0.08
  0
VERTEX
  5
AE6
  8
1_FORMATIVE
 10
528.31841916389305
 20
9832.1041407450593
 30
0.08
  0
VERTEX
  5
AE7
  8
1_FORMATIVE
 10
528.29105253954083
 20
9832.0970181647481
 30
0.08
  0
VERTEX
  5
AE8
  8
1_FORMATIVE
 10
528.25215319042002
 20
9832.0826567813274
 30
0.08
  0
VERTEX
  5
AE9
  8
1_FORMATIVE
 10
528.23862299847826
 20
9832.0682953979103
 30
0.08
  0
VERTEX
  5
AEA
  8
1_FORMATIVE
 10
528.23693170872275
 20
9832.0530892106672
 30
0.08
  0
VERTEX
  5
AEB
  8
1_FORMATIVE
 10
528.24707938420477
 20
9832.0378830515783
 30
0.08
  0
SEQEND
  5
AEC
  8
1_FORMATIVE
  0
POLYLINE
  5
C9
  8
1_FORMATIVE
 66
     1
 10
0.0
 20
0.0
 30
0.057
 70
     1
  0
VERTEX
  5
AED
  8
1_FORMATIVE
 10
528.03733499058819
 20
9832.0373162648666
 30
0.057
  0
VERTEX
  5
AEE
  8
1_FORMATIVE
 10
528.04680612494735
 20
9832.0251513207058
 30
0.057
  0
VERTEX
  5
AEF
  8
1_FORMATIVE
 10
528.06660305488833
 20
9832.0175372493923
 30
0.057
  0
VERTEX
  5
AF0
  8
1_FORMATIVE
 10
528.08333770624097
 20
9832.0197446663442
 30
0.057
  0
VERTEX
  5
AF1
  8
1_FORMATIVE
 10
528.09416185979455
 20
9832.0332612740913
 30
0.057
  0
VERTEX
  5
AF2
  8
1_FORMATIVE
 10
528.09280884060036
 20
9832.0481295454356
 30
0.057
  0
VERTEX
  5
AF3
  8
1_FORMATIVE
 10
528.09092404621231
 20
9832.0563182848819
 30
0.057
  0
VERTEX
  5
AF4
  8
1_FORMATIVE
 10
528.07502186200259
 20
9832.0600562173713
 30
0.057
  0
VERTEX
  5
AF5
  8
1_FORMATIVE
 10
528.05444259075205
 20
9832.0581872511284
 30
0.057
  0
VERTEX
  5
AF6
  8
1_FORMATIVE
 10
528.04181434855525
 20
9832.0493096473947
 30
0.057
  0
SEQEND
  5
AF7
  8
1_FORMATIVE
  0
POLYLINE
  5
CA
  8
1_FORMATIVE
 66
     1
 10
0.0
 20
0.0
 30
0.019
 70
     1
  0
VERTEX
  5
AF8
  8
1_FORMATIVE
 10
527.50998959639185
 20
9829.8704411419112
 30
0.019
  0
VERTEX
  5
AF9
  8
1_FORMATIVE
 10
527.50798557187693
 20
9829.8324031836182
 30
0.019
  0
VERTEX
  5
AFA
  8
1_FORMATIVE
 10
527.50798557187693
 20
9829.788359245249
 30
0.019
  0
VERTEX
  5
AFB
  8
1_FORMATIVE
 10
527.50397758589816
 20
9829.7603312819047
 30
0.019
  0
VERTEX
  5
AFC
  8
1_FORMATIVE
 10
527.50618304370005
 20
9829.7407691113003
 30
0.019
  0
VERTEX
  5
AFD
  8
1_FORMATIVE
 10
527.52498842104535
 20
9829.7416531528725
 30
0.019
  0
VERTEX
  5
AFE
  8
1_FORMATIVE
 10
527.58251072163398
 20
9829.7427582189066
 30
0.019
  0
VERTEX
  5
AFF
  8
1_FORMATIVE
 10
527.58606894702154
 20
9829.7551757352285
 30
0.019
  0
VERTEX
  5
B00
  8
1_FORMATIVE
 10
527.58819825459432
 20
9829.7690022798342
 30
0.019
  0
VERTEX
  5
B01
  8
1_FORMATIVE
 10
527.57861640204203
 20
9829.7881467283769
 30
0.019
  0
VERTEX
  5
B02
  8
1_FORMATIVE
 10
527.57276082197961
 20
9829.8083547464485
 30
0.019
  0
VERTEX
  5
B03
  8
1_FORMATIVE
 10
527.56810592901866
 20
9829.8243952101784
 30
0.019
  0
VERTEX
  5
B04
  8
1_FORMATIVE
 10
527.55356206031752
 20
9829.8449983688897
 30
0.019
  0
VERTEX
  5
B05
  8
1_FORMATIVE
 10
527.54348216505025
 20
9829.8703018096567
 30
0.019
  0
VERTEX
  5
B06
  8
1_FORMATIVE
 10
527.53970185754292
 20
9829.8775792598772
 30
0.019
  0
SEQEND
  5
B07
  8
1_FORMATIVE
  0
POLYLINE
  5
CB
  8
1_FORMATIVE
 66
     1
 10
0.0
 20
0.0
 30
0.292
 70
     1
  0
VERTEX
  5
B08
  8
1_FORMATIVE
 10
527.50646571877667
 20
9829.740118394242
 30
0.292
  0
VERTEX
  5
B09
  8
1_FORMATIVE
 10
527.49160274712835
 20
9829.7189824233701
 30
0.292
  0
VERTEX
  5
B0A
  8
1_FORMATIVE
 10
527.4854429442405
 20
9829.7005217443384
 30
0.292
  0
VERTEX
  5
B0B
  8
1_FORMATIVE
 10
527.4983375153937
 20
9829.6739348987085
 30
0.292
  0
VERTEX
  5
B0C
  8
1_FORMATIVE
 10
527.50990170279226
 20
9829.6466287327312
 30
0.292
  0
VERTEX
  5
B0D
  8
1_FORMATIVE
 10
527.51624170647506
 20
9829.6343709567027
 30
0.292
  0
VERTEX
  5
B0E
  8
1_FORMATIVE
 10
527.52879107141712
 20
9829.6338648287729
 30
0.292
  0
VERTEX
  5
B0F
  8
1_FORMATIVE
 10
527.53970116397795
 20
9829.6325437338364
 30
0.292
  0
VERTEX
  5
B10
  8
1_FORMATIVE
 10
527.54704046870972
 20
9829.6328325878912
 30
0.292
  0
VERTEX
  5
B11
  8
1_FORMATIVE
 10
527.57013952462285
 20
9829.6343709567027
 30
0.292
  0
VERTEX
  5
B12
  8
1_FORMATIVE
 10
527.58861874413276
 20
9829.6482164730096
 30
0.292
  0
VERTEX
  5
B13
  8
1_FORMATIVE
 10
527.59785841693918
 20
9829.6651387550828
 30
0.292
  0
VERTEX
  5
B14
  8
1_FORMATIVE
 10
527.59313309560605
 20
9829.6915436524941
 30
0.292
  0
VERTEX
  5
B15
  8
1_FORMATIVE
 10
527.58583010845928
 20
9829.7170785536928
 30
0.292
  0
VERTEX
  5
B16
  8
1_FORMATIVE
 10
527.5828750171878
 20
9829.7418809613137
 30
0.292
  0
SEQEND
  5
B17
  8
1_FORMATIVE
  0
POLYLINE
  5
CC
  8
1_FORMATIVE
 66
     1
 10
0.0
 20
0.0
 30
0.014
 70
     1
  0
VERTEX
  5
B18
  8
1_FORMATIVE
 10
527.73442665992582
 20
9829.8233456020225
 30
0.014
  0
VERTEX
  5
B19
  8
1_FORMATIVE
 10
527.7515514731117
 20
9829.8528951017106
 30
0.014
  0
VERTEX
  5
B1A
  8
1_FORMATIVE
 10
527.75777867790634
 20
9829.8793341425626
 30
0.014
  0
VERTEX
  5
B1B
  8
1_FORMATIVE
 10
527.75310827431042
 20
9829.8995522094447
 30
0.014
  0
VERTEX
  5
B1C
  8
1_FORMATIVE
 10
527.73876068450147
 20
9829.9278216257262
 30
0.014
  0
VERTEX
  5
B1D
  8
1_FORMATIVE
 10
527.71185294796737
 20
9829.9229830810345
 30
0.014
  0
VERTEX
  5
B1E
  8
1_FORMATIVE
 10
527.67058096173105
 20
9829.9158258113694
 30
0.014
  0
VERTEX
  5
B1F
  8
1_FORMATIVE
 10
527.67526821437468
 20
9829.8124589679464
 30
0.014
  0
VERTEX
  5
B20
  8
1_FORMATIVE
 10
527.7204154491377
 20
9829.8186799137711
 30
0.014
  0
SEQEND
  5
B21
  8
1_FORMATIVE
  0
POLYLINE
  5
CD
  8
1_FORMATIVE
 66
     1
 10
0.0
 20
0.0
 30
0.106
 70
     1
  0
VERTEX
  5
B22
  8
1_FORMATIVE
 10
527.67030912301675
 20
9829.9168214771926
 30
0.106
  0
VERTEX
  5
B23
  8
1_FORMATIVE
 10
527.71320596716157
 20
9829.9245325964221
 30
0.106
  0
VERTEX
  5
B24
  8
1_FORMATIVE
 10
527.7375524312364
 20
9829.9293970090603
 30
0.106
  0
VERTEX
  5
B25
  8
1_FORMATIVE
 10
527.7314658309806
 20
9829.9784464656495
 30
0.106
  0
VERTEX
  5
B26
  8
1_FORMATIVE
 10
527.72401946503453
 20
9830.003971430624
 30
0.106
  0
VERTEX
  5
B27
  8
1_FORMATIVE
 10
527.70318414219992
 20
9830.0353347829132
 30
0.106
  0
VERTEX
  5
B28
  8
1_FORMATIVE
 10
527.68242694000355
 20
9830.0555254900028
 30
0.106
  0
VERTEX
  5
B29
  8
1_FORMATIVE
 10
527.63988006954526
 20
9830.0362274663585
 30
0.106
  0
VERTEX
  5
B2A
  8
1_FORMATIVE
 10
527.64873758804185
 20
9830.0139718552782
 30
0.106
  0
SEQEND
  5
B2B
  8
1_FORMATIVE
  0
POLYLINE
  5
CE
  8
1_FORMATIVE
 66
     1
 10
0.0
 20
0.0
 30
0.064
 70
     1
  0
VERTEX
  5
B2C
  8
1_FORMATIVE
 10
530.04428563762349
 20
9831.8799221555564
 30
0.064
  0
VERTEX
  5
B2D
  8
1_FORMATIVE
 10
530.01070856502236
 20
9831.8828147580462
 30
0.064
  0
VERTEX
  5
B2E
  8
1_FORMATIVE
 10
529.9740787462199
 20
9831.8682330832617
 30
0.064
  0
VERTEX
  5
B2F
  8
1_FORMATIVE
 10
529.9635359731468
 20
9831.8319209392212
 30
0.064
  0
VERTEX
  5
B30
  8
1_FORMATIVE
 10
529.98806570556405
 20
9831.8272085376466
 30
0.064
  0
VERTEX
  5
B31
  8
1_FORMATIVE
 10
530.03287961025296
 20
9831.8380470415705
 30
0.064
  0
VERTEX
  5
B32
  8
1_FORMATIVE
 10
530.04818602403429
 20
9831.8409585624686
 30
0.064
  0
VERTEX
  5
B33
  8
1_FORMATIVE
 10
530.06183734447643
 20
9831.8721294313145
 30
0.064
  0
VERTEX
  5
B34
  8
1_FORMATIVE
 10
530.05403657165436
 20
9831.8779739815345
 30
0.064
  0
SEQEND
  5
B35
  8
1_FORMATIVE
  0
POLYLINE
  5
CF
  8
1_FORMATIVE
 66
     1
 10
0.0
 20
0.0
 30
0.013
 70
     1
  0
VERTEX
  5
B36
  8
1_FORMATIVE
 10
529.04205290163168
 20
9831.3900802731168
 30
0.013
  0
VERTEX
  5
B37
  8
1_FORMATIVE
 10
529.04205290163168
 20
9831.3900802731168
 30
0.013
  0
VERTEX
  5
B38
  8
1_FORMATIVE
 10
529.0318970891766
 20
9831.3664077952126
 30
0.013
  0
VERTEX
  5
B39
  8
1_FORMATIVE
 10
529.04656658894589
 20
9831.3449898175659
 30
0.013
  0
VERTEX
  5
B3A
  8
1_FORMATIVE
 10
529.07477721465
 20
9831.3517534027924
 30
0.013
  0
VERTEX
  5
B3B
  8
1_FORMATIVE
 10
529.08606146493184
 20
9831.3664077952126
 30
0.013
  0
VERTEX
  5
B3C
  8
1_FORMATIVE
 10
529.08606146493184
 20
9831.400225608726
 30
0.013
  0
VERTEX
  5
B3D
  8
1_FORMATIVE
 10
529.08267621544405
 20
9831.4081164440777
 30
0.013
  0
VERTEX
  5
B3E
  8
1_FORMATIVE
 10
529.06462140219503
 20
9831.4148800011499
 30
0.013
  0
VERTEX
  5
B3F
  8
1_FORMATIVE
 10
529.04543815111913
 20
9831.4013528588548
 30
0.013
  0
SEQEND
  5
B40
  8
1_FORMATIVE
  0
POLYLINE
  5
D0
  8
1_FORMATIVE
 66
     1
 10
0.0
 20
0.0
 30
0.239
 70
     1
  0
VERTEX
  5
B41
  8
1_FORMATIVE
 10
527.88464281458153
 20
9830.570497500772
 30
0.239
  0
VERTEX
  5
B42
  8
1_FORMATIVE
 10
527.861219378702
 20
9830.561733575134
 30
0.239
  0
VERTEX
  5
B43
  8
1_FORMATIVE
 10
527.83176826489125
 20
9830.5356217483368
 30
0.239
  0
VERTEX
  5
B44
  8
1_FORMATIVE
 10
527.90245208989597
 20
9830.3954121415682
 30
0.239
  0
VERTEX
  5
B45
  8
1_FORMATIVE
 10
527.93703313556387
 20
9830.4049820421824
 30
0.239
  0
VERTEX
  5
B46
  8
1_FORMATIVE
 10
527.963875672786
 20
9830.4102929918718
 30
0.239
  0
VERTEX
  5
B47
  8
1_FORMATIVE
 10
527.98422537303406
 20
9830.414278639324
 30
0.239
  0
VERTEX
  5
B48
  8
1_FORMATIVE
 10
527.98094519868005
 20
9830.4535999367745
 30
0.239
  0
VERTEX
  5
B49
  8
1_FORMATIVE
 10
527.96290433572301
 20
9830.4781757687906
 30
0.239
  0
VERTEX
  5
B4A
  8
1_FORMATIVE
 10
527.93174283934275
 20
9830.4978364175167
 30
0.239
  0
VERTEX
  5
B4B
  8
1_FORMATIVE
 10
527.916982086747
 20
9830.5125819110963
 30
0.239
  0
VERTEX
  5
B4C
  8
1_FORMATIVE
 10
527.92026226110067
 20
9830.5322425879767
 30
0.239
  0
VERTEX
  5
B4D
  8
1_FORMATIVE
 10
527.92354243545446
 20
9830.5469880815563
 30
0.239
  0
VERTEX
  5
B4E
  8
1_FORMATIVE
 10
527.91042180203146
 20
9830.568287115324
 30
0.239
  0
SEQEND
  5
B4F
  8
1_FORMATIVE
  0
POLYLINE
  5
D1
  8
1_FORMATIVE
 66
     1
 10
0.0
 20
0.0
 30
0.08
 70
     1
  0
VERTEX
  5
B50
  8
1_FORMATIVE
 10
527.83013748857411
 20
9830.5350561666837
 30
0.08
  0
VERTEX
  5
B51
  8
1_FORMATIVE
 10
527.81619474781576
 20
9830.5168438180208
 30
0.08
  0
VERTEX
  5
B52
  8
1_FORMATIVE
 10
527.79200839735245
 20
9830.5168438180208
 30
0.08
  0
VERTEX
  5
B53
  8
1_FORMATIVE
 10
527.76853344778078
 20
9830.5097375336663
 30
0.08
  0
VERTEX
  5
B54
  8
1_FORMATIVE
 10
527.76711070999011
 20
9830.4912611718246
 30
0.08
  0
VERTEX
  5
B55
  8
1_FORMATIVE
 10
527.78916298576326
 20
9830.4386746056807
 30
0.08
  0
VERTEX
  5
B56
  8
1_FORMATIVE
 10
527.80552431037449
 20
9830.4109600910724
 30
0.08
  0
VERTEX
  5
B57
  8
1_FORMATIVE
 10
527.80694704816528
 20
9830.3924837292343
 30
0.08
  0
VERTEX
  5
B58
  8
1_FORMATIVE
 10
527.81190823268491
 20
9830.3783108272528
 30
0.08
  0
VERTEX
  5
B59
  8
1_FORMATIVE
 10
527.83145054379497
 20
9830.3805043494176
 30
0.08
  0
VERTEX
  5
B5A
  8
1_FORMATIVE
 10
527.84813835642876
 20
9830.3826978434281
 30
0.08
  0
VERTEX
  5
B5B
  8
1_FORMATIVE
 10
527.86746111042305
 20
9830.3853300362407
 30
0.08
  0
VERTEX
  5
B5C
  8
1_FORMATIVE
 10
527.88679743075591
 20
9830.3879670994193
 30
0.08
  0
VERTEX
  5
B5D
  8
1_FORMATIVE
 10
527.90461732876975
 20
9830.38952353284
 30
0.08
  0
SEQEND
  5
B5E
  8
1_FORMATIVE
  0
POLYLINE
  5
D2
  8
1_FORMATIVE
 66
     1
 10
0.0
 20
0.0
 30
0.058
 70
     1
  0
VERTEX
  5
B5F
  8
1_FORMATIVE
 10
527.75009122596816
 20
9830.3726982809312
 30
0.058
  0
VERTEX
  5
B60
  8
1_FORMATIVE
 10
527.71890208497314
 20
9830.3452801829135
 30
0.058
  0
VERTEX
  5
B61
  8
1_FORMATIVE
 10
527.69395083616905
 20
9830.3265860341307
 30
0.058
  0
VERTEX
  5
B62
  8
1_FORMATIVE
 10
527.67648494280866
 20
9830.3016604930344
 30
0.058
  0
VERTEX
  5
B63
  8
1_FORMATIVE
 10
527.66734942142227
 20
9830.2793843458712
 30
0.058
  0
VERTEX
  5
B64
  8
1_FORMATIVE
 10
527.68759750211325
 20
9830.2628348748403
 30
0.058
  0
VERTEX
  5
B65
  8
1_FORMATIVE
 10
527.70749189811204
 20
9830.2374090656485
 30
0.058
  0
VERTEX
  5
B66
  8
1_FORMATIVE
 10
527.72795704022451
 20
9830.2358364446063
 30
0.058
  0
VERTEX
  5
B67
  8
1_FORMATIVE
 10
527.79743230921292
 20
9830.2820879894662
 30
0.058
  0
VERTEX
  5
B68
  8
1_FORMATIVE
 10
527.79728666304675
 20
9830.3037710219323
 30
0.058
  0
VERTEX
  5
B69
  8
1_FORMATIVE
 10
527.79553858909242
 20
9830.3130845386659
 30
0.058
  0
VERTEX
  5
B6A
  8
1_FORMATIVE
 10
527.79250836813264
 20
9830.3303248695174
 30
0.058
  0
VERTEX
  5
B6B
  8
1_FORMATIVE
 10
527.79749860509526
 20
9830.3515115752252
 30
0.058
  0
VERTEX
  5
B6C
  8
1_FORMATIVE
 10
527.77504247477225
 20
9830.3714520024678
 30
0.058
  0
VERTEX
  5
B6D
  8
1_FORMATIVE
 10
527.76007169989305
 20
9830.3764371163215
 30
0.058
  0
SEQEND
  5
B6E
  8
1_FORMATIVE
  0
POLYLINE
  5
D3
  8
1_FORMATIVE
 66
     1
 10
0.0
 20
0.0
 30
0.015
 70
     1
  0
VERTEX
  5
B6F
  8
1_FORMATIVE
 10
527.91287833323747
 20
9830.3711404680453
 30
0.015
  0
VERTEX
  5
B70
  8
1_FORMATIVE
 10
527.91035851378115
 20
9830.2984495432429
 30
0.015
  0
VERTEX
  5
B71
  8
1_FORMATIVE
 10
527.8833101777584
 20
9830.2919973235275
 30
0.015
  0
VERTEX
  5
B72
  8
1_FORMATIVE
 10
527.82156106672801
 20
9830.2944926956952
 30
0.015
  0
VERTEX
  5
B73
  8
1_FORMATIVE
 10
527.79788057432415
 20
9830.2948919529881
 30
0.015
  0
VERTEX
  5
B74
  8
1_FORMATIVE
 10
527.79816066802778
 20
9830.3039165416722
 30
0.015
  0
VERTEX
  5
B75
  8
1_FORMATIVE
 10
527.79670395039795
 20
9830.3133755781473
 30
0.015
  0
VERTEX
  5
B76
  8
1_FORMATIVE
 10
527.79397935601526
 20
9830.3294879269106
 30
0.015
  0
VERTEX
  5
B77
  8
1_FORMATIVE
 10
527.79905278279125
 20
9830.3405187117078
 30
0.015
  0
VERTEX
  5
B78
  8
1_FORMATIVE
 10
527.81666061077215
 20
9830.3414131133613
 30
0.015
  0
VERTEX
  5
B79
  8
1_FORMATIVE
 10
527.83128403618343
 20
9830.3458850653114
 30
0.015
  0
VERTEX
  5
B7A
  8
1_FORMATIVE
 10
527.83120283012647
 20
9830.3606096416643
 30
0.015
  0
VERTEX
  5
B7B
  8
1_FORMATIVE
 10
527.82272949965738
 20
9830.3791281476406
 30
0.015
  0
VERTEX
  5
B7C
  8
1_FORMATIVE
 10
527.83563588731386
 20
9830.3805076714052
 30
0.015
  0
VERTEX
  5
B7D
  8
1_FORMATIVE
 10
527.85757137738744
 20
9830.3835319708014
 30
0.015
  0
VERTEX
  5
B7E
  8
1_FORMATIVE
 10
527.87919823325205
 20
9830.3865077917726
 30
0.015
  0
VERTEX
  5
B7F
  8
1_FORMATIVE
 10
527.89856750954971
 20
9830.3885453215044
 30
0.015
  0
VERTEX
  5
B80
  8
1_FORMATIVE
 10
527.90497568489025
 20
9830.3889651018962
 30
0.015
  0
SEQEND
  5
B81
  8
1_FORMATIVE
  0
POLYLINE
  5
D4
  8
1_FORMATIVE
 66
     1
 10
0.0
 20
0.0
 30
0.011
 70
     1
  0
VERTEX
  5
B82
  8
1_FORMATIVE
 10
527.97390612459105
 20
9830.2943439665796
 30
0.011
  0
VERTEX
  5
B83
  8
1_FORMATIVE
 10
527.97307224269719
 20
9830.2851806428844
 30
0.011
  0
VERTEX
  5
B84
  8
1_FORMATIVE
 10
527.97196037884112
 20
9830.2679647483146
 30
0.011
  0
VERTEX
  5
B85
  8
1_FORMATIVE
 10
527.97303026383725
 20
9830.2524893475384
 30
0.011
  0
VERTEX
  5
B86
  8
1_FORMATIVE
 10
527.97259543708014
 20
9830.2355478262289
 30
0.011
  0
VERTEX
  5
B87
  8
1_FORMATIVE
 10
527.96468267797093
 20
9830.2001137836087
 30
0.011
  0
VERTEX
  5
B88
  8
1_FORMATIVE
 10
527.87685637600453
 20
9830.1941997251124
 30
0.011
  0
VERTEX
  5
B89
  8
1_FORMATIVE
 10
527.87678438481964
 20
9830.2280724639531
 30
0.011
  0
VERTEX
  5
B8A
  8
1_FORMATIVE
 10
527.88045791900777
 20
9830.2549840158918
 30
0.011
  0
VERTEX
  5
B8B
  8
1_FORMATIVE
 10
527.88350663370295
 20
9830.2914020692497
 30
0.011
  0
VERTEX
  5
B8C
  8
1_FORMATIVE
 10
527.90757101510076
 20
9830.2962990097876
 30
0.011
  0
VERTEX
  5
B8D
  8
1_FORMATIVE
 10
527.97731306742253
 20
9830.2978571323547
 30
0.011
  0
SEQEND
  5
B8E
  8
1_FORMATIVE
  0
POLYLINE
  5
D5
  8
1_FORMATIVE
 66
     1
 10
0.0
 20
0.0
 30
0.255
 70
     1
  0
VERTEX
  5
B8F
  8
1_FORMATIVE
 10
527.96475114958685
 20
9830.1995900645634
 30
0.255
  0
VERTEX
  5
B90
  8
1_FORMATIVE
 10
527.97158461685206
 20
9830.1150015708117
 30
0.255
  0
VERTEX
  5
B91
  8
1_FORMATIVE
 10
527.93386878702768
 20
9830.1007870877438
 30
0.255
  0
VERTEX
  5
B92
  8
1_FORMATIVE
 10
527.89387841971291
 20
9830.0806107997196
 30
0.255
  0
VERTEX
  5
B93
  8
1_FORMATIVE
 10
527.86637241173025
 20
9830.1446183991957
 30
0.255
  0
VERTEX
  5
B94
  8
1_FORMATIVE
 10
527.86828974495961
 20
9830.1772608782794
 30
0.255
  0
VERTEX
  5
B95
  8
1_FORMATIVE
 10
527.86775208279448
 20
9830.1926590288822
 30
0.255
  0
SEQEND
  5
B96
  8
1_FORMATIVE
  0
POLYLINE
  5
D6
  8
1_FORMATIVE
 66
     1
 10
0.0
 20
0.0
 30
0.212
 70
     1
  0
VERTEX
  5
B97
  8
1_FORMATIVE
 10
527.86734778029995
 20
9830.1925369882429
 30
0.212
  0
VERTEX
  5
B98
  8
1_FORMATIVE
 10
527.83417001880434
 20
9830.1824489990668
 30
0.212
  0
VERTEX
  5
B99
  8
1_FORMATIVE
 10
527.80612935628869
 20
9830.164492780912
 30
0.212
  0
VERTEX
  5
B9A
  8
1_FORMATIVE
 10
527.78312161350914
 20
9830.1465365346085
 30
0.212
  0
VERTEX
  5
B9B
  8
1_FORMATIVE
 10
527.79390646894001
 20
9830.1113423222541
 30
0.212
  0
VERTEX
  5
B9C
  8
1_FORMATIVE
 10
527.80684830825555
 20
9830.075429857794
 30
0.212
  0
VERTEX
  5
B9D
  8
1_FORMATIVE
 10
527.82050916353001
 20
9830.0560371072806
 30
0.212
  0
VERTEX
  5
B9E
  8
1_FORMATIVE
 10
527.84136376195511
 20
9830.0524030269626
 30
0.212
  0
VERTEX
  5
B9F
  8
1_FORMATIVE
 10
527.89319613525618
 20
9830.079454749688
 30
0.212
  0
VERTEX
  5
BA0
  8
1_FORMATIVE
 10
527.89079719699816
 20
9830.0852774818086
 30
0.212
  0
VERTEX
  5
BA1
  8
1_FORMATIVE
 10
527.87528927189112
 20
9830.1211573176352
 30
0.212
  0
VERTEX
  5
BA2
  8
1_FORMATIVE
 10
527.86565787522295
 20
9830.1445917670208
 30
0.212
  0
VERTEX
  5
BA3
  8
1_FORMATIVE
 10
527.86729543470938
 20
9830.1678893957633
 30
0.212
  0
VERTEX
  5
BA4
  8
1_FORMATIVE
 10
527.86784179980884
 20
9830.1774859566976
 30
0.212
  0
SEQEND
  5
BA5
  8
1_FORMATIVE
  0
POLYLINE
  5
D7
  8
1_FORMATIVE
 66
     1
 10
0.0
 20
0.0
 30
1.272999999999999
 70
     1
  0
VERTEX
  5
BA6
  8
1_FORMATIVE
 10
527.97888465098742
 20
9830.0777309502682
 30
1.272999999999999
  0
VERTEX
  5
BA7
  8
1_FORMATIVE
 10
527.99710737967575
 20
9830.0582571208506
 30
1.272999999999999
  0
VERTEX
  5
BA8
  8
1_FORMATIVE
 10
528.00448925978969
 20
9830.0513299983522
 30
1.272999999999999
  0
VERTEX
  5
BA9
  8
1_FORMATIVE
 10
528.0095678059389
 20
9830.0384272762203
 30
1.272999999999999
  0
VERTEX
  5
BAA
  8
1_FORMATIVE
 10
528.00130046624668
 20
9830.0349860961305
 30
1.272999999999999
  0
VERTEX
  5
BAB
  8
1_FORMATIVE
 10
527.99234412292071
 20
9830.0291360843385
 30
1.272999999999999
  0
VERTEX
  5
BAC
  8
1_FORMATIVE
 10
527.98063208502003
 20
9830.0222537523041
 30
1.272999999999999
  0
VERTEX
  5
BAD
  8
1_FORMATIVE
 10
527.96823104348562
 20
9830.0167478754101
 30
1.272999999999999
  0
VERTEX
  5
BAE
  8
1_FORMATIVE
 10
527.94790713207988
 20
9830.0053919867296
 30
1.272999999999999
  0
VERTEX
  5
BAF
  8
1_FORMATIVE
 10
527.93516168471672
 20
9830.0040155034367
 30
1.272999999999999
  0
VERTEX
  5
BB0
  8
1_FORMATIVE
 10
527.92827222430776
 20
9830.0019508066398
 30
1.272999999999999
  0
VERTEX
  5
BB1
  8
1_FORMATIVE
 10
527.92103829407802
 20
9830.0009184582432
 30
1.272999999999999
  0
VERTEX
  5
BB2
  8
1_FORMATIVE
 10
527.91252157692111
 20
9830.0046012140556
 30
1.272999999999999
  0
VERTEX
  5
BB3
  8
1_FORMATIVE
 10
527.89582218170574
 20
9830.025917336332
 30
1.272999999999999
  0
VERTEX
  5
BB4
  8
1_FORMATIVE
 10
527.87819502809111
 20
9830.0398191307322
 30
1.272999999999999
  0
VERTEX
  5
BB5
  8
1_FORMATIVE
 10
527.86520666647198
 20
9830.0425994896086
 30
1.272999999999999
  0
VERTEX
  5
BB6
  8
1_FORMATIVE
 10
527.84245418843602
 20
9830.0513137544185
 30
1.272999999999999
  0
VERTEX
  5
BB7
  8
1_FORMATIVE
 10
527.93422951085824
 20
9830.1003311315253
 30
1.272999999999999
  0
VERTEX
  5
BB8
  8
1_FORMATIVE
 10
527.96021045757925
 20
9830.10998011222
 30
1.272999999999999
  0
VERTEX
  5
BB9
  8
1_FORMATIVE
 10
527.97238170325124
 20
9830.1139657033673
 30
1.272999999999999
  0
SEQEND
  5
BBA
  8
1_FORMATIVE
  0
POLYLINE
  5
D8
  8
1_FORMATIVE
 66
     1
 10
0.0
 20
0.0
 30
0.103
 70
     1
  0
VERTEX
  5
BBB
  8
1_FORMATIVE
 10
528.05093010126575
 20
9829.9973693981647
 30
0.103
  0
VERTEX
  5
BBC
  8
1_FORMATIVE
 10
528.03868526460462
 20
9829.9916610210857
 30
0.103
  0
VERTEX
  5
BBD
  8
1_FORMATIVE
 10
528.01950169356792
 20
9829.9798365357583
 30
0.103
  0
VERTEX
  5
BBE
  8
1_FORMATIVE
 10
528.0097057730452
 20
9829.9635268950005
 30
0.103
  0
VERTEX
  5
BBF
  8
1_FORMATIVE
 10
528.00376269170647
 20
9829.9470999982786
 30
0.103
  0
VERTEX
  5
BC0
  8
1_FORMATIVE
 10
528.02487305457339
 20
9829.9244137906826
 30
0.103
  0
VERTEX
  5
BC1
  8
1_FORMATIVE
 10
528.04358322486576
 20
9829.9260147550394
 30
0.103
  0
VERTEX
  5
BC2
  8
1_FORMATIVE
 10
528.06562398204971
 20
9829.9451785702622
 30
0.103
  0
VERTEX
  5
BC3
  8
1_FORMATIVE
 10
528.07952271333374
 20
9829.9607300725093
 30
0.103
  0
VERTEX
  5
BC4
  8
1_FORMATIVE
 10
528.07698403926793
 20
9829.9745377125182
 30
0.103
  0
VERTEX
  5
BC5
  8
1_FORMATIVE
 10
528.06767537781423
 20
9829.9838367353823
 30
0.103
  0
VERTEX
  5
BC6
  8
1_FORMATIVE
 10
528.05723845897069
 20
9829.9959536439655
 30
0.103
  0
SEQEND
  5
BC7
  8
1_FORMATIVE
  0
POLYLINE
  5
D9
  8
1_FORMATIVE
 66
     1
 10
0.0
 20
0.0
 30
0.063
 70
     1
  0
VERTEX
  5
BC8
  8
1_FORMATIVE
 10
528.12963149370489
 20
9829.9352082142595
 30
0.063
  0
VERTEX
  5
BC9
  8
1_FORMATIVE
 10
528.13925237852345
 20
9829.9278152182051
 30
0.063
  0
VERTEX
  5
BCA
  8
1_FORMATIVE
 10
528.14887320004925
 20
9829.9182042787834
 30
0.063
  0
VERTEX
  5
BCB
  8
1_FORMATIVE
 10
528.15627383686092
 20
9829.9130291704041
 30
0.063
  0
VERTEX
  5
BCC
  8
1_FORMATIVE
 10
528.16345712620955
 20
9829.906526787734
 30
0.063
  0
VERTEX
  5
BCD
  8
1_FORMATIVE
 10
528.17297376779231
 20
9829.8995678908723
 30
0.063
  0
VERTEX
  5
BCE
  8
1_FORMATIVE
 10
528.14495866717391
 20
9829.8790278707984
 30
0.063
  0
VERTEX
  5
BCF
  8
1_FORMATIVE
 10
528.09782401530856
 20
9829.8474615920022
 30
0.063
  0
VERTEX
  5
BD0
  8
1_FORMATIVE
 10
528.08336863681791
 20
9829.8824460051546
 30
0.063
  0
VERTEX
  5
BD1
  8
1_FORMATIVE
 10
528.08450917301002
 20
9829.9018154888709
 30
0.063
  0
VERTEX
  5
BD2
  8
1_FORMATIVE
 10
528.11188254796514
 20
9829.9200455387745
 30
0.063
  0
VERTEX
  5
BD3
  8
1_FORMATIVE
 10
528.12227244026064
 20
9829.9304430080156
 30
0.063
  0
SEQEND
  5
BD4
  8
1_FORMATIVE
  0
POLYLINE
  5
DA
  8
1_FORMATIVE
 66
     1
 10
0.0
 20
0.0
 30
0.08
 70
     1
  0
VERTEX
  5
BD5
  8
1_FORMATIVE
 10
528.12905141557508
 20
9829.7626980549539
 30
0.08
  0
VERTEX
  5
BD6
  8
1_FORMATIVE
 10
528.14868414761349
 20
9829.7675086520958
 30
0.08
  0
VERTEX
  5
BD7
  8
1_FORMATIVE
 10
528.22693043861955
 20
9829.8051641722122
 30
0.08
  0
VERTEX
  5
BD8
  8
1_FORMATIVE
 10
528.21255594342756
 20
9829.8350358854677
 30
0.08
  0
VERTEX
  5
BD9
  8
1_FORMATIVE
 10
528.19946420823669
 20
9829.8701092903502
 30
0.08
  0
VERTEX
  5
BDA
  8
1_FORMATIVE
 10
528.17417791324522
 20
9829.8978569720184
 30
0.08
  0
VERTEX
  5
BDB
  8
1_FORMATIVE
 10
528.09801326076956
 20
9829.8457602795788
 30
0.08
  0
VERTEX
  5
BDC
  8
1_FORMATIVE
 10
528.09949026146785
 20
9829.8307336255493
 30
0.08
  0
VERTEX
  5
BDD
  8
1_FORMATIVE
 10
528.09949026146785
 20
9829.8184756556111
 30
0.08
  0
VERTEX
  5
BDE
  8
1_FORMATIVE
 10
528.10901228293835
 20
9829.8088794460436
 30
0.08
  0
VERTEX
  5
BDF
  8
1_FORMATIVE
 10
528.12150893925707
 20
9829.7940178276731
 30
0.08
  0
SEQEND
  5
BE0
  8
1_FORMATIVE
  0
POLYLINE
  5
DB
  8
1_FORMATIVE
 66
     1
 10
0.0
 20
0.0
 30
0.029
 70
     1
  0
VERTEX
  5
BE1
  8
1_FORMATIVE
 10
528.43776335910434
 20
9828.9884078022278
 30
0.029
  0
VERTEX
  5
BE2
  8
1_FORMATIVE
 10
528.42651971027715
 20
9828.9754558026289
 30
0.029
  0
VERTEX
  5
BE3
  8
1_FORMATIVE
 10
528.42524182871671
 20
9828.9597517700822
 30
0.029
  0
VERTEX
  5
BE4
  8
1_FORMATIVE
 10
528.43373122821311
 20
9828.9466395798117
 30
0.029
  0
VERTEX
  5
BE5
  8
1_FORMATIVE
 10
528.44635136877741
 20
9828.9430375310749
 30
0.029
  0
VERTEX
  5
BE6
  8
1_FORMATIVE
 10
528.46257723666326
 20
9828.9430375310749
 30
0.029
  0
VERTEX
  5
BE7
  8
1_FORMATIVE
 10
528.47582840640848
 20
9828.9501676451255
 30
0.029
  0
VERTEX
  5
BE8
  8
1_FORMATIVE
 10
528.48193369284763
 20
9828.9623656096883
 30
0.029
  0
VERTEX
  5
BE9
  8
1_FORMATIVE
 10
528.47880304125636
 20
9828.9826598444142
 30
0.029
  0
VERTEX
  5
BEA
  8
1_FORMATIVE
 10
528.460774341356
 20
9828.9916649105635
 30
0.029
  0
VERTEX
  5
BEB
  8
1_FORMATIVE
 10
528.44815420079169
 20
9828.9898639140465
 30
0.029
  0
SEQEND
  5
BEC
  8
1_FORMATIVE
  0
POLYLINE
  5
DC
  8
1_FORMATIVE
 66
     1
 10
0.0
 20
0.0
 30
0.007
 70
     1
  0
VERTEX
  5
BED
  8
1_FORMATIVE
 10
530.08995326457477
 20
9832.2110361621635
 30
0.007
  0
VERTEX
  5
BEE
  8
1_FORMATIVE
 10
530.08677071289037
 20
9832.2163350403225
 30
0.007
  0
VERTEX
  5
BEF
  8
1_FORMATIVE
 10
530.08624025596305
 20
9832.2269327687973
 30
0.007
  0
VERTEX
  5
BF0
  8
1_FORMATIVE
 10
530.09154457206307
 20
9832.235410929301
 30
0.007
  0
VERTEX
  5
BF1
  8
1_FORMATIVE
 10
530.10215326755599
 20
9832.2444190026818
 30
0.007
  0
VERTEX
  5
BF2
  8
1_FORMATIVE
 10
530.11329235668325
 20
9832.2550167311565
 30
0.007
  0
VERTEX
  5
BF3
  8
1_FORMATIVE
 10
530.12655314693347
 20
9832.2571362712806
 30
0.007
  0
VERTEX
  5
BF4
  8
1_FORMATIVE
 10
530.13610099186496
 20
9832.2560765012186
 30
0.007
  0
VERTEX
  5
BF5
  8
1_FORMATIVE
 10
530.14246615852653
 20
9832.2465385428077
 30
0.007
  0
VERTEX
  5
BF6
  8
1_FORMATIVE
 10
530.15254439709236
 20
9832.2359408143329
 30
0.007
  0
VERTEX
  5
BF7
  8
1_FORMATIVE
 10
530.15519655514231
 20
9832.2264028837635
 30
0.007
  0
VERTEX
  5
BF8
  8
1_FORMATIVE
 10
530.1504226959695
 20
9832.2057373118514
 30
0.007
  0
VERTEX
  5
BF9
  8
1_FORMATIVE
 10
530.14458792294215
 20
9832.1882510779633
 30
0.007
  0
VERTEX
  5
BFA
  8
1_FORMATIVE
 10
530.1366313854993
 20
9832.1861315378355
 30
0.007
  0
VERTEX
  5
BFB
  8
1_FORMATIVE
 10
530.11912712971036
 20
9832.1871913079012
 30
0.007
  0
VERTEX
  5
BFC
  8
1_FORMATIVE
 10
530.10639673309458
 20
9832.1924901582188
 30
0.007
  0
VERTEX
  5
BFD
  8
1_FORMATIVE
 10
530.09525764396756
 20
9832.2046775417875
 30
0.007
  0
SEQEND
  5
BFE
  8
1_FORMATIVE
  0
POLYLINE
  5
DD
  8
1_FORMATIVE
 66
     1
 10
0.0
 20
0.0
 30
0.017
 70
     1
  0
VERTEX
  5
BFF
  8
1_FORMATIVE
 10
530.72745267797723
 20
9831.9732269621691
 30
0.017
  0
VERTEX
  5
C00
  8
1_FORMATIVE
 10
530.72651208372918
 20
9831.9826236643166
 30
0.017
  0
VERTEX
  5
C01
  8
1_FORMATIVE
 10
530.7246307686471
 20
9831.9948393659652
 30
0.017
  0
VERTEX
  5
C02
  8
1_FORMATIVE
 10
530.7171056349049
 20
9832.0004773928194
 30
0.017
  0
VERTEX
  5
C03
  8
1_FORMATIVE
 10
530.71240247378557
 20
9832.0051757438905
 30
0.017
  0
VERTEX
  5
C04
  8
1_FORMATIVE
 10
530.69923352138312
 20
9832.003296392324
 30
0.017
  0
VERTEX
  5
C05
  8
1_FORMATIVE
 10
530.68136134456859
 20
9832.0014170686027
 30
0.017
  0
VERTEX
  5
C06
  8
1_FORMATIVE
 10
530.67571752590823
 20
9831.9985980412512
 30
0.017
  0
VERTEX
  5
C07
  8
1_FORMATIVE
 10
530.67101430149614
 20
9831.9901410148905
 30
0.017
  0
VERTEX
  5
C08
  8
1_FORMATIVE
 10
530.66530725333223
 20
9831.9773635460042
 30
0.017
  0
VERTEX
  5
C09
  8
1_FORMATIVE
 10
530.66913304970706
 20
9831.9685286110962
 30
0.017
  0
VERTEX
  5
C0A
  8
1_FORMATIVE
 10
530.67594765851618
 20
9831.9556425756437
 30
0.017
  0
VERTEX
  5
C0B
  8
1_FORMATIVE
 10
530.6953779141013
 20
9831.9519454093424
 30
0.017
  0
VERTEX
  5
C0C
  8
1_FORMATIVE
 10
530.71844225218058
 20
9831.9533460266284
 30
0.017
  0
SEQEND
  5
C0D
  8
1_FORMATIVE
  0
POLYLINE
  5
DE
  8
1_FORMATIVE
 66
     1
 10
0.0
 20
0.0
 30
0.025
 70
     1
  0
VERTEX
  5
C0E
  8
1_FORMATIVE
 10
528.66192395913447
 20
9829.0024228112543
 30
0.025
  0
VERTEX
  5
C0F
  8
1_FORMATIVE
 10
528.65761741445635
 20
9829.0153291650458
 30
0.025
  0
VERTEX
  5
C10
  8
1_FORMATIVE
 10
528.64756878887681
 20
9829.0196312735934
 30
0.025
  0
VERTEX
  5
C11
  8
1_FORMATIVE
 10
528.64039117175173
 20
9829.0153291650458
 30
0.025
  0
VERTEX
  5
C12
  8
1_FORMATIVE
 10
528.63321355462665
 20
9829.0052908930065
 30
0.025
  0
VERTEX
  5
C13
  8
1_FORMATIVE
 10
528.63321355462665
 20
9828.9880824025167
 30
0.025
  0
VERTEX
  5
C14
  8
1_FORMATIVE
 10
528.63321355462665
 20
9828.9751760487252
 30
0.025
  0
VERTEX
  5
C15
  8
1_FORMATIVE
 10
528.64182670797516
 20
9828.9594016413357
 30
0.025
  0
VERTEX
  5
C16
  8
1_FORMATIVE
 10
528.65474634200962
 20
9828.9507973960935
 30
0.025
  0
VERTEX
  5
C17
  8
1_FORMATIVE
 10
528.66766604003635
 20
9828.9737420219262
 30
0.025
  0
VERTEX
  5
C18
  8
1_FORMATIVE
 10
528.66766604003635
 20
9828.9895164574646
 30
0.025
  0
SEQEND
  5
C19
  8
1_FORMATIVE
  0
POLYLINE
  5
DF
  8
1_FORMATIVE
 66
     1
 10
0.0
 20
0.0
 30
0.038
 70
     1
  0
VERTEX
  5
C1A
  8
1_FORMATIVE
 10
528.66479503158155
 20
9828.8805294917966
 30
0.038
  0
VERTEX
  5
C1B
  8
1_FORMATIVE
 10
528.67484365716143
 20
9828.8747933283048
 30
0.038
  0
VERTEX
  5
C1C
  8
1_FORMATIVE
 10
528.6891988274192
 20
9828.8747933283048
 30
0.038
  0
VERTEX
  5
C1D
  8
1_FORMATIVE
 10
528.70837619121596
 20
9828.8728268552186
 30
0.038
  0
VERTEX
  5
C1E
  8
1_FORMATIVE
 10
528.72521060989857
 20
9828.8698591421362
 30
0.038
  0
VERTEX
  5
C1F
  8
1_FORMATIVE
 10
528.72719110339347
 20
9828.8515582541877
 30
0.038
  0
VERTEX
  5
C20
  8
1_FORMATIVE
 10
528.71877395804461
 20
9828.8377089640126
 30
0.038
  0
VERTEX
  5
C21
  8
1_FORMATIVE
 10
528.69350537209755
 20
9828.8332061851797
 30
0.038
  0
VERTEX
  5
C22
  8
1_FORMATIVE
 10
528.67053711248309
 20
9828.8346402401312
 30
0.038
  0
VERTEX
  5
C23
  8
1_FORMATIVE
 10
528.65618187823316
 20
9828.837508321878
 30
0.038
  0
VERTEX
  5
C24
  8
1_FORMATIVE
 10
528.63856304359956
 20
9828.8485905692578
 30
0.038
  0
VERTEX
  5
C25
  8
1_FORMATIVE
 10
528.63460199261715
 20
9828.8629344970486
 30
0.038
  0
VERTEX
  5
C26
  8
1_FORMATIVE
 10
528.64499969545352
 20
9828.8807407473851
 30
0.038
  0
SEQEND
  5
C27
  8
1_FORMATIVE
  0
POLYLINE
  5
E0
  8
1_FORMATIVE
 66
     1
 10
0.0
 20
0.0
 30
0.318
 70
     1
  0
VERTEX
  5
C28
  8
1_FORMATIVE
 10
529.00757341152837
 20
9829.7992381489476
 30
0.318
  0
VERTEX
  5
C29
  8
1_FORMATIVE
 10
529.02637680511668
 20
9829.7984469258354
 30
0.318
  0
VERTEX
  5
C2A
  8
1_FORMATIVE
 10
529.02975322368559
 20
9829.8013013818199
 30
0.318
  0
VERTEX
  5
C2B
  8
1_FORMATIVE
 10
529.04231552547424
 20
9829.8008686513294
 30
0.318
  0
VERTEX
  5
C2C
  8
1_FORMATIVE
 10
529.05416629838714
 20
9829.807603408497
 30
0.318
  0
VERTEX
  5
C2D
  8
1_FORMATIVE
 10
529.07539608287198
 20
9829.8338299563147
 30
0.318
  0
VERTEX
  5
C2E
  8
1_FORMATIVE
 10
529.08424319157325
 20
9829.8533153282151
 30
0.318
  0
VERTEX
  5
C2F
  8
1_FORMATIVE
 10
529.08756598470859
 20
9829.8632733940758
 30
0.318
  0
VERTEX
  5
C30
  8
1_FORMATIVE
 10
529.12785589934481
 20
9829.8814393757457
 30
0.318
  0
VERTEX
  5
C31
  8
1_FORMATIVE
 10
529.14737619715049
 20
9829.9031057701395
 30
0.318
  0
VERTEX
  5
C32
  8
1_FORMATIVE
 10
529.12633186195808
 20
9829.9031057701395
 30
0.318
  0
VERTEX
  5
C33
  8
1_FORMATIVE
 10
529.0742748121678
 20
9829.9019992964822
 30
0.318
  0
VERTEX
  5
C34
  8
1_FORMATIVE
 10
529.03682256606828
 20
9829.9010240974476
 30
0.318
  0
VERTEX
  5
C35
  8
1_FORMATIVE
 10
529.03014997510479
 20
9829.9008830539424
 30
0.318
  0
VERTEX
  5
C36
  8
1_FORMATIVE
 10
529.02244858211407
 20
9829.8661677138607
 30
0.318
  0
VERTEX
  5
C37
  8
1_FORMATIVE
 10
529.01060612818253
 20
9829.8132773552006
 30
0.318
  0
SEQEND
  5
C38
  8
1_FORMATIVE
  0
POLYLINE
  5
E1
  8
1_FORMATIVE
 66
     1
 10
0.0
 20
0.0
 30
0.159
 70
     1
  0
VERTEX
  5
C39
  8
1_FORMATIVE
 10
529.01755503731215
 20
9830.0030054798899
 30
0.159
  0
VERTEX
  5
C3A
  8
1_FORMATIVE
 10
529.11034297174342
 20
9830.0032221125857
 30
0.159
  0
VERTEX
  5
C3B
  8
1_FORMATIVE
 10
529.13379917161114
 20
9830.0032221125857
 30
0.159
  0
VERTEX
  5
C3C
  8
1_FORMATIVE
 10
529.14385182869717
 20
9829.9898323821435
 30
0.159
  0
VERTEX
  5
C3D
  8
1_FORMATIVE
 10
529.14887822123285
 20
9829.9797900843023
 30
0.159
  0
VERTEX
  5
C3E
  8
1_FORMATIVE
 10
529.14552727154501
 20
9829.9597054886308
 30
0.159
  0
VERTEX
  5
C3F
  8
1_FORMATIVE
 10
529.13882550015421
 20
9829.9446420418826
 30
0.159
  0
VERTEX
  5
C40
  8
1_FORMATIVE
 10
529.14217638584967
 20
9829.9262311343609
 30
0.159
  0
VERTEX
  5
C41
  8
1_FORMATIVE
 10
529.14709559150936
 20
9829.9047373141548
 30
0.159
  0
VERTEX
  5
C42
  8
1_FORMATIVE
 10
529.02135757970382
 20
9829.9010305725023
 30
0.159
  0
SEQEND
  5
C43
  8
1_FORMATIVE
  0
POLYLINE
  5
E2
  8
1_FORMATIVE
 66
     1
 10
0.0
 20
0.0
 30
0.08
 70
     1
  0
VERTEX
  5
C44
  8
1_FORMATIVE
 10
529.43719069434576
 20
9829.9572827215015
 30
0.08
  0
VERTEX
  5
C45
  8
1_FORMATIVE
 10
529.44329036346176
 20
9829.9528511682329
 30
0.08
  0
VERTEX
  5
C46
  8
1_FORMATIVE
 10
529.44661744407199
 20
9829.9406644178616
 30
0.08
  0
VERTEX
  5
C47
  8
1_FORMATIVE
 10
529.44717200016851
 20
9829.9234921595089
 30
0.08
  0
VERTEX
  5
C48
  8
1_FORMATIVE
 10
529.44717200016851
 20
9829.9101975278572
 30
0.08
  0
VERTEX
  5
C49
  8
1_FORMATIVE
 10
529.45049908077874
 20
9829.9018883760364
 30
0.08
  0
VERTEX
  5
C4A
  8
1_FORMATIVE
 10
529.42776394461919
 20
9829.9074278105836
 30
0.08
  0
VERTEX
  5
C4B
  8
1_FORMATIVE
 10
529.38601116910525
 20
9829.9041552915005
 30
0.08
  0
VERTEX
  5
C4C
  8
1_FORMATIVE
 10
529.38506626080596
 20
9829.9190606062439
 30
0.08
  0
VERTEX
  5
C4D
  8
1_FORMATIVE
 10
529.38229367230008
 20
9829.9340171020358
 30
0.08
  0
VERTEX
  5
C4E
  8
1_FORMATIVE
 10
529.38063013199519
 20
9829.9462038524107
 30
0.08
  0
VERTEX
  5
C4F
  8
1_FORMATIVE
 10
529.37841209958572
 20
9829.9572827215015
 30
0.08
  0
VERTEX
  5
C50
  8
1_FORMATIVE
 10
529.37841209958572
 20
9829.9650379186041
 30
0.08
  0
VERTEX
  5
C51
  8
1_FORMATIVE
 10
529.42221876760732
 20
9829.9639300373237
 30
0.08
  0
SEQEND
  5
C52
  8
1_FORMATIVE
  0
POLYLINE
  5
E3
  8
1_FORMATIVE
 66
     1
 10
0.0
 20
0.0
 30
0.022
 70
     1
  0
VERTEX
  5
C53
  8
1_FORMATIVE
 10
529.62043308893419
 20
9829.6643742319302
 30
0.022
  0
VERTEX
  5
C54
  8
1_FORMATIVE
 10
529.62294951680622
 20
9829.6786192321997
 30
0.022
  0
VERTEX
  5
C55
  8
1_FORMATIVE
 10
529.61707791576373
 20
9829.6886745082902
 30
0.022
  0
VERTEX
  5
C56
  8
1_FORMATIVE
 10
529.60701220427609
 20
9829.6995677404757
 30
0.022
  0
VERTEX
  5
C57
  8
1_FORMATIVE
 10
529.58688084529285
 20
9829.7045953925972
 30
0.022
  0
VERTEX
  5
C58
  8
1_FORMATIVE
 10
529.56836144893032
 20
9829.6905520761011
 30
0.022
  0
VERTEX
  5
C59
  8
1_FORMATIVE
 10
529.5642331224301
 20
9829.6509671877629
 30
0.022
  0
VERTEX
  5
C5A
  8
1_FORMATIVE
 10
529.58771965458368
 20
9829.6434257236597
 30
0.022
  0
VERTEX
  5
C5B
  8
1_FORMATIVE
 10
529.5998359309865
 20
9829.6435945254289
 30
0.022
  0
VERTEX
  5
C5C
  8
1_FORMATIVE
 10
529.61540029718265
 20
9829.6467774635857
 30
0.022
  0
VERTEX
  5
C5D
  8
1_FORMATIVE
 10
529.61959427964359
 20
9829.6576706957712
 30
0.022
  0
SEQEND
  5
C5E
  8
1_FORMATIVE
  0
POLYLINE
  5
E4
  8
1_FORMATIVE
 66
     1
 10
0.0
 20
0.0
 30
0.4240000000000001
 70
     1
  0
VERTEX
  5
C5F
  8
1_FORMATIVE
 10
528.86765947151707
 20
9829.7634619420933
 30
0.4240000000000001
  0
VERTEX
  5
C60
  8
1_FORMATIVE
 10
528.86218705359624
 20
9829.7662579537064
 30
0.4240000000000001
  0
VERTEX
  5
C61
  8
1_FORMATIVE
 10
528.84243286442995
 20
9829.7678594591143
 30
0.4240000000000001
  0
VERTEX
  5
C62
  8
1_FORMATIVE
 10
528.80813472812065
 20
9829.7836014630902
 30
0.4240000000000001
  0
VERTEX
  5
C63
  8
1_FORMATIVE
 10
528.78872603264972
 20
9829.7993553473825
 30
0.4240000000000001
  0
VERTEX
  5
C64
  8
1_FORMATIVE
 10
528.74752608544395
 20
9829.7051951794183
 30
0.4240000000000001
  0
VERTEX
  5
C65
  8
1_FORMATIVE
 10
528.76060729969345
 20
9829.6993280509705
 30
0.4240000000000001
  0
VERTEX
  5
C66
  8
1_FORMATIVE
 10
528.76968407627294
 20
9829.6910607054597
 30
0.4240000000000001
  0
VERTEX
  5
C67
  8
1_FORMATIVE
 10
528.78223133990275
 20
9829.6846602017013
 30
0.4240000000000001
  0
VERTEX
  5
C68
  8
1_FORMATIVE
 10
528.78997330392565
 20
9829.6793264204134
 30
0.4240000000000001
  0
VERTEX
  5
C69
  8
1_FORMATIVE
 10
528.79931699182271
 20
9829.6777262944706
 30
0.4240000000000001
  0
VERTEX
  5
C6A
  8
1_FORMATIVE
 10
528.81794709462963
 20
9829.6685785953596
 30
0.4240000000000001
  0
VERTEX
  5
C6B
  8
1_FORMATIVE
 10
528.83849401872828
 20
9829.6635817419556
 30
0.4240000000000001
  0
SEQEND
  5
C6C
  8
1_FORMATIVE
  0
POLYLINE
  5
E5
  8
1_FORMATIVE
 66
     1
 10
0.0
 20
0.0
 30
0.9549999999999999
 70
     1
  0
VERTEX
  5
C6D
  8
1_FORMATIVE
 10
528.78763253454485
 20
9829.8007543525964
 30
0.9549999999999999
  0
VERTEX
  5
C6E
  8
1_FORMATIVE
 10
528.74673578221393
 20
9829.7055865258862
 30
0.9549999999999999
  0
VERTEX
  5
C6F
  8
1_FORMATIVE
 10
528.71548328897586
 20
9829.7398162652717
 30
0.9549999999999999
  0
VERTEX
  5
C70
  8
1_FORMATIVE
 10
528.68807006963186
 20
9829.7700099362628
 30
0.9549999999999999
  0
VERTEX
  5
C71
  8
1_FORMATIVE
 10
528.7013969498006
 20
9829.8141715034762
 30
0.9549999999999999
  0
VERTEX
  5
C72
  8
1_FORMATIVE
 10
528.7500672782835
 20
9829.8448051964315
 30
0.9549999999999999
  0
VERTEX
  5
C73
  8
1_FORMATIVE
 10
528.76163693361832
 20
9829.8421156290351
 30
0.9549999999999999
  0
VERTEX
  5
C74
  8
1_FORMATIVE
 10
528.77507874371418
 20
9829.8369732558967
 30
0.9549999999999999
  0
VERTEX
  5
C75
  8
1_FORMATIVE
 10
528.77935201246692
 20
9829.832170738493
 30
0.9549999999999999
  0
VERTEX
  5
C76
  8
1_FORMATIVE
 10
528.78184290746515
 20
9829.8276561356543
 30
0.9549999999999999
  0
VERTEX
  5
C77
  8
1_FORMATIVE
 10
528.78865628119036
 20
9829.8188078372805
 30
0.9549999999999999
  0
SEQEND
  5
C78
  8
1_FORMATIVE
  0
POLYLINE
  5
E6
  8
1_FORMATIVE
 66
     1
 10
0.0
 20
0.0
 30
0.318
 70
     1
  0
VERTEX
  5
C79
  8
1_FORMATIVE
 10
528.89987671062499
 20
9829.7930780948118
 30
0.318
  0
VERTEX
  5
C7A
  8
1_FORMATIVE
 10
528.96329140970977
 20
9829.7992964244113
 30
0.318
  0
VERTEX
  5
C7B
  8
1_FORMATIVE
 10
529.00718958652635
 20
9829.7993477180789
 30
0.318
  0
VERTEX
  5
C7C
  8
1_FORMATIVE
 10
529.02967758494731
 20
9829.9008085345467
 30
0.318
  0
VERTEX
  5
C7D
  8
1_FORMATIVE
 10
528.94620601375846
 20
9829.9094414107767
 30
0.318
  0
VERTEX
  5
C7E
  8
1_FORMATIVE
 10
528.91392516643918
 20
9829.9090884360248
 30
0.318
  0
VERTEX
  5
C7F
  8
1_FORMATIVE
 10
528.91924342723632
 20
9829.8649759947457
 30
0.318
  0
VERTEX
  5
C80
  8
1_FORMATIVE
 10
528.9126598493732
 20
9829.8446977105796
 30
0.318
  0
VERTEX
  5
C81
  8
1_FORMATIVE
 10
528.91211124454799
 20
9829.8337364903564
 30
0.318
  0
VERTEX
  5
C82
  8
1_FORMATIVE
 10
528.91156263972277
 20
9829.8200349439594
 30
0.318
  0
VERTEX
  5
C83
  8
1_FORMATIVE
 10
528.90333318339185
 20
9829.8035930995484
 30
0.318
  0
SEQEND
  5
C84
  8
1_FORMATIVE
  0
POLYLINE
  5
E7
  8
1_FORMATIVE
 66
     1
 10
0.0
 20
0.0
 30
0.038
 70
     1
  0
VERTEX
  5
C85
  8
1_FORMATIVE
 10
528.56824538175977
 20
9829.9915462437602
 30
0.038
  0
VERTEX
  5
C86
  8
1_FORMATIVE
 10
528.56092583001396
 20
9829.9998654178326
 30
0.038
  0
VERTEX
  5
C87
  8
1_FORMATIVE
 10
528.54888794401256
 20
9830.0118909394259
 30
0.038
  0
VERTEX
  5
C88
  8
1_FORMATIVE
 10
528.53233579476705
 20
9830.0194068693072
 30
0.038
  0
VERTEX
  5
C89
  8
1_FORMATIVE
 10
528.5003896904592
 20
9830.0306952485425
 30
0.038
  0
VERTEX
  5
C8A
  8
1_FORMATIVE
 10
528.49339675472083
 20
9830.0254559748537
 30
0.038
  0
VERTEX
  5
C8B
  8
1_FORMATIVE
 10
528.50330338168783
 20
9829.9986774711379
 30
0.038
  0
VERTEX
  5
C8C
  8
1_FORMATIVE
 10
528.51294098559583
 20
9829.9879319264237
 30
0.038
  0
VERTEX
  5
C8D
  8
1_FORMATIVE
 10
528.52952679471969
 20
9829.983541813488
 30
0.038
  0
VERTEX
  5
C8E
  8
1_FORMATIVE
 10
528.54875727201284
 20
9829.9672418571554
 30
0.038
  0
VERTEX
  5
C8F
  8
1_FORMATIVE
 10
528.56798781329803
 20
9829.9585097437248
 30
0.038
  0
VERTEX
  5
C90
  8
1_FORMATIVE
 10
528.57341396488414
 20
9829.9520469950148
 30
0.038
  0
VERTEX
  5
C91
  8
1_FORMATIVE
 10
528.5873693120991
 20
9829.9471418621233
 30
0.038
  0
VERTEX
  5
C92
  8
1_FORMATIVE
 10
528.60757279025142
 20
9829.951763387764
 30
0.038
  0
VERTEX
  5
C93
  8
1_FORMATIVE
 10
528.60571791337475
 20
9829.9680532373877
 30
0.038
  0
VERTEX
  5
C94
  8
1_FORMATIVE
 10
528.59408848935857
 20
9829.9757981870171
 30
0.038
  0
VERTEX
  5
C95
  8
1_FORMATIVE
 10
528.58039167048776
 20
9829.9850921096859
 30
0.038
  0
SEQEND
  5
C96
  8
1_FORMATIVE
  0
POLYLINE
  5
E8
  8
1_FORMATIVE
 66
     1
 10
0.0
 20
0.0
 30
0.159
 70
     1
  0
VERTEX
  5
C97
  8
1_FORMATIVE
 10
528.69608489624352
 20
9830.3018479316943
 30
0.159
  0
VERTEX
  5
C98
  8
1_FORMATIVE
 10
528.692868650062
 20
9830.33104945591
 30
0.159
  0
VERTEX
  5
C99
  8
1_FORMATIVE
 10
528.692868650062
 20
9830.3606825282204
 30
0.159
  0
VERTEX
  5
C9A
  8
1_FORMATIVE
 10
528.69755242854922
 20
9830.3809577719221
 30
0.159
  0
VERTEX
  5
C9B
  8
1_FORMATIVE
 10
528.69442993088853
 20
9830.4012330156238
 30
0.159
  0
VERTEX
  5
C9C
  8
1_FORMATIVE
 10
528.67257251125545
 20
9830.4137100735115
 30
0.159
  0
VERTEX
  5
C9D
  8
1_FORMATIVE
 10
528.64447009630123
 20
9830.416829359101
 30
0.159
  0
VERTEX
  5
C9E
  8
1_FORMATIVE
 10
528.62105145983401
 20
9830.4074715304941
 30
0.159
  0
VERTEX
  5
C9F
  8
1_FORMATIVE
 10
528.61168396685184
 20
9830.3871962867888
 30
0.159
  0
VERTEX
  5
CA0
  8
1_FORMATIVE
 10
528.6163676813469
 20
9830.3544439851994
 30
0.159
  0
VERTEX
  5
CA1
  8
1_FORMATIVE
 10
528.6163676813469
 20
9830.3341687414995
 30
0.159
  0
VERTEX
  5
CA2
  8
1_FORMATIVE
 10
528.61792896217321
 20
9830.3107742122083
 30
0.159
  0
VERTEX
  5
CA3
  8
1_FORMATIVE
 10
528.61949017900736
 20
9830.2998567971117
 30
0.159
  0
SEQEND
  5
CA4
  8
1_FORMATIVE
  0
POLYLINE
  5
E9
  8
1_FORMATIVE
 66
     1
 10
0.0
 20
0.0
 30
0.597
 70
     1
  0
VERTEX
  5
CA5
  8
1_FORMATIVE
 10
528.69626029876611
 20
9830.3010463766477
 30
0.597
  0
VERTEX
  5
CA6
  8
1_FORMATIVE
 10
528.69841728265078
 20
9830.2870098730327
 30
0.597
  0
VERTEX
  5
CA7
  8
1_FORMATIVE
 10
528.7102640880496
 20
9830.2767890608466
 30
0.597
  0
VERTEX
  5
CA8
  8
1_FORMATIVE
 10
528.7204954752508
 20
9830.267106184665
 30
0.597
  0
VERTEX
  5
CA9
  8
1_FORMATIVE
 10
528.72968666981978
 20
9830.264650056939
 30
0.597
  0
VERTEX
  5
CAA
  8
1_FORMATIVE
 10
528.74262646138629
 20
9830.2537552482227
 30
0.597
  0
VERTEX
  5
CAB
  8
1_FORMATIVE
 10
528.73961838171545
 20
9830.2403997229376
 30
0.597
  0
VERTEX
  5
CAC
  8
1_FORMATIVE
 10
528.72424368829445
 20
9830.2313847342193
 30
0.597
  0
VERTEX
  5
CAD
  8
1_FORMATIVE
 10
528.71110065761457
 20
9830.2181548530825
 30
0.597
  0
VERTEX
  5
CAE
  8
1_FORMATIVE
 10
528.69357083608156
 20
9830.2025536673955
 30
0.597
  0
VERTEX
  5
CAF
  8
1_FORMATIVE
 10
528.66041304014175
 20
9830.2105370959798
 30
0.597
  0
VERTEX
  5
CB0
  8
1_FORMATIVE
 10
528.62291152007595
 20
9830.2193824665064
 30
0.597
  0
VERTEX
  5
CB1
  8
1_FORMATIVE
 10
528.60832764182226
 20
9830.2209434324595
 30
0.597
  0
VERTEX
  5
CB2
  8
1_FORMATIVE
 10
528.60848896606876
 20
9830.228912615934
 30
0.597
  0
VERTEX
  5
CB3
  8
1_FORMATIVE
 10
528.61929308314109
 20
9830.2580351726756
 30
0.597
  0
VERTEX
  5
CB4
  8
1_FORMATIVE
 10
528.61710480708825
 20
9830.2800166768575
 30
0.597
  0
VERTEX
  5
CB5
  8
1_FORMATIVE
 10
528.61921706044996
 20
9830.2987339106039
 30
0.597
  0
SEQEND
  5
CB6
  8
1_FORMATIVE
  0
POLYLINE
  5
EA
  8
1_FORMATIVE
 66
     1
 10
0.0
 20
0.0
 30
0.7959999999999999
 70
     1
  0
VERTEX
  5
CB7
  8
1_FORMATIVE
 10
528.83736078148922
 20
9830.179334809065
 30
0.7959999999999999
  0
VERTEX
  5
CB8
  8
1_FORMATIVE
 10
528.85526649299561
 20
9830.1613051131517
 30
0.7959999999999999
  0
VERTEX
  5
CB9
  8
1_FORMATIVE
 10
528.86621235271195
 20
9830.1578494345777
 30
0.7959999999999999
  0
VERTEX
  5
CBA
  8
1_FORMATIVE
 10
528.86638078008878
 20
9830.1383830373907
 30
0.7959999999999999
  0
VERTEX
  5
CBB
  8
1_FORMATIVE
 10
528.86494671568494
 20
9830.1272801543073
 30
0.7959999999999999
  0
VERTEX
  5
CBC
  8
1_FORMATIVE
 10
528.86238946081221
 20
9830.1028920706194
 30
0.7959999999999999
  0
VERTEX
  5
CBD
  8
1_FORMATIVE
 10
528.84484428116002
 20
9830.1028920706194
 30
0.7959999999999999
  0
VERTEX
  5
CBE
  8
1_FORMATIVE
 10
528.82723280562561
 20
9830.1029515003302
 30
0.7959999999999999
  0
VERTEX
  5
CBF
  8
1_FORMATIVE
 10
528.82322632020635
 20
9830.1032593749442
 30
0.7959999999999999
  0
VERTEX
  5
CC0
  8
1_FORMATIVE
 10
528.78737336627921
 20
9830.1033620185844
 30
0.7959999999999999
  0
VERTEX
  5
CC1
  8
1_FORMATIVE
 10
528.78823514875694
 20
9830.1111259429344
 30
0.7959999999999999
  0
VERTEX
  5
CC2
  8
1_FORMATIVE
 10
528.7817558141295
 20
9830.1358400313748
 30
0.7959999999999999
  0
VERTEX
  5
CC3
  8
1_FORMATIVE
 10
528.75610474701591
 20
9830.1533138018949
 30
0.7959999999999999
  0
VERTEX
  5
CC4
  8
1_FORMATIVE
 10
528.74483675074384
 20
9830.1901261014227
 30
0.7959999999999999
  0
VERTEX
  5
CC5
  8
1_FORMATIVE
 10
528.73914055222406
 20
9830.2026782980574
 30
0.7959999999999999
  0
VERTEX
  5
CC6
  8
1_FORMATIVE
 10
528.75797274228603
 20
9830.2209581843163
 30
0.7959999999999999
  0
VERTEX
  5
CC7
  8
1_FORMATIVE
 10
528.81165660087925
 20
9830.1971519543786
 30
0.7959999999999999
  0
SEQEND
  5
CC8
  8
1_FORMATIVE
  0
POLYLINE
  5
EB
  8
1_FORMATIVE
 66
     1
 10
0.0
 20
0.0
 30
0.318
 70
     1
  0
VERTEX
  5
CC9
  8
1_FORMATIVE
 10
528.59392889290064
 20
9830.3990711367605
 30
0.318
  0
VERTEX
  5
CCA
  8
1_FORMATIVE
 10
528.59130419028645
 20
9830.4235435087157
 30
0.318
  0
VERTEX
  5
CCB
  8
1_FORMATIVE
 10
528.59742856037815
 20
9830.4357796665445
 30
0.318
  0
VERTEX
  5
CCC
  8
1_FORMATIVE
 10
528.59655365950675
 20
9830.4515119016414
 30
0.318
  0
VERTEX
  5
CCD
  8
1_FORMATIVE
 10
528.58780452280905
 20
9830.4567559893876
 30
0.318
  0
VERTEX
  5
CCE
  8
1_FORMATIVE
 10
528.5396842069789
 20
9830.4593780191881
 30
0.318
  0
VERTEX
  5
CCF
  8
1_FORMATIVE
 10
528.51518653463586
 20
9830.4576299805576
 30
0.318
  0
VERTEX
  5
CD0
  8
1_FORMATIVE
 10
528.50118792871785
 20
9830.4471418332068
 30
0.318
  0
VERTEX
  5
CD1
  8
1_FORMATIVE
 10
528.47931502298127
 20
9830.4305356069508
 30
0.318
  0
VERTEX
  5
CD2
  8
1_FORMATIVE
 10
528.46181674958552
 20
9830.4261655385144
 30
0.318
  0
VERTEX
  5
CD3
  8
1_FORMATIVE
 10
528.4451933770614
 20
9830.4209214507664
 30
0.318
  0
VERTEX
  5
CD4
  8
1_FORMATIVE
 10
528.441693709584
 20
9830.4034412051915
 30
0.318
  0
VERTEX
  5
CD5
  8
1_FORMATIVE
 10
528.4539425137591
 20
9830.3912050192084
 30
0.318
  0
VERTEX
  5
CD6
  8
1_FORMATIVE
 10
528.47210246613452
 20
9830.3962290959771
 30
0.318
  0
VERTEX
  5
CD7
  8
1_FORMATIVE
 10
528.48716948522895
 20
9830.3845186560084
 30
0.318
  0
VERTEX
  5
CD8
  8
1_FORMATIVE
 10
528.57624171463556
 20
9830.3862380918035
 30
0.318
  0
VERTEX
  5
CD9
  8
1_FORMATIVE
 10
528.59302340377474
 20
9830.3858082328588
 30
0.318
  0
VERTEX
  5
CDA
  8
1_FORMATIVE
 10
528.59345375108012
 20
9830.3909665120991
 30
0.318
  0
SEQEND
  5
CDB
  8
1_FORMATIVE
  0
POLYLINE
  5
EC
  8
1_FORMATIVE
 66
     1
 10
0.0
 20
0.0
 30
2.0689999999999991
 70
     1
  0
VERTEX
  5
CDC
  8
1_FORMATIVE
 10
528.47503509904345
 20
9830.3267341157407
 30
2.0689999999999991
  0
VERTEX
  5
CDD
  8
1_FORMATIVE
 10
528.48284515072908
 20
9830.3213608084861
 30
2.0689999999999991
  0
VERTEX
  5
CDE
  8
1_FORMATIVE
 10
528.52306077046251
 20
9830.3212840087454
 30
2.0689999999999991
  0
VERTEX
  5
CDF
  8
1_FORMATIVE
 10
528.56487254675187
 20
9830.3231031884898
 30
2.0689999999999991
  0
VERTEX
  5
CE0
  8
1_FORMATIVE
 10
528.58692962193766
 20
9830.3239060385495
 30
2.0689999999999991
  0
VERTEX
  5
CE1
  8
1_FORMATIVE
 10
528.58692962193766
 20
9830.3361422245307
 30
2.0689999999999991
  0
VERTEX
  5
CE2
  8
1_FORMATIVE
 10
528.58867942368033
 20
9830.3483784105047
 30
2.0689999999999991
  0
VERTEX
  5
CE3
  8
1_FORMATIVE
 10
528.59042928941506
 20
9830.3623626069693
 30
2.0689999999999991
  0
VERTEX
  5
CE4
  8
1_FORMATIVE
 10
528.59377019233295
 20
9830.3842371883475
 30
2.0689999999999991
  0
VERTEX
  5
CE5
  8
1_FORMATIVE
 10
528.48412429010273
 20
9830.3829078884646
 30
2.0689999999999991
  0
VERTEX
  5
CE6
  8
1_FORMATIVE
 10
528.46269165045692
 20
9830.3667326754003
 30
2.0689999999999991
  0
VERTEX
  5
CE7
  8
1_FORMATIVE
 10
528.46181674958552
 20
9830.3466303718724
 30
2.0689999999999991
  0
VERTEX
  5
CE8
  8
1_FORMATIVE
 10
528.4647645486375
 20
9830.3385724801974
 30
2.0689999999999991
  0
SEQEND
  5
CE9
  8
1_FORMATIVE
  0
POLYLINE
  5
ED
  8
1_FORMATIVE
 66
     1
 10
0.0
 20
0.0
 30
0.318
 70
     1
  0
VERTEX
  5
CEA
  8
1_FORMATIVE
 10
528.37369569971008
 20
9830.3561295255113
 30
0.318
  0
VERTEX
  5
CEB
  8
1_FORMATIVE
 10
528.3838677021829
 20
9830.3536814775289
 30
0.318
  0
VERTEX
  5
CEC
  8
1_FORMATIVE
 10
528.33305107650665
 20
9830.3160783490184
 30
0.318
  0
VERTEX
  5
CED
  8
1_FORMATIVE
 10
528.28599866191564
 20
9830.2827727402164
 30
0.318
  0
VERTEX
  5
CEE
  8
1_FORMATIVE
 10
528.27790461300469
 20
9830.2818420782787
 30
0.318
  0
VERTEX
  5
CEF
  8
1_FORMATIVE
 10
528.26656091400196
 20
9830.3019878209543
 30
0.318
  0
VERTEX
  5
CF0
  8
1_FORMATIVE
 10
528.25899844800028
 20
9830.3145789242044
 30
0.318
  0
VERTEX
  5
CF1
  8
1_FORMATIVE
 10
528.25773805833069
 20
9830.3397611025503
 30
0.318
  0
VERTEX
  5
CF2
  8
1_FORMATIVE
 10
528.24639435932852
 20
9830.3586477292683
 30
0.318
  0
VERTEX
  5
CF3
  8
1_FORMATIVE
 10
528.25143598199895
 20
9830.3800525879051
 30
0.318
  0
VERTEX
  5
CF4
  8
1_FORMATIVE
 10
528.25647766866166
 20
9830.4001983305807
 30
0.318
  0
VERTEX
  5
CF5
  8
1_FORMATIVE
 10
528.26782130367155
 20
9830.4027165624884
 30
0.318
  0
VERTEX
  5
CF6
  8
1_FORMATIVE
 10
528.28042539234355
 20
9830.4001983305807
 30
0.318
  0
VERTEX
  5
CF7
  8
1_FORMATIVE
 10
528.30689402334917
 20
9830.3951618949104
 30
0.318
  0
VERTEX
  5
CF8
  8
1_FORMATIVE
 10
528.32706057802295
 20
9830.3901254592402
 30
0.318
  0
VERTEX
  5
CF9
  8
1_FORMATIVE
 10
528.33966466669483
 20
9830.3775343841462
 30
0.318
  0
VERTEX
  5
CFA
  8
1_FORMATIVE
 10
528.37369569971008
 20
9830.3599068452259
 30
0.318
  0
SEQEND
  5
CFB
  8
1_FORMATIVE
  0
POLYLINE
  5
EE
  8
1_FORMATIVE
 66
     1
 10
0.0
 20
0.0
 30
0.7959999999999999
 70
     1
  0
VERTEX
  5
CFC
  8
1_FORMATIVE
 10
528.38503939871237
 20
9830.3523522058003
 30
0.7959999999999999
  0
VERTEX
  5
CFD
  8
1_FORMATIVE
 10
528.40142472038519
 20
9830.3334655509243
 30
0.7959999999999999
  0
VERTEX
  5
CFE
  8
1_FORMATIVE
 10
528.42285166472846
 20
9830.3158380401583
 30
0.7959999999999999
  0
VERTEX
  5
CFF
  8
1_FORMATIVE
 10
528.43167452039938
 20
9830.3108016044898
 30
0.7959999999999999
  0
VERTEX
  5
D00
  8
1_FORMATIVE
 10
528.43295417171055
 20
9830.2891134482888
 30
0.7959999999999999
  0
VERTEX
  5
D01
  8
1_FORMATIVE
 10
528.43295417171055
 20
9830.2810631296052
 30
0.7959999999999999
  0
VERTEX
  5
D02
  8
1_FORMATIVE
 10
528.43419395590308
 20
9830.2754898277271
 30
0.7959999999999999
  0
VERTEX
  5
D03
  8
1_FORMATIVE
 10
528.42735773697495
 20
9830.2601650141241
 30
0.7959999999999999
  0
VERTEX
  5
D04
  8
1_FORMATIVE
 10
528.41400781962739
 20
9830.2468288576874
 30
0.7959999999999999
  0
VERTEX
  5
D05
  8
1_FORMATIVE
 10
528.38767875553231
 20
9830.2338631304883
 30
0.7959999999999999
  0
VERTEX
  5
D06
  8
1_FORMATIVE
 10
528.36579970654782
 20
9830.2194156018813
 30
0.7959999999999999
  0
VERTEX
  5
D07
  8
1_FORMATIVE
 10
528.34554913016234
 20
9830.2178991167093
 30
0.7959999999999999
  0
VERTEX
  5
D08
  8
1_FORMATIVE
 10
528.3257124550961
 20
9830.2216146700648
 30
0.7959999999999999
  0
VERTEX
  5
D09
  8
1_FORMATIVE
 10
528.31369517457142
 20
9830.2293473170957
 30
0.7959999999999999
  0
VERTEX
  5
D0A
  8
1_FORMATIVE
 10
528.30153659934786
 20
9830.2426693128764
 30
0.7959999999999999
  0
VERTEX
  5
D0B
  8
1_FORMATIVE
 10
528.29595757048105
 20
9830.2686780456024
 30
0.7959999999999999
  0
VERTEX
  5
D0C
  8
1_FORMATIVE
 10
528.28665912504425
 20
9830.2810631296052
 30
0.7959999999999999
  0
SEQEND
  5
D0D
  8
1_FORMATIVE
  0
POLYLINE
  5
EF
  8
1_FORMATIVE
 66
     1
 10
0.0
 20
0.0
 30
1.909999999999999
 70
     1
  0
VERTEX
  5
D0E
  8
1_FORMATIVE
 10
528.28919071905909
 20
9830.1743411650405
 30
1.909999999999999
  0
VERTEX
  5
D0F
  8
1_FORMATIVE
 10
528.30267847552875
 20
9830.1854717219303
 30
1.909999999999999
  0
VERTEX
  5
D10
  8
1_FORMATIVE
 10
528.30880233368327
 20
9830.1979571129286
 30
1.909999999999999
  0
VERTEX
  5
D11
  8
1_FORMATIVE
 10
528.30516463510696
 20
9830.2137042124905
 30
1.909999999999999
  0
VERTEX
  5
D12
  8
1_FORMATIVE
 10
528.29303895185603
 20
9830.2221834047868
 30
1.909999999999999
  0
VERTEX
  5
D13
  8
1_FORMATIVE
 10
528.28758240399156
 20
9830.2373248336826
 30
1.909999999999999
  0
VERTEX
  5
D14
  8
1_FORMATIVE
 10
528.28455103117324
 20
9830.2579171578327
 30
1.909999999999999
  0
VERTEX
  5
D15
  8
1_FORMATIVE
 10
528.27424419721024
 20
9830.2682133339822
 30
1.909999999999999
  0
VERTEX
  5
D16
  8
1_FORMATIVE
 10
528.25484318079884
 20
9830.2779038394656
 30
1.909999999999999
  0
VERTEX
  5
D17
  8
1_FORMATIVE
 10
528.23180446581171
 20
9830.2730585867248
 30
1.909999999999999
  0
VERTEX
  5
D18
  8
1_FORMATIVE
 10
528.21543482221909
 20
9830.2621567680544
 30
1.909999999999999
  0
VERTEX
  5
D19
  8
1_FORMATIVE
 10
528.20209661543743
 20
9830.239747460053
 30
1.909999999999999
  0
VERTEX
  5
D1A
  8
1_FORMATIVE
 10
528.19785265509586
 20
9830.2288456413862
 30
1.909999999999999
  0
VERTEX
  5
D1B
  8
1_FORMATIVE
 10
528.20755316330155
 20
9830.2130985418244
 30
1.909999999999999
  0
VERTEX
  5
D1C
  8
1_FORMATIVE
 10
528.21725367150725
 20
9830.203408036341
 30
1.909999999999999
  0
VERTEX
  5
D1D
  8
1_FORMATIVE
 10
528.21881994372245
 20
9830.1878149866952
 30
1.909999999999999
  0
VERTEX
  5
D1E
  8
1_FORMATIVE
 10
528.20650509963343
 20
9830.1643822546012
 30
1.909999999999999
  0
VERTEX
  5
D1F
  8
1_FORMATIVE
 10
528.2129557657712
 20
9830.1579382553882
 30
1.909999999999999
  0
VERTEX
  5
D20
  8
1_FORMATIVE
 10
528.22233848888857
 20
9830.1538375490909
 30
1.909999999999999
  0
VERTEX
  5
D21
  8
1_FORMATIVE
 10
528.24051763891305
 20
9830.1567666370829
 30
1.909999999999999
  0
VERTEX
  5
D22
  8
1_FORMATIVE
 10
528.25400533139066
 20
9830.1614531666073
 30
1.909999999999999
  0
VERTEX
  5
D23
  8
1_FORMATIVE
 10
528.27159805722079
 20
9830.1725837235026
 30
1.909999999999999
  0
SEQEND
  5
D24
  8
1_FORMATIVE
  0
POLYLINE
  5
F0
  8
1_FORMATIVE
 66
     1
 10
0.0
 20
0.0
 30
0.02
 70
     1
  0
VERTEX
  5
D25
  8
1_FORMATIVE
 10
529.05103503379985
 20
9830.8246023310203
 30
0.02
  0
VERTEX
  5
D26
  8
1_FORMATIVE
 10
529.05195216949971
 20
9830.811775986338
 30
0.02
  0
VERTEX
  5
D27
  8
1_FORMATIVE
 10
529.05837199141422
 20
9830.8026142954805
 30
0.02
  0
VERTEX
  5
D28
  8
1_FORMATIVE
 10
529.07946560057314
 20
9830.8026142954805
 30
0.02
  0
VERTEX
  5
D29
  8
1_FORMATIVE
 10
529.0849682867879
 20
9830.8191053221326
 30
0.02
  0
VERTEX
  5
D2A
  8
1_FORMATIVE
 10
529.0739629143585
 20
9830.8300993680514
 30
0.02
  0
VERTEX
  5
D2B
  8
1_FORMATIVE
 10
529.0556206483069
 20
9830.8337640218742
 30
0.02
  0
SEQEND
  5
D2C
  8
1_FORMATIVE
  0
POLYLINE
  5
F1
  8
1_FORMATIVE
 66
     1
 10
0.0
 20
0.0
 30
0.04
 70
     1
  0
VERTEX
  5
D2D
  8
1_FORMATIVE
 10
528.92144354183972
 20
9830.7261080170792
 30
0.04
  0
VERTEX
  5
D2E
  8
1_FORMATIVE
 10
528.94108196918069
 20
9830.7424565081474
 30
0.04
  0
VERTEX
  5
D2F
  8
1_FORMATIVE
 10
528.94762811162775
 20
9830.7664342706448
 30
0.04
  0
VERTEX
  5
D30
  8
1_FORMATIVE
 10
528.94762811162775
 20
9830.7849625455019
 30
0.04
  0
VERTEX
  5
D31
  8
1_FORMATIVE
 10
528.94435504040405
 20
9830.8111201199463
 30
0.04
  0
VERTEX
  5
D32
  8
1_FORMATIVE
 10
528.9378088979571
 20
9830.8372776943925
 30
0.04
  0
VERTEX
  5
D33
  8
1_FORMATIVE
 10
528.91208293028808
 20
9830.8663222194555
 30
0.04
  0
VERTEX
  5
D34
  8
1_FORMATIVE
 10
528.86471026463755
 20
9830.8307382867042
 30
0.04
  0
VERTEX
  5
D35
  8
1_FORMATIVE
 10
528.84616283970706
 20
9830.8002211165185
 30
0.04
  0
VERTEX
  5
D36
  8
1_FORMATIVE
 10
528.841798766073
 20
9830.7762433540229
 30
0.04
  0
VERTEX
  5
D37
  8
1_FORMATIVE
 10
528.86689233345055
 20
9830.7620746748998
 30
0.04
  0
VERTEX
  5
D38
  8
1_FORMATIVE
 10
528.89198583683606
 20
9830.7489958876813
 30
0.04
  0
VERTEX
  5
D39
  8
1_FORMATIVE
 10
528.90944225935618
 20
9830.7315575047196
 30
0.04
  0
SEQEND
  5
D3A
  8
1_FORMATIVE
  0
POLYLINE
  5
F2
  8
1_FORMATIVE
 66
     1
 10
0.0
 20
0.0
 30
0.119
 70
     1
  0
VERTEX
  5
D3B
  8
1_FORMATIVE
 10
529.47353050065931
 20
9830.3145437055555
 30
0.119
  0
VERTEX
  5
D3C
  8
1_FORMATIVE
 10
529.4777515518058
 20
9830.3047047524851
 30
0.119
  0
VERTEX
  5
D3D
  8
1_FORMATIVE
 10
529.48900764553525
 20
9830.300488030156
 30
0.119
  0
VERTEX
  5
D3E
  8
1_FORMATIVE
 10
529.5173166911884
 20
9830.2994389873875
 30
0.119
  0
VERTEX
  5
D3F
  8
1_FORMATIVE
 10
529.53810857729206
 20
9830.2961594583558
 30
0.119
  0
VERTEX
  5
D40
  8
1_FORMATIVE
 10
529.56287616858435
 20
9830.3328161032769
 30
0.119
  0
VERTEX
  5
D41
  8
1_FORMATIVE
 10
529.57413232630608
 20
9830.3616302223636
 30
0.119
  0
VERTEX
  5
D42
  8
1_FORMATIVE
 10
529.57482696125032
 20
9830.3912376196859
 30
0.119
  0
VERTEX
  5
D43
  8
1_FORMATIVE
 10
529.55654459186462
 20
9830.4073111744401
 30
0.119
  0
VERTEX
  5
D44
  8
1_FORMATIVE
 10
529.53121822099286
 20
9830.4009861191007
 30
0.119
  0
VERTEX
  5
D45
  8
1_FORMATIVE
 10
529.52066559312652
 20
9830.3981749614995
 30
0.119
  0
VERTEX
  5
D46
  8
1_FORMATIVE
 10
529.50870590554985
 20
9830.3841193142598
 30
0.119
  0
VERTEX
  5
D47
  8
1_FORMATIVE
 10
529.49815327768351
 20
9830.3644413518086
 30
0.119
  0
VERTEX
  5
D48
  8
1_FORMATIVE
 10
529.48760064981718
 20
9830.3517912411371
 30
0.119
  0
VERTEX
  5
D49
  8
1_FORMATIVE
 10
529.48197260295228
 20
9830.3356272327292
 30
0.119
  0
VERTEX
  5
D4A
  8
1_FORMATIVE
 10
529.47282697080425
 20
9830.3243826867783
 30
0.119
  0
SEQEND
  5
D4B
  8
1_FORMATIVE
  0
POLYLINE
  5
F3
  8
1_FORMATIVE
 66
     1
 10
0.0
 20
0.0
 30
0.044
 70
     1
  0
VERTEX
  5
D4C
  8
1_FORMATIVE
 10
530.06987533625147
 20
9830.4527885002353
 30
0.044
  0
VERTEX
  5
D4D
  8
1_FORMATIVE
 10
530.07535492129489
 20
9830.4283782887705
 30
0.044
  0
VERTEX
  5
D4E
  8
1_FORMATIVE
 10
530.08370455491036
 20
9830.4096922760273
 30
0.044
  0
VERTEX
  5
D4F
  8
1_FORMATIVE
 10
530.08801365927513
 20
9830.3907519063796
 30
0.044
  0
VERTEX
  5
D50
  8
1_FORMATIVE
 10
530.07336278122546
 20
9830.3838645069136
 30
0.044
  0
VERTEX
  5
D51
  8
1_FORMATIVE
 10
530.0578501206985
 20
9830.3847254353659
 30
0.044
  0
VERTEX
  5
D52
  8
1_FORMATIVE
 10
530.04233746017132
 20
9830.3881691210227
 30
0.044
  0
VERTEX
  5
D53
  8
1_FORMATIVE
 10
530.03630479085098
 20
9830.395917448941
 30
0.044
  0
VERTEX
  5
D54
  8
1_FORMATIVE
 10
530.01561791588881
 20
9830.4247513028513
 30
0.044
  0
VERTEX
  5
D55
  8
1_FORMATIVE
 10
530.00980397178682
 20
9830.4503104980995
 30
0.044
  0
SEQEND
  5
D56
  8
1_FORMATIVE
  0
POLYLINE
  5
F4
  8
1_FORMATIVE
 66
     1
 10
0.0
 20
0.0
 30
0.075
 70
     1
  0
VERTEX
  5
D57
  8
1_FORMATIVE
 10
531.50161119303914
 20
9830.008110410341
 30
0.075
  0
VERTEX
  5
D58
  8
1_FORMATIVE
 10
531.5042723071947
 20
9829.9945256682404
 30
0.075
  0
VERTEX
  5
D59
  8
1_FORMATIVE
 10
531.51631979202091
 20
9829.9938922393085
 30
0.075
  0
VERTEX
  5
D5A
  8
1_FORMATIVE
 10
531.5266767958409
 20
9829.9950648147969
 30
0.075
  0
VERTEX
  5
D5B
  8
1_FORMATIVE
 10
531.53659564531131
 20
9830.0018983868777
 30
0.075
  0
VERTEX
  5
D5C
  8
1_FORMATIVE
 10
531.53659564531131
 20
9830.0155654747396
 30
0.075
  0
VERTEX
  5
D5D
  8
1_FORMATIVE
 10
531.52257240240999
 20
9830.0329910483597
 30
0.075
  0
VERTEX
  5
D5E
  8
1_FORMATIVE
 10
531.50854915950879
 20
9830.0292325907576
 30
0.075
  0
VERTEX
  5
D5F
  8
1_FORMATIVE
 10
531.50300417447329
 20
9830.0154286540874
 30
0.075
  0
SEQEND
  5
D60
  8
1_FORMATIVE
  0
POLYLINE
  5
F5
  8
1_FORMATIVE
 66
     1
 10
0.0
 20
0.0
 30
0.1
 70
     1
  0
VERTEX
  5
D61
  8
1_FORMATIVE
 10
530.50488011938728
 20
9833.456137251429
 30
0.1
  0
VERTEX
  5
D62
  8
1_FORMATIVE
 10
530.51810902755233
 20
9833.4614233707089
 30
0.1
  0
VERTEX
  5
D63
  8
1_FORMATIVE
 10
530.52736926966702
 20
9833.4759601705682
 30
0.1
  0
VERTEX
  5
D64
  8
1_FORMATIVE
 10
530.52207769360257
 20
9833.4878539107922
 30
0.1
  0
VERTEX
  5
D65
  8
1_FORMATIVE
 10
530.50884878543764
 20
9833.5023907388095
 30
0.1
  0
VERTEX
  5
D66
  8
1_FORMATIVE
 10
530.48106805909345
 20
9833.5076768299314
 30
0.1
  0
VERTEX
  5
D67
  8
1_FORMATIVE
 10
530.46122466485008
 20
9833.4878539107922
 30
0.1
  0
VERTEX
  5
D68
  8
1_FORMATIVE
 10
530.45461017877153
 20
9833.4759601705682
 30
0.1
  0
VERTEX
  5
D69
  8
1_FORMATIVE
 10
530.47974514907935
 20
9833.456137251429
 30
0.1
  0
SEQEND
  5
D6A
  8
1_FORMATIVE
  0
POLYLINE
  5
F6
  8
1_FORMATIVE
 66
     1
 10
0.0
 20
0.0
 30
0.025
 70
     1
  0
VERTEX
  5
D6B
  8
1_FORMATIVE
 10
530.66036540074072
 20
9833.3730683677641
 30
0.025
  0
VERTEX
  5
D6C
  8
1_FORMATIVE
 10
530.66991328763402
 20
9833.3810167466163
 30
0.025
  0
VERTEX
  5
D6D
  8
1_FORMATIVE
 10
530.67150464477766
 20
9833.3937341415203
 30
0.025
  0
VERTEX
  5
D6E
  8
1_FORMATIVE
 10
530.6651393441872
 20
9833.4159895966732
 30
0.025
  0
VERTEX
  5
D6F
  8
1_FORMATIVE
 10
530.64604357040025
 20
9833.4223482941234
 30
0.025
  0
VERTEX
  5
D70
  8
1_FORMATIVE
 10
530.61103460912898
 20
9833.4271173101715
 30
0.025
  0
VERTEX
  5
D71
  8
1_FORMATIVE
 10
530.59491191129905
 20
9833.4341168124847
 30
0.025
  0
VERTEX
  5
D72
  8
1_FORMATIVE
 10
530.58716489189521
 20
9833.4159895966732
 30
0.025
  0
VERTEX
  5
D73
  8
1_FORMATIVE
 10
530.58716489189521
 20
9833.3905548068687
 30
0.025
  0
VERTEX
  5
D74
  8
1_FORMATIVE
 10
530.61262596627284
 20
9833.3778374119665
 30
0.025
  0
VERTEX
  5
D75
  8
1_FORMATIVE
 10
530.64445227724866
 20
9833.3698890331143
 30
0.025
  0
SEQEND
  5
D76
  8
1_FORMATIVE
  0
POLYLINE
  5
F7
  8
1_FORMATIVE
 66
     1
 10
0.0
 20
0.0
 30
0.011
 70
     1
  0
VERTEX
  5
D77
  8
1_FORMATIVE
 10
530.92999971293125
 20
9833.3087530062894
 30
0.011
  0
VERTEX
  5
D78
  8
1_FORMATIVE
 10
530.95517966973046
 20
9833.3150415198143
 30
0.011
  0
VERTEX
  5
D79
  8
1_FORMATIVE
 10
530.966195920828
 20
9833.3386233751553
 30
0.011
  0
VERTEX
  5
D7A
  8
1_FORMATIVE
 10
530.96014610160785
 20
9833.3641704648708
 30
0.011
  0
VERTEX
  5
D7B
  8
1_FORMATIVE
 10
530.94101596402845
 20
9833.3763543718451
 30
0.011
  0
VERTEX
  5
D7C
  8
1_FORMATIVE
 10
530.91111472933335
 20
9833.3779264861532
 30
0.011
  0
VERTEX
  5
D7D
  8
1_FORMATIVE
 10
530.89852471893755
 20
9833.3464840029847
 30
0.011
  0
VERTEX
  5
D7E
  8
1_FORMATIVE
 10
530.90009847823615
 20
9833.3118972630509
 30
0.011
  0
VERTEX
  5
D7F
  8
1_FORMATIVE
 10
530.91111472933335
 20
9833.3103251205921
 30
0.011
  0
SEQEND
  5
D80
  8
1_FORMATIVE
  0
POLYLINE
  5
F8
  8
1_FORMATIVE
 66
     1
 10
0.0
 20
0.0
 30
0.08
 70
     1
  0
VERTEX
  5
D81
  8
1_FORMATIVE
 10
532.81483292148084
 20
9830.5297035795938
 30
0.08
  0
VERTEX
  5
D82
  8
1_FORMATIVE
 10
532.79822996245696
 20
9830.5001375099873
 30
0.08
  0
VERTEX
  5
D83
  8
1_FORMATIVE
 10
532.78162693944114
 20
9830.4900417507488
 30
0.08
  0
VERTEX
  5
D84
  8
1_FORMATIVE
 10
532.76863333046447
 20
9830.4979741390398
 30
0.08
  0
VERTEX
  5
D85
  8
1_FORMATIVE
 10
532.7520303714407
 20
9830.5087909937756
 30
0.08
  0
VERTEX
  5
D86
  8
1_FORMATIVE
 10
532.73181799837744
 20
9830.5297035795938
 30
0.08
  0
VERTEX
  5
D87
  8
1_FORMATIVE
 10
532.7173806621804
 20
9830.5448472043718
 30
0.08
  0
VERTEX
  5
D88
  8
1_FORMATIVE
 10
532.69870800458398
 20
9830.5495434746281
 30
0.08
  0
VERTEX
  5
D89
  8
1_FORMATIVE
 10
532.70733178063165
 20
9830.5990656805188
 30
0.08
  0
VERTEX
  5
D8A
  8
1_FORMATIVE
 10
532.71534084794871
 20
9830.5995646535994
 30
0.08
  0
VERTEX
  5
D8B
  8
1_FORMATIVE
 10
532.73614924403103
 20
9830.5996526298404
 30
0.08
  0
VERTEX
  5
D8C
  8
1_FORMATIVE
 10
532.7621365259763
 20
9830.5902780224042
 30
0.08
  0
VERTEX
  5
D8D
  8
1_FORMATIVE
 10
532.78379256226765
 20
9830.5722499030289
 30
0.08
  0
VERTEX
  5
D8E
  8
1_FORMATIVE
 10
532.81411102587435
 20
9830.5333091978355
 30
0.08
  0
SEQEND
  5
D8F
  8
1_FORMATIVE
  0
POLYLINE
  5
F9
  8
1_FORMATIVE
 66
     1
 10
0.0
 20
0.0
 30
0.025
 70
     1
  0
VERTEX
  5
D90
  8
1_FORMATIVE
 10
531.76184419221329
 20
9832.8027157567485
 30
0.025
  0
VERTEX
  5
D91
  8
1_FORMATIVE
 10
531.78992467429055
 20
9832.8010656786082
 30
0.025
  0
VERTEX
  5
D92
  8
1_FORMATIVE
 10
531.80479082302986
 20
9832.8126162812641
 30
0.025
  0
VERTEX
  5
D93
  8
1_FORMATIVE
 10
531.80809439054121
 20
9832.8291172018671
 30
0.025
  0
VERTEX
  5
D94
  8
1_FORMATIVE
 10
531.80809439054121
 20
9832.8472681727635
 30
0.025
  0
VERTEX
  5
D95
  8
1_FORMATIVE
 10
531.80313900762815
 20
9832.8670692496435
 30
0.025
  0
VERTEX
  5
D96
  8
1_FORMATIVE
 10
531.7915764896926
 20
9832.8753196960242
 30
0.025
  0
VERTEX
  5
D97
  8
1_FORMATIVE
 10
531.76679957512636
 20
9832.8769697741627
 30
0.025
  0
VERTEX
  5
D98
  8
1_FORMATIVE
 10
531.7535852417891
 20
9832.8687193277856
 30
0.025
  0
VERTEX
  5
D99
  8
1_FORMATIVE
 10
531.74367447596251
 20
9832.8489182509056
 30
0.025
  0
VERTEX
  5
D9A
  8
1_FORMATIVE
 10
531.74862985887592
 20
9832.8142663872459
 30
0.025
  0
SEQEND
  5
D9B
  8
1_FORMATIVE
  0
POLYLINE
  5
FA
  8
1_FORMATIVE
 66
     1
 10
0.0
 20
0.0
 30
0.005
 70
     1
  0
VERTEX
  5
D9C
  8
1_FORMATIVE
 10
531.78241460423374
 20
9834.2458545214267
 30
0.005
  0
VERTEX
  5
D9D
  8
1_FORMATIVE
 10
531.78489549197661
 20
9834.2541156601783
 30
0.005
  0
VERTEX
  5
D9E
  8
1_FORMATIVE
 10
531.79399212256203
 20
9834.2632028961016
 30
0.005
  0
VERTEX
  5
D9F
  8
1_FORMATIVE
 10
531.80060786540491
 20
9834.278072951427
 30
0.005
  0
VERTEX
  5
DA0
  8
1_FORMATIVE
 10
531.80308875314768
 20
9834.2879863123562
 30
0.005
  0
VERTEX
  5
DA1
  8
1_FORMATIVE
 10
531.80308875314768
 20
9834.3028563398348
 30
0.005
  0
VERTEX
  5
DA2
  8
1_FORMATIVE
 10
531.79481910624077
 20
9834.3119436035995
 30
0.005
  0
VERTEX
  5
DA3
  8
1_FORMATIVE
 10
531.78241460423374
 20
9834.3193786173397
 30
0.005
  0
VERTEX
  5
DA4
  8
1_FORMATIVE
 10
531.76752921448417
 20
9834.3127697007676
 30
0.005
  0
VERTEX
  5
DA5
  8
1_FORMATIVE
 10
531.75098985737725
 20
9834.3012041176535
 30
0.005
  0
VERTEX
  5
DA6
  8
1_FORMATIVE
 10
531.74272021047045
 20
9834.2855079651599
 30
0.005
  0
VERTEX
  5
DA7
  8
1_FORMATIVE
 10
531.73901618943614
 20
9834.2666114518724
 30
0.005
  0
VERTEX
  5
DA8
  8
1_FORMATIVE
 10
531.73445056356354
 20
9834.2532895351633
 30
0.005
  0
VERTEX
  5
DA9
  8
1_FORMATIVE
 10
531.74768198595621
 20
9834.2417239520491
 30
0.005
  0
VERTEX
  5
DAA
  8
1_FORMATIVE
 10
531.76174045532025
 20
9834.2417239520491
 30
0.005
  0
VERTEX
  5
DAB
  8
1_FORMATIVE
 10
531.77414489403395
 20
9834.2408978548847
 30
0.005
  0
SEQEND
  5
DAC
  8
1_FORMATIVE
  0
POLYLINE
  5
FB
  8
1_FORMATIVE
 66
     1
 10
0.0
 20
0.0
 30
0.01
 70
     1
  0
VERTEX
  5
DAD
  8
1_FORMATIVE
 10
531.65816381928391
 20
9834.2282169514874
 30
0.01
  0
VERTEX
  5
DAE
  8
1_FORMATIVE
 10
531.65091230030066
 20
9834.2456026659274
 30
0.01
  0
VERTEX
  5
DAF
  8
1_FORMATIVE
 10
531.64946194586992
 20
9834.2499490875798
 30
0.01
  0
VERTEX
  5
DB0
  8
1_FORMATIVE
 10
531.63205832562755
 20
9834.2528466927288
 30
0.01
  0
VERTEX
  5
DB1
  8
1_FORMATIVE
 10
531.61755528766128
 20
9834.2513978762308
 30
0.01
  0
VERTEX
  5
DB2
  8
1_FORMATIVE
 10
531.5958006674191
 20
9834.2427050329334
 30
0.01
  0
VERTEX
  5
DB3
  8
1_FORMATIVE
 10
531.58999950286682
 20
9834.2224217133426
 30
0.01
  0
VERTEX
  5
DB4
  8
1_FORMATIVE
 10
531.58999950286682
 20
9834.2021383937426
 30
0.01
  0
VERTEX
  5
DB5
  8
1_FORMATIVE
 10
531.59290008514267
 20
9834.1934455504488
 30
0.01
  0
VERTEX
  5
DB6
  8
1_FORMATIVE
 10
531.63640919904174
 20
9834.1890991009532
 30
0.01
  0
VERTEX
  5
DB7
  8
1_FORMATIVE
 10
531.65351673558234
 20
9834.2023546915316
 30
0.01
  0
VERTEX
  5
DB8
  8
1_FORMATIVE
 10
531.65772646606035
 20
9834.2170734943338
 30
0.01
  0
SEQEND
  5
DB9
  8
1_FORMATIVE
  0
POLYLINE
  5
FC
  8
1_FORMATIVE
 66
     1
 10
0.0
 20
0.0
 30
0.036
 70
     1
  0
VERTEX
  5
DBA
  8
1_FORMATIVE
 10
531.44025222754794
 20
9832.9688283655214
 30
0.036
  0
VERTEX
  5
DBB
  8
1_FORMATIVE
 10
531.45124403433795
 20
9832.9684374256449
 30
0.036
  0
VERTEX
  5
DBC
  8
1_FORMATIVE
 10
531.46111416618885
 20
9832.9627726400158
 30
0.036
  0
VERTEX
  5
DBD
  8
1_FORMATIVE
 10
531.46588156949679
 20
9832.9535878640381
 30
0.036
  0
VERTEX
  5
DBE
  8
1_FORMATIVE
 10
531.46622208474162
 20
9832.9297755045645
 30
0.036
  0
VERTEX
  5
DBF
  8
1_FORMATIVE
 10
531.45615390973035
 20
9832.9135034675619
 30
0.036
  0
VERTEX
  5
DC0
  8
1_FORMATIVE
 10
531.43898402978516
 20
9832.9013201771704
 30
0.036
  0
VERTEX
  5
DC1
  8
1_FORMATIVE
 10
531.42204421915551
 20
9832.9034354570522
 30
0.036
  0
VERTEX
  5
DC2
  8
1_FORMATIVE
 10
531.41357431384051
 20
9832.9169733374129
 30
0.036
  0
VERTEX
  5
DC3
  8
1_FORMATIVE
 10
531.41018637703155
 20
9832.9343187048562
 30
0.036
  0
VERTEX
  5
DC4
  8
1_FORMATIVE
 10
531.41247529772272
 20
9832.9480171935593
 30
0.036
  0
VERTEX
  5
DC5
  8
1_FORMATIVE
 10
531.42068215817551
 20
9832.9631525812256
 30
0.036
  0
VERTEX
  5
DC6
  8
1_FORMATIVE
 10
531.43204536709516
 20
9832.9669364281417
 30
0.036
  0
SEQEND
  5
DC7
  8
1_FORMATIVE
  0
POLYLINE
  5
FD
  8
1_FORMATIVE
 66
     1
 10
0.0
 20
0.0
 30
0.035
 70
     1
  0
VERTEX
  5
DC8
  8
1_FORMATIVE
 10
530.48875159827003
 20
9829.5976623413608
 30
0.035
  0
VERTEX
  5
DC9
  8
1_FORMATIVE
 10
530.52477342751877
 20
9829.599865491642
 30
0.035
  0
VERTEX
  5
DCA
  8
1_FORMATIVE
 10
530.54021134519803
 20
9829.6094124480514
 30
0.035
  0
VERTEX
  5
DCB
  8
1_FORMATIVE
 10
530.54094648718251
 20
9829.6270375940167
 30
0.035
  0
VERTEX
  5
DCC
  8
1_FORMATIVE
 10
530.5344523703651
 20
9829.6476687121685
 30
0.035
  0
VERTEX
  5
DCD
  8
1_FORMATIVE
 10
530.51954098021452
 20
9829.6554405473416
 30
0.035
  0
VERTEX
  5
DCE
  8
1_FORMATIVE
 10
530.49620143806249
 20
9829.6586788049608
 30
0.035
  0
VERTEX
  5
DCF
  8
1_FORMATIVE
 10
530.47058332691347
 20
9829.6483601913442
 30
0.035
  0
VERTEX
  5
DD0
  8
1_FORMATIVE
 10
530.46662867514738
 20
9829.6286074842828
 30
0.035
  0
VERTEX
  5
DD1
  8
1_FORMATIVE
 10
530.4679469137335
 20
9829.6101716055891
 30
0.035
  0
VERTEX
  5
DD2
  8
1_FORMATIVE
 10
530.48112897963415
 20
9829.5996368378765
 30
0.035
  0
SEQEND
  5
DD3
  8
1_FORMATIVE
  0
ENDSEC
  0
EOF
