  0
SECTION
  2
HEADER
  9
$ACADVER
  1
AC1009
  9
$INSBASE
 10
0.0
 20
0.0
 30
0.0
  9
$EXTMIN
 10
550042.56241691113
 20
881237.16930222511
 30
0.0
  9
$EXTMAX
 10
550715.56241679203
 20
881879.40192747128
 30
1.0
  9
$LIMMIN
 10
0.0
 20
0.0
  9
$LIMMAX
 10
12.0
 20
9.0
  9
$ORTHOMODE
 70
     0
  9
$REGENMODE
 70
     1
  9
$FILLMODE
 70
     1
  9
$QTEXTMODE
 70
     0
  9
$MIRRTEXT
 70
     0
  9
$DRAGMODE
 70
     2
  9
$LTSCALE
 40
1.0
  9
$OSMODE
 70
   555
  9
$ATTMODE
 70
     1
  9
$TEXTSIZE
 40
0.35
  9
$TRACEWID
 40
0.05
  9
$TEXTSTYLE
  7
STANDARD
  9
$CLAYER
  8
DATUMS
  9
$CELTYPE
  6
BYLAYER
  9
$CECOLOR
 62
   256
  9
$DIMSCALE
 40
1.0
  9
$DIMASZ
 40
0.18
  9
$DIMEXO
 40
0.0625
  9
$DIMDLI
 40
0.38
  9
$DIMRND
 40
0.0
  9
$DIMDLE
 40
0.0
  9
$DIMEXE
 40
0.18
  9
$DIMTP
 40
0.0
  9
$DIMTM
 40
0.0
  9
$DIMTXT
 40
0.18
  9
$DIMCEN
 40
0.09
  9
$DIMTSZ
 40
0.0
  9
$DIMTOL
 70
     0
  9
$DIMLIM
 70
     0
  9
$DIMTIH
 70
     1
  9
$DIMTOH
 70
     1
  9
$DIMSE1
 70
     0
  9
$DIMSE2
 70
     0
  9
$DIMTAD
 70
     0
  9
$DIMZIN
 70
     0
  9
$DIMBLK
  1

  9
$DIMASO
 70
     1
  9
$DIMSHO
 70
     1
  9
$DIMPOST
  1

  9
$DIMAPOST
  1

  9
$DIMALT
 70
     0
  9
$DIMALTD
 70
     2
  9
$DIMALTF
 40
25.399999999999999
  9
$DIMLFAC
 40
1.0
  9
$DIMTOFL
 70
     0
  9
$DIMTVP
 40
0.0
  9
$DIMTIX
 70
     0
  9
$DIMSOXD
 70
     0
  9
$DIMSAH
 70
     0
  9
$DIMBLK1
  1

  9
$DIMBLK2
  1

  9
$DIMSTYLE
  2
STANDARD
  9
$DIMCLRD
 70
     0
  9
$DIMCLRE
 70
     0
  9
$DIMCLRT
 70
     0
  9
$DIMTFAC
 40
1.0
  9
$DIMGAP
 40
0.09
  9
$LUNITS
 70
     2
  9
$LUPREC
 70
     4
  9
$SKETCHINC
 40
0.1
  9
$FILLETRAD
 40
0.0
  9
$AUNITS
 70
     0
  9
$AUPREC
 70
     0
  9
$MENU
  1
.
  9
$ELEVATION
 40
0.0
  9
$PELEVATION
 40
0.0
  9
$THICKNESS
 40
0.0
  9
$LIMCHECK
 70
     0
  9
$BLIPMODE
 70
     0
  9
$CHAMFERA
 40
0.0
  9
$CHAMFERB
 40
0.0
  9
$SKPOLY
 70
     0
  9
$TDCREATE
 40
2455441.4801083561
  9
$TDUPDATE
 40
2455443.6101991078
  9
$TDINDWG
 40
0.2218793403
  9
$TDUSRTIMER
 40
0.2218790509
  9
$USRTIMER
 70
     1
  9
$ANGBASE
 50
0.0
  9
$ANGDIR
 70
     0
  9
$PDMODE
 70
     0
  9
$PDSIZE
 40
0.0
  9
$PLINEWID
 40
0.0
  9
$COORDS
 70
     1
  9
$SPLFRAME
 70
     0
  9
$SPLINETYPE
 70
     6
  9
$SPLINESEGS
 70
     8
  9
$ATTDIA
 70
     0
  9
$ATTREQ
 70
     1
  9
$HANDLING
 70
 22529
  9
$HANDSEED
  5
B0F
  9
$SURFTAB1
 70
     6
  9
$SURFTAB2
 70
     6
  9
$SURFTYPE
 70
     6
  9
$SURFU
 70
     6
  9
$SURFV
 70
     6
  9
$UCSNAME
  2

  9
$UCSORG
 10
0.0
 20
0.0
 30
0.0
  9
$UCSXDIR
 10
1.0
 20
0.0
 30
0.0
  9
$UCSYDIR
 10
0.0
 20
1.0
 30
0.0
  9
$PUCSNAME
  2

  9
$PUCSORG
 10
0.0
 20
0.0
 30
0.0
  9
$PUCSXDIR
 10
1.0
 20
0.0
 30
0.0
  9
$PUCSYDIR
 10
0.0
 20
1.0
 30
0.0
  9
$USERI1
 70
     0
  9
$USERI2
 70
     0
  9
$USERI3
 70
     0
  9
$USERI4
 70
     0
  9
$USERI5
 70
     0
  9
$USERR1
 40
0.0
  9
$USERR2
 40
0.0
  9
$USERR3
 40
0.0
  9
$USERR4
 40
0.0
  9
$USERR5
 40
0.0
  9
$WORLDVIEW
 70
     1
  9
$SHADEDGE
 70
     3
  9
$SHADEDIF
 70
    70
  9
$TILEMODE
 70
     1
  9
$MAXACTVP
 70
    64
  9
$PLIMCHECK
 70
     0
  9
$PEXTMIN
 10
0.0
 20
0.0
 30
0.0
  9
$PEXTMAX
 10
0.0
 20
0.0
 30
0.0
  9
$PLIMMIN
 10
0.0
 20
0.0
  9
$PLIMMAX
 10
12.0
 20
9.0
  9
$UNITMODE
 70
     0
  9
$VISRETAIN
 70
     1
  9
$PLINEGEN
 70
     0
  9
$PSLTSCALE
 70
     1
  0
ENDSEC
  0
SECTION
  2
TABLES
  0
TABLE
  2
VPORT
 70
     1
  0
VPORT
  2
*ACTIVE
 70
     0
 10
0.0
 20
0.0
 11
1.0
 21
1.0
 12
550352.81713058217
 22
881568.65634592925
 13
0.0
 23
0.0
 14
0.5
 24
0.5
 15
0.5
 25
0.5
 16
0.0
 26
0.0
 36
1.0
 17
0.0
 27
0.0
 37
0.0
 40
905.6997090680095
 41
1.2877059569074769
 42
50.0
 43
0.0
 44
0.0
 50
0.0
 51
0.0
 71
     0
 72
  1000
 73
     1
 74
     2
 75
     0
 76
     0
 77
     0
 78
     0
  0
ENDTAB
  0
TABLE
  2
LTYPE
 70
     2
  0
LTYPE
  2
CONTINUOUS
 70
     0
  3
Solid line
 72
    65
 73
     0
 40
0.0
  0
LTYPE
  2
ACAD_ISO02W100
 70
     0
  3
ISO dash __ __ __ __ __ __ __ __ __ __ __ __ __
 72
    65
 73
     2
 40
15.0
 49
12.0
 49
-3.0
  0
ENDTAB
  0
TABLE
  2
LAYER
 70
    11
  0
LAYER
  2
0
 70
     0
 62
    -7
  6
CONTINUOUS
  0
LAYER
  2
SITE_BOUNDARY
 70
     0
 62
     2
  6
CONTINUOUS
  0
LAYER
  2
UNIT_LABELS
 70
     0
 62
     7
  6
CONTINUOUS
  0
LAYER
  2
MIDDEN_LABELS
 70
     0
 62
     7
  6
CONTINUOUS
  0
LAYER
  2
UNITS
 70
     0
 62
     5
  6
CONTINUOUS
  0
LAYER
  2
MONTE_AND_TREES
 70
     0
 62
     3
  6
ACAD_ISO02W100
  0
LAYER
  2
CONTOUR_LINES_30CM
 70
     0
 62
   252
  6
CONTINUOUS
  0
LAYER
  2
MOUNDED_CEMENTERY
 70
     0
 62
     4
  6
CONTINUOUS
  0
LAYER
  2
LOOTING
 70
     0
 62
     1
  6
CONTINUOUS
  0
LAYER
  2
DISTURBED_AREA
 70
     0
 62
     1
  6
CONTINUOUS
  0
LAYER
  2
DATUMS
 70
     0
 62
     6
  6
CONTINUOUS
  0
ENDTAB
  0
TABLE
  2
STYLE
 70
     1
  0
STYLE
  2
STANDARD
 70
     0
 40
0.35
 41
1.0
 50
0.0
 71
     0
 42
0.35
  3
txt
  4

  0
ENDTAB
  0
TABLE
  2
VIEW
 70
     0
  0
ENDTAB
  0
TABLE
  2
UCS
 70
     0
  0
ENDTAB
  0
TABLE
  2
APPID
 70
     3
  0
APPID
  2
ACAD
 70
     0
  0
APPID
  2
ACAECLAYERSTANDARD
 70
     0
  0
APPID
  2
ADE
 70
     0
  0
ENDTAB
  0
TABLE
  2
DIMSTYLE
 70
     1
  0
DIMSTYLE
  2
STANDARD
 70
     0
  3

  4

  5

  6

  7

 40
1.0
 41
0.18
 42
0.0625
 43
0.38
 44
0.18
 45
0.0
 46
0.0
 47
0.0
 48
0.0
140
0.18
141
0.09
142
0.0
143
25.399999999999999
144
1.0
145
0.0
146
1.0
147
0.09
 71
     0
 72
     0
 73
     1
 74
     1
 75
     0
 76
     0
 77
     0
 78
     0
170
     0
171
     2
172
     0
173
     0
174
     0
175
     0
176
     0
177
     0
178
     0
  0
ENDTAB
  0
ENDSEC
  0
SECTION
  2
BLOCKS
  0
BLOCK
  8
0
  2
$MODEL_SPACE
 70
     0
 10
0.0
 20
0.0
 30
0.0
  3
$MODEL_SPACE
  1

  0
ENDBLK
  5
A
  8
0
  0
BLOCK
 67
     1
  8
0
  2
$PAPER_SPACE
 70
     0
 10
0.0
 20
0.0
 30
0.0
  3
$PAPER_SPACE
  1

  0
ENDBLK
  5
11
 67
     1
  8
0
  0
BLOCK
  8
0
  2
A$C38E210CB
 70
     0
 10
0.0
 20
0.0
 30
0.0
  3
A$C38E210CB
  1

  0
POLYLINE
  5
31
  8
DATUMS
 66
     1
 10
0.0
 20
0.0
 30
0.0
 70
     1
  0
VERTEX
  5
EE
  8
DATUMS
 10
0.0011687523219734
 20
0.392399896401912
 30
0.0
  0
VERTEX
  5
EF
  8
DATUMS
 10
-0.279016911634244
 20
-0.1845430363900959
 30
0.0
  0
VERTEX
  5
F0
  8
DATUMS
 10
0.2960603416431695
 20
-0.1858708014478907
 30
0.0
  0
SEQEND
  5
F1
  8
DATUMS
  0
ENDBLK
  5
33
  8
0
  0
ENDSEC
  0
SECTION
  2
ENTITIES
  0
TEXT
  5
2D
  8
MIDDEN_LABELS
 10
550300.23805165756
 20
881485.56080521538
 30
0.0
 40
0.5
  1
Midden
  0
INSERT
  5
2F
  8
DATUMS
  2
A$C38E210CB
 10
550516.38318646501
 20
881574.42015944712
 30
0.0
  0
INSERT
  5
34
  8
DATUMS
  2
A$C38E210CB
 10
550487.04924048146
 20
881461.48928794765
 30
0.0
  0
INSERT
  5
35
  8
DATUMS
  2
A$C38E210CB
 10
550444.98738252872
 20
881458.32245045959
 30
0.0
  0
INSERT
  5
36
  8
DATUMS
  2
A$C38E210CB
 10
550436.07182153827
 20
881459.43090241577
 30
0.0
  0
INSERT
  5
37
  8
DATUMS
  2
A$C38E210CB
 10
550540.4504357439
 20
881294.65773129195
 30
0.0
  0
POLYLINE
  5
38
  8
DISTURBED_AREA
 66
     1
 10
0.0
 20
0.0
 30
0.0
 70
     1
  0
VERTEX
  5
F2
  8
DISTURBED_AREA
 10
550501.44948023814
 20
881289.16607336153
 30
0.0
  0
VERTEX
  5
F3
  8
DISTURBED_AREA
 10
550502.55992822186
 20
881290.2466257941
 30
0.0
  0
VERTEX
  5
F4
  8
DISTURBED_AREA
 10
550502.55992822186
 20
881290.2466257941
 30
0.0
  0
VERTEX
  5
F5
  8
DISTURBED_AREA
 10
550504.00230565132
 20
881291.65017144661
 30
0.0
  0
VERTEX
  5
F6
  8
DISTURBED_AREA
 10
550504.9598267565
 20
881292.58191410778
 30
0.0
  0
VERTEX
  5
F7
  8
DISTURBED_AREA
 10
550505.82478010841
 20
881293.42358113057
 30
0.0
  0
VERTEX
  5
F8
  8
DISTURBED_AREA
 10
550507.09512573679
 20
881294.65972643346
 30
0.0
  0
VERTEX
  5
F9
  8
DISTURBED_AREA
 10
550508.17443108733
 20
881295.70997465646
 30
0.0
  0
VERTEX
  5
FA
  8
DISTURBED_AREA
 10
550508.89979108481
 20
881296.4432842019
 30
0.0
  0
VERTEX
  5
FB
  8
DISTURBED_AREA
 10
550509.77329425293
 20
881297.39488240494
 30
0.0
  0
VERTEX
  5
FC
  8
DISTURBED_AREA
 10
550511.00838790985
 20
881298.62997606164
 30
0.0
  0
VERTEX
  5
FD
  8
DISTURBED_AREA
 10
550512.45551662217
 20
881300.07710477407
 30
0.0
  0
VERTEX
  5
FE
  8
DISTURBED_AREA
 10
550513.44328287314
 20
881301.15505099902
 30
0.0
  0
VERTEX
  5
FF
  8
DISTURBED_AREA
 10
550514.07363276288
 20
881301.80874683906
 30
0.0
  0
VERTEX
  5
100
  8
DISTURBED_AREA
 10
550514.8494300961
 20
881302.471018248
 30
0.0
  0
VERTEX
  5
101
  8
DISTURBED_AREA
 10
550515.65982716845
 20
881302.7480839073
 30
0.0
  0
VERTEX
  5
102
  8
DISTURBED_AREA
 10
550516.26301482052
 20
881302.78470279335
 30
0.0
  0
VERTEX
  5
103
  8
DISTURBED_AREA
 10
550517.86416146427
 20
881302.82521650894
 30
0.0
  0
VERTEX
  5
104
  8
DISTURBED_AREA
 10
550518.99259657227
 20
881302.49246745964
 30
0.0
  0
VERTEX
  5
105
  8
DISTURBED_AREA
 10
550520.12103168026
 20
881302.15971841023
 30
0.0
  0
VERTEX
  5
106
  8
DISTURBED_AREA
 10
550521.22605208377
 20
881301.15309589775
 30
0.0
  0
VERTEX
  5
107
  8
DISTURBED_AREA
 10
550521.82485799911
 20
881300.60761138611
 30
0.0
  0
VERTEX
  5
108
  8
DISTURBED_AREA
 10
550522.88358271262
 20
881299.20479425625
 30
0.0
  0
VERTEX
  5
109
  8
DISTURBED_AREA
 10
550523.43609293818
 20
881298.26311512745
 30
0.0
  0
VERTEX
  5
10A
  8
DISTURBED_AREA
 10
550523.82938184845
 20
881297.30883437651
 30
0.0
  0
VERTEX
  5
10B
  8
DISTURBED_AREA
 10
550524.34526365669
 20
881296.05694923177
 30
0.0
  0
VERTEX
  5
10C
  8
DISTURBED_AREA
 10
550524.34610969061
 20
881296.05503997626
 30
0.0
  0
VERTEX
  5
10D
  8
DISTURBED_AREA
 10
550525.34297057847
 20
881293.80541147571
 30
0.0
  0
VERTEX
  5
10E
  8
DISTURBED_AREA
 10
550525.42431438377
 20
881293.600466053
 30
0.0
  0
VERTEX
  5
10F
  8
DISTURBED_AREA
 10
550525.85829525499
 20
881292.50705282146
 30
0.0
  0
VERTEX
  5
110
  8
DISTURBED_AREA
 10
550526.69677238958
 20
881291.33739015285
 30
0.0
  0
VERTEX
  5
111
  8
DISTURBED_AREA
 10
550527.56110734784
 20
881290.19015416852
 30
0.0
  0
VERTEX
  5
112
  8
DISTURBED_AREA
 10
550528.18507041491
 20
881289.29015427222
 30
0.0
  0
VERTEX
  5
113
  8
DISTURBED_AREA
 10
550528.4794284089
 20
881288.64087743429
 30
0.0
  0
VERTEX
  5
114
  8
DISTURBED_AREA
 10
550528.99690555315
 20
881287.35164634825
 30
0.0
  0
VERTEX
  5
115
  8
DISTURBED_AREA
 10
550529.32633022103
 20
881286.26288905332
 30
0.0
  0
VERTEX
  5
116
  8
DISTURBED_AREA
 10
550528.69333885529
 20
881286.26288880676
 30
0.0
  0
VERTEX
  5
117
  8
DISTURBED_AREA
 10
550527.09619275655
 20
881286.43350966112
 30
0.0
  0
VERTEX
  5
118
  8
DISTURBED_AREA
 10
550524.36329081876
 20
881285.99765055557
 30
0.0
  0
VERTEX
  5
119
  8
DISTURBED_AREA
 10
550523.39003799646
 20
881286.26288880687
 30
0.0
  0
VERTEX
  5
11A
  8
DISTURBED_AREA
 10
550520.67425185838
 20
881285.99765055557
 30
0.0
  0
VERTEX
  5
11B
  8
DISTURBED_AREA
 10
550518.08673713752
 20
881286.26288880676
 30
0.0
  0
VERTEX
  5
11C
  8
DISTURBED_AREA
 10
550516.31897018466
 20
881286.26288880676
 30
0.0
  0
VERTEX
  5
11D
  8
DISTURBED_AREA
 10
550512.7834362787
 20
881286.26288880676
 30
0.0
  0
VERTEX
  5
11E
  8
DISTURBED_AREA
 10
550511.01566932572
 20
881286.26288880676
 30
0.0
  0
VERTEX
  5
11F
  8
DISTURBED_AREA
 10
550507.67793933535
 20
881286.46069272235
 30
0.0
  0
VERTEX
  5
120
  8
DISTURBED_AREA
 10
550505.71236846677
 20
881286.26288880676
 30
0.0
  0
VERTEX
  5
121
  8
DISTURBED_AREA
 10
550503.94460151379
 20
881286.26288880676
 30
0.0
  0
VERTEX
  5
122
  8
DISTURBED_AREA
 10
550503.08037717245
 20
881285.95036820089
 30
0.0
  0
VERTEX
  5
123
  8
DISTURBED_AREA
 10
550502.17683456105
 20
881286.26288880676
 30
0.0
  0
VERTEX
  5
124
  8
DISTURBED_AREA
 10
550501.42503972468
 20
881286.94329011824
 30
0.0
  0
VERTEX
  5
125
  8
DISTURBED_AREA
 10
550501.1412676461
 20
881287.8889296808
 30
0.0
  0
SEQEND
  5
126
  8
DISTURBED_AREA
  0
POLYLINE
  5
3A
  8
LOOTING
 66
     1
 10
0.0
 20
0.0
 30
0.0
 70
     1
  0
VERTEX
  5
127
  8
LOOTING
 10
550503.33979511203
 20
881587.34815149964
 30
0.0
  0
VERTEX
  5
128
  8
LOOTING
 10
550503.48220609815
 20
881587.41292063205
 30
0.0
  0
VERTEX
  5
129
  8
LOOTING
 10
550503.56989156234
 20
881587.43220884167
 30
0.0
  0
VERTEX
  5
12A
  8
LOOTING
 10
550503.72107245144
 20
881587.4338299433
 30
0.0
  0
VERTEX
  5
12B
  8
LOOTING
 10
550503.72107245144
 20
881587.4338299433
 30
0.0
  0
VERTEX
  5
12C
  8
LOOTING
 10
550503.95211109554
 20
881587.35520810273
 30
0.0
  0
VERTEX
  5
12D
  8
LOOTING
 10
550503.95211109554
 20
881587.35520810273
 30
0.0
  0
VERTEX
  5
12E
  8
LOOTING
 10
550504.138279901
 20
881587.17907099531
 30
0.0
  0
VERTEX
  5
12F
  8
LOOTING
 10
550504.23150308349
 20
881586.94100913778
 30
0.0
  0
VERTEX
  5
130
  8
LOOTING
 10
550504.22853544995
 20
881586.74407090177
 30
0.0
  0
VERTEX
  5
131
  8
LOOTING
 10
550504.156825896
 20
881586.55280441174
 30
0.0
  0
VERTEX
  5
132
  8
LOOTING
 10
550504.07330283825
 20
881586.44324428949
 30
0.0
  0
VERTEX
  5
133
  8
LOOTING
 10
550503.95239560539
 20
881586.3474702409
 30
0.0
  0
VERTEX
  5
134
  8
LOOTING
 10
550503.78979544505
 20
881586.28104443406
 30
0.0
  0
VERTEX
  5
135
  8
LOOTING
 10
550503.62030362373
 20
881586.26540700591
 30
0.0
  0
VERTEX
  5
136
  8
LOOTING
 10
550503.47819954902
 20
881586.29081284069
 30
0.0
  0
VERTEX
  5
137
  8
LOOTING
 10
550503.35881079733
 20
881586.34291570948
 30
0.0
  0
VERTEX
  5
138
  8
LOOTING
 10
550503.21210540622
 20
881586.46274063142
 30
0.0
  0
VERTEX
  5
139
  8
LOOTING
 10
550503.11100109923
 20
881586.62359909364
 30
0.0
  0
VERTEX
  5
13A
  8
LOOTING
 10
550503.06802072085
 20
881586.91040637414
 30
0.0
  0
VERTEX
  5
13B
  8
LOOTING
 10
550503.0916758792
 20
881587.02605251432
 30
0.0
  0
VERTEX
  5
13C
  8
LOOTING
 10
550503.17751093116
 20
881587.19669552473
 30
0.0
  0
SEQEND
  5
13D
  8
LOOTING
  0
POLYLINE
  5
3C
  8
LOOTING
 66
     1
 10
0.0
 20
0.0
 30
0.0
 70
     1
  0
VERTEX
  5
13E
  8
LOOTING
 10
550509.15076395834
 20
881577.96223840723
 30
0.0
  0
VERTEX
  5
13F
  8
LOOTING
 10
550509.33891833306
 20
881577.96410532854
 30
0.0
  0
VERTEX
  5
140
  8
LOOTING
 10
550509.44320103456
 20
881577.9905977333
 30
0.0
  0
VERTEX
  5
141
  8
LOOTING
 10
550509.55706654734
 20
881578.04377341212
 30
0.0
  0
VERTEX
  5
142
  8
LOOTING
 10
550509.69901980076
 20
881578.1601289321
 30
0.0
  0
VERTEX
  5
143
  8
LOOTING
 10
550509.82039620448
 20
881578.28879834153
 30
0.0
  0
VERTEX
  5
144
  8
LOOTING
 10
550509.85046196601
 20
881578.47038152069
 30
0.0
  0
VERTEX
  5
145
  8
LOOTING
 10
550509.85883604595
 20
881578.60894567089
 30
0.0
  0
VERTEX
  5
146
  8
LOOTING
 10
550509.83245065343
 20
881578.75869281089
 30
0.0
  0
VERTEX
  5
147
  8
LOOTING
 10
550509.77847519226
 20
881578.88385587221
 30
0.0
  0
VERTEX
  5
148
  8
LOOTING
 10
550509.68081913597
 20
881579.01289988961
 30
0.0
  0
VERTEX
  5
149
  8
LOOTING
 10
550509.62652749976
 20
881579.06182060938
 30
0.0
  0
VERTEX
  5
14A
  8
LOOTING
 10
550509.508723279
 20
881579.13603433932
 30
0.0
  0
VERTEX
  5
14B
  8
LOOTING
 10
550509.31376417342
 20
881579.19324997335
 30
0.0
  0
VERTEX
  5
14C
  8
LOOTING
 10
550509.06169651356
 20
881579.17201868445
 30
0.0
  0
VERTEX
  5
14D
  8
LOOTING
 10
550508.90701736812
 20
881579.10175160319
 30
0.0
  0
VERTEX
  5
14E
  8
LOOTING
 10
550508.7942789254
 20
881579.01044761552
 30
0.0
  0
VERTEX
  5
14F
  8
LOOTING
 10
550508.67563450581
 20
881578.83847926755
 30
0.0
  0
VERTEX
  5
150
  8
LOOTING
 10
550508.62161275558
 20
881578.64523702406
 30
0.0
  0
VERTEX
  5
151
  8
LOOTING
 10
550508.63679931324
 20
881578.42461637745
 30
0.0
  0
VERTEX
  5
152
  8
LOOTING
 10
550508.68358326401
 20
881578.29881957686
 30
0.0
  0
VERTEX
  5
153
  8
LOOTING
 10
550508.90145621495
 20
881578.05557505635
 30
0.0
  0
VERTEX
  5
154
  8
LOOTING
 10
550509.06415860425
 20
881577.98102467065
 30
0.0
  0
SEQEND
  5
155
  8
LOOTING
  0
POLYLINE
  5
3D
  8
LOOTING
 66
     1
 10
0.0
 20
0.0
 30
0.0
 70
     1
  0
VERTEX
  5
156
  8
LOOTING
 10
550506.01079746394
 20
881584.46735560754
 30
0.0
  0
VERTEX
  5
157
  8
LOOTING
 10
550505.91339327034
 20
881584.60748306965
 30
0.0
  0
VERTEX
  5
158
  8
LOOTING
 10
550505.90650992712
 20
881584.71498083288
 30
0.0
  0
VERTEX
  5
159
  8
LOOTING
 10
550505.93943527795
 20
881584.81742924603
 30
0.0
  0
VERTEX
  5
15A
  8
LOOTING
 10
550506.07173676381
 20
881584.97703232663
 30
0.0
  0
VERTEX
  5
15B
  8
LOOTING
 10
550506.16243512987
 20
881585.03996795858
 30
0.0
  0
VERTEX
  5
15C
  8
LOOTING
 10
550506.25361537852
 20
881585.0855281516
 30
0.0
  0
VERTEX
  5
15D
  8
LOOTING
 10
550506.40938491968
 20
881585.13383131998
 30
0.0
  0
VERTEX
  5
15E
  8
LOOTING
 10
550506.71096678486
 20
881585.13482389064
 30
0.0
  0
VERTEX
  5
15F
  8
LOOTING
 10
550506.8494995751
 20
881585.08103766304
 30
0.0
  0
VERTEX
  5
160
  8
LOOTING
 10
550506.9209618601
 20
881585.0248145673
 30
0.0
  0
VERTEX
  5
161
  8
LOOTING
 10
550506.98954939144
 20
881584.89774793026
 30
0.0
  0
VERTEX
  5
162
  8
LOOTING
 10
550506.98605273233
 20
881584.77525373735
 30
0.0
  0
VERTEX
  5
163
  8
LOOTING
 10
550506.89896751498
 20
881584.61498271779
 30
0.0
  0
VERTEX
  5
164
  8
LOOTING
 10
550506.78569348645
 20
881584.51358159457
 30
0.0
  0
VERTEX
  5
165
  8
LOOTING
 10
550506.62206012744
 20
881584.42710721074
 30
0.0
  0
VERTEX
  5
166
  8
LOOTING
 10
550506.43974586658
 20
881584.37952817662
 30
0.0
  0
VERTEX
  5
167
  8
LOOTING
 10
550506.29691162263
 20
881584.37259503489
 30
0.0
  0
VERTEX
  5
168
  8
LOOTING
 10
550506.17701024911
 20
881584.38971938309
 30
0.0
  0
SEQEND
  5
169
  8
LOOTING
  0
POLYLINE
  5
3E
  8
LOOTING
 66
     1
 10
0.0
 20
0.0
 30
0.0
 70
     1
  0
VERTEX
  5
16A
  8
LOOTING
 10
550507.5147723289
 20
881583.98948808631
 30
0.0
  0
VERTEX
  5
16B
  8
LOOTING
 10
550507.50326864875
 20
881584.11020723602
 30
0.0
  0
VERTEX
  5
16C
  8
LOOTING
 10
550507.51754675747
 20
881584.2021037013
 30
0.0
  0
VERTEX
  5
16D
  8
LOOTING
 10
550507.61463993404
 20
881584.38004986243
 30
0.0
  0
VERTEX
  5
16E
  8
LOOTING
 10
550507.61463993404
 20
881584.38004986243
 30
0.0
  0
VERTEX
  5
16F
  8
LOOTING
 10
550507.8248751068
 20
881584.5074834713
 30
0.0
  0
VERTEX
  5
170
  8
LOOTING
 10
550508.05793040374
 20
881584.50331789267
 30
0.0
  0
VERTEX
  5
171
  8
LOOTING
 10
550508.16313388979
 20
881584.45558437274
 30
0.0
  0
VERTEX
  5
172
  8
LOOTING
 10
550508.34335256345
 20
881584.22572408768
 30
0.0
  0
VERTEX
  5
173
  8
LOOTING
 10
550508.35670548573
 20
881584.00539062615
 30
0.0
  0
VERTEX
  5
174
  8
LOOTING
 10
550508.31158364913
 20
881583.88218756369
 30
0.0
  0
VERTEX
  5
175
  8
LOOTING
 10
550508.20760367182
 20
881583.75711296021
 30
0.0
  0
VERTEX
  5
176
  8
LOOTING
 10
550508.08952946204
 20
881583.68820437859
 30
0.0
  0
VERTEX
  5
177
  8
LOOTING
 10
550507.89346487494
 20
881583.66107853805
 30
0.0
  0
VERTEX
  5
178
  8
LOOTING
 10
550507.73850153841
 20
881583.70603009348
 30
0.0
  0
VERTEX
  5
179
  8
LOOTING
 10
550507.54355255526
 20
881583.90738584683
 30
0.0
  0
SEQEND
  5
17A
  8
LOOTING
  0
POLYLINE
  5
3F
  8
LOOTING
 66
     1
 10
0.0
 20
0.0
 30
0.0
 70
     1
  0
VERTEX
  5
17B
  8
LOOTING
 10
550510.79254186724
 20
881583.66881563026
 30
0.0
  0
VERTEX
  5
17C
  8
LOOTING
 10
550510.82204207336
 20
881583.71219802822
 30
0.0
  0
VERTEX
  5
17D
  8
LOOTING
 10
550510.95013914292
 20
881583.80997755961
 30
0.0
  0
VERTEX
  5
17E
  8
LOOTING
 10
550511.02347176475
 20
881583.83218574198
 30
0.0
  0
VERTEX
  5
17F
  8
LOOTING
 10
550511.16580937698
 20
881583.82718462509
 30
0.0
  0
VERTEX
  5
180
  8
LOOTING
 10
550511.33569062315
 20
881583.72248180094
 30
0.0
  0
VERTEX
  5
181
  8
LOOTING
 10
550511.39237271028
 20
881583.63085465448
 30
0.0
  0
VERTEX
  5
182
  8
LOOTING
 10
550511.41764252994
 20
881583.49280509178
 30
0.0
  0
VERTEX
  5
183
  8
LOOTING
 10
550511.37226843135
 20
881583.33440131368
 30
0.0
  0
VERTEX
  5
184
  8
LOOTING
 10
550511.26844277536
 20
881583.22425610526
 30
0.0
  0
VERTEX
  5
185
  8
LOOTING
 10
550511.11797060061
 20
881583.17009551404
 30
0.0
  0
VERTEX
  5
186
  8
LOOTING
 10
550510.99479088257
 20
881583.18015863886
 30
0.0
  0
VERTEX
  5
187
  8
LOOTING
 10
550510.82694788673
 20
881583.28765576414
 30
0.0
  0
VERTEX
  5
188
  8
LOOTING
 10
550510.77248339436
 20
881583.37857084721
 30
0.0
  0
VERTEX
  5
189
  8
LOOTING
 10
550510.7495338982
 20
881583.52890244394
 30
0.0
  0
SEQEND
  5
18A
  8
LOOTING
  0
POLYLINE
  5
40
  8
LOOTING
 66
     1
 10
0.0
 20
0.0
 30
0.0
 70
     1
  0
VERTEX
  5
18B
  8
LOOTING
 10
550514.53314681072
 20
881580.62882049917
 30
0.0
  0
VERTEX
  5
18C
  8
LOOTING
 10
550514.59250932874
 20
881580.70962906186
 30
0.0
  0
VERTEX
  5
18D
  8
LOOTING
 10
550514.65382968227
 20
881580.78827291715
 30
0.0
  0
VERTEX
  5
18E
  8
LOOTING
 10
550514.88909464935
 20
881581.05625271203
 30
0.0
  0
VERTEX
  5
18F
  8
LOOTING
 10
550515.04524719028
 20
881581.21201546118
 30
0.0
  0
VERTEX
  5
190
  8
LOOTING
 10
550515.17252845166
 20
881581.32883435301
 30
0.0
  0
VERTEX
  5
191
  8
LOOTING
 10
550515.41107099748
 20
881581.52702112135
 30
0.0
  0
VERTEX
  5
192
  8
LOOTING
 10
550515.51938318065
 20
881581.60900596355
 30
0.0
  0
VERTEX
  5
193
  8
LOOTING
 10
550515.66088606243
 20
881581.70914485806
 30
0.0
  0
VERTEX
  5
194
  8
LOOTING
 10
550515.77955860971
 20
881581.78725020355
 30
0.0
  0
VERTEX
  5
195
  8
LOOTING
 10
550515.95948663016
 20
881581.895641151
 30
0.0
  0
VERTEX
  5
196
  8
LOOTING
 10
550516.15084035799
 20
881581.99756579765
 30
0.0
  0
VERTEX
  5
197
  8
LOOTING
 10
550516.33303739876
 20
881582.08128111658
 30
0.0
  0
VERTEX
  5
198
  8
LOOTING
 10
550516.53986236674
 20
881582.15909680969
 30
0.0
  0
VERTEX
  5
199
  8
LOOTING
 10
550516.77561672137
 20
881582.22164939612
 30
0.0
  0
VERTEX
  5
19A
  8
LOOTING
 10
550516.97273980745
 20
881582.2465349246
 30
0.0
  0
VERTEX
  5
19B
  8
LOOTING
 10
550517.25880794425
 20
881582.2110953019
 30
0.0
  0
VERTEX
  5
19C
  8
LOOTING
 10
550517.41145958018
 20
881582.11750097142
 30
0.0
  0
VERTEX
  5
19D
  8
LOOTING
 10
550517.52047358337
 20
881581.88369620335
 30
0.0
  0
VERTEX
  5
19E
  8
LOOTING
 10
550517.52409217367
 20
881581.77286007465
 30
0.0
  0
VERTEX
  5
19F
  8
LOOTING
 10
550517.46650602005
 20
881581.5002368713
 30
0.0
  0
VERTEX
  5
1A0
  8
LOOTING
 10
550517.33384439128
 20
881581.20894385478
 30
0.0
  0
VERTEX
  5
1A1
  8
LOOTING
 10
550517.10204766784
 20
881580.85890719097
 30
0.0
  0
VERTEX
  5
1A2
  8
LOOTING
 10
550516.98661247978
 20
881580.71535951435
 30
0.0
  0
VERTEX
  5
1A3
  8
LOOTING
 10
550516.77576793288
 20
881580.48390768305
 30
0.0
  0
VERTEX
  5
1A4
  8
LOOTING
 10
550516.57650882949
 20
881580.29204071348
 30
0.0
  0
VERTEX
  5
1A5
  8
LOOTING
 10
550516.43060466729
 20
881580.164670103
 30
0.0
  0
VERTEX
  5
1A6
  8
LOOTING
 10
550516.19248601922
 20
881579.97709276085
 30
0.0
  0
VERTEX
  5
1A7
  8
LOOTING
 10
550515.91114528582
 20
881579.78450725751
 30
0.0
  0
VERTEX
  5
1A8
  8
LOOTING
 10
550515.70276059664
 20
881579.66102618747
 30
0.0
  0
VERTEX
  5
1A9
  8
LOOTING
 10
550515.59241377679
 20
881579.60224548879
 30
0.0
  0
VERTEX
  5
1AA
  8
LOOTING
 10
550515.26373341249
 20
881579.45584365202
 30
0.0
  0
VERTEX
  5
1AB
  8
LOOTING
 10
550514.81271541386
 20
881579.33975643746
 30
0.0
  0
VERTEX
  5
1AC
  8
LOOTING
 10
550514.6478939295
 20
881579.33233425894
 30
0.0
  0
VERTEX
  5
1AD
  8
LOOTING
 10
550514.50645857584
 20
881579.35014601494
 30
0.0
  0
VERTEX
  5
1AE
  8
LOOTING
 10
550514.30711366516
 20
881579.44727151329
 30
0.0
  0
VERTEX
  5
1AF
  8
LOOTING
 10
550514.18844472733
 20
881579.65931630984
 30
0.0
  0
VERTEX
  5
1B0
  8
LOOTING
 10
550514.17971395608
 20
881579.82131895365
 30
0.0
  0
VERTEX
  5
1B1
  8
LOOTING
 10
550514.20262277627
 20
881579.96422073001
 30
0.0
  0
VERTEX
  5
1B2
  8
LOOTING
 10
550514.30937978055
 20
881580.25548162544
 30
0.0
  0
VERTEX
  5
1B3
  8
LOOTING
 10
550514.41953722131
 20
881580.45707470807
 30
0.0
  0
SEQEND
  5
1B4
  8
LOOTING
  0
POLYLINE
  5
41
  8
MOUNDED_CEMENTERY
 66
     1
 10
0.0
 20
0.0
 30
0.0
 70
     1
  0
VERTEX
  5
1B5
  8
MOUNDED_CEMENTERY
 10
550529.3323113377
 20
881608.83570070495
 30
0.0
  0
VERTEX
  5
1B6
  8
MOUNDED_CEMENTERY
 10
550533.21985158499
 20
881613.05246911373
 30
0.0
  0
VERTEX
  5
1B7
  8
MOUNDED_CEMENTERY
 10
550533.21985158499
 20
881613.05246911373
 30
0.0
  0
VERTEX
  5
1B8
  8
MOUNDED_CEMENTERY
 10
550535.81308075495
 20
881615.86531377805
 30
0.0
  0
VERTEX
  5
1B9
  8
MOUNDED_CEMENTERY
 10
550537.07492220064
 20
881617.23401810194
 30
0.0
  0
VERTEX
  5
1BA
  8
MOUNDED_CEMENTERY
 10
550538.80193717137
 20
881619.10729058483
 30
0.0
  0
VERTEX
  5
1BB
  8
MOUNDED_CEMENTERY
 10
550540.09508291201
 20
881620.50995030277
 30
0.0
  0
VERTEX
  5
1BC
  8
MOUNDED_CEMENTERY
 10
550540.74846379925
 20
881621.21866473637
 30
0.0
  0
VERTEX
  5
1BD
  8
MOUNDED_CEMENTERY
 10
550542.05715498677
 20
881621.16778157558
 30
0.0
  0
VERTEX
  5
1BE
  8
MOUNDED_CEMENTERY
 10
550543.0195316883
 20
881622.02952387021
 30
0.0
  0
VERTEX
  5
1BF
  8
MOUNDED_CEMENTERY
 10
550547.66655270674
 20
881622.27114168613
 30
0.0
  0
VERTEX
  5
1C0
  8
MOUNDED_CEMENTERY
 10
550550.61100232624
 20
881622.42423578305
 30
0.0
  0
VERTEX
  5
1C1
  8
MOUNDED_CEMENTERY
 10
550552.17423808086
 20
881622.50551486656
 30
0.0
  0
VERTEX
  5
1C2
  8
MOUNDED_CEMENTERY
 10
550554.01985439006
 20
881622.6014760813
 30
0.0
  0
VERTEX
  5
1C3
  8
MOUNDED_CEMENTERY
 10
550557.01898210158
 20
881622.75741311815
 30
0.0
  0
VERTEX
  5
1C4
  8
MOUNDED_CEMENTERY
 10
550558.93126827129
 20
881622.85684077418
 30
0.0
  0
VERTEX
  5
1C5
  8
MOUNDED_CEMENTERY
 10
550562.23376404715
 20
881623.02855116979
 30
0.0
  0
VERTEX
  5
1C6
  8
MOUNDED_CEMENTERY
 10
550565.23588972026
 20
881623.18464408303
 30
0.0
  0
VERTEX
  5
1C7
  8
MOUNDED_CEMENTERY
 10
550567.54590855201
 20
881623.30475150282
 30
0.0
  0
VERTEX
  5
1C8
  8
MOUNDED_CEMENTERY
 10
550573.08140618459
 20
881620.79184370441
 30
0.0
  0
VERTEX
  5
1C9
  8
MOUNDED_CEMENTERY
 10
550577.35291435011
 20
881618.23136159696
 30
0.0
  0
VERTEX
  5
1CA
  8
MOUNDED_CEMENTERY
 10
550580.86133605323
 20
881616.12829854595
 30
0.0
  0
VERTEX
  5
1CB
  8
MOUNDED_CEMENTERY
 10
550582.87914512097
 20
881614.91875760304
 30
0.0
  0
VERTEX
  5
1CC
  8
MOUNDED_CEMENTERY
 10
550582.87914512097
 20
881614.91875760304
 30
0.0
  0
VERTEX
  5
1CD
  8
MOUNDED_CEMENTERY
 10
550585.47483382747
 20
881613.36281664902
 30
0.0
  0
VERTEX
  5
1CE
  8
MOUNDED_CEMENTERY
 10
550588.4053758916
 20
881611.606153609
 30
0.0
  0
VERTEX
  5
1CF
  8
MOUNDED_CEMENTERY
 10
550592.94062943524
 20
881608.88757387048
 30
0.0
  0
VERTEX
  5
1D0
  8
MOUNDED_CEMENTERY
 10
550592.94062943524
 20
881608.88757387048
 30
0.0
  0
VERTEX
  5
1D1
  8
MOUNDED_CEMENTERY
 10
550592.94062943524
 20
881607.3025723875
 30
0.0
  0
VERTEX
  5
1D2
  8
MOUNDED_CEMENTERY
 10
550592.94062943524
 20
881598.46373762283
 30
0.0
  0
VERTEX
  5
1D3
  8
MOUNDED_CEMENTERY
 10
550592.94062943524
 20
881598.46373762283
 30
0.0
  0
VERTEX
  5
1D4
  8
MOUNDED_CEMENTERY
 10
550592.94062943524
 20
881593.17573408107
 30
0.0
  0
VERTEX
  5
1D5
  8
MOUNDED_CEMENTERY
 10
550592.94062943524
 20
881587.67352158891
 30
0.0
  0
VERTEX
  5
1D6
  8
MOUNDED_CEMENTERY
 10
550592.94062943524
 20
881580.78606809315
 30
0.0
  0
VERTEX
  5
1D7
  8
MOUNDED_CEMENTERY
 10
550592.94062943524
 20
881571.94723332825
 30
0.0
  0
VERTEX
  5
1D8
  8
MOUNDED_CEMENTERY
 10
550592.94062943524
 20
881566.45946930733
 30
0.0
  0
VERTEX
  5
1D9
  8
MOUNDED_CEMENTERY
 10
550591.98046271398
 20
881564.39671963034
 30
0.0
  0
VERTEX
  5
1DA
  8
MOUNDED_CEMENTERY
 10
550590.02240310877
 20
881560.19017223699
 30
0.0
  0
VERTEX
  5
1DB
  8
MOUNDED_CEMENTERY
 10
550588.87540962815
 20
881557.72605805856
 30
0.0
  0
VERTEX
  5
1DC
  8
MOUNDED_CEMENTERY
 10
550585.27323223522
 20
881549.9874121648
 30
0.0
  0
VERTEX
  5
1DD
  8
MOUNDED_CEMENTERY
 10
550583.42235787271
 20
881546.01113345288
 30
0.0
  0
VERTEX
  5
1DE
  8
MOUNDED_CEMENTERY
 10
550582.32524531148
 20
881543.65417967469
 30
0.0
  0
VERTEX
  5
1DF
  8
MOUNDED_CEMENTERY
 10
550581.73312863917
 20
881542.38212092966
 30
0.0
  0
VERTEX
  5
1E0
  8
MOUNDED_CEMENTERY
 10
550577.87662331935
 20
881537.51100397506
 30
0.0
  0
VERTEX
  5
1E1
  8
MOUNDED_CEMENTERY
 10
550574.96239399165
 20
881533.830067295
 30
0.0
  0
VERTEX
  5
1E2
  8
MOUNDED_CEMENTERY
 10
550572.89990349114
 20
881531.22495421628
 30
0.0
  0
VERTEX
  5
1E3
  8
MOUNDED_CEMENTERY
 10
550570.7664682836
 20
881528.53023152077
 30
0.0
  0
VERTEX
  5
1E4
  8
MOUNDED_CEMENTERY
 10
550567.60553188354
 20
881524.53768137109
 30
0.0
  0
VERTEX
  5
1E5
  8
MOUNDED_CEMENTERY
 10
550564.06667834288
 20
881520.06778750278
 30
0.0
  0
VERTEX
  5
1E6
  8
MOUNDED_CEMENTERY
 10
550564.06667834288
 20
881520.06778750278
 30
0.0
  0
VERTEX
  5
1E7
  8
MOUNDED_CEMENTERY
 10
550558.11280449457
 20
881519.441738858
 30
0.0
  0
VERTEX
  5
1E8
  8
MOUNDED_CEMENTERY
 10
550553.21718554792
 20
881518.92696550407
 30
0.0
  0
VERTEX
  5
1E9
  8
MOUNDED_CEMENTERY
 10
550548.23535822926
 20
881518.40312735736
 30
0.0
  0
VERTEX
  5
1EA
  8
MOUNDED_CEMENTERY
 10
550541.80150055292
 20
881517.72660850885
 30
0.0
  0
VERTEX
  5
1EB
  8
MOUNDED_CEMENTERY
 10
550533.74908479629
 20
881516.87989860156
 30
0.0
  0
VERTEX
  5
1EC
  8
MOUNDED_CEMENTERY
 10
550527.46350386727
 20
881520.4188651822
 30
0.0
  0
VERTEX
  5
1ED
  8
MOUNDED_CEMENTERY
 10
550525.07780836243
 20
881521.76208178524
 30
0.0
  0
VERTEX
  5
1EE
  8
MOUNDED_CEMENTERY
 10
550519.42286993621
 20
881524.94597812358
 30
0.0
  0
VERTEX
  5
1EF
  8
MOUNDED_CEMENTERY
 10
550519.42286993621
 20
881524.94597812358
 30
0.0
  0
VERTEX
  5
1F0
  8
MOUNDED_CEMENTERY
 10
550515.69032948487
 20
881527.04750796908
 30
0.0
  0
VERTEX
  5
1F1
  8
MOUNDED_CEMENTERY
 10
550511.80872235959
 20
881529.23296672769
 30
0.0
  0
VERTEX
  5
1F2
  8
MOUNDED_CEMENTERY
 10
550510.31681151048
 20
881533.51758922788
 30
0.0
  0
VERTEX
  5
1F3
  8
MOUNDED_CEMENTERY
 10
550508.61739562813
 20
881538.39814595249
 30
0.0
  0
VERTEX
  5
1F4
  8
MOUNDED_CEMENTERY
 10
550508.03399711614
 20
881540.07360959821
 30
0.0
  0
VERTEX
  5
1F5
  8
MOUNDED_CEMENTERY
 10
550506.28843333712
 20
881545.08669858286
 30
0.0
  0
VERTEX
  5
1F6
  8
MOUNDED_CEMENTERY
 10
550506.14393233275
 20
881550.3545782204
 30
0.0
  0
VERTEX
  5
1F7
  8
MOUNDED_CEMENTERY
 10
550507.57751136785
 20
881555.92873291811
 30
0.0
  0
VERTEX
  5
1F8
  8
MOUNDED_CEMENTERY
 10
550509.07968823705
 20
881561.76961510675
 30
0.0
  0
VERTEX
  5
1F9
  8
MOUNDED_CEMENTERY
 10
550510.19460952748
 20
881566.10473971185
 30
0.0
  0
VERTEX
  5
1FA
  8
MOUNDED_CEMENTERY
 10
550511.2462086716
 20
881569.80232544825
 30
0.0
  0
VERTEX
  5
1FB
  8
MOUNDED_CEMENTERY
 10
550513.11017709645
 20
881575.06718159188
 30
0.0
  0
VERTEX
  5
1FC
  8
MOUNDED_CEMENTERY
 10
550515.39190394466
 20
881581.51201373374
 30
0.0
  0
VERTEX
  5
1FD
  8
MOUNDED_CEMENTERY
 10
550516.64193424257
 20
881585.04277616809
 30
0.0
  0
VERTEX
  5
1FE
  8
MOUNDED_CEMENTERY
 10
550517.92933438194
 20
881588.67909127043
 30
0.0
  0
VERTEX
  5
1FF
  8
MOUNDED_CEMENTERY
 10
550520.9350371632
 20
881597.16882346955
 30
0.0
  0
VERTEX
  5
200
  8
MOUNDED_CEMENTERY
 10
550522.40553709539
 20
881601.32231153245
 30
0.0
  0
VERTEX
  5
201
  8
MOUNDED_CEMENTERY
 10
550524.44750241202
 20
881603.53720688808
 30
0.0
  0
VERTEX
  5
202
  8
MOUNDED_CEMENTERY
 10
550526.62136964535
 20
881605.89517467574
 30
0.0
  0
SEQEND
  5
203
  8
MOUNDED_CEMENTERY
  0
POLYLINE
  5
43
  8
CONTOUR_LINES_30CM
 66
     1
 10
0.0
 20
0.0
 30
0.0
  0
VERTEX
  5
204
  8
CONTOUR_LINES_30CM
 10
550531.91242265131
 20
881611.63431658712
 30
0.0
  0
VERTEX
  5
205
  8
CONTOUR_LINES_30CM
 10
550534.93831579329
 20
881614.91646668687
 30
0.0
  0
VERTEX
  5
206
  8
CONTOUR_LINES_30CM
 10
550536.57443068898
 20
881616.69114094554
 30
0.0
  0
VERTEX
  5
207
  8
CONTOUR_LINES_30CM
 10
550538.13593282225
 20
881618.38488363288
 30
0.0
  0
VERTEX
  5
208
  8
CONTOUR_LINES_30CM
 10
550539.76575139922
 20
881620.15272834979
 30
0.0
  0
SEQEND
  5
209
  8
CONTOUR_LINES_30CM
  0
POLYLINE
  5
45
  8
CONTOUR_LINES_30CM
 66
     1
 10
0.0
 20
0.0
 30
0.0
  0
VERTEX
  5
20A
  8
CONTOUR_LINES_30CM
 10
550480.02960764139
 20
881471.74495989049
 30
0.0
  0
VERTEX
  5
20B
  8
CONTOUR_LINES_30CM
 10
550480.02960764139
 20
881471.74495989049
 30
0.0
  0
VERTEX
  5
20C
  8
CONTOUR_LINES_30CM
 10
550476.94110668497
 20
881468.63252208719
 30
0.0
  0
VERTEX
  5
20D
  8
CONTOUR_LINES_30CM
 10
550475.46536100295
 20
881466.56168255408
 30
0.0
  0
VERTEX
  5
20E
  8
CONTOUR_LINES_30CM
 10
550473.38299447356
 20
881461.86219441774
 30
0.0
  0
VERTEX
  5
20F
  8
CONTOUR_LINES_30CM
 10
550472.86149170506
 20
881458.56333124498
 30
0.0
  0
VERTEX
  5
210
  8
CONTOUR_LINES_30CM
 10
550473.30359763221
 20
881454.71869465255
 30
0.0
  0
VERTEX
  5
211
  8
CONTOUR_LINES_30CM
 10
550474.64396180143
 20
881451.77334719035
 30
0.0
  0
VERTEX
  5
212
  8
CONTOUR_LINES_30CM
 10
550475.86121677875
 20
881450.24721490673
 30
0.0
  0
VERTEX
  5
213
  8
CONTOUR_LINES_30CM
 10
550479.8888001123
 20
881447.58840944746
 30
0.0
  0
VERTEX
  5
214
  8
CONTOUR_LINES_30CM
 10
550484.01256573317
 20
881446.67778239003
 30
0.0
  0
VERTEX
  5
215
  8
CONTOUR_LINES_30CM
 10
550488.13675865787
 20
881446.9010114111
 30
0.0
  0
VERTEX
  5
216
  8
CONTOUR_LINES_30CM
 10
550488.13675865787
 20
881446.9010114111
 30
0.0
  0
VERTEX
  5
217
  8
CONTOUR_LINES_30CM
 10
550492.57055356598
 20
881448.22000758292
 30
0.0
  0
VERTEX
  5
218
  8
CONTOUR_LINES_30CM
 10
550495.02024472272
 20
881449.44803908025
 30
0.0
  0
SEQEND
  5
219
  8
CONTOUR_LINES_30CM
  0
POLYLINE
  5
46
  8
CONTOUR_LINES_30CM
 66
     1
 10
0.0
 20
0.0
 30
0.0
  0
VERTEX
  5
21A
  8
CONTOUR_LINES_30CM
 10
550509.9779838121
 20
881451.74283199199
 30
0.0
  0
VERTEX
  5
21B
  8
CONTOUR_LINES_30CM
 10
550507.38903964614
 20
881449.63100788009
 30
0.0
  0
VERTEX
  5
21C
  8
CONTOUR_LINES_30CM
 10
550503.86547680653
 20
881447.28238769632
 30
0.0
  0
VERTEX
  5
21D
  8
CONTOUR_LINES_30CM
 10
550499.98665092757
 20
881445.2370445017
 30
0.0
  0
VERTEX
  5
21E
  8
CONTOUR_LINES_30CM
 10
550494.40789095545
 20
881443.09900050273
 30
0.0
  0
VERTEX
  5
21F
  8
CONTOUR_LINES_30CM
 10
550491.9802773206
 20
881442.43374579726
 30
0.0
  0
VERTEX
  5
220
  8
CONTOUR_LINES_30CM
 10
550485.65985579754
 20
881441.42828077439
 30
0.0
  0
VERTEX
  5
221
  8
CONTOUR_LINES_30CM
 10
550482.72240153409
 20
881441.33220006456
 30
0.0
  0
VERTEX
  5
222
  8
CONTOUR_LINES_30CM
 10
550479.78610475722
 20
881441.49726458383
 30
0.0
  0
VERTEX
  5
223
  8
CONTOUR_LINES_30CM
 10
550476.40669859608
 20
881442.05949385441
 30
0.0
  0
VERTEX
  5
224
  8
CONTOUR_LINES_30CM
 10
550471.91495443566
 20
881443.60695666086
 30
0.0
  0
VERTEX
  5
225
  8
CONTOUR_LINES_30CM
 10
550470.13481865299
 20
881444.57456376683
 30
0.0
  0
VERTEX
  5
226
  8
CONTOUR_LINES_30CM
 10
550466.72641834605
 20
881447.40744354087
 30
0.0
  0
VERTEX
  5
227
  8
CONTOUR_LINES_30CM
 10
550465.11352324055
 20
881449.64726390562
 30
0.0
  0
VERTEX
  5
228
  8
CONTOUR_LINES_30CM
 10
550463.79701864719
 20
881452.97391374246
 30
0.0
  0
VERTEX
  5
229
  8
CONTOUR_LINES_30CM
 10
550463.44864986336
 20
881456.90130561823
 30
0.0
  0
VERTEX
  5
22A
  8
CONTOUR_LINES_30CM
 10
550463.85187962046
 20
881459.7121683677
 30
0.0
  0
VERTEX
  5
22B
  8
CONTOUR_LINES_30CM
 10
550465.88974178385
 20
881464.91271170566
 30
0.0
  0
VERTEX
  5
22C
  8
CONTOUR_LINES_30CM
 10
550467.07620028383
 20
881466.84945924708
 30
0.0
  0
VERTEX
  5
22D
  8
CONTOUR_LINES_30CM
 10
550470.23217301769
 20
881470.74528398656
 30
0.0
  0
VERTEX
  5
22E
  8
CONTOUR_LINES_30CM
 10
550472.25297098095
 20
881472.69469094183
 30
0.0
  0
VERTEX
  5
22F
  8
CONTOUR_LINES_30CM
 10
550474.53173756157
 20
881474.56636718323
 30
0.0
  0
VERTEX
  5
230
  8
CONTOUR_LINES_30CM
 10
550476.70071006834
 20
881476.09963544679
 30
0.0
  0
SEQEND
  5
231
  8
CONTOUR_LINES_30CM
  0
POLYLINE
  5
47
  8
CONTOUR_LINES_30CM
 66
     1
 10
0.0
 20
0.0
 30
0.0
  0
VERTEX
  5
232
  8
CONTOUR_LINES_30CM
 10
550424.6333586151
 20
881465.43764209049
 30
0.0
  0
VERTEX
  5
233
  8
CONTOUR_LINES_30CM
 10
550424.31808383157
 20
881464.34542717354
 30
0.0
  0
VERTEX
  5
234
  8
CONTOUR_LINES_30CM
 10
550423.99282359798
 20
881462.93425452837
 30
0.0
  0
VERTEX
  5
235
  8
CONTOUR_LINES_30CM
 10
550423.3636871936
 20
881460.15308183222
 30
0.0
  0
VERTEX
  5
236
  8
CONTOUR_LINES_30CM
 10
550422.96970415558
 20
881458.23192714213
 30
0.0
  0
VERTEX
  5
237
  8
CONTOUR_LINES_30CM
 10
550422.55068480514
 20
881455.97522733326
 30
0.0
  0
VERTEX
  5
238
  8
CONTOUR_LINES_30CM
 10
550422.13587353355
 20
881453.40369893762
 30
0.0
  0
VERTEX
  5
239
  8
CONTOUR_LINES_30CM
 10
550421.72748738539
 20
881450.20470978296
 30
0.0
  0
VERTEX
  5
23A
  8
CONTOUR_LINES_30CM
 10
550421.47734769864
 20
881447.19324448577
 30
0.0
  0
VERTEX
  5
23B
  8
CONTOUR_LINES_30CM
 10
550421.39809336921
 20
881444.52678694751
 30
0.0
  0
VERTEX
  5
23C
  8
CONTOUR_LINES_30CM
 10
550421.51450268005
 20
881441.74203902541
 30
0.0
  0
VERTEX
  5
23D
  8
CONTOUR_LINES_30CM
 10
550421.98445681145
 20
881438.80685615039
 30
0.0
  0
VERTEX
  5
23E
  8
CONTOUR_LINES_30CM
 10
550422.79964278615
 20
881436.5466221238
 30
0.0
  0
VERTEX
  5
23F
  8
CONTOUR_LINES_30CM
 10
550423.7426771553
 20
881435.06129489106
 30
0.0
  0
VERTEX
  5
240
  8
CONTOUR_LINES_30CM
 10
550426.33786089974
 20
881432.87243683974
 30
0.0
  0
VERTEX
  5
241
  8
CONTOUR_LINES_30CM
 10
550431.32130793366
 20
881431.20100318338
 30
0.0
  0
VERTEX
  5
242
  8
CONTOUR_LINES_30CM
 10
550434.77947729768
 20
881430.70482159103
 30
0.0
  0
VERTEX
  5
243
  8
CONTOUR_LINES_30CM
 10
550436.67911762674
 20
881430.4963363955
 30
0.0
  0
VERTEX
  5
244
  8
CONTOUR_LINES_30CM
 10
550439.63167548238
 20
881430.11745261052
 30
0.0
  0
VERTEX
  5
245
  8
CONTOUR_LINES_30CM
 10
550441.88602771366
 20
881429.91414326464
 30
0.0
  0
SEQEND
  5
246
  8
CONTOUR_LINES_30CM
  0
POLYLINE
  5
48
  8
CONTOUR_LINES_30CM
 66
     1
 10
0.0
 20
0.0
 30
0.0
  0
VERTEX
  5
247
  8
CONTOUR_LINES_30CM
 10
550365.91940222098
 20
881593.47966081684
 30
0.0
  0
VERTEX
  5
248
  8
CONTOUR_LINES_30CM
 10
550367.11089286127
 20
881593.94539028581
 30
0.0
  0
VERTEX
  5
249
  8
CONTOUR_LINES_30CM
 10
550367.93550118525
 20
881594.23124719516
 30
0.0
  0
VERTEX
  5
24A
  8
CONTOUR_LINES_30CM
 10
550369.59766417916
 20
881594.72626100574
 30
0.0
  0
VERTEX
  5
24B
  8
CONTOUR_LINES_30CM
 10
550370.52175788104
 20
881595.0025776613
 30
0.0
  0
VERTEX
  5
24C
  8
CONTOUR_LINES_30CM
 10
550371.40426800505
 20
881595.26997082029
 30
0.0
  0
VERTEX
  5
24D
  8
CONTOUR_LINES_30CM
 10
550372.55932211387
 20
881595.5852120145
 30
0.0
  0
VERTEX
  5
24E
  8
CONTOUR_LINES_30CM
 10
550374.65355108678
 20
881595.87798611354
 30
0.0
  0
VERTEX
  5
24F
  8
CONTOUR_LINES_30CM
 10
550375.95259690855
 20
881595.67102595465
 30
0.0
  0
VERTEX
  5
250
  8
CONTOUR_LINES_30CM
 10
550376.86488050141
 20
881595.32140269596
 30
0.0
  0
VERTEX
  5
251
  8
CONTOUR_LINES_30CM
 10
550378.06621102872
 20
881594.80747640214
 30
0.0
  0
VERTEX
  5
252
  8
CONTOUR_LINES_30CM
 10
550380.15343699942
 20
881594.15220276255
 30
0.0
  0
VERTEX
  5
253
  8
CONTOUR_LINES_30CM
 10
550381.018364246
 20
881593.80735069746
 30
0.0
  0
VERTEX
  5
254
  8
CONTOUR_LINES_30CM
 10
550382.12210463954
 20
881593.13431060652
 30
0.0
  0
VERTEX
  5
255
  8
CONTOUR_LINES_30CM
 10
550383.20174249494
 20
881592.11354788148
 30
0.0
  0
VERTEX
  5
256
  8
CONTOUR_LINES_30CM
 10
550384.36147103424
 20
881591.23688357021
 30
0.0
  0
VERTEX
  5
257
  8
CONTOUR_LINES_30CM
 10
550385.10512717522
 20
881590.91144605575
 30
0.0
  0
VERTEX
  5
258
  8
CONTOUR_LINES_30CM
 10
550386.48705279164
 20
881590.60755001393
 30
0.0
  0
VERTEX
  5
259
  8
CONTOUR_LINES_30CM
 10
550387.86613593064
 20
881590.61981355911
 30
0.0
  0
VERTEX
  5
25A
  8
CONTOUR_LINES_30CM
 10
550388.76979132055
 20
881590.8031474076
 30
0.0
  0
VERTEX
  5
25B
  8
CONTOUR_LINES_30CM
 10
550389.44839097746
 20
881591.05299574684
 30
0.0
  0
VERTEX
  5
25C
  8
CONTOUR_LINES_30CM
 10
550390.24274341983
 20
881591.515818674
 30
0.0
  0
VERTEX
  5
25D
  8
CONTOUR_LINES_30CM
 10
550390.24274341983
 20
881591.515818674
 30
0.0
  0
VERTEX
  5
25E
  8
CONTOUR_LINES_30CM
 10
550391.3859640673
 20
881592.81051938049
 30
0.0
  0
VERTEX
  5
25F
  8
CONTOUR_LINES_30CM
 10
550391.89069694281
 20
881594.01279585785
 30
0.0
  0
VERTEX
  5
260
  8
CONTOUR_LINES_30CM
 10
550392.07192697434
 20
881594.96357346885
 30
0.0
  0
VERTEX
  5
261
  8
CONTOUR_LINES_30CM
 10
550392.09316718159
 20
881595.80155356764
 30
0.0
  0
VERTEX
  5
262
  8
CONTOUR_LINES_30CM
 10
550391.77745990001
 20
881597.27993823879
 30
0.0
  0
VERTEX
  5
263
  8
CONTOUR_LINES_30CM
 10
550391.4528316845
 20
881597.91425667121
 30
0.0
  0
VERTEX
  5
264
  8
CONTOUR_LINES_30CM
 10
550390.81395972567
 20
881598.71251315309
 30
0.0
  0
VERTEX
  5
265
  8
CONTOUR_LINES_30CM
 10
550390.17171844584
 20
881599.27260519087
 30
0.0
  0
VERTEX
  5
266
  8
CONTOUR_LINES_30CM
 10
550389.37175663235
 20
881599.80309706705
 30
0.0
  0
VERTEX
  5
267
  8
CONTOUR_LINES_30CM
 10
550388.25987399975
 20
881600.36340042797
 30
0.0
  0
VERTEX
  5
268
  8
CONTOUR_LINES_30CM
 10
550386.92335808021
 20
881600.8727554963
 30
0.0
  0
VERTEX
  5
269
  8
CONTOUR_LINES_30CM
 10
550385.75762368529
 20
881600.96774273366
 30
0.0
  0
VERTEX
  5
26A
  8
CONTOUR_LINES_30CM
 10
550384.22071450751
 20
881600.94755002635
 30
0.0
  0
VERTEX
  5
26B
  8
CONTOUR_LINES_30CM
 10
550382.97911633505
 20
881600.8441276059
 30
0.0
  0
VERTEX
  5
26C
  8
CONTOUR_LINES_30CM
 10
550381.0039132461
 20
881600.59186634561
 30
0.0
  0
VERTEX
  5
26D
  8
CONTOUR_LINES_30CM
 10
550378.77628986933
 20
881600.29942285258
 30
0.0
  0
VERTEX
  5
26E
  8
CONTOUR_LINES_30CM
 10
550375.98237355275
 20
881600.09675106336
 30
0.0
  0
VERTEX
  5
26F
  8
CONTOUR_LINES_30CM
 10
550374.80967875407
 20
881600.04751357494
 30
0.0
  0
VERTEX
  5
270
  8
CONTOUR_LINES_30CM
 10
550372.94852490781
 20
881599.96580516535
 30
0.0
  0
VERTEX
  5
271
  8
CONTOUR_LINES_30CM
 10
550370.61993481568
 20
881600.20141955384
 30
0.0
  0
SEQEND
  5
272
  8
CONTOUR_LINES_30CM
  0
POLYLINE
  5
49
  8
CONTOUR_LINES_30CM
 66
     1
 10
0.0
 20
0.0
 30
0.0
  0
VERTEX
  5
273
  8
CONTOUR_LINES_30CM
 10
550372.38180119568
 20
881606.82608078374
 30
0.0
  0
VERTEX
  5
274
  8
CONTOUR_LINES_30CM
 10
550373.04559264251
 20
881606.82690939843
 30
0.0
  0
VERTEX
  5
275
  8
CONTOUR_LINES_30CM
 10
550374.19433018216
 20
881606.8297038977
 30
0.0
  0
VERTEX
  5
276
  8
CONTOUR_LINES_30CM
 10
550375.81755840837
 20
881606.82602490357
 30
0.0
  0
VERTEX
  5
277
  8
CONTOUR_LINES_30CM
 10
550377.04477020062
 20
881606.80765731435
 30
0.0
  0
VERTEX
  5
278
  8
CONTOUR_LINES_30CM
 10
550378.35211975046
 20
881606.76375974913
 30
0.0
  0
VERTEX
  5
279
  8
CONTOUR_LINES_30CM
 10
550379.77349167236
 20
881606.67689695815
 30
0.0
  0
VERTEX
  5
27A
  8
CONTOUR_LINES_30CM
 10
550381.20323922485
 20
881606.53668194788
 30
0.0
  0
VERTEX
  5
27B
  8
CONTOUR_LINES_30CM
 10
550382.17878707335
 20
881606.40445907228
 30
0.0
  0
VERTEX
  5
27C
  8
CONTOUR_LINES_30CM
 10
550383.72693333589
 20
881606.12339499837
 30
0.0
  0
VERTEX
  5
27D
  8
CONTOUR_LINES_30CM
 10
550384.67678263306
 20
881605.90227172535
 30
0.0
  0
VERTEX
  5
27E
  8
CONTOUR_LINES_30CM
 10
550386.16589412221
 20
881605.47182288568
 30
0.0
  0
VERTEX
  5
27F
  8
CONTOUR_LINES_30CM
 10
550387.48235241335
 20
881604.99731596478
 30
0.0
  0
VERTEX
  5
280
  8
CONTOUR_LINES_30CM
 10
550388.35033219052
 20
881604.63061064691
 30
0.0
  0
VERTEX
  5
281
  8
CONTOUR_LINES_30CM
 10
550390.10928165063
 20
881603.72944133682
 30
0.0
  0
VERTEX
  5
282
  8
CONTOUR_LINES_30CM
 10
550391.21150751982
 20
881603.02644956158
 30
0.0
  0
VERTEX
  5
283
  8
CONTOUR_LINES_30CM
 10
550392.32889240189
 20
881602.15821583767
 30
0.0
  0
VERTEX
  5
284
  8
CONTOUR_LINES_30CM
 10
550393.30027560145
 20
881601.21140091924
 30
0.0
  0
VERTEX
  5
285
  8
CONTOUR_LINES_30CM
 10
550393.30027560145
 20
881601.21140091924
 30
0.0
  0
VERTEX
  5
286
  8
CONTOUR_LINES_30CM
 10
550394.36324237485
 20
881599.79762375588
 30
0.0
  0
VERTEX
  5
287
  8
CONTOUR_LINES_30CM
 10
550394.68506742897
 20
881599.21711208997
 30
0.0
  0
VERTEX
  5
288
  8
CONTOUR_LINES_30CM
 10
550395.30316876457
 20
881597.50557749404
 30
0.0
  0
VERTEX
  5
289
  8
CONTOUR_LINES_30CM
 10
550395.47505380923
 20
881596.36498290242
 30
0.0
  0
VERTEX
  5
28A
  8
CONTOUR_LINES_30CM
 10
550395.43541449506
 20
881594.61034076766
 30
0.0
  0
VERTEX
  5
28B
  8
CONTOUR_LINES_30CM
 10
550395.26997085963
 20
881593.65724798886
 30
0.0
  0
VERTEX
  5
28C
  8
CONTOUR_LINES_30CM
 10
550394.50969375914
 20
881591.58370098064
 30
0.0
  0
VERTEX
  5
28D
  8
CONTOUR_LINES_30CM
 10
550393.56598774204
 20
881590.22356521012
 30
0.0
  0
VERTEX
  5
28E
  8
CONTOUR_LINES_30CM
 10
550391.93755154195
 20
881589.00421068305
 30
0.0
  0
VERTEX
  5
28F
  8
CONTOUR_LINES_30CM
 10
550390.57243109215
 20
881588.53664028714
 30
0.0
  0
VERTEX
  5
290
  8
CONTOUR_LINES_30CM
 10
550388.83941131807
 20
881588.33601085295
 30
0.0
  0
VERTEX
  5
291
  8
CONTOUR_LINES_30CM
 10
550387.82095333899
 20
881588.36544722714
 30
0.0
  0
VERTEX
  5
292
  8
CONTOUR_LINES_30CM
 10
550386.40021429665
 20
881588.55646926828
 30
0.0
  0
VERTEX
  5
293
  8
CONTOUR_LINES_30CM
 10
550384.75454928901
 20
881588.98219697585
 30
0.0
  0
VERTEX
  5
294
  8
CONTOUR_LINES_30CM
 10
550383.44186171493
 20
881589.46873256657
 30
0.0
  0
VERTEX
  5
295
  8
CONTOUR_LINES_30CM
 10
550381.61213787913
 20
881590.31072598544
 30
0.0
  0
VERTEX
  5
296
  8
CONTOUR_LINES_30CM
 10
550380.36632171308
 20
881590.9391747039
 30
0.0
  0
VERTEX
  5
297
  8
CONTOUR_LINES_30CM
 10
550378.19951166294
 20
881591.99043927575
 30
0.0
  0
VERTEX
  5
298
  8
CONTOUR_LINES_30CM
 10
550377.52652493014
 20
881592.28097609174
 30
0.0
  0
VERTEX
  5
299
  8
CONTOUR_LINES_30CM
 10
550376.02391031408
 20
881592.83885577065
 30
0.0
  0
VERTEX
  5
29A
  8
CONTOUR_LINES_30CM
 10
550374.13078884559
 20
881593.31603337836
 30
0.0
  0
VERTEX
  5
29B
  8
CONTOUR_LINES_30CM
 10
550372.62836965604
 20
881593.47115571715
 30
0.0
  0
VERTEX
  5
29C
  8
CONTOUR_LINES_30CM
 10
550371.64410298492
 20
881593.46211652493
 30
0.0
  0
VERTEX
  5
29D
  8
CONTOUR_LINES_30CM
 10
550370.22358621634
 20
881593.32210471877
 30
0.0
  0
VERTEX
  5
29E
  8
CONTOUR_LINES_30CM
 10
550368.84185374854
 20
881593.07322173053
 30
0.0
  0
VERTEX
  5
29F
  8
CONTOUR_LINES_30CM
 10
550366.73173500574
 20
881592.5536135264
 30
0.0
  0
VERTEX
  5
2A0
  8
CONTOUR_LINES_30CM
 10
550365.47156775487
 20
881592.20381901925
 30
0.0
  0
SEQEND
  5
2A1
  8
CONTOUR_LINES_30CM
  0
POLYLINE
  5
4A
  8
CONTOUR_LINES_30CM
 66
     1
 10
0.0
 20
0.0
 30
0.0
  0
VERTEX
  5
2A2
  8
CONTOUR_LINES_30CM
 10
550398.08883227839
 20
881594.0524952322
 30
0.0
  0
VERTEX
  5
2A3
  8
CONTOUR_LINES_30CM
 10
550398.01765909931
 20
881594.25199468923
 30
0.0
  0
VERTEX
  5
2A4
  8
CONTOUR_LINES_30CM
 10
550397.91704421269
 20
881594.52623671968
 30
0.0
  0
VERTEX
  5
2A5
  8
CONTOUR_LINES_30CM
 10
550397.78920715197
 20
881594.86266143038
 30
0.0
  0
VERTEX
  5
2A6
  8
CONTOUR_LINES_30CM
 10
550397.69565820543
 20
881595.10107889725
 30
0.0
  0
VERTEX
  5
2A7
  8
CONTOUR_LINES_30CM
 10
550397.57783045585
 20
881595.39284021279
 30
0.0
  0
VERTEX
  5
2A8
  8
CONTOUR_LINES_30CM
 10
550397.41689172923
 20
881595.77734957915
 30
0.0
  0
VERTEX
  5
2A9
  8
CONTOUR_LINES_30CM
 10
550397.30960640882
 20
881596.02547707385
 30
0.0
  0
VERTEX
  5
2AA
  8
CONTOUR_LINES_30CM
 10
550396.64147458808
 20
881597.44911246677
 30
0.0
  0
VERTEX
  5
2AB
  8
CONTOUR_LINES_30CM
 10
550396.15894580225
 20
881598.3735998479
 30
0.0
  0
VERTEX
  5
2AC
  8
CONTOUR_LINES_30CM
 10
550395.75351454329
 20
881599.09815299616
 30
0.0
  0
VERTEX
  5
2AD
  8
CONTOUR_LINES_30CM
 10
550395.29385717388
 20
881599.87167737796
 30
0.0
  0
VERTEX
  5
2AE
  8
CONTOUR_LINES_30CM
 10
550394.9037425851
 20
881600.49389156641
 30
0.0
  0
VERTEX
  5
2AF
  8
CONTOUR_LINES_30CM
 10
550394.49997040001
 20
881601.10903771722
 30
0.0
  0
VERTEX
  5
2B0
  8
CONTOUR_LINES_30CM
 10
550393.9479307601
 20
881601.90855243825
 30
0.0
  0
VERTEX
  5
2B1
  8
CONTOUR_LINES_30CM
 10
550392.67622038908
 20
881603.60005062562
 30
0.0
  0
VERTEX
  5
2B2
  8
CONTOUR_LINES_30CM
 10
550392.04512339132
 20
881604.37526970031
 30
0.0
  0
VERTEX
  5
2B3
  8
CONTOUR_LINES_30CM
 10
550391.50426698907
 20
881605.01112787821
 30
0.0
  0
VERTEX
  5
2B4
  8
CONTOUR_LINES_30CM
 10
550390.98183651839
 20
881605.60285627819
 30
0.0
  0
VERTEX
  5
2B5
  8
CONTOUR_LINES_30CM
 10
550390.35716542951
 20
881606.28410880454
 30
0.0
  0
VERTEX
  5
2B6
  8
CONTOUR_LINES_30CM
 10
550389.77917147719
 20
881606.89123830071
 30
0.0
  0
VERTEX
  5
2B7
  8
CONTOUR_LINES_30CM
 10
550388.04631809308
 20
881608.5575048608
 30
0.0
  0
VERTEX
  5
2B8
  8
CONTOUR_LINES_30CM
 10
550387.30928173929
 20
881609.16661061731
 30
0.0
  0
VERTEX
  5
2B9
  8
CONTOUR_LINES_30CM
 10
550386.50073741854
 20
881609.75068535621
 30
0.0
  0
VERTEX
  5
2BA
  8
CONTOUR_LINES_30CM
 10
550386.12523818854
 20
881609.99026850495
 30
0.0
  0
VERTEX
  5
2BB
  8
CONTOUR_LINES_30CM
 10
550385.16803073417
 20
881610.50759778253
 30
0.0
  0
VERTEX
  5
2BC
  8
CONTOUR_LINES_30CM
 10
550383.71490192157
 20
881611.05568766757
 30
0.0
  0
VERTEX
  5
2BD
  8
CONTOUR_LINES_30CM
 10
550382.97124725336
 20
881611.27336568991
 30
0.0
  0
VERTEX
  5
2BE
  8
CONTOUR_LINES_30CM
 10
550382.01991700113
 20
881611.54401225969
 30
0.0
  0
VERTEX
  5
2BF
  8
CONTOUR_LINES_30CM
 10
550381.17443339643
 20
881611.81500359613
 30
0.0
  0
VERTEX
  5
2C0
  8
CONTOUR_LINES_30CM
 10
550379.84550653689
 20
881612.33639860421
 30
0.0
  0
VERTEX
  5
2C1
  8
CONTOUR_LINES_30CM
 10
550379.47021443385
 20
881612.49569877074
 30
0.0
  0
VERTEX
  5
2C2
  8
CONTOUR_LINES_30CM
 10
550377.4516121574
 20
881613.31036091608
 30
0.0
  0
VERTEX
  5
2C3
  8
CONTOUR_LINES_30CM
 10
550376.01528640487
 20
881613.72092970042
 30
0.0
  0
VERTEX
  5
2C4
  8
CONTOUR_LINES_30CM
 10
550373.86636905617
 20
881614.08927145507
 30
0.0
  0
VERTEX
  5
2C5
  8
CONTOUR_LINES_30CM
 10
550372.75218883075
 20
881614.24548728392
 30
0.0
  0
VERTEX
  5
2C6
  8
CONTOUR_LINES_30CM
 10
550370.80268815893
 20
881614.56452341785
 30
0.0
  0
VERTEX
  5
2C7
  8
CONTOUR_LINES_30CM
 10
550368.32435873419
 20
881615.01644217828
 30
0.0
  0
VERTEX
  5
2C8
  8
CONTOUR_LINES_30CM
 10
550367.28918100148
 20
881615.19669208955
 30
0.0
  0
VERTEX
  5
2C9
  8
CONTOUR_LINES_30CM
 10
550365.8114208898
 20
881615.42287621647
 30
0.0
  0
VERTEX
  5
2CA
  8
CONTOUR_LINES_30CM
 10
550364.42761779856
 20
881615.58311183541
 30
0.0
  0
VERTEX
  5
2CB
  8
CONTOUR_LINES_30CM
 10
550362.70912326744
 20
881615.68459995324
 30
0.0
  0
VERTEX
  5
2CC
  8
CONTOUR_LINES_30CM
 10
550361.00322327099
 20
881615.68553785782
 30
0.0
  0
SEQEND
  5
2CD
  8
CONTOUR_LINES_30CM
  0
POLYLINE
  5
4B
  8
CONTOUR_LINES_30CM
 66
     1
 10
0.0
 20
0.0
 30
0.0
  0
VERTEX
  5
2CE
  8
CONTOUR_LINES_30CM
 10
550364.45728123479
 20
881590.9584515281
 30
0.0
  0
VERTEX
  5
2CF
  8
CONTOUR_LINES_30CM
 10
550366.26425095554
 20
881591.44683994458
 30
0.0
  0
VERTEX
  5
2D0
  8
CONTOUR_LINES_30CM
 10
550367.09046628745
 20
881591.64814371895
 30
0.0
  0
VERTEX
  5
2D1
  8
CONTOUR_LINES_30CM
 10
550367.09046628745
 20
881591.64814371895
 30
0.0
  0
VERTEX
  5
2D2
  8
CONTOUR_LINES_30CM
 10
550368.83996250015
 20
881591.97916325275
 30
0.0
  0
VERTEX
  5
2D3
  8
CONTOUR_LINES_30CM
 10
550370.92121450149
 20
881592.15384309925
 30
0.0
  0
VERTEX
  5
2D4
  8
CONTOUR_LINES_30CM
 10
550372.55214163486
 20
881592.07349996362
 30
0.0
  0
VERTEX
  5
2D5
  8
CONTOUR_LINES_30CM
 10
550373.76347888052
 20
881591.86276177352
 30
0.0
  0
VERTEX
  5
2D6
  8
CONTOUR_LINES_30CM
 10
550375.22901693953
 20
881591.44865975063
 30
0.0
  0
VERTEX
  5
2D7
  8
CONTOUR_LINES_30CM
 10
550375.73534428293
 20
881591.2724654841
 30
0.0
  0
VERTEX
  5
2D8
  8
CONTOUR_LINES_30CM
 10
550376.16384563711
 20
881591.11244837474
 30
0.0
  0
VERTEX
  5
2D9
  8
CONTOUR_LINES_30CM
 10
550376.50223432342
 20
881590.97987922328
 30
0.0
  0
VERTEX
  5
2DA
  8
CONTOUR_LINES_30CM
 10
550377.29999362607
 20
881590.64952239976
 30
0.0
  0
VERTEX
  5
2DB
  8
CONTOUR_LINES_30CM
 10
550377.85327618837
 20
881590.40927058761
 30
0.0
  0
VERTEX
  5
2DC
  8
CONTOUR_LINES_30CM
 10
550378.70869169862
 20
881590.02695943136
 30
0.0
  0
VERTEX
  5
2DD
  8
CONTOUR_LINES_30CM
 10
550379.23258974473
 20
881589.78914769157
 30
0.0
  0
VERTEX
  5
2DE
  8
CONTOUR_LINES_30CM
 10
550379.96545879822
 20
881589.4557282083
 30
0.0
  0
VERTEX
  5
2DF
  8
CONTOUR_LINES_30CM
 10
550380.57674190204
 20
881589.18011736544
 30
0.0
  0
VERTEX
  5
2E0
  8
CONTOUR_LINES_30CM
 10
550381.49424098455
 20
881588.77717154089
 30
0.0
  0
VERTEX
  5
2E1
  8
CONTOUR_LINES_30CM
 10
550383.1295447296
 20
881588.11612228199
 30
0.0
  0
VERTEX
  5
2E2
  8
CONTOUR_LINES_30CM
 10
550384.40395444841
 20
881587.67504372564
 30
0.0
  0
VERTEX
  5
2E3
  8
CONTOUR_LINES_30CM
 10
550385.06090464431
 20
881587.47890878981
 30
0.0
  0
VERTEX
  5
2E4
  8
CONTOUR_LINES_30CM
 10
550385.85550937627
 20
881587.27272335184
 30
0.0
  0
VERTEX
  5
2E5
  8
CONTOUR_LINES_30CM
 10
550386.87409633875
 20
881587.06043390569
 30
0.0
  0
VERTEX
  5
2E6
  8
CONTOUR_LINES_30CM
 10
550387.65863312199
 20
881586.93910484738
 30
0.0
  0
VERTEX
  5
2E7
  8
CONTOUR_LINES_30CM
 10
550388.95571223355
 20
881586.82616543479
 30
0.0
  0
VERTEX
  5
2E8
  8
CONTOUR_LINES_30CM
 10
550389.83058769652
 20
881586.81795875134
 30
0.0
  0
VERTEX
  5
2E9
  8
CONTOUR_LINES_30CM
 10
550390.97182357847
 20
881586.90075868543
 30
0.0
  0
VERTEX
  5
2EA
  8
CONTOUR_LINES_30CM
 10
550392.46920448635
 20
881587.1984542585
 30
0.0
  0
VERTEX
  5
2EB
  8
CONTOUR_LINES_30CM
 10
550393.55268967792
 20
881587.57750736829
 30
0.0
  0
VERTEX
  5
2EC
  8
CONTOUR_LINES_30CM
 10
550394.13368714589
 20
881587.84829144354
 30
0.0
  0
VERTEX
  5
2ED
  8
CONTOUR_LINES_30CM
 10
550394.71058942331
 20
881588.1711652556
 30
0.0
  0
VERTEX
  5
2EE
  8
CONTOUR_LINES_30CM
 10
550395.60433415254
 20
881588.79960691114
 30
0.0
  0
VERTEX
  5
2EF
  8
CONTOUR_LINES_30CM
 10
550396.52172906906
 20
881589.66419431905
 30
0.0
  0
VERTEX
  5
2F0
  8
CONTOUR_LINES_30CM
 10
550396.98187851929
 20
881590.22136511444
 30
0.0
  0
VERTEX
  5
2F1
  8
CONTOUR_LINES_30CM
 10
550397.43775412359
 20
881590.904578457
 30
0.0
  0
VERTEX
  5
2F2
  8
CONTOUR_LINES_30CM
 10
550397.69443419424
 20
881591.38451291225
 30
0.0
  0
VERTEX
  5
2F3
  8
CONTOUR_LINES_30CM
 10
550398.03922611556
 20
881592.27129263768
 30
0.0
  0
VERTEX
  5
2F4
  8
CONTOUR_LINES_30CM
 10
550398.18818222452
 20
881592.93444892869
 30
0.0
  0
VERTEX
  5
2F5
  8
CONTOUR_LINES_30CM
 10
550398.16123786569
 20
881593.96944851358
 30
0.0
  0
VERTEX
  5
2F6
  8
CONTOUR_LINES_30CM
 10
550397.84281834005
 20
881595.24660121626
 30
0.0
  0
VERTEX
  5
2F7
  8
CONTOUR_LINES_30CM
 10
550397.53432806674
 20
881596.30973736069
 30
0.0
  0
VERTEX
  5
2F8
  8
CONTOUR_LINES_30CM
 10
550397.294609932
 20
881597.05389687745
 30
0.0
  0
VERTEX
  5
2F9
  8
CONTOUR_LINES_30CM
 10
550396.95381340489
 20
881598.01912531164
 30
0.0
  0
VERTEX
  5
2FA
  8
CONTOUR_LINES_30CM
 10
550396.48526735976
 20
881599.20975474466
 30
0.0
  0
VERTEX
  5
2FB
  8
CONTOUR_LINES_30CM
 10
550396.16805523855
 20
881599.94506473956
 30
0.0
  0
VERTEX
  5
2FC
  8
CONTOUR_LINES_30CM
 10
550395.73078938888
 20
881600.88286447956
 30
0.0
  0
VERTEX
  5
2FD
  8
CONTOUR_LINES_30CM
 10
550395.32189128653
 20
881601.69260709384
 30
0.0
  0
VERTEX
  5
2FE
  8
CONTOUR_LINES_30CM
 10
550394.72337333555
 20
881602.77968507446
 30
0.0
  0
VERTEX
  5
2FF
  8
CONTOUR_LINES_30CM
 10
550393.36105237936
 20
881604.90808993729
 30
0.0
  0
VERTEX
  5
300
  8
CONTOUR_LINES_30CM
 10
550392.47791040002
 20
881606.08256333182
 30
0.0
  0
VERTEX
  5
301
  8
CONTOUR_LINES_30CM
 10
550391.75795577222
 20
881606.94128667307
 30
0.0
  0
VERTEX
  5
302
  8
CONTOUR_LINES_30CM
 10
550391.03679133544
 20
881607.72269122407
 30
0.0
  0
VERTEX
  5
303
  8
CONTOUR_LINES_30CM
 10
550390.30187693867
 20
881608.44545201398
 30
0.0
  0
VERTEX
  5
304
  8
CONTOUR_LINES_30CM
 10
550389.60925433889
 20
881609.06422121287
 30
0.0
  0
VERTEX
  5
305
  8
CONTOUR_LINES_30CM
 10
550388.93744051864
 20
881609.61069376138
 30
0.0
  0
VERTEX
  5
306
  8
CONTOUR_LINES_30CM
 10
550388.06611393928
 20
881610.24604661309
 30
0.0
  0
VERTEX
  5
307
  8
CONTOUR_LINES_30CM
 10
550387.21022583335
 20
881610.79473328928
 30
0.0
  0
VERTEX
  5
308
  8
CONTOUR_LINES_30CM
 10
550386.25995180744
 20
881611.3221255074
 30
0.0
  0
VERTEX
  5
309
  8
CONTOUR_LINES_30CM
 10
550385.48615004146
 20
881611.69172854105
 30
0.0
  0
VERTEX
  5
30A
  8
CONTOUR_LINES_30CM
 10
550383.98604564683
 20
881612.28798531345
 30
0.0
  0
VERTEX
  5
30B
  8
CONTOUR_LINES_30CM
 10
550382.26943330478
 20
881612.86615288479
 30
0.0
  0
VERTEX
  5
30C
  8
CONTOUR_LINES_30CM
 10
550381.57932650589
 20
881613.09013966238
 30
0.0
  0
VERTEX
  5
30D
  8
CONTOUR_LINES_30CM
 10
550380.3281892112
 20
881613.51422264054
 30
0.0
  0
VERTEX
  5
30E
  8
CONTOUR_LINES_30CM
 10
550379.45045048918
 20
881613.8432133774
 30
0.0
  0
VERTEX
  5
30F
  8
CONTOUR_LINES_30CM
 10
550376.47723409662
 20
881615.11710055475
 30
0.0
  0
VERTEX
  5
310
  8
CONTOUR_LINES_30CM
 10
550375.9654859869
 20
881615.34573983122
 30
0.0
  0
VERTEX
  5
311
  8
CONTOUR_LINES_30CM
 10
550373.9508433413
 20
881616.2145149858
 30
0.0
  0
VERTEX
  5
312
  8
CONTOUR_LINES_30CM
 10
550373.02770428988
 20
881616.58000996907
 30
0.0
  0
VERTEX
  5
313
  8
CONTOUR_LINES_30CM
 10
550371.60151423817
 20
881617.08689169248
 30
0.0
  0
VERTEX
  5
314
  8
CONTOUR_LINES_30CM
 10
550370.61918925284
 20
881617.39009795396
 30
0.0
  0
VERTEX
  5
315
  8
CONTOUR_LINES_30CM
 10
550369.77894166787
 20
881617.61987358856
 30
0.0
  0
VERTEX
  5
316
  8
CONTOUR_LINES_30CM
 10
550369.15546967613
 20
881617.77528139879
 30
0.0
  0
VERTEX
  5
317
  8
CONTOUR_LINES_30CM
 10
550368.45072730212
 20
881617.93743731349
 30
0.0
  0
VERTEX
  5
318
  8
CONTOUR_LINES_30CM
 10
550367.50318652031
 20
881618.13528597821
 30
0.0
  0
VERTEX
  5
319
  8
CONTOUR_LINES_30CM
 10
550366.57056847576
 20
881618.30953100917
 30
0.0
  0
VERTEX
  5
31A
  8
CONTOUR_LINES_30CM
 10
550365.32214771665
 20
881618.51317576179
 30
0.0
  0
VERTEX
  5
31B
  8
CONTOUR_LINES_30CM
 10
550364.36638244963
 20
881618.64651979145
 30
0.0
  0
VERTEX
  5
31C
  8
CONTOUR_LINES_30CM
 10
550363.10285245266
 20
881618.79042282305
 30
0.0
  0
VERTEX
  5
31D
  8
CONTOUR_LINES_30CM
 10
550362.06864432327
 20
881618.87430594501
 30
0.0
  0
VERTEX
  5
31E
  8
CONTOUR_LINES_30CM
 10
550360.57623165753
 20
881618.90796016809
 30
0.0
  0
SEQEND
  5
31F
  8
CONTOUR_LINES_30CM
  0
POLYLINE
  5
4C
  8
CONTOUR_LINES_30CM
 66
     1
 10
0.0
 20
0.0
 30
0.0
  0
VERTEX
  5
320
  8
CONTOUR_LINES_30CM
 10
550360.38373052771
 20
881621.42147967033
 30
0.0
  0
VERTEX
  5
321
  8
CONTOUR_LINES_30CM
 10
550362.674680767
 20
881621.47519959044
 30
0.0
  0
VERTEX
  5
322
  8
CONTOUR_LINES_30CM
 10
550366.64073286799
 20
881621.62201311858
 30
0.0
  0
VERTEX
  5
323
  8
CONTOUR_LINES_30CM
 10
550370.92537686136
 20
881621.37291510415
 30
0.0
  0
VERTEX
  5
324
  8
CONTOUR_LINES_30CM
 10
550374.24043415708
 20
881620.54213062976
 30
0.0
  0
VERTEX
  5
325
  8
CONTOUR_LINES_30CM
 10
550377.77952247486
 20
881618.98629781615
 30
0.0
  0
VERTEX
  5
326
  8
CONTOUR_LINES_30CM
 10
550380.50791149854
 20
881617.31176713516
 30
0.0
  0
VERTEX
  5
327
  8
CONTOUR_LINES_30CM
 10
550382.59694667207
 20
881615.74015888188
 30
0.0
  0
VERTEX
  5
328
  8
CONTOUR_LINES_30CM
 10
550384.74596827338
 20
881613.97873141442
 30
0.0
  0
VERTEX
  5
329
  8
CONTOUR_LINES_30CM
 10
550387.24468356185
 20
881612.04462897195
 30
0.0
  0
VERTEX
  5
32A
  8
CONTOUR_LINES_30CM
 10
550389.72153056494
 20
881610.52106843155
 30
0.0
  0
VERTEX
  5
32B
  8
CONTOUR_LINES_30CM
 10
550393.6552131155
 20
881607.80758020899
 30
0.0
  0
VERTEX
  5
32C
  8
CONTOUR_LINES_30CM
 10
550396.55995267036
 20
881604.53006552812
 30
0.0
  0
VERTEX
  5
32D
  8
CONTOUR_LINES_30CM
 10
550398.40250125958
 20
881602.13308954949
 30
0.0
  0
VERTEX
  5
32E
  8
CONTOUR_LINES_30CM
 10
550399.75517409272
 20
881600.19782003295
 30
0.0
  0
VERTEX
  5
32F
  8
CONTOUR_LINES_30CM
 10
550401.12244425318
 20
881598.00449380465
 30
0.0
  0
VERTEX
  5
330
  8
CONTOUR_LINES_30CM
 10
550401.69370334689
 20
881596.60822320136
 30
0.0
  0
VERTEX
  5
331
  8
CONTOUR_LINES_30CM
 10
550401.8122416673
 20
881595.59112212819
 30
0.0
  0
VERTEX
  5
332
  8
CONTOUR_LINES_30CM
 10
550401.43763028306
 20
881593.32594848133
 30
0.0
  0
VERTEX
  5
333
  8
CONTOUR_LINES_30CM
 10
550399.94302730565
 20
881590.4455790564
 30
0.0
  0
VERTEX
  5
334
  8
CONTOUR_LINES_30CM
 10
550399.15839194949
 20
881589.4416763304
 30
0.0
  0
VERTEX
  5
335
  8
CONTOUR_LINES_30CM
 10
550396.76904899615
 20
881587.23267806438
 30
0.0
  0
VERTEX
  5
336
  8
CONTOUR_LINES_30CM
 10
550394.93551484949
 20
881586.14445802185
 30
0.0
  0
VERTEX
  5
337
  8
CONTOUR_LINES_30CM
 10
550392.93808809505
 20
881585.45709639555
 30
0.0
  0
VERTEX
  5
338
  8
CONTOUR_LINES_30CM
 10
550391.65768963273
 20
881585.24572111596
 30
0.0
  0
VERTEX
  5
339
  8
CONTOUR_LINES_30CM
 10
550389.90837298741
 20
881585.20132815954
 30
0.0
  0
VERTEX
  5
33A
  8
CONTOUR_LINES_30CM
 10
550388.30527565454
 20
881585.37498058658
 30
0.0
  0
VERTEX
  5
33B
  8
CONTOUR_LINES_30CM
 10
550385.45996305801
 20
881586.10230642406
 30
0.0
  0
VERTEX
  5
33C
  8
CONTOUR_LINES_30CM
 10
550382.76175748545
 20
881587.18551385438
 30
0.0
  0
VERTEX
  5
33D
  8
CONTOUR_LINES_30CM
 10
550379.63118488586
 20
881588.68915584357
 30
0.0
  0
VERTEX
  5
33E
  8
CONTOUR_LINES_30CM
 10
550376.94630529557
 20
881589.89759575215
 30
0.0
  0
VERTEX
  5
33F
  8
CONTOUR_LINES_30CM
 10
550374.37954014831
 20
881590.72347003978
 30
0.0
  0
VERTEX
  5
340
  8
CONTOUR_LINES_30CM
 10
550369.52936826355
 20
881590.94024147571
 30
0.0
  0
VERTEX
  5
341
  8
CONTOUR_LINES_30CM
 10
550366.36777368526
 20
881590.49509311246
 30
0.0
  0
VERTEX
  5
342
  8
CONTOUR_LINES_30CM
 10
550363.93054132944
 20
881590.12057468703
 30
0.0
  0
SEQEND
  5
343
  8
CONTOUR_LINES_30CM
  0
POLYLINE
  5
4D
  8
CONTOUR_LINES_30CM
 66
     1
 10
0.0
 20
0.0
 30
0.0
  0
VERTEX
  5
344
  8
CONTOUR_LINES_30CM
 10
550362.21594083239
 20
881629.70586223155
 30
0.0
  0
VERTEX
  5
345
  8
CONTOUR_LINES_30CM
 10
550364.00947102695
 20
881630.05938302469
 30
0.0
  0
VERTEX
  5
346
  8
CONTOUR_LINES_30CM
 10
550366.71717943903
 20
881630.32870180416
 30
0.0
  0
VERTEX
  5
347
  8
CONTOUR_LINES_30CM
 10
550368.82567375503
 20
881630.33739648003
 30
0.0
  0
VERTEX
  5
348
  8
CONTOUR_LINES_30CM
 10
550370.30581427296
 20
881630.24613211339
 30
0.0
  0
VERTEX
  5
349
  8
CONTOUR_LINES_30CM
 10
550375.60166225862
 20
881629.31668600696
 30
0.0
  0
VERTEX
  5
34A
  8
CONTOUR_LINES_30CM
 10
550377.96778462688
 20
881628.61585237482
 30
0.0
  0
VERTEX
  5
34B
  8
CONTOUR_LINES_30CM
 10
550380.50933965051
 20
881627.63296189031
 30
0.0
  0
VERTEX
  5
34C
  8
CONTOUR_LINES_30CM
 10
550381.96098901716
 20
881626.92434522661
 30
0.0
  0
VERTEX
  5
34D
  8
CONTOUR_LINES_30CM
 10
550383.04630558472
 20
881626.29998449644
 30
0.0
  0
VERTEX
  5
34E
  8
CONTOUR_LINES_30CM
 10
550384.77551674214
 20
881625.07486943237
 30
0.0
  0
VERTEX
  5
34F
  8
CONTOUR_LINES_30CM
 10
550385.80633128318
 20
881624.15250384482
 30
0.0
  0
VERTEX
  5
350
  8
CONTOUR_LINES_30CM
 10
550386.71068677329
 20
881623.16308466555
 30
0.0
  0
VERTEX
  5
351
  8
CONTOUR_LINES_30CM
 10
550388.63200893777
 20
881620.10499342298
 30
0.0
  0
VERTEX
  5
352
  8
CONTOUR_LINES_30CM
 10
550390.01455458056
 20
881617.81830187514
 30
0.0
  0
VERTEX
  5
353
  8
CONTOUR_LINES_30CM
 10
550391.03238034726
 20
881616.73386777414
 30
0.0
  0
VERTEX
  5
354
  8
CONTOUR_LINES_30CM
 10
550394.60334732593
 20
881614.72727072542
 30
0.0
  0
VERTEX
  5
355
  8
CONTOUR_LINES_30CM
 10
550395.53881673468
 20
881614.23855910415
 30
0.0
  0
VERTEX
  5
356
  8
CONTOUR_LINES_30CM
 10
550397.7373632493
 20
881612.47889141296
 30
0.0
  0
VERTEX
  5
357
  8
CONTOUR_LINES_30CM
 10
550399.88360565971
 20
881609.68420906051
 30
0.0
  0
VERTEX
  5
358
  8
CONTOUR_LINES_30CM
 10
550401.70612795395
 20
881608.1732351525
 30
0.0
  0
VERTEX
  5
359
  8
CONTOUR_LINES_30CM
 10
550404.95761135174
 20
881607.38264986849
 30
0.0
  0
VERTEX
  5
35A
  8
CONTOUR_LINES_30CM
 10
550406.56155738828
 20
881607.25743725791
 30
0.0
  0
VERTEX
  5
35B
  8
CONTOUR_LINES_30CM
 10
550409.51649347716
 20
881606.95144636906
 30
0.0
  0
VERTEX
  5
35C
  8
CONTOUR_LINES_30CM
 10
550411.27145559015
 20
881606.34802793141
 30
0.0
  0
VERTEX
  5
35D
  8
CONTOUR_LINES_30CM
 10
550412.54458408314
 20
881604.66241309245
 30
0.0
  0
SEQEND
  5
35E
  8
CONTOUR_LINES_30CM
  0
POLYLINE
  5
4E
  8
CONTOUR_LINES_30CM
 66
     1
 10
0.0
 20
0.0
 30
0.0
  0
VERTEX
  5
35F
  8
CONTOUR_LINES_30CM
 10
550500.94387959177
 20
881661.01360084757
 30
0.0
  0
VERTEX
  5
360
  8
CONTOUR_LINES_30CM
 10
550500.09722153796
 20
881660.97700186924
 30
0.0
  0
VERTEX
  5
361
  8
CONTOUR_LINES_30CM
 10
550499.33762869984
 20
881660.88274204358
 30
0.0
  0
VERTEX
  5
362
  8
CONTOUR_LINES_30CM
 10
550498.77662794094
 20
881660.77613373706
 30
0.0
  0
VERTEX
  5
363
  8
CONTOUR_LINES_30CM
 10
550498.13906554133
 20
881660.61660666426
 30
0.0
  0
VERTEX
  5
364
  8
CONTOUR_LINES_30CM
 10
550497.42795216059
 20
881660.38963655115
 30
0.0
  0
VERTEX
  5
365
  8
CONTOUR_LINES_30CM
 10
550496.88642907515
 20
881660.18104172545
 30
0.0
  0
VERTEX
  5
366
  8
CONTOUR_LINES_30CM
 10
550496.16296557453
 20
881659.8518173456
 30
0.0
  0
VERTEX
  5
367
  8
CONTOUR_LINES_30CM
 10
550495.33363686863
 20
881659.39822130685
 30
0.0
  0
VERTEX
  5
368
  8
CONTOUR_LINES_30CM
 10
550494.89586492092
 20
881659.12310005515
 30
0.0
  0
VERTEX
  5
369
  8
CONTOUR_LINES_30CM
 10
550494.01486404915
 20
881658.48536600138
 30
0.0
  0
VERTEX
  5
36A
  8
CONTOUR_LINES_30CM
 10
550493.52132507251
 20
881658.07252997975
 30
0.0
  0
VERTEX
  5
36B
  8
CONTOUR_LINES_30CM
 10
550493.07203930803
 20
881657.65638984134
 30
0.0
  0
VERTEX
  5
36C
  8
CONTOUR_LINES_30CM
 10
550492.33720962063
 20
881656.87706343608
 30
0.0
  0
VERTEX
  5
36D
  8
CONTOUR_LINES_30CM
 10
550491.73077065055
 20
881656.11741412885
 30
0.0
  0
VERTEX
  5
36E
  8
CONTOUR_LINES_30CM
 10
550490.69269481592
 20
881654.44193676405
 30
0.0
  0
VERTEX
  5
36F
  8
CONTOUR_LINES_30CM
 10
550490.39114727115
 20
881653.82674787415
 30
0.0
  0
VERTEX
  5
370
  8
CONTOUR_LINES_30CM
 10
550489.67806449474
 20
881652.08533313405
 30
0.0
  0
VERTEX
  5
371
  8
CONTOUR_LINES_30CM
 10
550489.21640055208
 20
881650.75129164476
 30
0.0
  0
VERTEX
  5
372
  8
CONTOUR_LINES_30CM
 10
550488.81428548135
 20
881649.51498713775
 30
0.0
  0
VERTEX
  5
373
  8
CONTOUR_LINES_30CM
 10
550488.20849785861
 20
881647.72408842586
 30
0.0
  0
VERTEX
  5
374
  8
CONTOUR_LINES_30CM
 10
550487.38577128726
 20
881645.81237289787
 30
0.0
  0
VERTEX
  5
375
  8
CONTOUR_LINES_30CM
 10
550486.6891826184
 20
881644.7196248665
 30
0.0
  0
VERTEX
  5
376
  8
CONTOUR_LINES_30CM
 10
550486.21799367876
 20
881644.19701239374
 30
0.0
  0
VERTEX
  5
377
  8
CONTOUR_LINES_30CM
 10
550485.35090785567
 20
881643.56626544485
 30
0.0
  0
VERTEX
  5
378
  8
CONTOUR_LINES_30CM
 10
550483.70994678
 20
881643.03815890662
 30
0.0
  0
VERTEX
  5
379
  8
CONTOUR_LINES_30CM
 10
550483.1328973819
 20
881642.95610627648
 30
0.0
  0
VERTEX
  5
37A
  8
CONTOUR_LINES_30CM
 10
550481.93275086046
 20
881642.87059069634
 30
0.0
  0
VERTEX
  5
37B
  8
CONTOUR_LINES_30CM
 10
550480.40985906043
 20
881642.84121423389
 30
0.0
  0
VERTEX
  5
37C
  8
CONTOUR_LINES_30CM
 10
550479.29519054596
 20
881642.8266683534
 30
0.0
  0
VERTEX
  5
37D
  8
CONTOUR_LINES_30CM
 10
550477.68647444504
 20
881642.75490853866
 30
0.0
  0
VERTEX
  5
37E
  8
CONTOUR_LINES_30CM
 10
550475.76406290918
 20
881642.49639483623
 30
0.0
  0
VERTEX
  5
37F
  8
CONTOUR_LINES_30CM
 10
550475.26380142826
 20
881642.38272156543
 30
0.0
  0
VERTEX
  5
380
  8
CONTOUR_LINES_30CM
 10
550474.77615755389
 20
881642.24830422725
 30
0.0
  0
VERTEX
  5
381
  8
CONTOUR_LINES_30CM
 10
550474.26260566525
 20
881642.07843680389
 30
0.0
  0
VERTEX
  5
382
  8
CONTOUR_LINES_30CM
 10
550473.68669015775
 20
881641.85022613825
 30
0.0
  0
VERTEX
  5
383
  8
CONTOUR_LINES_30CM
 10
550473.17317083105
 20
881641.60901976784
 30
0.0
  0
VERTEX
  5
384
  8
CONTOUR_LINES_30CM
 10
550472.72949515947
 20
881641.36712543911
 30
0.0
  0
VERTEX
  5
385
  8
CONTOUR_LINES_30CM
 10
550472.27489167603
 20
881641.08007278119
 30
0.0
  0
VERTEX
  5
386
  8
CONTOUR_LINES_30CM
 10
550471.93459648732
 20
881640.83271676477
 30
0.0
  0
VERTEX
  5
387
  8
CONTOUR_LINES_30CM
 10
550471.44087902748
 20
881640.40628520353
 30
0.0
  0
VERTEX
  5
388
  8
CONTOUR_LINES_30CM
 10
550471.14759881713
 20
881640.09849237744
 30
0.0
  0
VERTEX
  5
389
  8
CONTOUR_LINES_30CM
 10
550470.76914814487
 20
881639.59886414616
 30
0.0
  0
VERTEX
  5
38A
  8
CONTOUR_LINES_30CM
 10
550470.61401770695
 20
881639.33591478562
 30
0.0
  0
VERTEX
  5
38B
  8
CONTOUR_LINES_30CM
 10
550470.41499324469
 20
881638.89106167387
 30
0.0
  0
VERTEX
  5
38C
  8
CONTOUR_LINES_30CM
 10
550470.28563071147
 20
881638.42012233136
 30
0.0
  0
VERTEX
  5
38D
  8
CONTOUR_LINES_30CM
 10
550470.23310287378
 20
881637.7415608014
 30
0.0
  0
VERTEX
  5
38E
  8
CONTOUR_LINES_30CM
 10
550470.30844423594
 20
881637.03670102835
 30
0.0
  0
VERTEX
  5
38F
  8
CONTOUR_LINES_30CM
 10
550470.43104520824
 20
881636.49647502811
 30
0.0
  0
VERTEX
  5
390
  8
CONTOUR_LINES_30CM
 10
550470.67810747051
 20
881635.71595686581
 30
0.0
  0
VERTEX
  5
391
  8
CONTOUR_LINES_30CM
 10
550470.92691959243
 20
881635.06449986715
 30
0.0
  0
VERTEX
  5
392
  8
CONTOUR_LINES_30CM
 10
550471.07770732278
 20
881634.69723330624
 30
0.0
  0
VERTEX
  5
393
  8
CONTOUR_LINES_30CM
 10
550471.27531447983
 20
881634.2299699632
 30
0.0
  0
VERTEX
  5
394
  8
CONTOUR_LINES_30CM
 10
550471.57839661418
 20
881633.51580140821
 30
0.0
  0
VERTEX
  5
395
  8
CONTOUR_LINES_30CM
 10
550471.88361790695
 20
881632.75346452708
 30
0.0
  0
VERTEX
  5
396
  8
CONTOUR_LINES_30CM
 10
550472.04295884655
 20
881632.3082190383
 30
0.0
  0
VERTEX
  5
397
  8
CONTOUR_LINES_30CM
 10
550472.29243620683
 20
881631.40642157651
 30
0.0
  0
VERTEX
  5
398
  8
CONTOUR_LINES_30CM
 10
550472.38521612587
 20
881630.58435823105
 30
0.0
  0
VERTEX
  5
399
  8
CONTOUR_LINES_30CM
 10
550472.31197286805
 20
881629.92553087184
 30
0.0
  0
VERTEX
  5
39A
  8
CONTOUR_LINES_30CM
 10
550472.00112430903
 20
881629.21946663375
 30
0.0
  0
VERTEX
  5
39B
  8
CONTOUR_LINES_30CM
 10
550471.71040008031
 20
881628.86860556016
 30
0.0
  0
VERTEX
  5
39C
  8
CONTOUR_LINES_30CM
 10
550471.10699093761
 20
881628.27144749544
 30
0.0
  0
VERTEX
  5
39D
  8
CONTOUR_LINES_30CM
 10
550470.72035182174
 20
881627.92289611604
 30
0.0
  0
VERTEX
  5
39E
  8
CONTOUR_LINES_30CM
 10
550470.24296443386
 20
881627.50912434014
 30
0.0
  0
VERTEX
  5
39F
  8
CONTOUR_LINES_30CM
 10
550469.75804775464
 20
881627.10255549161
 30
0.0
  0
VERTEX
  5
3A0
  8
CONTOUR_LINES_30CM
 10
550469.41364719905
 20
881626.81949625781
 30
0.0
  0
VERTEX
  5
3A1
  8
CONTOUR_LINES_30CM
 10
550469.05430582014
 20
881626.5271683574
 30
0.0
  0
VERTEX
  5
3A2
  8
CONTOUR_LINES_30CM
 10
550468.53391365253
 20
881626.10563984537
 30
0.0
  0
VERTEX
  5
3A3
  8
CONTOUR_LINES_30CM
 10
550468.23272541654
 20
881625.86078070779
 30
0.0
  0
VERTEX
  5
3A4
  8
CONTOUR_LINES_30CM
 10
550467.92713828303
 20
881625.61032634275
 30
0.0
  0
VERTEX
  5
3A5
  8
CONTOUR_LINES_30CM
 10
550467.65102172166
 20
881625.38133251364
 30
0.0
  0
VERTEX
  5
3A6
  8
CONTOUR_LINES_30CM
 10
550466.34228911134
 20
881624.23247784504
 30
0.0
  0
VERTEX
  5
3A7
  8
CONTOUR_LINES_30CM
 10
550464.96781366691
 20
881622.81104157574
 30
0.0
  0
VERTEX
  5
3A8
  8
CONTOUR_LINES_30CM
 10
550464.4337624514
 20
881622.15492565616
 30
0.0
  0
VERTEX
  5
3A9
  8
CONTOUR_LINES_30CM
 10
550463.75166282488
 20
881621.18205584865
 30
0.0
  0
VERTEX
  5
3AA
  8
CONTOUR_LINES_30CM
 10
550463.0505844506
 20
881619.94234194118
 30
0.0
  0
VERTEX
  5
3AB
  8
CONTOUR_LINES_30CM
 10
550462.6053910089
 20
881618.96455127548
 30
0.0
  0
VERTEX
  5
3AC
  8
CONTOUR_LINES_30CM
 10
550462.23919829295
 20
881617.99334030505
 30
0.0
  0
VERTEX
  5
3AD
  8
CONTOUR_LINES_30CM
 10
550461.90446573845
 20
881616.88366097945
 30
0.0
  0
VERTEX
  5
3AE
  8
CONTOUR_LINES_30CM
 10
550461.55224636279
 20
881615.10065417713
 30
0.0
  0
VERTEX
  5
3AF
  8
CONTOUR_LINES_30CM
 10
550461.4889544585
 20
881614.48771307245
 30
0.0
  0
VERTEX
  5
3B0
  8
CONTOUR_LINES_30CM
 10
550461.54433060612
 20
881612.54991753213
 30
0.0
  0
VERTEX
  5
3B1
  8
CONTOUR_LINES_30CM
 10
550461.6439575674
 20
881612.05513261503
 30
0.0
  0
VERTEX
  5
3B2
  8
CONTOUR_LINES_30CM
 10
550462.10452526831
 20
881610.92585505289
 30
0.0
  0
VERTEX
  5
3B3
  8
CONTOUR_LINES_30CM
 10
550463.28787918785
 20
881609.85985145776
 30
0.0
  0
VERTEX
  5
3B4
  8
CONTOUR_LINES_30CM
 10
550463.83597214252
 20
881609.63429745531
 30
0.0
  0
VERTEX
  5
3B5
  8
CONTOUR_LINES_30CM
 10
550465.60448698117
 20
881609.33408998605
 30
0.0
  0
VERTEX
  5
3B6
  8
CONTOUR_LINES_30CM
 10
550467.04869677778
 20
881609.34182699549
 30
0.0
  0
VERTEX
  5
3B7
  8
CONTOUR_LINES_30CM
 10
550468.77204369963
 20
881609.4992203135
 30
0.0
  0
VERTEX
  5
3B8
  8
CONTOUR_LINES_30CM
 10
550470.69493639993
 20
881609.77275723987
 30
0.0
  0
VERTEX
  5
3B9
  8
CONTOUR_LINES_30CM
 10
550472.07118837675
 20
881609.99336934183
 30
0.0
  0
VERTEX
  5
3BA
  8
CONTOUR_LINES_30CM
 10
550474.1135269308
 20
881610.31012445979
 30
0.0
  0
VERTEX
  5
3BB
  8
CONTOUR_LINES_30CM
 10
550476.88022420474
 20
881610.68746284314
 30
0.0
  0
VERTEX
  5
3BC
  8
CONTOUR_LINES_30CM
 10
550478.8275777396
 20
881610.91670989338
 30
0.0
  0
VERTEX
  5
3BD
  8
CONTOUR_LINES_30CM
 10
550480.78121863538
 20
881611.11657605064
 30
0.0
  0
VERTEX
  5
3BE
  8
CONTOUR_LINES_30CM
 10
550483.22512947558
 20
881611.324625568
 30
0.0
  0
VERTEX
  5
3BF
  8
CONTOUR_LINES_30CM
 10
550485.03466598713
 20
881611.44928818615
 30
0.0
  0
VERTEX
  5
3C0
  8
CONTOUR_LINES_30CM
 10
550486.95471223805
 20
881611.55519904231
 30
0.0
  0
VERTEX
  5
3C1
  8
CONTOUR_LINES_30CM
 10
550488.49067803344
 20
881611.6212277828
 30
0.0
  0
VERTEX
  5
3C2
  8
CONTOUR_LINES_30CM
 10
550489.64339382097
 20
881611.66040711245
 30
0.0
  0
VERTEX
  5
3C3
  8
CONTOUR_LINES_30CM
 10
550493.47854200355
 20
881611.7328001752
 30
0.0
  0
VERTEX
  5
3C4
  8
CONTOUR_LINES_30CM
 10
550494.52247495484
 20
881611.73887512204
 30
0.0
  0
VERTEX
  5
3C5
  8
CONTOUR_LINES_30CM
 10
550498.25901307515
 20
881611.72382439789
 30
0.0
  0
VERTEX
  5
3C6
  8
CONTOUR_LINES_30CM
 10
550500.89642222726
 20
881611.68921048625
 30
0.0
  0
VERTEX
  5
3C7
  8
CONTOUR_LINES_30CM
 10
550503.36916235473
 20
881611.6493718588
 30
0.0
  0
VERTEX
  5
3C8
  8
CONTOUR_LINES_30CM
 10
550506.50245021901
 20
881611.60358302214
 30
0.0
  0
VERTEX
  5
3C9
  8
CONTOUR_LINES_30CM
 10
550509.52813123667
 20
881611.58130937396
 30
0.0
  0
VERTEX
  5
3CA
  8
CONTOUR_LINES_30CM
 10
550513.59445197252
 20
881611.61285547225
 30
0.0
  0
VERTEX
  5
3CB
  8
CONTOUR_LINES_30CM
 10
550521.01989071222
 20
881611.86560349364
 30
0.0
  0
VERTEX
  5
3CC
  8
CONTOUR_LINES_30CM
 10
550521.01989071222
 20
881611.86560349364
 30
0.0
  0
VERTEX
  5
3CD
  8
CONTOUR_LINES_30CM
 10
550526.28175614227
 20
881612.17973851413
 30
0.0
  0
VERTEX
  5
3CE
  8
CONTOUR_LINES_30CM
 10
550528.79389935557
 20
881612.36493346083
 30
0.0
  0
VERTEX
  5
3CF
  8
CONTOUR_LINES_30CM
 10
550532.90695044689
 20
881612.7130689919
 30
0.0
  0
VERTEX
  5
3D0
  8
CONTOUR_LINES_30CM
 10
550536.86263959005
 20
881613.09642589628
 30
0.0
  0
VERTEX
  5
3D1
  8
CONTOUR_LINES_30CM
 10
550540.36706064246
 20
881613.47238037933
 30
0.0
  0
VERTEX
  5
3D2
  8
CONTOUR_LINES_30CM
 10
550544.53783065756
 20
881613.96035662771
 30
0.0
  0
VERTEX
  5
3D3
  8
CONTOUR_LINES_30CM
 10
550548.28590275859
 20
881614.43307077268
 30
0.0
  0
VERTEX
  5
3D4
  8
CONTOUR_LINES_30CM
 10
550549.97171822784
 20
881614.65540262091
 30
0.0
  0
VERTEX
  5
3D5
  8
CONTOUR_LINES_30CM
 10
550556.16863590351
 20
881615.51931939297
 30
0.0
  0
VERTEX
  5
3D6
  8
CONTOUR_LINES_30CM
 10
550559.49907564465
 20
881616.0108253354
 30
0.0
  0
VERTEX
  5
3D7
  8
CONTOUR_LINES_30CM
 10
550566.13233286899
 20
881617.03756017762
 30
0.0
  0
VERTEX
  5
3D8
  8
CONTOUR_LINES_30CM
 10
550569.68656887778
 20
881617.60999749193
 30
0.0
  0
VERTEX
  5
3D9
  8
CONTOUR_LINES_30CM
 10
550572.5971005368
 20
881618.08843955712
 30
0.0
  0
VERTEX
  5
3DA
  8
CONTOUR_LINES_30CM
 10
550580.1573627824
 20
881619.36358601134
 30
0.0
  0
VERTEX
  5
3DB
  8
CONTOUR_LINES_30CM
 10
550585.89944899327
 20
881620.35414391058
 30
0.0
  0
VERTEX
  5
3DC
  8
CONTOUR_LINES_30CM
 10
550592.39049694315
 20
881621.48532563308
 30
0.0
  0
VERTEX
  5
3DD
  8
CONTOUR_LINES_30CM
 10
550597.28816581308
 20
881622.33982543775
 30
0.0
  0
VERTEX
  5
3DE
  8
CONTOUR_LINES_30CM
 10
550607.96734630375
 20
881624.17837223725
 30
0.0
  0
VERTEX
  5
3DF
  8
CONTOUR_LINES_30CM
 10
550615.7344849247
 20
881625.46853129775
 30
0.0
  0
VERTEX
  5
3E0
  8
CONTOUR_LINES_30CM
 10
550615.7344849247
 20
881625.46853129775
 30
0.0
  0
VERTEX
  5
3E1
  8
CONTOUR_LINES_30CM
 10
550620.82469604607
 20
881626.31850839127
 30
0.0
  0
SEQEND
  5
3E2
  8
CONTOUR_LINES_30CM
  0
POLYLINE
  5
4F
  8
CONTOUR_LINES_30CM
 66
     1
 10
0.0
 20
0.0
 30
0.0
  0
VERTEX
  5
3E3
  8
CONTOUR_LINES_30CM
 10
550469.24480855244
 20
881650.13881062565
 30
0.0
  0
VERTEX
  5
3E4
  8
CONTOUR_LINES_30CM
 10
550467.38939659542
 20
881649.91705041565
 30
0.0
  0
VERTEX
  5
3E5
  8
CONTOUR_LINES_30CM
 10
550467.38939659542
 20
881649.91705041565
 30
0.0
  0
VERTEX
  5
3E6
  8
CONTOUR_LINES_30CM
 10
550466.03270733939
 20
881649.39878544409
 30
0.0
  0
VERTEX
  5
3E7
  8
CONTOUR_LINES_30CM
 10
550464.98533822503
 20
881648.70556249446
 30
0.0
  0
VERTEX
  5
3E8
  8
CONTOUR_LINES_30CM
 10
550463.79635349265
 20
881647.46674166771
 30
0.0
  0
VERTEX
  5
3E9
  8
CONTOUR_LINES_30CM
 10
550462.96237314621
 20
881646.16809041565
 30
0.0
  0
VERTEX
  5
3EA
  8
CONTOUR_LINES_30CM
 10
550462.96237314621
 20
881646.16809041565
 30
0.0
  0
VERTEX
  5
3EB
  8
CONTOUR_LINES_30CM
 10
550461.97015038866
 20
881643.8456818643
 30
0.0
  0
VERTEX
  5
3EC
  8
CONTOUR_LINES_30CM
 10
550461.48330380348
 20
881642.18344651605
 30
0.0
  0
VERTEX
  5
3ED
  8
CONTOUR_LINES_30CM
 10
550460.96801183815
 20
881639.73830249661
 30
0.0
  0
VERTEX
  5
3EE
  8
CONTOUR_LINES_30CM
 10
550460.58393054723
 20
881637.09491284669
 30
0.0
  0
VERTEX
  5
3EF
  8
CONTOUR_LINES_30CM
 10
550460.3301517443
 20
881634.65930480335
 30
0.0
  0
VERTEX
  5
3F0
  8
CONTOUR_LINES_30CM
 10
550460.26199924271
 20
881633.87102009356
 30
0.0
  0
VERTEX
  5
3F1
  8
CONTOUR_LINES_30CM
 10
550459.98140028166
 20
881629.96910297871
 30
0.0
  0
VERTEX
  5
3F2
  8
CONTOUR_LINES_30CM
 10
550459.90593629645
 20
881628.80916780827
 30
0.0
  0
VERTEX
  5
3F3
  8
CONTOUR_LINES_30CM
 10
550459.85415993445
 20
881628.02169972041
 30
0.0
  0
VERTEX
  5
3F4
  8
CONTOUR_LINES_30CM
 10
550459.7087680609
 20
881625.9544841809
 30
0.0
  0
VERTEX
  5
3F5
  8
CONTOUR_LINES_30CM
 10
550459.39021148707
 20
881622.49837344931
 30
0.0
  0
VERTEX
  5
3F6
  8
CONTOUR_LINES_30CM
 10
550458.9952332346
 20
881619.75573501608
 30
0.0
  0
VERTEX
  5
3F7
  8
CONTOUR_LINES_30CM
 10
550458.42742881703
 20
881616.93052221672
 30
0.0
  0
VERTEX
  5
3F8
  8
CONTOUR_LINES_30CM
 10
550458.18573236431
 20
881615.59074803523
 30
0.0
  0
VERTEX
  5
3F9
  8
CONTOUR_LINES_30CM
 10
550457.96058406425
 20
881613.49577328761
 30
0.0
  0
VERTEX
  5
3FA
  8
CONTOUR_LINES_30CM
 10
550458.02284969843
 20
881610.82034819515
 30
0.0
  0
VERTEX
  5
3FB
  8
CONTOUR_LINES_30CM
 10
550458.34146719985
 20
881609.09367492027
 30
0.0
  0
VERTEX
  5
3FC
  8
CONTOUR_LINES_30CM
 10
550458.99433936668
 20
881607.43789479218
 30
0.0
  0
VERTEX
  5
3FD
  8
CONTOUR_LINES_30CM
 10
550460.7386222448
 20
881605.57425199274
 30
0.0
  0
VERTEX
  5
3FE
  8
CONTOUR_LINES_30CM
 10
550461.35150585847
 20
881605.22732655425
 30
0.0
  0
VERTEX
  5
3FF
  8
CONTOUR_LINES_30CM
 10
550462.50863797299
 20
881604.76538032095
 30
0.0
  0
VERTEX
  5
400
  8
CONTOUR_LINES_30CM
 10
550465.64778734907
 20
881604.20295983972
 30
0.0
  0
VERTEX
  5
401
  8
CONTOUR_LINES_30CM
 10
550467.41224706871
 20
881604.12666391325
 30
0.0
  0
VERTEX
  5
402
  8
CONTOUR_LINES_30CM
 10
550471.31837969215
 20
881604.23302626063
 30
0.0
  0
VERTEX
  5
403
  8
CONTOUR_LINES_30CM
 10
550474.37351644295
 20
881604.45196502306
 30
0.0
  0
VERTEX
  5
404
  8
CONTOUR_LINES_30CM
 10
550477.06680328678
 20
881604.72378304147
 30
0.0
  0
VERTEX
  5
405
  8
CONTOUR_LINES_30CM
 10
550480.77994064894
 20
881605.18969965389
 30
0.0
  0
VERTEX
  5
406
  8
CONTOUR_LINES_30CM
 10
550486.09499619971
 20
881605.92816132377
 30
0.0
  0
VERTEX
  5
407
  8
CONTOUR_LINES_30CM
 10
550486.90134269872
 20
881606.03632395749
 30
0.0
  0
VERTEX
  5
408
  8
CONTOUR_LINES_30CM
 10
550489.37178974494
 20
881606.34671795298
 30
0.0
  0
VERTEX
  5
409
  8
CONTOUR_LINES_30CM
 10
550494.26705616259
 20
881606.86650711473
 30
0.0
  0
VERTEX
  5
40A
  8
CONTOUR_LINES_30CM
 10
550495.7123912333
 20
881606.99812988844
 30
0.0
  0
VERTEX
  5
40B
  8
CONTOUR_LINES_30CM
 10
550508.07751612645
 20
881607.78772383684
 30
0.0
  0
VERTEX
  5
40C
  8
CONTOUR_LINES_30CM
 10
550510.10043532157
 20
881607.86717304285
 30
0.0
  0
VERTEX
  5
40D
  8
CONTOUR_LINES_30CM
 10
550513.93123831775
 20
881607.98453602125
 30
0.0
  0
VERTEX
  5
40E
  8
CONTOUR_LINES_30CM
 10
550519.87125331315
 20
881608.08731377835
 30
0.0
  0
VERTEX
  5
40F
  8
CONTOUR_LINES_30CM
 10
550523.82150042302
 20
881608.10651890351
 30
0.0
  0
VERTEX
  5
410
  8
CONTOUR_LINES_30CM
 10
550528.6362345207
 20
881608.08067450696
 30
0.0
  0
VERTEX
  5
411
  8
CONTOUR_LINES_30CM
 10
550535.53786858008
 20
881607.95505787269
 30
0.0
  0
VERTEX
  5
412
  8
CONTOUR_LINES_30CM
 10
550540.41158290696
 20
881607.80653444817
 30
0.0
  0
VERTEX
  5
413
  8
CONTOUR_LINES_30CM
 10
550548.87797560089
 20
881607.43409237743
 30
0.0
  0
VERTEX
  5
414
  8
CONTOUR_LINES_30CM
 10
550554.6976725565
 20
881607.09244690661
 30
0.0
  0
VERTEX
  5
415
  8
CONTOUR_LINES_30CM
 10
550561.74150877085
 20
881606.65799576335
 30
0.0
  0
VERTEX
  5
416
  8
CONTOUR_LINES_30CM
 10
550565.6538407309
 20
881606.53228797775
 30
0.0
  0
VERTEX
  5
417
  8
CONTOUR_LINES_30CM
 10
550572.93543858954
 20
881606.80444214703
 30
0.0
  0
VERTEX
  5
418
  8
CONTOUR_LINES_30CM
 10
550580.50309639797
 20
881607.95607619791
 30
0.0
  0
VERTEX
  5
419
  8
CONTOUR_LINES_30CM
 10
550583.49208494858
 20
881608.64349686005
 30
0.0
  0
VERTEX
  5
41A
  8
CONTOUR_LINES_30CM
 10
550583.49208494858
 20
881608.64349686005
 30
0.0
  0
VERTEX
  5
41B
  8
CONTOUR_LINES_30CM
 10
550590.14291898848
 20
881610.56461328221
 30
0.0
  0
VERTEX
  5
41C
  8
CONTOUR_LINES_30CM
 10
550596.23740878608
 20
881612.70690806094
 30
0.0
  0
VERTEX
  5
41D
  8
CONTOUR_LINES_30CM
 10
550603.13546987111
 20
881615.46252328379
 30
0.0
  0
VERTEX
  5
41E
  8
CONTOUR_LINES_30CM
 10
550605.92171578784
 20
881616.65476336936
 30
0.0
  0
VERTEX
  5
41F
  8
CONTOUR_LINES_30CM
 10
550608.68717004452
 20
881617.87595746736
 30
0.0
  0
VERTEX
  5
420
  8
CONTOUR_LINES_30CM
 10
550615.89137870166
 20
881621.22331112926
 30
0.0
  0
VERTEX
  5
421
  8
CONTOUR_LINES_30CM
 10
550621.83922152908
 20
881624.41284727026
 30
0.0
  0
SEQEND
  5
422
  8
CONTOUR_LINES_30CM
  0
POLYLINE
  5
50
  8
CONTOUR_LINES_30CM
 66
     1
 10
0.0
 20
0.0
 30
0.0
  0
VERTEX
  5
423
  8
CONTOUR_LINES_30CM
 10
550457.60296501336
 20
881648.77791683085
 30
0.0
  0
VERTEX
  5
424
  8
CONTOUR_LINES_30CM
 10
550456.94710016495
 20
881647.75400459347
 30
0.0
  0
VERTEX
  5
425
  8
CONTOUR_LINES_30CM
 10
550455.07468605286
 20
881644.77476434608
 30
0.0
  0
VERTEX
  5
426
  8
CONTOUR_LINES_30CM
 10
550453.64615537308
 20
881642.36081499758
 30
0.0
  0
VERTEX
  5
427
  8
CONTOUR_LINES_30CM
 10
550453.28744496638
 20
881641.72066702589
 30
0.0
  0
VERTEX
  5
428
  8
CONTOUR_LINES_30CM
 10
550452.30987514998
 20
881639.86894414772
 30
0.0
  0
VERTEX
  5
429
  8
CONTOUR_LINES_30CM
 10
550451.6581727562
 20
881638.50995399884
 30
0.0
  0
VERTEX
  5
42A
  8
CONTOUR_LINES_30CM
 10
550451.14108703355
 20
881637.32247425197
 30
0.0
  0
VERTEX
  5
42B
  8
CONTOUR_LINES_30CM
 10
550450.74928005179
 20
881636.32776227407
 30
0.0
  0
VERTEX
  5
42C
  8
CONTOUR_LINES_30CM
 10
550450.267387575
 20
881634.92822871718
 30
0.0
  0
VERTEX
  5
42D
  8
CONTOUR_LINES_30CM
 10
550449.90499145899
 20
881633.65537475655
 30
0.0
  0
VERTEX
  5
42E
  8
CONTOUR_LINES_30CM
 10
550449.90499145899
 20
881633.65537475655
 30
0.0
  0
VERTEX
  5
42F
  8
CONTOUR_LINES_30CM
 10
550449.26122402935
 20
881628.97532457346
 30
0.0
  0
VERTEX
  5
430
  8
CONTOUR_LINES_30CM
 10
550449.36245011969
 20
881626.10375347279
 30
0.0
  0
VERTEX
  5
431
  8
CONTOUR_LINES_30CM
 10
550449.57701994968
 20
881624.29363975837
 30
0.0
  0
VERTEX
  5
432
  8
CONTOUR_LINES_30CM
 10
550449.82688436366
 20
881622.79322663543
 30
0.0
  0
VERTEX
  5
433
  8
CONTOUR_LINES_30CM
 10
550450.52753884625
 20
881619.5999176926
 30
0.0
  0
VERTEX
  5
434
  8
CONTOUR_LINES_30CM
 10
550451.05322982394
 20
881617.59139684727
 30
0.0
  0
VERTEX
  5
435
  8
CONTOUR_LINES_30CM
 10
550451.49596307275
 20
881616.01123140217
 30
0.0
  0
VERTEX
  5
436
  8
CONTOUR_LINES_30CM
 10
550452.11396043014
 20
881613.88331596693
 30
0.0
  0
VERTEX
  5
437
  8
CONTOUR_LINES_30CM
 10
550452.48353165807
 20
881612.62231279747
 30
0.0
  0
VERTEX
  5
438
  8
CONTOUR_LINES_30CM
 10
550453.67322839401
 20
881608.44994362094
 30
0.0
  0
VERTEX
  5
439
  8
CONTOUR_LINES_30CM
 10
550454.94235534116
 20
881604.46303268662
 30
0.0
  0
VERTEX
  5
43A
  8
CONTOUR_LINES_30CM
 10
550456.25004207925
 20
881601.65677716688
 30
0.0
  0
VERTEX
  5
43B
  8
CONTOUR_LINES_30CM
 10
550457.92220509495
 20
881599.51080233185
 30
0.0
  0
VERTEX
  5
43C
  8
CONTOUR_LINES_30CM
 10
550457.92220509495
 20
881599.51080233185
 30
0.0
  0
VERTEX
  5
43D
  8
CONTOUR_LINES_30CM
 10
550463.12348112545
 20
881596.74305095233
 30
0.0
  0
VERTEX
  5
43E
  8
CONTOUR_LINES_30CM
 10
550466.31714981631
 20
881596.25531465793
 30
0.0
  0
VERTEX
  5
43F
  8
CONTOUR_LINES_30CM
 10
550471.40418296563
 20
881596.33830819675
 30
0.0
  0
VERTEX
  5
440
  8
CONTOUR_LINES_30CM
 10
550475.08400748577
 20
881596.78635462711
 30
0.0
  0
VERTEX
  5
441
  8
CONTOUR_LINES_30CM
 10
550478.24731146358
 20
881597.32799693663
 30
0.0
  0
VERTEX
  5
442
  8
CONTOUR_LINES_30CM
 10
550483.24985806062
 20
881598.35452331463
 30
0.0
  0
VERTEX
  5
443
  8
CONTOUR_LINES_30CM
 10
550487.46749279846
 20
881599.28594992578
 30
0.0
  0
VERTEX
  5
444
  8
CONTOUR_LINES_30CM
 10
550492.86389644293
 20
881600.43400319933
 30
0.0
  0
VERTEX
  5
445
  8
CONTOUR_LINES_30CM
 10
550499.74016868963
 20
881601.57592076005
 30
0.0
  0
VERTEX
  5
446
  8
CONTOUR_LINES_30CM
 10
550503.5580195107
 20
881601.96877213812
 30
0.0
  0
VERTEX
  5
447
  8
CONTOUR_LINES_30CM
 10
550505.23440723505
 20
881602.08656763996
 30
0.0
  0
VERTEX
  5
448
  8
CONTOUR_LINES_30CM
 10
550510.96097590041
 20
881602.25188302656
 30
0.0
  0
VERTEX
  5
449
  8
CONTOUR_LINES_30CM
 10
550517.03292505397
 20
881602.07144634414
 30
0.0
  0
VERTEX
  5
44A
  8
CONTOUR_LINES_30CM
 10
550519.77626375179
 20
881601.89184814016
 30
0.0
  0
VERTEX
  5
44B
  8
CONTOUR_LINES_30CM
 10
550528.21999972535
 20
881601.09572888084
 30
0.0
  0
VERTEX
  5
44C
  8
CONTOUR_LINES_30CM
 10
550533.17527392169
 20
881600.57022546313
 30
0.0
  0
VERTEX
  5
44D
  8
CONTOUR_LINES_30CM
 10
550536.06215149316
 20
881600.28718424204
 30
0.0
  0
VERTEX
  5
44E
  8
CONTOUR_LINES_30CM
 10
550539.88645757933
 20
881599.97471024084
 30
0.0
  0
VERTEX
  5
44F
  8
CONTOUR_LINES_30CM
 10
550544.64196068945
 20
881599.74029123574
 30
0.0
  0
VERTEX
  5
450
  8
CONTOUR_LINES_30CM
 10
550548.09336259007
 20
881599.71141692356
 30
0.0
  0
VERTEX
  5
451
  8
CONTOUR_LINES_30CM
 10
550553.25415328587
 20
881599.8830451119
 30
0.0
  0
VERTEX
  5
452
  8
CONTOUR_LINES_30CM
 10
550556.93527169316
 20
881600.13527316495
 30
0.0
  0
VERTEX
  5
453
  8
CONTOUR_LINES_30CM
 10
550562.41483756818
 20
881600.66506102553
 30
0.0
  0
VERTEX
  5
454
  8
CONTOUR_LINES_30CM
 10
550567.953467238
 20
881601.33514352504
 30
0.0
  0
VERTEX
  5
455
  8
CONTOUR_LINES_30CM
 10
550573.7452665224
 20
881602.11929439323
 30
0.0
  0
VERTEX
  5
456
  8
CONTOUR_LINES_30CM
 10
550579.75784026959
 20
881602.95861798688
 30
0.0
  0
VERTEX
  5
457
  8
CONTOUR_LINES_30CM
 10
550579.75784020266
 20
881602.95861797768
 30
0.0
  0
VERTEX
  5
458
  8
CONTOUR_LINES_30CM
 10
550583.81409886247
 20
881603.50625494239
 30
0.0
  0
VERTEX
  5
459
  8
CONTOUR_LINES_30CM
 10
550587.29748679337
 20
881603.94662722968
 30
0.0
  0
VERTEX
  5
45A
  8
CONTOUR_LINES_30CM
 10
550592.94062943524
 20
881604.56708145584
 30
0.0
  0
VERTEX
  5
45B
  8
CONTOUR_LINES_30CM
 10
550596.3144159331
 20
881604.86370104156
 30
0.0
  0
VERTEX
  5
45C
  8
CONTOUR_LINES_30CM
 10
550602.47335753695
 20
881605.21512259566
 30
0.0
  0
VERTEX
  5
45D
  8
CONTOUR_LINES_30CM
 10
550606.31903186312
 20
881605.28204746568
 30
0.0
  0
SEQEND
  5
45E
  8
CONTOUR_LINES_30CM
  0
POLYLINE
  5
51
  8
CONTOUR_LINES_30CM
 66
     1
 10
0.0
 20
0.0
 30
0.0
 70
     1
  0
VERTEX
  5
45F
  8
CONTOUR_LINES_30CM
 10
550518.18107856216
 20
881575.61191201676
 30
0.0
  0
VERTEX
  5
460
  8
CONTOUR_LINES_30CM
 10
550519.50617156224
 20
881576.55274340406
 30
0.0
  0
VERTEX
  5
461
  8
CONTOUR_LINES_30CM
 10
550519.90377866698
 20
881576.87238498311
 30
0.0
  0
VERTEX
  5
462
  8
CONTOUR_LINES_30CM
 10
550520.63557135838
 20
881577.51442860474
 30
0.0
  0
VERTEX
  5
463
  8
CONTOUR_LINES_30CM
 10
550521.32022456359
 20
881578.19058051007
 30
0.0
  0
VERTEX
  5
464
  8
CONTOUR_LINES_30CM
 10
550522.00819841912
 20
881578.96633209125
 30
0.0
  0
VERTEX
  5
465
  8
CONTOUR_LINES_30CM
 10
550522.41443096288
 20
881579.48576909327
 30
0.0
  0
VERTEX
  5
466
  8
CONTOUR_LINES_30CM
 10
550522.75174958515
 20
881579.9648367326
 30
0.0
  0
VERTEX
  5
467
  8
CONTOUR_LINES_30CM
 10
550523.3064508005
 20
881580.89691390248
 30
0.0
  0
VERTEX
  5
468
  8
CONTOUR_LINES_30CM
 10
550523.60126098664
 20
881581.52012776025
 30
0.0
  0
VERTEX
  5
469
  8
CONTOUR_LINES_30CM
 10
550523.83134659647
 20
881582.14109915937
 30
0.0
  0
VERTEX
  5
46A
  8
CONTOUR_LINES_30CM
 10
550524.07969781465
 20
881583.39373618714
 30
0.0
  0
VERTEX
  5
46B
  8
CONTOUR_LINES_30CM
 10
550524.06144021358
 20
881584.15610664652
 30
0.0
  0
VERTEX
  5
46C
  8
CONTOUR_LINES_30CM
 10
550523.93120166124
 20
881584.75146394572
 30
0.0
  0
VERTEX
  5
46D
  8
CONTOUR_LINES_30CM
 10
550523.78907555295
 20
881585.11184003786
 30
0.0
  0
VERTEX
  5
46E
  8
CONTOUR_LINES_30CM
 10
550523.50268868625
 20
881585.59014142875
 30
0.0
  0
VERTEX
  5
46F
  8
CONTOUR_LINES_30CM
 10
550523.0469142365
 20
881586.0761777861
 30
0.0
  0
VERTEX
  5
470
  8
CONTOUR_LINES_30CM
 10
550522.50449706404
 20
881586.45004847483
 30
0.0
  0
VERTEX
  5
471
  8
CONTOUR_LINES_30CM
 10
550521.91760742734
 20
881586.71475054126
 30
0.0
  0
VERTEX
  5
472
  8
CONTOUR_LINES_30CM
 10
550521.15296271595
 20
881586.92043077888
 30
0.0
  0
VERTEX
  5
473
  8
CONTOUR_LINES_30CM
 10
550520.44290079316
 20
881587.01116336766
 30
0.0
  0
VERTEX
  5
474
  8
CONTOUR_LINES_30CM
 10
550519.62985085067
 20
881587.02480239188
 30
0.0
  0
VERTEX
  5
475
  8
CONTOUR_LINES_30CM
 10
550519.00457210315
 20
881586.981082435
 30
0.0
  0
VERTEX
  5
476
  8
CONTOUR_LINES_30CM
 10
550517.8001865996
 20
881586.78456582653
 30
0.0
  0
VERTEX
  5
477
  8
CONTOUR_LINES_30CM
 10
550516.83586260839
 20
881586.53300316748
 30
0.0
  0
VERTEX
  5
478
  8
CONTOUR_LINES_30CM
 10
550515.84834833245
 20
881586.19589922333
 30
0.0
  0
VERTEX
  5
479
  8
CONTOUR_LINES_30CM
 10
550514.9068371976
 20
881585.80229572009
 30
0.0
  0
VERTEX
  5
47A
  8
CONTOUR_LINES_30CM
 10
550514.29546379182
 20
881585.50903103477
 30
0.0
  0
VERTEX
  5
47B
  8
CONTOUR_LINES_30CM
 10
550513.63448168582
 20
881585.1578378072
 30
0.0
  0
VERTEX
  5
47C
  8
CONTOUR_LINES_30CM
 10
550512.55257993168
 20
881584.5024136306
 30
0.0
  0
VERTEX
  5
47D
  8
CONTOUR_LINES_30CM
 10
550511.79493915115
 20
881583.97852809459
 30
0.0
  0
VERTEX
  5
47E
  8
CONTOUR_LINES_30CM
 10
550510.55180049036
 20
881582.98274940683
 30
0.0
  0
VERTEX
  5
47F
  8
CONTOUR_LINES_30CM
 10
550509.90117282374
 20
881582.37915466318
 30
0.0
  0
VERTEX
  5
480
  8
CONTOUR_LINES_30CM
 10
550509.46914827754
 20
881581.93888095987
 30
0.0
  0
VERTEX
  5
481
  8
CONTOUR_LINES_30CM
 10
550509.01096680923
 20
881581.42961389129
 30
0.0
  0
VERTEX
  5
482
  8
CONTOUR_LINES_30CM
 10
550508.14698964462
 20
881580.30472749728
 30
0.0
  0
VERTEX
  5
483
  8
CONTOUR_LINES_30CM
 10
550507.65934063005
 20
881579.51765096933
 30
0.0
  0
VERTEX
  5
484
  8
CONTOUR_LINES_30CM
 10
550507.21993167605
 20
881578.61621914699
 30
0.0
  0
VERTEX
  5
485
  8
CONTOUR_LINES_30CM
 10
550506.86944541556
 20
881577.52278659912
 30
0.0
  0
VERTEX
  5
486
  8
CONTOUR_LINES_30CM
 10
550506.75126488355
 20
881576.5070348318
 30
0.0
  0
VERTEX
  5
487
  8
CONTOUR_LINES_30CM
 10
550506.87009687501
 20
881575.56747262075
 30
0.0
  0
VERTEX
  5
488
  8
CONTOUR_LINES_30CM
 10
550507.12146233895
 20
881574.93536596606
 30
0.0
  0
VERTEX
  5
489
  8
CONTOUR_LINES_30CM
 10
550507.67123656801
 20
881574.21870809444
 30
0.0
  0
VERTEX
  5
48A
  8
CONTOUR_LINES_30CM
 10
550508.0601128483
 20
881573.90497294418
 30
0.0
  0
VERTEX
  5
48B
  8
CONTOUR_LINES_30CM
 10
550509.00225721335
 20
881573.44196621131
 30
0.0
  0
VERTEX
  5
48C
  8
CONTOUR_LINES_30CM
 10
550509.69456923997
 20
881573.26258573204
 30
0.0
  0
VERTEX
  5
48D
  8
CONTOUR_LINES_30CM
 10
550510.81541409029
 20
881573.15527762752
 30
0.0
  0
VERTEX
  5
48E
  8
CONTOUR_LINES_30CM
 10
550511.52819507418
 20
881573.17613532464
 30
0.0
  0
VERTEX
  5
48F
  8
CONTOUR_LINES_30CM
 10
550513.0380379603
 20
881573.39897634985
 30
0.0
  0
VERTEX
  5
490
  8
CONTOUR_LINES_30CM
 10
550514.18617763405
 20
881573.70703329681
 30
0.0
  0
VERTEX
  5
491
  8
CONTOUR_LINES_30CM
 10
550515.37063557631
 20
881574.13781035074
 30
0.0
  0
VERTEX
  5
492
  8
CONTOUR_LINES_30CM
 10
550517.35917349334
 20
881575.11251404462
 30
0.0
  0
SEQEND
  5
493
  8
CONTOUR_LINES_30CM
  0
POLYLINE
  5
52
  8
CONTOUR_LINES_30CM
 66
     1
 10
0.0
 20
0.0
 30
0.0
 70
     1
  0
VERTEX
  5
494
  8
CONTOUR_LINES_30CM
 10
550517.75715566869
 20
881578.74547213793
 30
0.0
  0
VERTEX
  5
495
  8
CONTOUR_LINES_30CM
 10
550518.05176695355
 20
881578.92422252195
 30
0.0
  0
VERTEX
  5
496
  8
CONTOUR_LINES_30CM
 10
550518.23669572093
 20
881579.05322754674
 30
0.0
  0
VERTEX
  5
497
  8
CONTOUR_LINES_30CM
 10
550518.45146549225
 20
881579.22230863757
 30
0.0
  0
VERTEX
  5
498
  8
CONTOUR_LINES_30CM
 10
550518.6035640731
 20
881579.35687573825
 30
0.0
  0
VERTEX
  5
499
  8
CONTOUR_LINES_30CM
 10
550518.82171675214
 20
881579.5767975034
 30
0.0
  0
VERTEX
  5
49A
  8
CONTOUR_LINES_30CM
 10
550519.08408010309
 20
881579.89999917045
 30
0.0
  0
VERTEX
  5
49B
  8
CONTOUR_LINES_30CM
 10
550519.29148231307
 20
881580.23192812048
 30
0.0
  0
VERTEX
  5
49C
  8
CONTOUR_LINES_30CM
 10
550519.45284401486
 20
881580.59247952455
 30
0.0
  0
VERTEX
  5
49D
  8
CONTOUR_LINES_30CM
 10
550519.55246208713
 20
881580.962474862
 30
0.0
  0
VERTEX
  5
49E
  8
CONTOUR_LINES_30CM
 10
550519.58395003399
 20
881581.35477051581
 30
0.0
  0
VERTEX
  5
49F
  8
CONTOUR_LINES_30CM
 10
550519.53212126787
 20
881581.74641532672
 30
0.0
  0
VERTEX
  5
4A0
  8
CONTOUR_LINES_30CM
 10
550519.29825128359
 20
881582.27418709081
 30
0.0
  0
VERTEX
  5
4A1
  8
CONTOUR_LINES_30CM
 10
550519.09197900596
 20
881582.52814854635
 30
0.0
  0
VERTEX
  5
4A2
  8
CONTOUR_LINES_30CM
 10
550518.85175011493
 20
881582.73653778329
 30
0.0
  0
VERTEX
  5
4A3
  8
CONTOUR_LINES_30CM
 10
550518.48620245035
 20
881582.95377304056
 30
0.0
  0
VERTEX
  5
4A4
  8
CONTOUR_LINES_30CM
 10
550518.2196040554
 20
881583.06212834653
 30
0.0
  0
VERTEX
  5
4A5
  8
CONTOUR_LINES_30CM
 10
550517.87701161427
 20
881583.156202388
 30
0.0
  0
VERTEX
  5
4A6
  8
CONTOUR_LINES_30CM
 10
550517.64103565726
 20
881583.19666728645
 30
0.0
  0
VERTEX
  5
4A7
  8
CONTOUR_LINES_30CM
 10
550517.17462796404
 20
881583.22734326671
 30
0.0
  0
VERTEX
  5
4A8
  8
CONTOUR_LINES_30CM
 10
550516.80724795745
 20
881583.21045533987
 30
0.0
  0
VERTEX
  5
4A9
  8
CONTOUR_LINES_30CM
 10
550516.44749424746
 20
881583.1614907661
 30
0.0
  0
VERTEX
  5
4AA
  8
CONTOUR_LINES_30CM
 10
550516.18501732417
 20
881583.10603804595
 30
0.0
  0
VERTEX
  5
4AB
  8
CONTOUR_LINES_30CM
 10
550515.77901684016
 20
881582.9871823776
 30
0.0
  0
VERTEX
  5
4AC
  8
CONTOUR_LINES_30CM
 10
550515.50724499475
 20
881582.88426937349
 30
0.0
  0
VERTEX
  5
4AD
  8
CONTOUR_LINES_30CM
 10
550515.28060509544
 20
881582.78314274095
 30
0.0
  0
VERTEX
  5
4AE
  8
CONTOUR_LINES_30CM
 10
550515.14358767064
 20
881582.71479066485
 30
0.0
  0
VERTEX
  5
4AF
  8
CONTOUR_LINES_30CM
 10
550514.81649750669
 20
881582.52740827261
 30
0.0
  0
VERTEX
  5
4B0
  8
CONTOUR_LINES_30CM
 10
550514.62161561439
 20
881582.39752607816
 30
0.0
  0
VERTEX
  5
4B1
  8
CONTOUR_LINES_30CM
 10
550514.40064737655
 20
881582.2308191529
 30
0.0
  0
VERTEX
  5
4B2
  8
CONTOUR_LINES_30CM
 10
550514.19442970853
 20
881582.0529379911
 30
0.0
  0
VERTEX
  5
4B3
  8
CONTOUR_LINES_30CM
 10
550514.02064530994
 20
881581.88225371635
 30
0.0
  0
VERTEX
  5
4B4
  8
CONTOUR_LINES_30CM
 10
550513.85322461196
 20
881581.6946642939
 30
0.0
  0
VERTEX
  5
4B5
  8
CONTOUR_LINES_30CM
 10
550513.7009145848
 20
881581.49745577807
 30
0.0
  0
VERTEX
  5
4B6
  8
CONTOUR_LINES_30CM
 10
550513.53192798945
 20
881581.23447817971
 30
0.0
  0
VERTEX
  5
4B7
  8
CONTOUR_LINES_30CM
 10
550513.36195471406
 20
881580.88304622425
 30
0.0
  0
VERTEX
  5
4B8
  8
CONTOUR_LINES_30CM
 10
550513.27799339371
 20
881580.6330289843
 30
0.0
  0
VERTEX
  5
4B9
  8
CONTOUR_LINES_30CM
 10
550513.2139548678
 20
881580.30463310797
 30
0.0
  0
VERTEX
  5
4BA
  8
CONTOUR_LINES_30CM
 10
550513.20225178765
 20
881580.0233197473
 30
0.0
  0
VERTEX
  5
4BB
  8
CONTOUR_LINES_30CM
 10
550513.23032030836
 20
881579.75934565603
 30
0.0
  0
VERTEX
  5
4BC
  8
CONTOUR_LINES_30CM
 10
550513.3150200746
 20
881579.45693675952
 30
0.0
  0
VERTEX
  5
4BD
  8
CONTOUR_LINES_30CM
 10
550513.42883811658
 20
881579.21835827839
 30
0.0
  0
VERTEX
  5
4BE
  8
CONTOUR_LINES_30CM
 10
550513.61161041388
 20
881578.96012403478
 30
0.0
  0
VERTEX
  5
4BF
  8
CONTOUR_LINES_30CM
 10
550513.86888478976
 20
881578.71172229946
 30
0.0
  0
VERTEX
  5
4C0
  8
CONTOUR_LINES_30CM
 10
550513.99212175584
 20
881578.62053206249
 30
0.0
  0
VERTEX
  5
4C1
  8
CONTOUR_LINES_30CM
 10
550514.23533330392
 20
881578.47622838814
 30
0.0
  0
VERTEX
  5
4C2
  8
CONTOUR_LINES_30CM
 10
550514.48270432698
 20
881578.3664312847
 30
0.0
  0
VERTEX
  5
4C3
  8
CONTOUR_LINES_30CM
 10
550514.77549259318
 20
881578.27339737106
 30
0.0
  0
VERTEX
  5
4C4
  8
CONTOUR_LINES_30CM
 10
550514.96005494415
 20
881578.23179426638
 30
0.0
  0
VERTEX
  5
4C5
  8
CONTOUR_LINES_30CM
 10
550515.26725214918
 20
881578.18760066945
 30
0.0
  0
VERTEX
  5
4C6
  8
CONTOUR_LINES_30CM
 10
550515.54854802531
 20
881578.17163539724
 30
0.0
  0
VERTEX
  5
4C7
  8
CONTOUR_LINES_30CM
 10
550515.76443728292
 20
881578.17390667344
 30
0.0
  0
VERTEX
  5
4C8
  8
CONTOUR_LINES_30CM
 10
550516.19763574202
 20
881578.21402342466
 30
0.0
  0
VERTEX
  5
4C9
  8
CONTOUR_LINES_30CM
 10
550516.38021100347
 20
881578.24465514126
 30
0.0
  0
VERTEX
  5
4CA
  8
CONTOUR_LINES_30CM
 10
550516.63111783972
 20
881578.29985825752
 30
0.0
  0
VERTEX
  5
4CB
  8
CONTOUR_LINES_30CM
 10
550516.96206282952
 20
881578.39614197519
 30
0.0
  0
VERTEX
  5
4CC
  8
CONTOUR_LINES_30CM
 10
550517.17293317849
 20
881578.47186204977
 30
0.0
  0
VERTEX
  5
4CD
  8
CONTOUR_LINES_30CM
 10
550517.57488016668
 20
881578.64936663944
 30
0.0
  0
SEQEND
  5
4CE
  8
CONTOUR_LINES_30CM
  0
POLYLINE
  5
53
  8
CONTOUR_LINES_30CM
 66
     1
 10
0.0
 20
0.0
 30
0.0
 70
     1
  0
VERTEX
  5
4CF
  8
CONTOUR_LINES_30CM
 10
550516.55772337643
 20
881579.80985345587
 30
0.0
  0
VERTEX
  5
4D0
  8
CONTOUR_LINES_30CM
 10
550516.79716129275
 20
881579.92347717565
 30
0.0
  0
VERTEX
  5
4D1
  8
CONTOUR_LINES_30CM
 10
550516.79716129275
 20
881579.92347717565
 30
0.0
  0
VERTEX
  5
4D2
  8
CONTOUR_LINES_30CM
 10
550517.25968828471
 20
881580.29089322232
 30
0.0
  0
VERTEX
  5
4D3
  8
CONTOUR_LINES_30CM
 10
550517.44704828062
 20
881580.53421036561
 30
0.0
  0
VERTEX
  5
4D4
  8
CONTOUR_LINES_30CM
 10
550517.63158219447
 20
881580.94422792899
 30
0.0
  0
VERTEX
  5
4D5
  8
CONTOUR_LINES_30CM
 10
550517.67055291089
 20
881581.35443551233
 30
0.0
  0
VERTEX
  5
4D6
  8
CONTOUR_LINES_30CM
 10
550517.60201367154
 20
881581.63044377603
 30
0.0
  0
VERTEX
  5
4D7
  8
CONTOUR_LINES_30CM
 10
550517.36582853878
 20
881581.94977658126
 30
0.0
  0
VERTEX
  5
4D8
  8
CONTOUR_LINES_30CM
 10
550517.05273982545
 20
881582.12140817486
 30
0.0
  0
VERTEX
  5
4D9
  8
CONTOUR_LINES_30CM
 10
550516.82642274175
 20
881582.17024210806
 30
0.0
  0
VERTEX
  5
4DA
  8
CONTOUR_LINES_30CM
 10
550516.41205296014
 20
881582.15254419169
 30
0.0
  0
VERTEX
  5
4DB
  8
CONTOUR_LINES_30CM
 10
550516.28139491123
 20
881582.12221688696
 30
0.0
  0
VERTEX
  5
4DC
  8
CONTOUR_LINES_30CM
 10
550516.15424364409
 20
881582.08167333005
 30
0.0
  0
VERTEX
  5
4DD
  8
CONTOUR_LINES_30CM
 10
550516.02891873068
 20
881582.03078605805
 30
0.0
  0
VERTEX
  5
4DE
  8
CONTOUR_LINES_30CM
 10
550515.84961290588
 20
881581.93782801123
 30
0.0
  0
VERTEX
  5
4DF
  8
CONTOUR_LINES_30CM
 10
550515.62550434144
 20
881581.78310878982
 30
0.0
  0
VERTEX
  5
4E0
  8
CONTOUR_LINES_30CM
 10
550515.38094186829
 20
881581.5479688053
 30
0.0
  0
VERTEX
  5
4E1
  8
CONTOUR_LINES_30CM
 10
550515.34007938858
 20
881581.49905132118
 30
0.0
  0
VERTEX
  5
4E2
  8
CONTOUR_LINES_30CM
 10
550515.18685559579
 20
881581.27502287645
 30
0.0
  0
VERTEX
  5
4E3
  8
CONTOUR_LINES_30CM
 10
550515.08398748306
 20
881581.05740360264
 30
0.0
  0
VERTEX
  5
4E4
  8
CONTOUR_LINES_30CM
 10
550515.03626572061
 20
881580.90493272257
 30
0.0
  0
VERTEX
  5
4E5
  8
CONTOUR_LINES_30CM
 10
550515.00194473134
 20
881580.68063578743
 30
0.0
  0
VERTEX
  5
4E6
  8
CONTOUR_LINES_30CM
 10
550515.00258238555
 20
881580.55050659913
 30
0.0
  0
VERTEX
  5
4E7
  8
CONTOUR_LINES_30CM
 10
550515.09323812404
 20
881580.20370253187
 30
0.0
  0
VERTEX
  5
4E8
  8
CONTOUR_LINES_30CM
 10
550515.22093663143
 20
881580.01382345834
 30
0.0
  0
VERTEX
  5
4E9
  8
CONTOUR_LINES_30CM
 10
550515.41415254143
 20
881579.85255955323
 30
0.0
  0
VERTEX
  5
4EA
  8
CONTOUR_LINES_30CM
 10
550515.60878587642
 20
881579.76101381239
 30
0.0
  0
VERTEX
  5
4EB
  8
CONTOUR_LINES_30CM
 10
550515.89868889807
 20
881579.702908971
 30
0.0
  0
VERTEX
  5
4EC
  8
CONTOUR_LINES_30CM
 10
550516.14888719108
 20
881579.70813650673
 30
0.0
  0
VERTEX
  5
4ED
  8
CONTOUR_LINES_30CM
 10
550516.38901834935
 20
881579.7542256884
 30
0.0
  0
SEQEND
  5
4EE
  8
CONTOUR_LINES_30CM
  0
POLYLINE
  5
54
  8
CONTOUR_LINES_30CM
 66
     1
 10
0.0
 20
0.0
 30
0.0
 70
     1
  0
VERTEX
  5
4EF
  8
CONTOUR_LINES_30CM
 10
550499.31830294558
 20
881589.47513589356
 30
0.0
  0
VERTEX
  5
4F0
  8
CONTOUR_LINES_30CM
 10
550499.55646973522
 20
881589.67796372401
 30
0.0
  0
VERTEX
  5
4F1
  8
CONTOUR_LINES_30CM
 10
550499.79428299319
 20
881589.80505666207
 30
0.0
  0
VERTEX
  5
4F2
  8
CONTOUR_LINES_30CM
 10
550499.96387818502
 20
881589.86435687565
 30
0.0
  0
VERTEX
  5
4F3
  8
CONTOUR_LINES_30CM
 10
550500.23854414676
 20
881589.9175008093
 30
0.0
  0
VERTEX
  5
4F4
  8
CONTOUR_LINES_30CM
 10
550500.70393256168
 20
881589.90826596564
 30
0.0
  0
VERTEX
  5
4F5
  8
CONTOUR_LINES_30CM
 10
550500.95149044879
 20
881589.85777240503
 30
0.0
  0
VERTEX
  5
4F6
  8
CONTOUR_LINES_30CM
 10
550501.41980130307
 20
881589.67520059773
 30
0.0
  0
VERTEX
  5
4F7
  8
CONTOUR_LINES_30CM
 10
550501.69884819118
 20
881589.50526177604
 30
0.0
  0
VERTEX
  5
4F8
  8
CONTOUR_LINES_30CM
 10
550502.01361152856
 20
881589.24158803269
 30
0.0
  0
VERTEX
  5
4F9
  8
CONTOUR_LINES_30CM
 10
550502.25205456978
 20
881588.96662829316
 30
0.0
  0
VERTEX
  5
4FA
  8
CONTOUR_LINES_30CM
 10
550502.45614889625
 20
881588.63552394346
 30
0.0
  0
VERTEX
  5
4FB
  8
CONTOUR_LINES_30CM
 10
550502.53954218468
 20
881588.44651855668
 30
0.0
  0
VERTEX
  5
4FC
  8
CONTOUR_LINES_30CM
 10
550502.64017423266
 20
881588.07916218694
 30
0.0
  0
VERTEX
  5
4FD
  8
CONTOUR_LINES_30CM
 10
550502.65473715414
 20
881587.63594299415
 30
0.0
  0
VERTEX
  5
4FE
  8
CONTOUR_LINES_30CM
 10
550502.48438161367
 20
881587.0969954126
 30
0.0
  0
VERTEX
  5
4FF
  8
CONTOUR_LINES_30CM
 10
550502.14126291941
 20
881586.70411080041
 30
0.0
  0
VERTEX
  5
500
  8
CONTOUR_LINES_30CM
 10
550501.81379393884
 20
881586.51882301073
 30
0.0
  0
VERTEX
  5
501
  8
CONTOUR_LINES_30CM
 10
550501.42548163072
 20
881586.41858960665
 30
0.0
  0
VERTEX
  5
502
  8
CONTOUR_LINES_30CM
 10
550500.81781570567
 20
881586.44116807682
 30
0.0
  0
VERTEX
  5
503
  8
CONTOUR_LINES_30CM
 10
550500.44105558796
 20
881586.55063751305
 30
0.0
  0
VERTEX
  5
504
  8
CONTOUR_LINES_30CM
 10
550500.03608576802
 20
881586.75468054286
 30
0.0
  0
VERTEX
  5
505
  8
CONTOUR_LINES_30CM
 10
550499.70285358361
 20
881587.0059453873
 30
0.0
  0
VERTEX
  5
506
  8
CONTOUR_LINES_30CM
 10
550499.41646267357
 20
881587.31094978016
 30
0.0
  0
VERTEX
  5
507
  8
CONTOUR_LINES_30CM
 10
550499.10061187844
 20
881587.85212639801
 30
0.0
  0
VERTEX
  5
508
  8
CONTOUR_LINES_30CM
 10
550499.00184438436
 20
881588.17408679344
 30
0.0
  0
VERTEX
  5
509
  8
CONTOUR_LINES_30CM
 10
550498.96393273631
 20
881588.50110265415
 30
0.0
  0
VERTEX
  5
50A
  8
CONTOUR_LINES_30CM
 10
550499.02106796752
 20
881588.94475067779
 30
0.0
  0
VERTEX
  5
50B
  8
CONTOUR_LINES_30CM
 10
550499.13399676967
 20
881589.21896407311
 30
0.0
  0
SEQEND
  5
50C
  8
CONTOUR_LINES_30CM
  0
POLYLINE
  5
55
  8
CONTOUR_LINES_30CM
 66
     1
 10
0.0
 20
0.0
 30
0.0
 70
     1
  0
VERTEX
  5
50D
  8
CONTOUR_LINES_30CM
 10
550500.42943012563
 20
881590.4833350078
 30
0.0
  0
VERTEX
  5
50E
  8
CONTOUR_LINES_30CM
 10
550499.90705972828
 20
881590.67275984574
 30
0.0
  0
VERTEX
  5
50F
  8
CONTOUR_LINES_30CM
 10
550499.56479184795
 20
881590.7774211911
 30
0.0
  0
VERTEX
  5
510
  8
CONTOUR_LINES_30CM
 10
550499.31602887658
 20
881590.84269565658
 30
0.0
  0
VERTEX
  5
511
  8
CONTOUR_LINES_30CM
 10
550498.96395675256
 20
881590.91762204061
 30
0.0
  0
VERTEX
  5
512
  8
CONTOUR_LINES_30CM
 10
550498.66508789267
 20
881590.96285749925
 30
0.0
  0
VERTEX
  5
513
  8
CONTOUR_LINES_30CM
 10
550498.03674306034
 20
881590.98729649757
 30
0.0
  0
VERTEX
  5
514
  8
CONTOUR_LINES_30CM
 10
550497.79748240614
 20
881590.96279591112
 30
0.0
  0
VERTEX
  5
515
  8
CONTOUR_LINES_30CM
 10
550497.66649407358
 20
881590.93856406689
 30
0.0
  0
VERTEX
  5
516
  8
CONTOUR_LINES_30CM
 10
550497.49915286899
 20
881590.89363350556
 30
0.0
  0
VERTEX
  5
517
  8
CONTOUR_LINES_30CM
 10
550497.27593378455
 20
881590.80136224627
 30
0.0
  0
VERTEX
  5
518
  8
CONTOUR_LINES_30CM
 10
550497.04400840856
 20
881590.64407077862
 30
0.0
  0
VERTEX
  5
519
  8
CONTOUR_LINES_30CM
 10
550496.87009361805
 20
881590.44553308503
 30
0.0
  0
VERTEX
  5
51A
  8
CONTOUR_LINES_30CM
 10
550496.76259049226
 20
881590.23503956245
 30
0.0
  0
VERTEX
  5
51B
  8
CONTOUR_LINES_30CM
 10
550496.68945550115
 20
881589.91285418405
 30
0.0
  0
VERTEX
  5
51C
  8
CONTOUR_LINES_30CM
 10
550496.68203623826
 20
881589.77733067051
 30
0.0
  0
VERTEX
  5
51D
  8
CONTOUR_LINES_30CM
 10
550496.77951101784
 20
881589.11770987906
 30
0.0
  0
VERTEX
  5
51E
  8
CONTOUR_LINES_30CM
 10
550496.86733175826
 20
881588.84946774144
 30
0.0
  0
VERTEX
  5
51F
  8
CONTOUR_LINES_30CM
 10
550497.01427237596
 20
881588.49974924501
 30
0.0
  0
VERTEX
  5
520
  8
CONTOUR_LINES_30CM
 10
550497.12586894899
 20
881588.27496244549
 30
0.0
  0
VERTEX
  5
521
  8
CONTOUR_LINES_30CM
 10
550497.49343651778
 20
881587.65670246445
 30
0.0
  0
VERTEX
  5
522
  8
CONTOUR_LINES_30CM
 10
550497.76651490829
 20
881587.2668672438
 30
0.0
  0
VERTEX
  5
523
  8
CONTOUR_LINES_30CM
 10
550497.9677001849
 20
881587.00359816651
 30
0.0
  0
VERTEX
  5
524
  8
CONTOUR_LINES_30CM
 10
550498.16393488669
 20
881586.76186648733
 30
0.0
  0
VERTEX
  5
525
  8
CONTOUR_LINES_30CM
 10
550498.46920654061
 20
881586.40965751791
 30
0.0
  0
VERTEX
  5
526
  8
CONTOUR_LINES_30CM
 10
550498.71178866737
 20
881586.14690093964
 30
0.0
  0
VERTEX
  5
527
  8
CONTOUR_LINES_30CM
 10
550499.08705224411
 20
881585.76507287822
 30
0.0
  0
VERTEX
  5
528
  8
CONTOUR_LINES_30CM
 10
550499.31842823105
 20
881585.54253473424
 30
0.0
  0
VERTEX
  5
529
  8
CONTOUR_LINES_30CM
 10
550499.72182717035
 20
881585.17490757385
 30
0.0
  0
VERTEX
  5
52A
  8
CONTOUR_LINES_30CM
 10
550500.19158846245
 20
881584.77557845402
 30
0.0
  0
VERTEX
  5
52B
  8
CONTOUR_LINES_30CM
 10
550500.5457910212
 20
881584.49276617274
 30
0.0
  0
VERTEX
  5
52C
  8
CONTOUR_LINES_30CM
 10
550501.8092580887
 20
881583.59647214843
 30
0.0
  0
VERTEX
  5
52D
  8
CONTOUR_LINES_30CM
 10
550501.8092580887
 20
881583.59647214843
 30
0.0
  0
VERTEX
  5
52E
  8
CONTOUR_LINES_30CM
 10
550502.62455157819
 20
881583.10386506584
 30
0.0
  0
VERTEX
  5
52F
  8
CONTOUR_LINES_30CM
 10
550503.31946692988
 20
881582.73586368072
 30
0.0
  0
VERTEX
  5
530
  8
CONTOUR_LINES_30CM
 10
550504.51849595271
 20
881582.22079497017
 30
0.0
  0
VERTEX
  5
531
  8
CONTOUR_LINES_30CM
 10
550504.88549082552
 20
881582.09727970546
 30
0.0
  0
VERTEX
  5
532
  8
CONTOUR_LINES_30CM
 10
550505.63710203185
 20
881581.90529755387
 30
0.0
  0
VERTEX
  5
533
  8
CONTOUR_LINES_30CM
 10
550506.15136336023
 20
881581.83257267112
 30
0.0
  0
VERTEX
  5
534
  8
CONTOUR_LINES_30CM
 10
550506.72915204486
 20
881581.83117096964
 30
0.0
  0
VERTEX
  5
535
  8
CONTOUR_LINES_30CM
 10
550507.29669409839
 20
881581.9660484388
 30
0.0
  0
VERTEX
  5
536
  8
CONTOUR_LINES_30CM
 10
550507.62384089991
 20
881582.16936784354
 30
0.0
  0
VERTEX
  5
537
  8
CONTOUR_LINES_30CM
 10
550507.88925906969
 20
881582.54260742001
 30
0.0
  0
VERTEX
  5
538
  8
CONTOUR_LINES_30CM
 10
550507.98292664764
 20
881583.08233780635
 30
0.0
  0
VERTEX
  5
539
  8
CONTOUR_LINES_30CM
 10
550507.76428766095
 20
881584.04871185625
 30
0.0
  0
VERTEX
  5
53A
  8
CONTOUR_LINES_30CM
 10
550507.46087293501
 20
881584.68058188865
 30
0.0
  0
VERTEX
  5
53B
  8
CONTOUR_LINES_30CM
 10
550507.2556195244
 20
881585.02451894945
 30
0.0
  0
VERTEX
  5
53C
  8
CONTOUR_LINES_30CM
 10
550506.74768069712
 20
881585.74304664065
 30
0.0
  0
VERTEX
  5
53D
  8
CONTOUR_LINES_30CM
 10
550506.46922652121
 20
881586.08711331408
 30
0.0
  0
VERTEX
  5
53E
  8
CONTOUR_LINES_30CM
 10
550506.13945697562
 20
881586.46358026611
 30
0.0
  0
VERTEX
  5
53F
  8
CONTOUR_LINES_30CM
 10
550505.74686319917
 20
881586.87743626407
 30
0.0
  0
VERTEX
  5
540
  8
CONTOUR_LINES_30CM
 10
550505.34105232765
 20
881587.27363469731
 30
0.0
  0
VERTEX
  5
541
  8
CONTOUR_LINES_30CM
 10
550504.97739879636
 20
881587.60580322915
 30
0.0
  0
VERTEX
  5
542
  8
CONTOUR_LINES_30CM
 10
550504.27070672903
 20
881588.19906195696
 30
0.0
  0
VERTEX
  5
543
  8
CONTOUR_LINES_30CM
 10
550503.89471908077
 20
881588.48990829568
 30
0.0
  0
VERTEX
  5
544
  8
CONTOUR_LINES_30CM
 10
550503.37841419375
 20
881588.86396077648
 30
0.0
  0
VERTEX
  5
545
  8
CONTOUR_LINES_30CM
 10
550502.89810852753
 20
881589.1871001682
 30
0.0
  0
VERTEX
  5
546
  8
CONTOUR_LINES_30CM
 10
550502.38378210843
 20
881589.50761365111
 30
0.0
  0
VERTEX
  5
547
  8
CONTOUR_LINES_30CM
 10
550501.7617148828
 20
881589.86050103302
 30
0.0
  0
VERTEX
  5
548
  8
CONTOUR_LINES_30CM
 10
550501.31290489109
 20
881590.09117396979
 30
0.0
  0
VERTEX
  5
549
  8
CONTOUR_LINES_30CM
 10
550500.73700281431
 20
881590.35653569491
 30
0.0
  0
SEQEND
  5
54A
  8
CONTOUR_LINES_30CM
  0
POLYLINE
  5
56
  8
CONTOUR_LINES_30CM
 66
     1
 10
0.0
 20
0.0
 30
0.0
 70
     1
  0
VERTEX
  5
54B
  8
CONTOUR_LINES_30CM
 10
550454.77580179356
 20
881647.14672134945
 30
0.0
  0
VERTEX
  5
54C
  8
CONTOUR_LINES_30CM
 10
550454.98970969056
 20
881647.30343524809
 30
0.0
  0
VERTEX
  5
54D
  8
CONTOUR_LINES_30CM
 10
550455.06105188013
 20
881647.3298148649
 30
0.0
  0
VERTEX
  5
54E
  8
CONTOUR_LINES_30CM
 10
550455.2361145243
 20
881647.35366986424
 30
0.0
  0
VERTEX
  5
54F
  8
CONTOUR_LINES_30CM
 10
550455.35955076583
 20
881647.33754916163
 30
0.0
  0
VERTEX
  5
550
  8
CONTOUR_LINES_30CM
 10
550455.46942775475
 20
881647.29873764969
 30
0.0
  0
VERTEX
  5
551
  8
CONTOUR_LINES_30CM
 10
550455.58021857718
 20
881647.23143626412
 30
0.0
  0
VERTEX
  5
552
  8
CONTOUR_LINES_30CM
 10
550455.69612319453
 20
881647.11753903946
 30
0.0
  0
VERTEX
  5
553
  8
CONTOUR_LINES_30CM
 10
550455.78592887695
 20
881646.97070282407
 30
0.0
  0
VERTEX
  5
554
  8
CONTOUR_LINES_30CM
 10
550455.84206468344
 20
881646.79218354775
 30
0.0
  0
VERTEX
  5
555
  8
CONTOUR_LINES_30CM
 10
550455.84822497796
 20
881646.54556979029
 30
0.0
  0
VERTEX
  5
556
  8
CONTOUR_LINES_30CM
 10
550455.82948023791
 20
881646.45010907238
 30
0.0
  0
VERTEX
  5
557
  8
CONTOUR_LINES_30CM
 10
550455.61780269595
 20
881646.09563219093
 30
0.0
  0
VERTEX
  5
558
  8
CONTOUR_LINES_30CM
 10
550455.37248031364
 20
881645.95888386725
 30
0.0
  0
VERTEX
  5
559
  8
CONTOUR_LINES_30CM
 10
550455.09599533037
 20
881645.95071659342
 30
0.0
  0
VERTEX
  5
55A
  8
CONTOUR_LINES_30CM
 10
550454.90530311165
 20
881646.02983846515
 30
0.0
  0
VERTEX
  5
55B
  8
CONTOUR_LINES_30CM
 10
550454.79787559039
 20
881646.11607611924
 30
0.0
  0
VERTEX
  5
55C
  8
CONTOUR_LINES_30CM
 10
550454.69203399611
 20
881646.25270697405
 30
0.0
  0
VERTEX
  5
55D
  8
CONTOUR_LINES_30CM
 10
550454.6285562464
 20
881646.39105206565
 30
0.0
  0
VERTEX
  5
55E
  8
CONTOUR_LINES_30CM
 10
550454.5875715249
 20
881646.62551518122
 30
0.0
  0
VERTEX
  5
55F
  8
CONTOUR_LINES_30CM
 10
550454.60160568473
 20
881646.79094775778
 30
0.0
  0
VERTEX
  5
560
  8
CONTOUR_LINES_30CM
 10
550454.66049354081
 20
881646.97236350575
 30
0.0
  0
SEQEND
  5
561
  8
CONTOUR_LINES_30CM
  0
POLYLINE
  5
57
  8
CONTOUR_LINES_30CM
 66
     1
 10
0.0
 20
0.0
 30
0.0
 70
     1
  0
VERTEX
  5
562
  8
CONTOUR_LINES_30CM
 10
550454.64041493996
 20
881647.60599659092
 30
0.0
  0
VERTEX
  5
563
  8
CONTOUR_LINES_30CM
 10
550454.98539347877
 20
881647.73113350011
 30
0.0
  0
VERTEX
  5
564
  8
CONTOUR_LINES_30CM
 10
550455.14324650075
 20
881647.75677177624
 30
0.0
  0
VERTEX
  5
565
  8
CONTOUR_LINES_30CM
 10
550455.33475582965
 20
881647.76451520971
 30
0.0
  0
VERTEX
  5
566
  8
CONTOUR_LINES_30CM
 10
550455.59430240479
 20
881647.73478369811
 30
0.0
  0
VERTEX
  5
567
  8
CONTOUR_LINES_30CM
 10
550455.78637494682
 20
881647.68096846831
 30
0.0
  0
VERTEX
  5
568
  8
CONTOUR_LINES_30CM
 10
550455.89347199898
 20
881647.63758731296
 30
0.0
  0
VERTEX
  5
569
  8
CONTOUR_LINES_30CM
 10
550456.19983255945
 20
881647.44393151288
 30
0.0
  0
VERTEX
  5
56A
  8
CONTOUR_LINES_30CM
 10
550456.30287220143
 20
881647.3451047967
 30
0.0
  0
VERTEX
  5
56B
  8
CONTOUR_LINES_30CM
 10
550456.40124190121
 20
881647.22307553026
 30
0.0
  0
VERTEX
  5
56C
  8
CONTOUR_LINES_30CM
 10
550456.48428705579
 20
881647.08284201985
 30
0.0
  0
VERTEX
  5
56D
  8
CONTOUR_LINES_30CM
 10
550456.56723101984
 20
881646.84623998299
 30
0.0
  0
VERTEX
  5
56E
  8
CONTOUR_LINES_30CM
 10
550456.58537756116
 20
881646.54783709056
 30
0.0
  0
VERTEX
  5
56F
  8
CONTOUR_LINES_30CM
 10
550456.52490257088
 20
881646.28766210726
 30
0.0
  0
VERTEX
  5
570
  8
CONTOUR_LINES_30CM
 10
550456.47165048879
 20
881646.17009947891
 30
0.0
  0
VERTEX
  5
571
  8
CONTOUR_LINES_30CM
 10
550456.32259084086
 20
881645.95619943074
 30
0.0
  0
VERTEX
  5
572
  8
CONTOUR_LINES_30CM
 10
550456.16392045305
 20
881645.80790496152
 30
0.0
  0
VERTEX
  5
573
  8
CONTOUR_LINES_30CM
 10
550455.98998138541
 20
881645.69432613614
 30
0.0
  0
VERTEX
  5
574
  8
CONTOUR_LINES_30CM
 10
550455.76311562734
 20
881645.59690919635
 30
0.0
  0
VERTEX
  5
575
  8
CONTOUR_LINES_30CM
 10
550455.55056717154
 20
881645.54532561754
 30
0.0
  0
VERTEX
  5
576
  8
CONTOUR_LINES_30CM
 10
550455.12717289187
 20
881645.53840899374
 30
0.0
  0
VERTEX
  5
577
  8
CONTOUR_LINES_30CM
 10
550454.909886198
 20
881645.58356238296
 30
0.0
  0
VERTEX
  5
578
  8
CONTOUR_LINES_30CM
 10
550454.60922483634
 20
881645.71032588906
 30
0.0
  0
VERTEX
  5
579
  8
CONTOUR_LINES_30CM
 10
550454.37729323539
 20
881645.87958907464
 30
0.0
  0
VERTEX
  5
57A
  8
CONTOUR_LINES_30CM
 10
550454.25360725413
 20
881646.01265342592
 30
0.0
  0
VERTEX
  5
57B
  8
CONTOUR_LINES_30CM
 10
550454.163400074
 20
881646.14472174703
 30
0.0
  0
VERTEX
  5
57C
  8
CONTOUR_LINES_30CM
 10
550454.05910035945
 20
881646.39254490717
 30
0.0
  0
VERTEX
  5
57D
  8
CONTOUR_LINES_30CM
 10
550454.028406244
 20
881646.55945433595
 30
0.0
  0
VERTEX
  5
57E
  8
CONTOUR_LINES_30CM
 10
550454.06063037703
 20
881646.91880397638
 30
0.0
  0
VERTEX
  5
57F
  8
CONTOUR_LINES_30CM
 10
550454.1282253383
 20
881647.09463700885
 30
0.0
  0
VERTEX
  5
580
  8
CONTOUR_LINES_30CM
 10
550454.26286554872
 20
881647.30232268421
 30
0.0
  0
VERTEX
  5
581
  8
CONTOUR_LINES_30CM
 10
550454.45046404633
 20
881647.48409178888
 30
0.0
  0
VERTEX
  5
582
  8
CONTOUR_LINES_30CM
 10
550454.53435423877
 20
881647.54382692825
 30
0.0
  0
SEQEND
  5
583
  8
CONTOUR_LINES_30CM
  0
POLYLINE
  5
58
  8
CONTOUR_LINES_30CM
 66
     1
 10
0.0
 20
0.0
 30
0.0
 70
     1
  0
VERTEX
  5
584
  8
CONTOUR_LINES_30CM
 10
550471.27977167221
 20
881639.57418293366
 30
0.0
  0
VERTEX
  5
585
  8
CONTOUR_LINES_30CM
 10
550471.48799506749
 20
881639.72830113303
 30
0.0
  0
VERTEX
  5
586
  8
CONTOUR_LINES_30CM
 10
550471.75477991253
 20
881639.87480448105
 30
0.0
  0
VERTEX
  5
587
  8
CONTOUR_LINES_30CM
 10
550471.98921409901
 20
881639.96547556634
 30
0.0
  0
VERTEX
  5
588
  8
CONTOUR_LINES_30CM
 10
550472.25132171705
 20
881640.0307643885
 30
0.0
  0
VERTEX
  5
589
  8
CONTOUR_LINES_30CM
 10
550472.53678799549
 20
881640.06246571685
 30
0.0
  0
VERTEX
  5
58A
  8
CONTOUR_LINES_30CM
 10
550472.88237700542
 20
881640.04824862117
 30
0.0
  0
VERTEX
  5
58B
  8
CONTOUR_LINES_30CM
 10
550473.2078070977
 20
881639.98104313191
 30
0.0
  0
VERTEX
  5
58C
  8
CONTOUR_LINES_30CM
 10
550473.54187387868
 20
881639.85180016886
 30
0.0
  0
VERTEX
  5
58D
  8
CONTOUR_LINES_30CM
 10
550473.72612691554
 20
881639.74983804405
 30
0.0
  0
VERTEX
  5
58E
  8
CONTOUR_LINES_30CM
 10
550473.88170154544
 20
881639.64316504367
 30
0.0
  0
VERTEX
  5
58F
  8
CONTOUR_LINES_30CM
 10
550474.09934708057
 20
881639.45407962741
 30
0.0
  0
VERTEX
  5
590
  8
CONTOUR_LINES_30CM
 10
550474.27010978595
 20
881639.26122613775
 30
0.0
  0
VERTEX
  5
591
  8
CONTOUR_LINES_30CM
 10
550474.42606839526
 20
881639.03154140536
 30
0.0
  0
VERTEX
  5
592
  8
CONTOUR_LINES_30CM
 10
550474.52003617922
 20
881638.85165328195
 30
0.0
  0
VERTEX
  5
593
  8
CONTOUR_LINES_30CM
 10
550474.66353036941
 20
881638.42575399857
 30
0.0
  0
VERTEX
  5
594
  8
CONTOUR_LINES_30CM
 10
550474.70896897628
 20
881638.0986719405
 30
0.0
  0
VERTEX
  5
595
  8
CONTOUR_LINES_30CM
 10
550474.68267542892
 20
881637.62349829799
 30
0.0
  0
VERTEX
  5
596
  8
CONTOUR_LINES_30CM
 10
550474.50061215705
 20
881637.05892505392
 30
0.0
  0
VERTEX
  5
597
  8
CONTOUR_LINES_30CM
 10
550474.22167790146
 20
881636.63051025826
 30
0.0
  0
VERTEX
  5
598
  8
CONTOUR_LINES_30CM
 10
550474.0606705579
 20
881636.45976160059
 30
0.0
  0
VERTEX
  5
599
  8
CONTOUR_LINES_30CM
 10
550473.84657787683
 20
881636.28236813354
 30
0.0
  0
VERTEX
  5
59A
  8
CONTOUR_LINES_30CM
 10
550473.62996340892
 20
881636.14537569019
 30
0.0
  0
VERTEX
  5
59B
  8
CONTOUR_LINES_30CM
 10
550473.32139344385
 20
881636.00702877413
 30
0.0
  0
VERTEX
  5
59C
  8
CONTOUR_LINES_30CM
 10
550472.982925324
 20
881635.91823259916
 30
0.0
  0
VERTEX
  5
59D
  8
CONTOUR_LINES_30CM
 10
550472.55799791205
 20
881635.88820944098
 30
0.0
  0
VERTEX
  5
59E
  8
CONTOUR_LINES_30CM
 10
550472.23522495048
 20
881635.92367412965
 30
0.0
  0
VERTEX
  5
59F
  8
CONTOUR_LINES_30CM
 10
550471.90489489143
 20
881636.01487626391
 30
0.0
  0
VERTEX
  5
5A0
  8
CONTOUR_LINES_30CM
 10
550471.54195062537
 20
881636.18933517381
 30
0.0
  0
VERTEX
  5
5A1
  8
CONTOUR_LINES_30CM
 10
550471.34635598341
 20
881636.32356448763
 30
0.0
  0
VERTEX
  5
5A2
  8
CONTOUR_LINES_30CM
 10
550471.09030774294
 20
881636.55805696524
 30
0.0
  0
VERTEX
  5
5A3
  8
CONTOUR_LINES_30CM
 10
550470.92650289903
 20
881636.75897135341
 30
0.0
  0
VERTEX
  5
5A4
  8
CONTOUR_LINES_30CM
 10
550470.74921169493
 20
881637.05531992915
 30
0.0
  0
VERTEX
  5
5A5
  8
CONTOUR_LINES_30CM
 10
550470.63981688197
 20
881637.32381340815
 30
0.0
  0
VERTEX
  5
5A6
  8
CONTOUR_LINES_30CM
 10
550470.55918408977
 20
881637.66187270416
 30
0.0
  0
VERTEX
  5
5A7
  8
CONTOUR_LINES_30CM
 10
550470.53550356743
 20
881637.98799557157
 30
0.0
  0
VERTEX
  5
5A8
  8
CONTOUR_LINES_30CM
 10
550470.57621279021
 20
881638.38626051159
 30
0.0
  0
VERTEX
  5
5A9
  8
CONTOUR_LINES_30CM
 10
550470.71006285038
 20
881638.81168309343
 30
0.0
  0
VERTEX
  5
5AA
  8
CONTOUR_LINES_30CM
 10
550470.88736377994
 20
881639.13593515358
 30
0.0
  0
VERTEX
  5
5AB
  8
CONTOUR_LINES_30CM
 10
550471.11549819168
 20
881639.42017287889
 30
0.0
  0
SEQEND
  5
5AC
  8
CONTOUR_LINES_30CM
  0
POLYLINE
  5
59
  8
CONTOUR_LINES_30CM
 66
     1
 10
0.0
 20
0.0
 30
0.0
 70
     1
  0
VERTEX
  5
5AD
  8
CONTOUR_LINES_30CM
 10
550472.62427980313
 20
881639.37642498268
 30
0.0
  0
VERTEX
  5
5AE
  8
CONTOUR_LINES_30CM
 10
550472.82667354972
 20
881639.330405785
 30
0.0
  0
VERTEX
  5
5AF
  8
CONTOUR_LINES_30CM
 10
550473.00445540913
 20
881639.26275592402
 30
0.0
  0
VERTEX
  5
5B0
  8
CONTOUR_LINES_30CM
 10
550473.24536726368
 20
881639.1191714158
 30
0.0
  0
VERTEX
  5
5B1
  8
CONTOUR_LINES_30CM
 10
550473.33898144681
 20
881639.04120808875
 30
0.0
  0
VERTEX
  5
5B2
  8
CONTOUR_LINES_30CM
 10
550473.46149364358
 20
881638.91004563554
 30
0.0
  0
VERTEX
  5
5B3
  8
CONTOUR_LINES_30CM
 10
550473.59525683546
 20
881638.69696020347
 30
0.0
  0
VERTEX
  5
5B4
  8
CONTOUR_LINES_30CM
 10
550473.68610664399
 20
881638.38771288563
 30
0.0
  0
VERTEX
  5
5B5
  8
CONTOUR_LINES_30CM
 10
550473.60594876332
 20
881637.86026121199
 30
0.0
  0
VERTEX
  5
5B6
  8
CONTOUR_LINES_30CM
 10
550473.32840647979
 20
881637.48641782056
 30
0.0
  0
VERTEX
  5
5B7
  8
CONTOUR_LINES_30CM
 10
550472.89406903426
 20
881637.23430957203
 30
0.0
  0
VERTEX
  5
5B8
  8
CONTOUR_LINES_30CM
 10
550472.48359867767
 20
881637.15604969708
 30
0.0
  0
VERTEX
  5
5B9
  8
CONTOUR_LINES_30CM
 10
550472.12267555599
 20
881637.18495253695
 30
0.0
  0
VERTEX
  5
5BA
  8
CONTOUR_LINES_30CM
 10
550471.86694457824
 20
881637.26341694605
 30
0.0
  0
VERTEX
  5
5BB
  8
CONTOUR_LINES_30CM
 10
550471.62777267303
 20
881637.39195319125
 30
0.0
  0
VERTEX
  5
5BC
  8
CONTOUR_LINES_30CM
 10
550471.44897995878
 20
881637.53895449254
 30
0.0
  0
VERTEX
  5
5BD
  8
CONTOUR_LINES_30CM
 10
550471.27461087308
 20
881637.76096639934
 30
0.0
  0
VERTEX
  5
5BE
  8
CONTOUR_LINES_30CM
 10
550471.19846205774
 20
881637.91516604566
 30
0.0
  0
VERTEX
  5
5BF
  8
CONTOUR_LINES_30CM
 10
550471.15844380844
 20
881638.03884045966
 30
0.0
  0
VERTEX
  5
5C0
  8
CONTOUR_LINES_30CM
 10
550471.12812975014
 20
881638.29788621585
 30
0.0
  0
VERTEX
  5
5C1
  8
CONTOUR_LINES_30CM
 10
550471.16400633345
 20
881638.5446026806
 30
0.0
  0
VERTEX
  5
5C2
  8
CONTOUR_LINES_30CM
 10
550471.27322094375
 20
881638.7979177275
 30
0.0
  0
VERTEX
  5
5C3
  8
CONTOUR_LINES_30CM
 10
550471.36569114856
 20
881638.92912052944
 30
0.0
  0
VERTEX
  5
5C4
  8
CONTOUR_LINES_30CM
 10
550471.36569114856
 20
881638.92912052944
 30
0.0
  0
VERTEX
  5
5C5
  8
CONTOUR_LINES_30CM
 10
550471.59731159825
 20
881639.14417003177
 30
0.0
  0
VERTEX
  5
5C6
  8
CONTOUR_LINES_30CM
 10
550471.84487043356
 20
881639.28175900097
 30
0.0
  0
VERTEX
  5
5C7
  8
CONTOUR_LINES_30CM
 10
550472.15377971414
 20
881639.37207426585
 30
0.0
  0
VERTEX
  5
5C8
  8
CONTOUR_LINES_30CM
 10
550472.37438938173
 20
881639.39303539181
 30
0.0
  0
SEQEND
  5
5C9
  8
CONTOUR_LINES_30CM
  0
POLYLINE
  5
5A
  8
CONTOUR_LINES_30CM
 66
     1
 10
0.0
 20
0.0
 30
0.0
 70
     1
  0
VERTEX
  5
5CA
  8
CONTOUR_LINES_30CM
 10
550480.07030511741
 20
881648.25292256777
 30
0.0
  0
VERTEX
  5
5CB
  8
CONTOUR_LINES_30CM
 10
550480.04807882302
 20
881647.93229520915
 30
0.0
  0
VERTEX
  5
5CC
  8
CONTOUR_LINES_30CM
 10
550479.96941481996
 20
881647.67853990942
 30
0.0
  0
VERTEX
  5
5CD
  8
CONTOUR_LINES_30CM
 10
550479.67818397121
 20
881647.20958394359
 30
0.0
  0
VERTEX
  5
5CE
  8
CONTOUR_LINES_30CM
 10
550479.44728770631
 20
881646.97676841088
 30
0.0
  0
VERTEX
  5
5CF
  8
CONTOUR_LINES_30CM
 10
550479.03918390092
 20
881646.69247350364
 30
0.0
  0
VERTEX
  5
5D0
  8
CONTOUR_LINES_30CM
 10
550478.46767764946
 20
881646.46671878442
 30
0.0
  0
VERTEX
  5
5D1
  8
CONTOUR_LINES_30CM
 10
550477.92401561327
 20
881646.40330427908
 30
0.0
  0
VERTEX
  5
5D2
  8
CONTOUR_LINES_30CM
 10
550477.38250371325
 20
881646.50738036341
 30
0.0
  0
VERTEX
  5
5D3
  8
CONTOUR_LINES_30CM
 10
550476.99255717348
 20
881646.75955278182
 30
0.0
  0
VERTEX
  5
5D4
  8
CONTOUR_LINES_30CM
 10
550476.83666793886
 20
881646.96494669933
 30
0.0
  0
VERTEX
  5
5D5
  8
CONTOUR_LINES_30CM
 10
550476.72572626104
 20
881647.28060274944
 30
0.0
  0
VERTEX
  5
5D6
  8
CONTOUR_LINES_30CM
 10
550476.71963480406
 20
881647.59145309415
 30
0.0
  0
VERTEX
  5
5D7
  8
CONTOUR_LINES_30CM
 10
550476.79652127181
 20
881647.90196855867
 30
0.0
  0
VERTEX
  5
5D8
  8
CONTOUR_LINES_30CM
 10
550476.93673520465
 20
881648.18572553445
 30
0.0
  0
VERTEX
  5
5D9
  8
CONTOUR_LINES_30CM
 10
550477.21409496036
 20
881648.53577631537
 30
0.0
  0
VERTEX
  5
5DA
  8
CONTOUR_LINES_30CM
 10
550477.39525075676
 20
881648.6998293068
 30
0.0
  0
VERTEX
  5
5DB
  8
CONTOUR_LINES_30CM
 10
550477.70064770954
 20
881648.91017304303
 30
0.0
  0
VERTEX
  5
5DC
  8
CONTOUR_LINES_30CM
 10
550477.70064770954
 20
881648.91017304303
 30
0.0
  0
VERTEX
  5
5DD
  8
CONTOUR_LINES_30CM
 10
550478.14218765497
 20
881649.11015844694
 30
0.0
  0
VERTEX
  5
5DE
  8
CONTOUR_LINES_30CM
 10
550478.395487951
 20
881649.17943878728
 30
0.0
  0
VERTEX
  5
5DF
  8
CONTOUR_LINES_30CM
 10
550478.75788713514
 20
881649.22415837541
 30
0.0
  0
VERTEX
  5
5E0
  8
CONTOUR_LINES_30CM
 10
550479.10862164397
 20
881649.20159801794
 30
0.0
  0
VERTEX
  5
5E1
  8
CONTOUR_LINES_30CM
 10
550479.47020389664
 20
881649.09139124351
 30
0.0
  0
VERTEX
  5
5E2
  8
CONTOUR_LINES_30CM
 10
550479.72730352008
 20
881648.92836879485
 30
0.0
  0
VERTEX
  5
5E3
  8
CONTOUR_LINES_30CM
 10
550479.85845107608
 20
881648.79458780342
 30
0.0
  0
VERTEX
  5
5E4
  8
CONTOUR_LINES_30CM
 10
550479.96949278121
 20
881648.62281435286
 30
0.0
  0
VERTEX
  5
5E5
  8
CONTOUR_LINES_30CM
 10
550480.02909982542
 20
881648.47420488903
 30
0.0
  0
SEQEND
  5
5E6
  8
CONTOUR_LINES_30CM
  0
POLYLINE
  5
5B
  8
CONTOUR_LINES_30CM
 66
     1
 10
0.0
 20
0.0
 30
0.0
 70
     1
  0
VERTEX
  5
5E7
  8
CONTOUR_LINES_30CM
 10
550479.59383532568
 20
881650.42618100101
 30
0.0
  0
VERTEX
  5
5E8
  8
CONTOUR_LINES_30CM
 10
550479.87350670656
 20
881650.36283214542
 30
0.0
  0
VERTEX
  5
5E9
  8
CONTOUR_LINES_30CM
 10
550479.87350670656
 20
881650.36283214542
 30
0.0
  0
VERTEX
  5
5EA
  8
CONTOUR_LINES_30CM
 10
550480.42118485412
 20
881650.14756337798
 30
0.0
  0
VERTEX
  5
5EB
  8
CONTOUR_LINES_30CM
 10
550480.42118485412
 20
881650.14756337798
 30
0.0
  0
VERTEX
  5
5EC
  8
CONTOUR_LINES_30CM
 10
550480.92510666139
 20
881649.79189501319
 30
0.0
  0
VERTEX
  5
5ED
  8
CONTOUR_LINES_30CM
 10
550481.15512151585
 20
881649.53910828545
 30
0.0
  0
VERTEX
  5
5EE
  8
CONTOUR_LINES_30CM
 10
550481.33845049213
 20
881649.25311651896
 30
0.0
  0
VERTEX
  5
5EF
  8
CONTOUR_LINES_30CM
 10
550481.51830579026
 20
881648.75902012305
 30
0.0
  0
VERTEX
  5
5F0
  8
CONTOUR_LINES_30CM
 10
550481.55967384949
 20
881648.47348772723
 30
0.0
  0
VERTEX
  5
5F1
  8
CONTOUR_LINES_30CM
 10
550481.52867639426
 20
881647.91478859785
 30
0.0
  0
VERTEX
  5
5F2
  8
CONTOUR_LINES_30CM
 10
550481.44108404149
 20
881647.57259244809
 30
0.0
  0
VERTEX
  5
5F3
  8
CONTOUR_LINES_30CM
 10
550481.24485130014
 20
881647.12066590413
 30
0.0
  0
VERTEX
  5
5F4
  8
CONTOUR_LINES_30CM
 10
550480.92208159366
 20
881646.63605411153
 30
0.0
  0
VERTEX
  5
5F5
  8
CONTOUR_LINES_30CM
 10
550480.59647992381
 20
881646.28163912881
 30
0.0
  0
VERTEX
  5
5F6
  8
CONTOUR_LINES_30CM
 10
550480.33971413015
 20
881646.05731673632
 30
0.0
  0
VERTEX
  5
5F7
  8
CONTOUR_LINES_30CM
 10
550479.82719030266
 20
881645.70809537941
 30
0.0
  0
VERTEX
  5
5F8
  8
CONTOUR_LINES_30CM
 10
550479.2495011338
 20
881645.43092702341
 30
0.0
  0
VERTEX
  5
5F9
  8
CONTOUR_LINES_30CM
 10
550478.88850804325
 20
881645.30856457935
 30
0.0
  0
VERTEX
  5
5FA
  8
CONTOUR_LINES_30CM
 10
550478.65718067612
 20
881645.24880672863
 30
0.0
  0
VERTEX
  5
5FB
  8
CONTOUR_LINES_30CM
 10
550478.26717502775
 20
881645.17983533617
 30
0.0
  0
VERTEX
  5
5FC
  8
CONTOUR_LINES_30CM
 10
550477.70128995867
 20
881645.15081812243
 30
0.0
  0
VERTEX
  5
5FD
  8
CONTOUR_LINES_30CM
 10
550477.46012961306
 20
881645.16521320643
 30
0.0
  0
VERTEX
  5
5FE
  8
CONTOUR_LINES_30CM
 10
550476.88719527703
 20
881645.27193856472
 30
0.0
  0
VERTEX
  5
5FF
  8
CONTOUR_LINES_30CM
 10
550476.51339436916
 20
881645.40758365078
 30
0.0
  0
VERTEX
  5
600
  8
CONTOUR_LINES_30CM
 10
550476.06872175355
 20
881645.66365331993
 30
0.0
  0
VERTEX
  5
601
  8
CONTOUR_LINES_30CM
 10
550475.80156879046
 20
881645.89239595283
 30
0.0
  0
VERTEX
  5
602
  8
CONTOUR_LINES_30CM
 10
550475.61292324902
 20
881646.11087639106
 30
0.0
  0
VERTEX
  5
603
  8
CONTOUR_LINES_30CM
 10
550475.38229050883
 20
881646.50866259227
 30
0.0
  0
VERTEX
  5
604
  8
CONTOUR_LINES_30CM
 10
550475.24244489544
 20
881646.99877353176
 30
0.0
  0
VERTEX
  5
605
  8
CONTOUR_LINES_30CM
 10
550475.2192993958
 20
881647.31566741935
 30
0.0
  0
VERTEX
  5
606
  8
CONTOUR_LINES_30CM
 10
550475.28625113796
 20
881647.85585396027
 30
0.0
  0
VERTEX
  5
607
  8
CONTOUR_LINES_30CM
 10
550475.44771642261
 20
881648.32154868974
 30
0.0
  0
VERTEX
  5
608
  8
CONTOUR_LINES_30CM
 10
550475.67016034096
 20
881648.72640980408
 30
0.0
  0
VERTEX
  5
609
  8
CONTOUR_LINES_30CM
 10
550476.07249700441
 20
881649.2309858622
 30
0.0
  0
VERTEX
  5
60A
  8
CONTOUR_LINES_30CM
 10
550476.34393767954
 20
881649.48714492167
 30
0.0
  0
VERTEX
  5
60B
  8
CONTOUR_LINES_30CM
 10
550476.7703672616
 20
881649.80537510815
 30
0.0
  0
VERTEX
  5
60C
  8
CONTOUR_LINES_30CM
 10
550477.28724431421
 20
881650.0912329487
 30
0.0
  0
VERTEX
  5
60D
  8
CONTOUR_LINES_30CM
 10
550477.62291850429
 20
881650.23020996922
 30
0.0
  0
VERTEX
  5
60E
  8
CONTOUR_LINES_30CM
 10
550477.90305931226
 20
881650.32145093416
 30
0.0
  0
VERTEX
  5
60F
  8
CONTOUR_LINES_30CM
 10
550478.52738625614
 20
881650.4494283126
 30
0.0
  0
VERTEX
  5
610
  8
CONTOUR_LINES_30CM
 10
550478.92644387647
 20
881650.4777821824
 30
0.0
  0
VERTEX
  5
611
  8
CONTOUR_LINES_30CM
 10
550479.3562522115
 20
881650.45966287865
 30
0.0
  0
SEQEND
  5
612
  8
CONTOUR_LINES_30CM
  0
POLYLINE
  5
5C
  8
CONTOUR_LINES_30CM
 66
     1
 10
0.0
 20
0.0
 30
0.0
 70
     1
  0
VERTEX
  5
613
  8
CONTOUR_LINES_30CM
 10
550485.92330628936
 20
881648.84483950306
 30
0.0
  0
VERTEX
  5
614
  8
CONTOUR_LINES_30CM
 10
550485.9664090405
 20
881649.0069077143
 30
0.0
  0
VERTEX
  5
615
  8
CONTOUR_LINES_30CM
 10
550485.97766433284
 20
881649.15506563417
 30
0.0
  0
VERTEX
  5
616
  8
CONTOUR_LINES_30CM
 10
550485.93651712104
 20
881649.37934846967
 30
0.0
  0
VERTEX
  5
617
  8
CONTOUR_LINES_30CM
 10
550485.84897945565
 20
881649.54117948201
 30
0.0
  0
VERTEX
  5
618
  8
CONTOUR_LINES_30CM
 10
550485.84897945565
 20
881649.54117948201
 30
0.0
  0
VERTEX
  5
619
  8
CONTOUR_LINES_30CM
 10
550485.55728101928
 20
881649.76613133017
 30
0.0
  0
VERTEX
  5
61A
  8
CONTOUR_LINES_30CM
 10
550485.55728101928
 20
881649.76613133017
 30
0.0
  0
VERTEX
  5
61B
  8
CONTOUR_LINES_30CM
 10
550485.16024674801
 20
881649.84170714405
 30
0.0
  0
VERTEX
  5
61C
  8
CONTOUR_LINES_30CM
 10
550484.65911659587
 20
881649.7389780177
 30
0.0
  0
VERTEX
  5
61D
  8
CONTOUR_LINES_30CM
 10
550484.41021156614
 20
881649.61096774298
 30
0.0
  0
VERTEX
  5
61E
  8
CONTOUR_LINES_30CM
 10
550484.23575316323
 20
881649.48183367017
 30
0.0
  0
VERTEX
  5
61F
  8
CONTOUR_LINES_30CM
 10
550484.13188200467
 20
881649.38342257671
 30
0.0
  0
VERTEX
  5
620
  8
CONTOUR_LINES_30CM
 10
550483.94872834545
 20
881649.14167131286
 30
0.0
  0
VERTEX
  5
621
  8
CONTOUR_LINES_30CM
 10
550483.88738717663
 20
881649.0200091427
 30
0.0
  0
VERTEX
  5
622
  8
CONTOUR_LINES_30CM
 10
550483.81683295732
 20
881648.76017837552
 30
0.0
  0
VERTEX
  5
623
  8
CONTOUR_LINES_30CM
 10
550483.85544946324
 20
881648.42521747225
 30
0.0
  0
VERTEX
  5
624
  8
CONTOUR_LINES_30CM
 10
550483.99446087237
 20
881648.20662037481
 30
0.0
  0
VERTEX
  5
625
  8
CONTOUR_LINES_30CM
 10
550484.17143197241
 20
881648.07428912085
 30
0.0
  0
VERTEX
  5
626
  8
CONTOUR_LINES_30CM
 10
550484.35047963005
 20
881648.00414470106
 30
0.0
  0
VERTEX
  5
627
  8
CONTOUR_LINES_30CM
 10
550484.57755284186
 20
881647.97039286513
 30
0.0
  0
VERTEX
  5
628
  8
CONTOUR_LINES_30CM
 10
550484.98838437628
 20
881648.02314820827
 30
0.0
  0
VERTEX
  5
629
  8
CONTOUR_LINES_30CM
 10
550485.23967273114
 20
881648.12143293174
 30
0.0
  0
VERTEX
  5
62A
  8
CONTOUR_LINES_30CM
 10
550485.45334385464
 20
881648.25041037134
 30
0.0
  0
VERTEX
  5
62B
  8
CONTOUR_LINES_30CM
 10
550485.5935349291
 20
881648.36483119463
 30
0.0
  0
VERTEX
  5
62C
  8
CONTOUR_LINES_30CM
 10
550485.71564168588
 20
881648.49252275308
 30
0.0
  0
VERTEX
  5
62D
  8
CONTOUR_LINES_30CM
 10
550485.82677076559
 20
881648.64616167848
 30
0.0
  0
SEQEND
  5
62E
  8
CONTOUR_LINES_30CM
  0
POLYLINE
  5
5D
  8
CONTOUR_LINES_30CM
 66
     1
 10
0.0
 20
0.0
 30
0.0
 70
     1
  0
VERTEX
  5
62F
  8
CONTOUR_LINES_30CM
 10
550484.04664420872
 20
881650.51399371494
 30
0.0
  0
VERTEX
  5
630
  8
CONTOUR_LINES_30CM
 10
550484.59565637435
 20
881650.71649718203
 30
0.0
  0
VERTEX
  5
631
  8
CONTOUR_LINES_30CM
 10
550485.26403759432
 20
881650.7430018239
 30
0.0
  0
VERTEX
  5
632
  8
CONTOUR_LINES_30CM
 10
550485.7357786526
 20
881650.61512342305
 30
0.0
  0
VERTEX
  5
633
  8
CONTOUR_LINES_30CM
 10
550486.257718988
 20
881650.27730455261
 30
0.0
  0
VERTEX
  5
634
  8
CONTOUR_LINES_30CM
 10
550486.58053847705
 20
881649.86420444481
 30
0.0
  0
VERTEX
  5
635
  8
CONTOUR_LINES_30CM
 10
550486.76383082045
 20
881649.36831515178
 30
0.0
  0
VERTEX
  5
636
  8
CONTOUR_LINES_30CM
 10
550486.79751635308
 20
881648.94054513006
 30
0.0
  0
VERTEX
  5
637
  8
CONTOUR_LINES_30CM
 10
550486.71794460586
 20
881648.47649943701
 30
0.0
  0
VERTEX
  5
638
  8
CONTOUR_LINES_30CM
 10
550486.5004883908
 20
881648.00334310683
 30
0.0
  0
VERTEX
  5
639
  8
CONTOUR_LINES_30CM
 10
550486.15476382419
 20
881647.59050504945
 30
0.0
  0
VERTEX
  5
63A
  8
CONTOUR_LINES_30CM
 10
550485.23691112536
 20
881647.10437678942
 30
0.0
  0
VERTEX
  5
63B
  8
CONTOUR_LINES_30CM
 10
550484.6091211458
 20
881647.05886470247
 30
0.0
  0
VERTEX
  5
63C
  8
CONTOUR_LINES_30CM
 10
550484.08046721015
 20
881647.18509637495
 30
0.0
  0
VERTEX
  5
63D
  8
CONTOUR_LINES_30CM
 10
550484.08046721015
 20
881647.18509637495
 30
0.0
  0
VERTEX
  5
63E
  8
CONTOUR_LINES_30CM
 10
550483.42551229068
 20
881647.642869364
 30
0.0
  0
VERTEX
  5
63F
  8
CONTOUR_LINES_30CM
 10
550483.42551229068
 20
881647.642869364
 30
0.0
  0
VERTEX
  5
640
  8
CONTOUR_LINES_30CM
 10
550483.01985127572
 20
881648.47279739846
 30
0.0
  0
VERTEX
  5
641
  8
CONTOUR_LINES_30CM
 10
550483.01985127572
 20
881648.47279739846
 30
0.0
  0
VERTEX
  5
642
  8
CONTOUR_LINES_30CM
 10
550483.03734793572
 20
881649.20667501295
 30
0.0
  0
VERTEX
  5
643
  8
CONTOUR_LINES_30CM
 10
550483.20318957348
 20
881649.65805974579
 30
0.0
  0
VERTEX
  5
644
  8
CONTOUR_LINES_30CM
 10
550483.32689151913
 20
881649.86562639289
 30
0.0
  0
VERTEX
  5
645
  8
CONTOUR_LINES_30CM
 10
550483.63979487575
 20
881650.2253551014
 30
0.0
  0
SEQEND
  5
646
  8
CONTOUR_LINES_30CM
  0
POLYLINE
  5
5E
  8
CONTOUR_LINES_30CM
 66
     1
 10
0.0
 20
0.0
 30
0.0
 70
     1
  0
VERTEX
  5
647
  8
CONTOUR_LINES_30CM
 10
550388.48702569923
 20
881596.44492342405
 30
0.0
  0
VERTEX
  5
648
  8
CONTOUR_LINES_30CM
 10
550389.03522646765
 20
881595.70385292394
 30
0.0
  0
VERTEX
  5
649
  8
CONTOUR_LINES_30CM
 10
550389.03522646765
 20
881595.70385292394
 30
0.0
  0
VERTEX
  5
64A
  8
CONTOUR_LINES_30CM
 10
550389.07792261825
 20
881593.6847256606
 30
0.0
  0
VERTEX
  5
64B
  8
CONTOUR_LINES_30CM
 10
550388.16645115288
 20
881592.59852026368
 30
0.0
  0
VERTEX
  5
64C
  8
CONTOUR_LINES_30CM
 10
550386.565716821
 20
881592.18746153265
 30
0.0
  0
VERTEX
  5
64D
  8
CONTOUR_LINES_30CM
 10
550385.88516578928
 20
881592.33723530918
 30
0.0
  0
VERTEX
  5
64E
  8
CONTOUR_LINES_30CM
 10
550385.88516578928
 20
881592.33723530918
 30
0.0
  0
VERTEX
  5
64F
  8
CONTOUR_LINES_30CM
 10
550384.75571373093
 20
881593.17332944425
 30
0.0
  0
VERTEX
  5
650
  8
CONTOUR_LINES_30CM
 10
550384.3283899012
 20
881594.07113177411
 30
0.0
  0
VERTEX
  5
651
  8
CONTOUR_LINES_30CM
 10
550384.27009145683
 20
881594.87897475634
 30
0.0
  0
VERTEX
  5
652
  8
CONTOUR_LINES_30CM
 10
550384.42884742899
 20
881595.54002940736
 30
0.0
  0
VERTEX
  5
653
  8
CONTOUR_LINES_30CM
 10
550385.44356589217
 20
881596.74363093032
 30
0.0
  0
VERTEX
  5
654
  8
CONTOUR_LINES_30CM
 10
550386.43005132349
 20
881597.09299576364
 30
0.0
  0
VERTEX
  5
655
  8
CONTOUR_LINES_30CM
 10
550387.2974935415
 20
881597.05984470586
 30
0.0
  0
VERTEX
  5
656
  8
CONTOUR_LINES_30CM
 10
550387.90585976641
 20
881596.84695828182
 30
0.0
  0
SEQEND
  5
657
  8
CONTOUR_LINES_30CM
  0
POLYLINE
  5
5F
  8
CONTOUR_LINES_30CM
 66
     1
 10
0.0
 20
0.0
 30
0.0
 70
     1
  0
VERTEX
  5
658
  8
CONTOUR_LINES_30CM
 10
550303.15483835642
 20
881484.7476850159
 30
0.0
  0
VERTEX
  5
659
  8
CONTOUR_LINES_30CM
 10
550303.49706144945
 20
881484.39947101939
 30
0.0
  0
VERTEX
  5
65A
  8
CONTOUR_LINES_30CM
 10
550303.71656549594
 20
881484.03796707815
 30
0.0
  0
VERTEX
  5
65B
  8
CONTOUR_LINES_30CM
 10
550303.84450427536
 20
881483.57653282466
 30
0.0
  0
VERTEX
  5
65C
  8
CONTOUR_LINES_30CM
 10
550303.80307508295
 20
881483.11484311195
 30
0.0
  0
VERTEX
  5
65D
  8
CONTOUR_LINES_30CM
 10
550303.45997625112
 20
881482.59936670493
 30
0.0
  0
VERTEX
  5
65E
  8
CONTOUR_LINES_30CM
 10
550302.96745291329
 20
881482.35063334764
 30
0.0
  0
VERTEX
  5
65F
  8
CONTOUR_LINES_30CM
 10
550302.33348537097
 20
881482.30914115428
 30
0.0
  0
VERTEX
  5
660
  8
CONTOUR_LINES_30CM
 10
550301.81321598671
 20
881482.43815508904
 30
0.0
  0
VERTEX
  5
661
  8
CONTOUR_LINES_30CM
 10
550301.49752121395
 20
881482.58912109165
 30
0.0
  0
VERTEX
  5
662
  8
CONTOUR_LINES_30CM
 10
550301.2163840807
 20
881482.78086440393
 30
0.0
  0
VERTEX
  5
663
  8
CONTOUR_LINES_30CM
 10
550300.86227166594
 20
881483.13940028416
 30
0.0
  0
VERTEX
  5
664
  8
CONTOUR_LINES_30CM
 10
550300.60591300949
 20
881483.59074889251
 30
0.0
  0
VERTEX
  5
665
  8
CONTOUR_LINES_30CM
 10
550300.51847881975
 20
881483.94112650154
 30
0.0
  0
VERTEX
  5
666
  8
CONTOUR_LINES_30CM
 10
550300.65185303916
 20
881484.64154865535
 30
0.0
  0
VERTEX
  5
667
  8
CONTOUR_LINES_30CM
 10
550300.90593142004
 20
881484.94165065663
 30
0.0
  0
VERTEX
  5
668
  8
CONTOUR_LINES_30CM
 10
550301.44452349015
 20
881485.19890694506
 30
0.0
  0
VERTEX
  5
669
  8
CONTOUR_LINES_30CM
 10
550301.85303849773
 20
881485.23940877488
 30
0.0
  0
VERTEX
  5
66A
  8
CONTOUR_LINES_30CM
 10
550302.26721526019
 20
881485.1857579858
 30
0.0
  0
VERTEX
  5
66B
  8
CONTOUR_LINES_30CM
 10
550302.57260517485
 20
881485.08891684108
 30
0.0
  0
VERTEX
  5
66C
  8
CONTOUR_LINES_30CM
 10
550302.9077670899
 20
881484.92144366726
 30
0.0
  0
SEQEND
  5
66D
  8
CONTOUR_LINES_30CM
  0
POLYLINE
  5
60
  8
CONTOUR_LINES_30CM
 66
     1
 10
0.0
 20
0.0
 30
0.0
 70
     1
  0
VERTEX
  5
66E
  8
CONTOUR_LINES_30CM
 10
550487.48406494164
 20
881450.95737300883
 30
0.0
  0
VERTEX
  5
66F
  8
CONTOUR_LINES_30CM
 10
550489.21148088144
 20
881451.33491983404
 30
0.0
  0
VERTEX
  5
670
  8
CONTOUR_LINES_30CM
 10
550491.19012218947
 20
881451.96830777393
 30
0.0
  0
VERTEX
  5
671
  8
CONTOUR_LINES_30CM
 10
550492.96512410603
 20
881452.72354684712
 30
0.0
  0
VERTEX
  5
672
  8
CONTOUR_LINES_30CM
 10
550494.21658025426
 20
881453.36992609024
 30
0.0
  0
VERTEX
  5
673
  8
CONTOUR_LINES_30CM
 10
550495.97716437036
 20
881454.45869488118
 30
0.0
  0
VERTEX
  5
674
  8
CONTOUR_LINES_30CM
 10
550497.81993397675
 20
881455.86919766897
 30
0.0
  0
VERTEX
  5
675
  8
CONTOUR_LINES_30CM
 10
550498.84438095195
 20
881456.80754968175
 30
0.0
  0
VERTEX
  5
676
  8
CONTOUR_LINES_30CM
 10
550499.64480229537
 20
881457.64187607064
 30
0.0
  0
VERTEX
  5
677
  8
CONTOUR_LINES_30CM
 10
550501.50418304268
 20
881460.11704266781
 30
0.0
  0
VERTEX
  5
678
  8
CONTOUR_LINES_30CM
 10
550502.10993572976
 20
881461.21733102528
 30
0.0
  0
VERTEX
  5
679
  8
CONTOUR_LINES_30CM
 10
550502.59306121082
 20
881462.33172406314
 30
0.0
  0
VERTEX
  5
67A
  8
CONTOUR_LINES_30CM
 10
550503.05737547984
 20
881463.93426962115
 30
0.0
  0
VERTEX
  5
67B
  8
CONTOUR_LINES_30CM
 10
550503.2243455092
 20
881465.21880460286
 30
0.0
  0
VERTEX
  5
67C
  8
CONTOUR_LINES_30CM
 10
550503.19246457214
 20
881466.48284677323
 30
0.0
  0
VERTEX
  5
67D
  8
CONTOUR_LINES_30CM
 10
550502.82537297439
 20
881468.07804719673
 30
0.0
  0
VERTEX
  5
67E
  8
CONTOUR_LINES_30CM
 10
550502.30189121363
 20
881469.18166982965
 30
0.0
  0
VERTEX
  5
67F
  8
CONTOUR_LINES_30CM
 10
550501.86204683443
 20
881469.82620891591
 30
0.0
  0
VERTEX
  5
680
  8
CONTOUR_LINES_30CM
 10
550500.86474369734
 20
881470.86224232439
 30
0.0
  0
VERTEX
  5
681
  8
CONTOUR_LINES_30CM
 10
550498.8362569887
 20
881472.09706486727
 30
0.0
  0
VERTEX
  5
682
  8
CONTOUR_LINES_30CM
 10
550496.53576792195
 20
881472.77487290173
 30
0.0
  0
VERTEX
  5
683
  8
CONTOUR_LINES_30CM
 10
550495.21912599425
 20
881472.94059215707
 30
0.0
  0
VERTEX
  5
684
  8
CONTOUR_LINES_30CM
 10
550493.36051064578
 20
881472.96130850608
 30
0.0
  0
VERTEX
  5
685
  8
CONTOUR_LINES_30CM
 10
550492.4545952148
 20
881472.8915764275
 30
0.0
  0
VERTEX
  5
686
  8
CONTOUR_LINES_30CM
 10
550491.69769897056
 20
881472.79615859175
 30
0.0
  0
VERTEX
  5
687
  8
CONTOUR_LINES_30CM
 10
550490.7216706489
 20
881472.62506124109
 30
0.0
  0
VERTEX
  5
688
  8
CONTOUR_LINES_30CM
 10
550489.28020953212
 20
881472.2760890834
 30
0.0
  0
VERTEX
  5
689
  8
CONTOUR_LINES_30CM
 10
550488.70509979525
 20
881472.10517102131
 30
0.0
  0
VERTEX
  5
68A
  8
CONTOUR_LINES_30CM
 10
550487.34087722749
 20
881471.62696548924
 30
0.0
  0
VERTEX
  5
68B
  8
CONTOUR_LINES_30CM
 10
550486.67582470481
 20
881471.35600458982
 30
0.0
  0
VERTEX
  5
68C
  8
CONTOUR_LINES_30CM
 10
550485.68204052094
 20
881470.90313458897
 30
0.0
  0
VERTEX
  5
68D
  8
CONTOUR_LINES_30CM
 10
550484.27532655385
 20
881470.15790766035
 30
0.0
  0
VERTEX
  5
68E
  8
CONTOUR_LINES_30CM
 10
550483.66714410717
 20
881469.79494345095
 30
0.0
  0
VERTEX
  5
68F
  8
CONTOUR_LINES_30CM
 10
550482.29072369996
 20
881468.87161298015
 30
0.0
  0
VERTEX
  5
690
  8
CONTOUR_LINES_30CM
 10
550480.86605263886
 20
881467.74186008528
 30
0.0
  0
VERTEX
  5
691
  8
CONTOUR_LINES_30CM
 10
550480.25405201304
 20
881467.19037676125
 30
0.0
  0
VERTEX
  5
692
  8
CONTOUR_LINES_30CM
 10
550479.35071679659
 20
881466.28558752476
 30
0.0
  0
VERTEX
  5
693
  8
CONTOUR_LINES_30CM
 10
550478.61374164175
 20
881465.44722625741
 30
0.0
  0
VERTEX
  5
694
  8
CONTOUR_LINES_30CM
 10
550477.7040184706
 20
881464.23977345275
 30
0.0
  0
VERTEX
  5
695
  8
CONTOUR_LINES_30CM
 10
550477.08505275368
 20
881463.25578877877
 30
0.0
  0
VERTEX
  5
696
  8
CONTOUR_LINES_30CM
 10
550476.51346579695
 20
881462.14930405759
 30
0.0
  0
VERTEX
  5
697
  8
CONTOUR_LINES_30CM
 10
550476.09675037081
 20
881461.11791508924
 30
0.0
  0
VERTEX
  5
698
  8
CONTOUR_LINES_30CM
 10
550475.59769922344
 20
881458.99771204672
 30
0.0
  0
VERTEX
  5
699
  8
CONTOUR_LINES_30CM
 10
550475.55977842212
 20
881457.47472871724
 30
0.0
  0
VERTEX
  5
69A
  8
CONTOUR_LINES_30CM
 10
550475.70949658297
 20
881456.44295282068
 30
0.0
  0
VERTEX
  5
69B
  8
CONTOUR_LINES_30CM
 10
550476.18177741906
 20
881455.05696864636
 30
0.0
  0
VERTEX
  5
69C
  8
CONTOUR_LINES_30CM
 10
550476.90180400049
 20
881453.87922753161
 30
0.0
  0
VERTEX
  5
69D
  8
CONTOUR_LINES_30CM
 10
550477.37987324805
 20
881453.32444789784
 30
0.0
  0
VERTEX
  5
69E
  8
CONTOUR_LINES_30CM
 10
550478.04819678154
 20
881452.71457664529
 30
0.0
  0
VERTEX
  5
69F
  8
CONTOUR_LINES_30CM
 10
550478.46625886986
 20
881452.40269468038
 30
0.0
  0
VERTEX
  5
6A0
  8
CONTOUR_LINES_30CM
 10
550479.41139348992
 20
881451.83956152003
 30
0.0
  0
VERTEX
  5
6A1
  8
CONTOUR_LINES_30CM
 10
550480.50785744074
 20
881451.36962211877
 30
0.0
  0
VERTEX
  5
6A2
  8
CONTOUR_LINES_30CM
 10
550481.12911159289
 20
881451.17085514031
 30
0.0
  0
VERTEX
  5
6A3
  8
CONTOUR_LINES_30CM
 10
550482.55755151203
 20
881450.86149474594
 30
0.0
  0
VERTEX
  5
6A4
  8
CONTOUR_LINES_30CM
 10
550483.53936366283
 20
881450.74975843995
 30
0.0
  0
VERTEX
  5
6A5
  8
CONTOUR_LINES_30CM
 10
550484.50284523971
 20
881450.70901708235
 30
0.0
  0
VERTEX
  5
6A6
  8
CONTOUR_LINES_30CM
 10
550485.8104096069
 20
881450.75193816761
 30
0.0
  0
SEQEND
  5
6A7
  8
CONTOUR_LINES_30CM
  0
POLYLINE
  5
61
  8
CONTOUR_LINES_30CM
 66
     1
 10
0.0
 20
0.0
 30
0.0
 70
     1
  0
VERTEX
  5
6A8
  8
CONTOUR_LINES_30CM
 10
550444.62280007359
 20
881452.48212342383
 30
0.0
  0
VERTEX
  5
6A9
  8
CONTOUR_LINES_30CM
 10
550444.8155617835
 20
881452.03290548106
 30
0.0
  0
VERTEX
  5
6AA
  8
CONTOUR_LINES_30CM
 10
550444.96243813459
 20
881451.74065976066
 30
0.0
  0
VERTEX
  5
6AB
  8
CONTOUR_LINES_30CM
 10
550445.22019484255
 20
881451.30305158114
 30
0.0
  0
VERTEX
  5
6AC
  8
CONTOUR_LINES_30CM
 10
550445.42034188693
 20
881451.01470505993
 30
0.0
  0
VERTEX
  5
6AD
  8
CONTOUR_LINES_30CM
 10
550445.67455873406
 20
881450.70008442621
 30
0.0
  0
VERTEX
  5
6AE
  8
CONTOUR_LINES_30CM
 10
550446.1500829648
 20
881450.23715159472
 30
0.0
  0
VERTEX
  5
6AF
  8
CONTOUR_LINES_30CM
 10
550446.41640165239
 20
881450.03847935074
 30
0.0
  0
VERTEX
  5
6B0
  8
CONTOUR_LINES_30CM
 10
550446.81317168311
 20
881449.81370813935
 30
0.0
  0
VERTEX
  5
6B1
  8
CONTOUR_LINES_30CM
 10
550447.08080334601
 20
881449.70748823625
 30
0.0
  0
VERTEX
  5
6B2
  8
CONTOUR_LINES_30CM
 10
550447.88540341728
 20
881449.60390570236
 30
0.0
  0
VERTEX
  5
6B3
  8
CONTOUR_LINES_30CM
 10
550448.20035794447
 20
881449.65597943345
 30
0.0
  0
VERTEX
  5
6B4
  8
CONTOUR_LINES_30CM
 10
550448.82059906865
 20
881449.93933968956
 30
0.0
  0
VERTEX
  5
6B5
  8
CONTOUR_LINES_30CM
 10
550449.27092514629
 20
881450.34159009811
 30
0.0
  0
VERTEX
  5
6B6
  8
CONTOUR_LINES_30CM
 10
550449.27092514629
 20
881450.34159009811
 30
0.0
  0
VERTEX
  5
6B7
  8
CONTOUR_LINES_30CM
 10
550449.60489862005
 20
881450.80502276309
 30
0.0
  0
VERTEX
  5
6B8
  8
CONTOUR_LINES_30CM
 10
550449.80674672185
 20
881451.19760219217
 30
0.0
  0
VERTEX
  5
6B9
  8
CONTOUR_LINES_30CM
 10
550449.99271859962
 20
881451.69650021289
 30
0.0
  0
VERTEX
  5
6BA
  8
CONTOUR_LINES_30CM
 10
550450.13653482101
 20
881452.2824665074
 30
0.0
  0
VERTEX
  5
6BB
  8
CONTOUR_LINES_30CM
 10
550450.24170523894
 20
881453.3464137417
 30
0.0
  0
VERTEX
  5
6BC
  8
CONTOUR_LINES_30CM
 10
550450.23071633454
 20
881453.88213359902
 30
0.0
  0
VERTEX
  5
6BD
  8
CONTOUR_LINES_30CM
 10
550450.1689597012
 20
881454.50270671898
 30
0.0
  0
VERTEX
  5
6BE
  8
CONTOUR_LINES_30CM
 10
550450.02958143421
 20
881455.23225008254
 30
0.0
  0
VERTEX
  5
6BF
  8
CONTOUR_LINES_30CM
 10
550449.79779631435
 20
881456.00731339003
 30
0.0
  0
VERTEX
  5
6C0
  8
CONTOUR_LINES_30CM
 10
550449.58277127764
 20
881456.53798553091
 30
0.0
  0
VERTEX
  5
6C1
  8
CONTOUR_LINES_30CM
 10
550449.40143156599
 20
881456.90699965216
 30
0.0
  0
VERTEX
  5
6C2
  8
CONTOUR_LINES_30CM
 10
550449.21928935079
 20
881457.22673110757
 30
0.0
  0
VERTEX
  5
6C3
  8
CONTOUR_LINES_30CM
 10
550448.94457250531
 20
881457.63580254256
 30
0.0
  0
VERTEX
  5
6C4
  8
CONTOUR_LINES_30CM
 10
550448.60485004168
 20
881458.04740451428
 30
0.0
  0
VERTEX
  5
6C5
  8
CONTOUR_LINES_30CM
 10
550448.11094892805
 20
881458.50097362185
 30
0.0
  0
VERTEX
  5
6C6
  8
CONTOUR_LINES_30CM
 10
550447.72960026294
 20
881458.75341203681
 30
0.0
  0
VERTEX
  5
6C7
  8
CONTOUR_LINES_30CM
 10
550446.95231358765
 20
881459.03604238865
 30
0.0
  0
VERTEX
  5
6C8
  8
CONTOUR_LINES_30CM
 10
550446.42913635471
 20
881459.05521323578
 30
0.0
  0
VERTEX
  5
6C9
  8
CONTOUR_LINES_30CM
 10
550445.98042600497
 20
881458.95288195834
 30
0.0
  0
VERTEX
  5
6CA
  8
CONTOUR_LINES_30CM
 10
550445.68533369096
 20
881458.81688770105
 30
0.0
  0
VERTEX
  5
6CB
  8
CONTOUR_LINES_30CM
 10
550445.10139327426
 20
881458.36485554406
 30
0.0
  0
VERTEX
  5
6CC
  8
CONTOUR_LINES_30CM
 10
550444.80057098775
 20
881457.93897631252
 30
0.0
  0
VERTEX
  5
6CD
  8
CONTOUR_LINES_30CM
 10
550444.57061695971
 20
881457.51292375114
 30
0.0
  0
VERTEX
  5
6CE
  8
CONTOUR_LINES_30CM
 10
550444.48911040882
 20
881457.32324208075
 30
0.0
  0
VERTEX
  5
6CF
  8
CONTOUR_LINES_30CM
 10
550444.38256206561
 20
881457.0280193541
 30
0.0
  0
VERTEX
  5
6D0
  8
CONTOUR_LINES_30CM
 10
550444.26035661681
 20
881456.57963817404
 30
0.0
  0
VERTEX
  5
6D1
  8
CONTOUR_LINES_30CM
 10
550444.26035661681
 20
881456.57963817404
 30
0.0
  0
VERTEX
  5
6D2
  8
CONTOUR_LINES_30CM
 10
550444.16851216753
 20
881456.06143284123
 30
0.0
  0
VERTEX
  5
6D3
  8
CONTOUR_LINES_30CM
 10
550444.1355858586
 20
881455.75266384811
 30
0.0
  0
VERTEX
  5
6D4
  8
CONTOUR_LINES_30CM
 10
550444.11599523644
 20
881454.99141653522
 30
0.0
  0
VERTEX
  5
6D5
  8
CONTOUR_LINES_30CM
 10
550444.13438282942
 20
881454.64185352135
 30
0.0
  0
VERTEX
  5
6D6
  8
CONTOUR_LINES_30CM
 10
550444.18854503043
 20
881454.14809662325
 30
0.0
  0
VERTEX
  5
6D7
  8
CONTOUR_LINES_30CM
 10
550444.29327591555
 20
881453.57277394296
 30
0.0
  0
VERTEX
  5
6D8
  8
CONTOUR_LINES_30CM
 10
550444.40456849942
 20
881453.13279105723
 30
0.0
  0
VERTEX
  5
6D9
  8
CONTOUR_LINES_30CM
 10
550444.5089969479
 20
881452.79637997353
 30
0.0
  0
SEQEND
  5
6DA
  8
CONTOUR_LINES_30CM
  0
POLYLINE
  5
62
  8
CONTOUR_LINES_30CM
 66
     1
 10
0.0
 20
0.0
 30
0.0
 70
     1
  0
VERTEX
  5
6DB
  8
CONTOUR_LINES_30CM
 10
550442.07688904507
 20
881461.77442661906
 30
0.0
  0
VERTEX
  5
6DC
  8
CONTOUR_LINES_30CM
 10
550442.33925977198
 20
881463.36105200904
 30
0.0
  0
VERTEX
  5
6DD
  8
CONTOUR_LINES_30CM
 10
550442.58755589707
 20
881464.25074744376
 30
0.0
  0
VERTEX
  5
6DE
  8
CONTOUR_LINES_30CM
 10
550443.14679472684
 20
881465.49645877036
 30
0.0
  0
VERTEX
  5
6DF
  8
CONTOUR_LINES_30CM
 10
550443.71939434181
 20
881466.23008619715
 30
0.0
  0
VERTEX
  5
6E0
  8
CONTOUR_LINES_30CM
 10
550444.3483933293
 20
881466.67096853536
 30
0.0
  0
VERTEX
  5
6E1
  8
CONTOUR_LINES_30CM
 10
550445.00828876079
 20
881466.84639427462
 30
0.0
  0
VERTEX
  5
6E2
  8
CONTOUR_LINES_30CM
 10
550445.95952484547
 20
881466.70560433669
 30
0.0
  0
VERTEX
  5
6E3
  8
CONTOUR_LINES_30CM
 10
550446.60063811962
 20
881466.3905574294
 30
0.0
  0
VERTEX
  5
6E4
  8
CONTOUR_LINES_30CM
 10
550447.15704849258
 20
881465.98679273273
 30
0.0
  0
VERTEX
  5
6E5
  8
CONTOUR_LINES_30CM
 10
550447.93419891212
 20
881465.22704242321
 30
0.0
  0
VERTEX
  5
6E6
  8
CONTOUR_LINES_30CM
 10
550448.49723314354
 20
881464.53290225985
 30
0.0
  0
VERTEX
  5
6E7
  8
CONTOUR_LINES_30CM
 10
550449.03056939831
 20
881463.75858178409
 30
0.0
  0
VERTEX
  5
6E8
  8
CONTOUR_LINES_30CM
 10
550449.46657597343
 20
881463.03482083371
 30
0.0
  0
VERTEX
  5
6E9
  8
CONTOUR_LINES_30CM
 10
550450.44988515391
 20
881461.05416521698
 30
0.0
  0
VERTEX
  5
6EA
  8
CONTOUR_LINES_30CM
 10
550450.8971120402
 20
881459.95622556435
 30
0.0
  0
VERTEX
  5
6EB
  8
CONTOUR_LINES_30CM
 10
550451.19109288789
 20
881459.14711170096
 30
0.0
  0
VERTEX
  5
6EC
  8
CONTOUR_LINES_30CM
 10
550451.48070591572
 20
881458.2655287052
 30
0.0
  0
VERTEX
  5
6ED
  8
CONTOUR_LINES_30CM
 10
550451.73798082839
 20
881457.39389546425
 30
0.0
  0
VERTEX
  5
6EE
  8
CONTOUR_LINES_30CM
 10
550451.80080122931
 20
881457.16566210415
 30
0.0
  0
VERTEX
  5
6EF
  8
CONTOUR_LINES_30CM
 10
550452.42064533033
 20
881454.40073065099
 30
0.0
  0
VERTEX
  5
6F0
  8
CONTOUR_LINES_30CM
 10
550452.58685068227
 20
881453.36959629145
 30
0.0
  0
VERTEX
  5
6F1
  8
CONTOUR_LINES_30CM
 10
550452.73627298675
 20
881452.16120674275
 30
0.0
  0
VERTEX
  5
6F2
  8
CONTOUR_LINES_30CM
 10
550452.8299623864
 20
881451.02869030496
 30
0.0
  0
VERTEX
  5
6F3
  8
CONTOUR_LINES_30CM
 10
550452.87505032192
 20
881449.91579618875
 30
0.0
  0
VERTEX
  5
6F4
  8
CONTOUR_LINES_30CM
 10
550452.87576047506
 20
881449.1054485261
 30
0.0
  0
VERTEX
  5
6F5
  8
CONTOUR_LINES_30CM
 10
550452.73607436591
 20
881447.07752181683
 30
0.0
  0
VERTEX
  5
6F6
  8
CONTOUR_LINES_30CM
 10
550452.51882958482
 20
881445.82698590076
 30
0.0
  0
VERTEX
  5
6F7
  8
CONTOUR_LINES_30CM
 10
550452.15768099262
 20
881444.60208707245
 30
0.0
  0
VERTEX
  5
6F8
  8
CONTOUR_LINES_30CM
 10
550451.60288721742
 20
881443.4886032925
 30
0.0
  0
VERTEX
  5
6F9
  8
CONTOUR_LINES_30CM
 10
550450.85281602503
 20
881442.67777562945
 30
0.0
  0
VERTEX
  5
6FA
  8
CONTOUR_LINES_30CM
 10
550449.81778895413
 20
881442.29092838289
 30
0.0
  0
VERTEX
  5
6FB
  8
CONTOUR_LINES_30CM
 10
550449.15913644969
 20
881442.35102659964
 30
0.0
  0
VERTEX
  5
6FC
  8
CONTOUR_LINES_30CM
 10
550448.17952397116
 20
881442.79046976729
 30
0.0
  0
VERTEX
  5
6FD
  8
CONTOUR_LINES_30CM
 10
550447.34263732855
 20
881443.46340277256
 30
0.0
  0
VERTEX
  5
6FE
  8
CONTOUR_LINES_30CM
 10
550446.85870373703
 20
881443.97306924022
 30
0.0
  0
VERTEX
  5
6FF
  8
CONTOUR_LINES_30CM
 10
550445.80222869385
 20
881445.40234074299
 30
0.0
  0
VERTEX
  5
700
  8
CONTOUR_LINES_30CM
 10
550445.17549716949
 20
881446.47444471763
 30
0.0
  0
VERTEX
  5
701
  8
CONTOUR_LINES_30CM
 10
550444.45523707953
 20
881447.95193276054
 30
0.0
  0
VERTEX
  5
702
  8
CONTOUR_LINES_30CM
 10
550443.81506549148
 20
881449.54374207859
 30
0.0
  0
VERTEX
  5
703
  8
CONTOUR_LINES_30CM
 10
550443.11611708032
 20
881451.71914475528
 30
0.0
  0
VERTEX
  5
704
  8
CONTOUR_LINES_30CM
 10
550442.70331685827
 20
881453.35924500518
 30
0.0
  0
VERTEX
  5
705
  8
CONTOUR_LINES_30CM
 10
550442.41619365651
 20
881454.79472397093
 30
0.0
  0
VERTEX
  5
706
  8
CONTOUR_LINES_30CM
 10
550442.21237471013
 20
881456.11374590395
 30
0.0
  0
VERTEX
  5
707
  8
CONTOUR_LINES_30CM
 10
550442.06428071752
 20
881457.46895725036
 30
0.0
  0
VERTEX
  5
708
  8
CONTOUR_LINES_30CM
 10
550441.99380465969
 20
881458.53861942817
 30
0.0
  0
VERTEX
  5
709
  8
CONTOUR_LINES_30CM
 10
550441.96948803426
 20
881459.37850528688
 30
0.0
  0
VERTEX
  5
70A
  8
CONTOUR_LINES_30CM
 10
550441.98895061633
 20
881460.61398427584
 30
0.0
  0
SEQEND
  5
70B
  8
CONTOUR_LINES_30CM
  0
POLYLINE
  5
63
  8
CONTOUR_LINES_30CM
 66
     1
 10
0.0
 20
0.0
 30
0.0
 70
     1
  0
VERTEX
  5
70C
  8
CONTOUR_LINES_30CM
 10
550474.18282356765
 20
881647.60097818787
 30
0.0
  0
VERTEX
  5
70D
  8
CONTOUR_LINES_30CM
 10
550474.13677958609
 20
881647.26141933142
 30
0.0
  0
VERTEX
  5
70E
  8
CONTOUR_LINES_30CM
 10
550473.85997814231
 20
881646.81954559474
 30
0.0
  0
VERTEX
  5
70F
  8
CONTOUR_LINES_30CM
 10
550473.34565899102
 20
881646.51596062968
 30
0.0
  0
VERTEX
  5
710
  8
CONTOUR_LINES_30CM
 10
550472.91013205284
 20
881646.44907877594
 30
0.0
  0
VERTEX
  5
711
  8
CONTOUR_LINES_30CM
 10
550472.59686413396
 20
881646.48274892825
 30
0.0
  0
VERTEX
  5
712
  8
CONTOUR_LINES_30CM
 10
550472.1918140779
 20
881646.63972669118
 30
0.0
  0
VERTEX
  5
713
  8
CONTOUR_LINES_30CM
 10
550471.88889525493
 20
881646.88635840255
 30
0.0
  0
VERTEX
  5
714
  8
CONTOUR_LINES_30CM
 10
550471.66439359251
 20
881647.277289427
 30
0.0
  0
VERTEX
  5
715
  8
CONTOUR_LINES_30CM
 10
550471.61993409134
 20
881647.63747238461
 30
0.0
  0
VERTEX
  5
716
  8
CONTOUR_LINES_30CM
 10
550471.69786585262
 20
881647.96421210957
 30
0.0
  0
VERTEX
  5
717
  8
CONTOUR_LINES_30CM
 10
550471.88005030376
 20
881648.25228364638
 30
0.0
  0
VERTEX
  5
718
  8
CONTOUR_LINES_30CM
 10
550472.01243563148
 20
881648.38104956888
 30
0.0
  0
VERTEX
  5
719
  8
CONTOUR_LINES_30CM
 10
550472.35332434531
 20
881648.5838408143
 30
0.0
  0
VERTEX
  5
71A
  8
CONTOUR_LINES_30CM
 10
550472.78204120859
 20
881648.68359119154
 30
0.0
  0
VERTEX
  5
71B
  8
CONTOUR_LINES_30CM
 10
550473.02870196744
 20
881648.68138529314
 30
0.0
  0
VERTEX
  5
71C
  8
CONTOUR_LINES_30CM
 10
550473.41097076249
 20
881648.59241721837
 30
0.0
  0
VERTEX
  5
71D
  8
CONTOUR_LINES_30CM
 10
550473.84210647095
 20
881648.32337826956
 30
0.0
  0
VERTEX
  5
71E
  8
CONTOUR_LINES_30CM
 10
550473.84210647095
 20
881648.32337826956
 30
0.0
  0
VERTEX
  5
71F
  8
CONTOUR_LINES_30CM
 10
550474.08138635964
 20
881647.99944229866
 30
0.0
  0
SEQEND
  5
720
  8
CONTOUR_LINES_30CM
  0
POLYLINE
  5
64
  8
CONTOUR_LINES_30CM
 66
     1
 10
0.0
 20
0.0
 30
0.0
 70
     1
  0
VERTEX
  5
721
  8
CONTOUR_LINES_30CM
 10
550470.93248733366
 20
881646.67897305207
 30
0.0
  0
VERTEX
  5
722
  8
CONTOUR_LINES_30CM
 10
550471.00214292004
 20
881646.50724650279
 30
0.0
  0
VERTEX
  5
723
  8
CONTOUR_LINES_30CM
 10
550471.2271968287
 20
881646.12794222811
 30
0.0
  0
VERTEX
  5
724
  8
CONTOUR_LINES_30CM
 10
550471.47713820741
 20
881645.84923056595
 30
0.0
  0
VERTEX
  5
725
  8
CONTOUR_LINES_30CM
 10
550471.69987925841
 20
881645.66862244089
 30
0.0
  0
VERTEX
  5
726
  8
CONTOUR_LINES_30CM
 10
550472.08005690144
 20
881645.4568438736
 30
0.0
  0
VERTEX
  5
727
  8
CONTOUR_LINES_30CM
 10
550472.58153877885
 20
881645.31336222624
 30
0.0
  0
VERTEX
  5
728
  8
CONTOUR_LINES_30CM
 10
550473.04439297086
 20
881645.29375466565
 30
0.0
  0
VERTEX
  5
729
  8
CONTOUR_LINES_30CM
 10
550473.43536677025
 20
881645.35837902362
 30
0.0
  0
VERTEX
  5
72A
  8
CONTOUR_LINES_30CM
 10
550473.77144769544
 20
881645.47893067577
 30
0.0
  0
VERTEX
  5
72B
  8
CONTOUR_LINES_30CM
 10
550474.00167445303
 20
881645.60249419406
 30
0.0
  0
VERTEX
  5
72C
  8
CONTOUR_LINES_30CM
 10
550474.31197250006
 20
881645.83765759284
 30
0.0
  0
VERTEX
  5
72D
  8
CONTOUR_LINES_30CM
 10
550474.5378857071
 20
881646.08041854622
 30
0.0
  0
VERTEX
  5
72E
  8
CONTOUR_LINES_30CM
 10
550474.72092967445
 20
881646.35303116695
 30
0.0
  0
VERTEX
  5
72F
  8
CONTOUR_LINES_30CM
 10
550474.90974758309
 20
881646.80615790852
 30
0.0
  0
VERTEX
  5
730
  8
CONTOUR_LINES_30CM
 10
550474.98857775971
 20
881647.31952495035
 30
0.0
  0
VERTEX
  5
731
  8
CONTOUR_LINES_30CM
 10
550474.89736973564
 20
881647.99045683455
 30
0.0
  0
VERTEX
  5
732
  8
CONTOUR_LINES_30CM
 10
550474.75883326214
 20
881648.33124496811
 30
0.0
  0
VERTEX
  5
733
  8
CONTOUR_LINES_30CM
 10
550474.55380597676
 20
881648.65397982893
 30
0.0
  0
VERTEX
  5
734
  8
CONTOUR_LINES_30CM
 10
550474.30249802652
 20
881648.92572339519
 30
0.0
  0
VERTEX
  5
735
  8
CONTOUR_LINES_30CM
 10
550474.01380657614
 20
881649.14467423176
 30
0.0
  0
VERTEX
  5
736
  8
CONTOUR_LINES_30CM
 10
550473.52474599704
 20
881649.3705645802
 30
0.0
  0
VERTEX
  5
737
  8
CONTOUR_LINES_30CM
 10
550473.15693834855
 20
881649.45017350907
 30
0.0
  0
VERTEX
  5
738
  8
CONTOUR_LINES_30CM
 10
550472.64925618318
 20
881649.45073180774
 30
0.0
  0
VERTEX
  5
739
  8
CONTOUR_LINES_30CM
 10
550472.24901352322
 20
881649.36162373447
 30
0.0
  0
VERTEX
  5
73A
  8
CONTOUR_LINES_30CM
 10
550471.76474032388
 20
881649.12992168835
 30
0.0
  0
VERTEX
  5
73B
  8
CONTOUR_LINES_30CM
 10
550471.15181300754
 20
881648.51889764611
 30
0.0
  0
VERTEX
  5
73C
  8
CONTOUR_LINES_30CM
 10
550470.96346600354
 20
881648.15760541707
 30
0.0
  0
VERTEX
  5
73D
  8
CONTOUR_LINES_30CM
 10
550470.87473318633
 20
881647.88439809543
 30
0.0
  0
VERTEX
  5
73E
  8
CONTOUR_LINES_30CM
 10
550470.8195874457
 20
881647.55222125351
 30
0.0
  0
VERTEX
  5
73F
  8
CONTOUR_LINES_30CM
 10
550470.85443431861
 20
881646.95975667506
 30
0.0
  0
SEQEND
  5
740
  8
CONTOUR_LINES_30CM
  0
POLYLINE
  5
65
  8
MONTE_AND_TREES
 66
     1
 10
0.0
 20
0.0
 30
0.0
 70
     1
  0
VERTEX
  5
741
  8
MONTE_AND_TREES
 10
550528.54712558875
 20
881291.52928628772
 30
0.0
  0
VERTEX
  5
742
  8
MONTE_AND_TREES
 10
550528.69445654552
 20
881291.47923527262
 30
0.0
  0
VERTEX
  5
743
  8
MONTE_AND_TREES
 10
550528.86235679837
 20
881291.39538055914
 30
0.0
  0
VERTEX
  5
744
  8
MONTE_AND_TREES
 10
550529.00926951936
 20
881291.2905626212
 30
0.0
  0
VERTEX
  5
745
  8
MONTE_AND_TREES
 10
550529.1351927123
 20
881291.03899938858
 30
0.0
  0
VERTEX
  5
746
  8
MONTE_AND_TREES
 10
550529.1351927123
 20
881290.80840028834
 30
0.0
  0
VERTEX
  5
747
  8
MONTE_AND_TREES
 10
550529.1351927123
 20
881290.47298234201
 30
0.0
  0
VERTEX
  5
748
  8
MONTE_AND_TREES
 10
550529.1351927123
 20
881290.26334646612
 30
0.0
  0
VERTEX
  5
749
  8
MONTE_AND_TREES
 10
550528.90433186153
 20
881290.07467472192
 30
0.0
  0
VERTEX
  5
74A
  8
MONTE_AND_TREES
 10
550528.80526982015
 20
881289.98313963565
 30
0.0
  0
VERTEX
  5
74B
  8
MONTE_AND_TREES
 10
550528.51438682422
 20
881290.03554912424
 30
0.0
  0
VERTEX
  5
74C
  8
MONTE_AND_TREES
 10
550528.44260816346
 20
881290.1794926601
 30
0.0
  0
VERTEX
  5
74D
  8
MONTE_AND_TREES
 10
550528.23273284757
 20
881290.32623795466
 30
0.0
  0
VERTEX
  5
74E
  8
MONTE_AND_TREES
 10
550528.06483459158
 20
881290.45201911731
 30
0.0
  0
VERTEX
  5
74F
  8
MONTE_AND_TREES
 10
550528.04384706006
 20
881290.66165499354
 30
0.0
  0
VERTEX
  5
750
  8
MONTE_AND_TREES
 10
550528.02285952843
 20
881290.91321822605
 30
0.0
  0
VERTEX
  5
751
  8
MONTE_AND_TREES
 10
550528.04384706006
 20
881291.08092674555
 30
0.0
  0
VERTEX
  5
752
  8
MONTE_AND_TREES
 10
550528.04720650788
 20
881291.20257609489
 30
0.0
  0
VERTEX
  5
753
  8
MONTE_AND_TREES
 10
550528.14878272137
 20
881291.26959939685
 30
0.0
  0
VERTEX
  5
754
  8
MONTE_AND_TREES
 10
550528.24154991203
 20
881291.42446886958
 30
0.0
  0
SEQEND
  5
755
  8
MONTE_AND_TREES
  0
POLYLINE
  5
68
  8
MONTE_AND_TREES
 66
     1
 10
0.0
 20
0.0
 30
0.0
 70
     1
  0
VERTEX
  5
756
  8
MONTE_AND_TREES
 10
550535.19972690975
 20
881291.10366519017
 30
0.0
  0
VERTEX
  5
757
  8
MONTE_AND_TREES
 10
550535.30550303636
 20
881291.10189087735
 30
0.0
  0
VERTEX
  5
758
  8
MONTE_AND_TREES
 10
550535.49438882398
 20
881291.03899938858
 30
0.0
  0
VERTEX
  5
759
  8
MONTE_AND_TREES
 10
550535.97710005369
 20
881290.87129086943
 30
0.0
  0
VERTEX
  5
75A
  8
MONTE_AND_TREES
 10
550536.0849721164
 20
881290.7409337007
 30
0.0
  0
VERTEX
  5
75B
  8
MONTE_AND_TREES
 10
550536.04006264836
 20
881290.57780027995
 30
0.0
  0
VERTEX
  5
75C
  8
MONTE_AND_TREES
 10
550536.07951549813
 20
881290.42514892528
 30
0.0
  0
VERTEX
  5
75D
  8
MONTE_AND_TREES
 10
550535.9632456057
 20
881290.17816169839
 30
0.0
  0
VERTEX
  5
75E
  8
MONTE_AND_TREES
 10
550535.78401435295
 20
881290.01502925111
 30
0.0
  0
VERTEX
  5
75F
  8
MONTE_AND_TREES
 10
550535.66228907683
 20
881290.0117841406
 30
0.0
  0
VERTEX
  5
760
  8
MONTE_AND_TREES
 10
550535.38945116615
 20
881289.96985678375
 30
0.0
  0
VERTEX
  5
761
  8
MONTE_AND_TREES
 10
550535.38945116615
 20
881289.96985678375
 30
0.0
  0
VERTEX
  5
762
  8
MONTE_AND_TREES
 10
550535.24254044169
 20
881290.11660207855
 30
0.0
  0
VERTEX
  5
763
  8
MONTE_AND_TREES
 10
550535.0956277207
 20
881290.30527382263
 30
0.0
  0
VERTEX
  5
764
  8
MONTE_AND_TREES
 10
550535.0956277207
 20
881290.30527382263
 30
0.0
  0
VERTEX
  5
765
  8
MONTE_AND_TREES
 10
550535.05365265755
 20
881290.57780027995
 30
0.0
  0
VERTEX
  5
766
  8
MONTE_AND_TREES
 10
550535.00412504037
 20
881290.69856299274
 30
0.0
  0
VERTEX
  5
767
  8
MONTE_AND_TREES
 10
550535.05155672191
 20
881290.92960635235
 30
0.0
  0
SEQEND
  5
768
  8
MONTE_AND_TREES
  0
POLYLINE
  5
69
  8
MONTE_AND_TREES
 66
     1
 10
0.0
 20
0.0
 30
0.0
 70
     1
  0
VERTEX
  5
769
  8
MONTE_AND_TREES
 10
550528.30954989057
 20
881295.34701781999
 30
0.0
  0
VERTEX
  5
76A
  8
MONTE_AND_TREES
 10
550528.37964556867
 20
881295.65098956809
 30
0.0
  0
VERTEX
  5
76B
  8
MONTE_AND_TREES
 10
550528.46779361169
 20
881295.76348781295
 30
0.0
  0
VERTEX
  5
76C
  8
MONTE_AND_TREES
 10
550528.86235679837
 20
881295.90255280072
 30
0.0
  0
VERTEX
  5
76D
  8
MONTE_AND_TREES
 10
550529.0092685211
 20
881295.97903020296
 30
0.0
  0
VERTEX
  5
76E
  8
MONTE_AND_TREES
 10
550529.15618024382
 20
881295.90255280072
 30
0.0
  0
VERTEX
  5
76F
  8
MONTE_AND_TREES
 10
550529.47099321755
 20
881295.83966221905
 30
0.0
  0
VERTEX
  5
770
  8
MONTE_AND_TREES
 10
550529.63889147365
 20
881295.67195370002
 30
0.0
  0
VERTEX
  5
771
  8
MONTE_AND_TREES
 10
550529.82483780954
 20
881295.36798149848
 30
0.0
  0
VERTEX
  5
772
  8
MONTE_AND_TREES
 10
550529.76691259874
 20
881295.1205504667
 30
0.0
  0
VERTEX
  5
773
  8
MONTE_AND_TREES
 10
550529.60866887763
 20
881294.93645388715
 30
0.0
  0
VERTEX
  5
774
  8
MONTE_AND_TREES
 10
550529.26111790177
 20
881294.74955548276
 30
0.0
  0
VERTEX
  5
775
  8
MONTE_AND_TREES
 10
550528.98828198772
 20
881294.70762812591
 30
0.0
  0
VERTEX
  5
776
  8
MONTE_AND_TREES
 10
550528.84053079796
 20
881294.68400297815
 30
0.0
  0
VERTEX
  5
777
  8
MONTE_AND_TREES
 10
550528.73643160891
 20
881294.7914828395
 30
0.0
  0
VERTEX
  5
778
  8
MONTE_AND_TREES
 10
550528.46695537888
 20
881294.94147279079
 30
0.0
  0
VERTEX
  5
779
  8
MONTE_AND_TREES
 10
550528.42162063206
 20
881295.08497252129
 30
0.0
  0
SEQEND
  5
77A
  8
MONTE_AND_TREES
  0
POLYLINE
  5
6A
  8
MONTE_AND_TREES
 66
     1
 10
0.0
 20
0.0
 30
0.0
 70
     1
  0
VERTEX
  5
77B
  8
MONTE_AND_TREES
 10
550448.26014173613
 20
881437.9161223413
 30
0.0
  0
VERTEX
  5
77C
  8
MONTE_AND_TREES
 10
550448.19866273401
 20
881438.00238216959
 30
0.0
  0
VERTEX
  5
77D
  8
MONTE_AND_TREES
 10
550448.27702246257
 20
881438.44208736485
 30
0.0
  0
VERTEX
  5
77E
  8
MONTE_AND_TREES
 10
550448.33968190255
 20
881438.65386003314
 30
0.0
  0
VERTEX
  5
77F
  8
MONTE_AND_TREES
 10
550448.61759302602
 20
881438.98155351775
 30
0.0
  0
VERTEX
  5
780
  8
MONTE_AND_TREES
 10
550448.67103695055
 20
881439.31029742607
 30
0.0
  0
VERTEX
  5
781
  8
MONTE_AND_TREES
 10
550448.67103695055
 20
881439.31029742607
 30
0.0
  0
VERTEX
  5
782
  8
MONTE_AND_TREES
 10
550449.11671840539
 20
881439.75529252982
 30
0.0
  0
VERTEX
  5
783
  8
MONTE_AND_TREES
 10
550449.44623010885
 20
881439.80810826062
 30
0.0
  0
VERTEX
  5
784
  8
MONTE_AND_TREES
 10
550450.03521234926
 20
881439.80810826062
 30
0.0
  0
VERTEX
  5
785
  8
MONTE_AND_TREES
 10
550450.62825653574
 20
881439.92648950231
 30
0.0
  0
VERTEX
  5
786
  8
MONTE_AND_TREES
 10
550451.51782281627
 20
881440.08084913366
 30
0.0
  0
VERTEX
  5
787
  8
MONTE_AND_TREES
 10
550451.81434490974
 20
881439.92648950208
 30
0.0
  0
VERTEX
  5
788
  8
MONTE_AND_TREES
 10
550451.96446541196
 20
881440.04953011055
 30
0.0
  0
VERTEX
  5
789
  8
MONTE_AND_TREES
 10
550452.10883602989
 20
881440.07979187591
 30
0.0
  0
VERTEX
  5
78A
  8
MONTE_AND_TREES
 10
550452.69984924328
 20
881440.08084913378
 30
0.0
  0
VERTEX
  5
78B
  8
MONTE_AND_TREES
 10
550452.89834658627
 20
881440.02157214342
 30
0.0
  0
VERTEX
  5
78C
  8
MONTE_AND_TREES
 10
550453.41559395078
 20
881439.84514362516
 30
0.0
  0
VERTEX
  5
78D
  8
MONTE_AND_TREES
 10
550453.58941552276
 20
881439.45507848589
 30
0.0
  0
VERTEX
  5
78E
  8
MONTE_AND_TREES
 10
550454.17904631491
 20
881439.23645519966
 30
0.0
  0
VERTEX
  5
78F
  8
MONTE_AND_TREES
 10
550454.66800882237
 20
881438.81182158017
 30
0.0
  0
VERTEX
  5
790
  8
MONTE_AND_TREES
 10
550454.77689624962
 20
881438.68773074204
 30
0.0
  0
VERTEX
  5
791
  8
MONTE_AND_TREES
 10
550454.9519267563
 20
881437.88637393725
 30
0.0
  0
VERTEX
  5
792
  8
MONTE_AND_TREES
 10
550455.0433018331
 20
881437.50178799441
 30
0.0
  0
VERTEX
  5
793
  8
MONTE_AND_TREES
 10
550455.18628019292
 20
881436.68445967603
 30
0.0
  0
VERTEX
  5
794
  8
MONTE_AND_TREES
 10
550455.18628019292
 20
881436.68445967603
 30
0.0
  0
VERTEX
  5
795
  8
MONTE_AND_TREES
 10
550455.12889324082
 20
881436.14251766296
 30
0.0
  0
VERTEX
  5
796
  8
MONTE_AND_TREES
 10
550455.25487113791
 20
881435.75671346264
 30
0.0
  0
VERTEX
  5
797
  8
MONTE_AND_TREES
 10
550455.25487113791
 20
881435.75671346264
 30
0.0
  0
VERTEX
  5
798
  8
MONTE_AND_TREES
 10
550455.05912358325
 20
881434.86362644809
 30
0.0
  0
VERTEX
  5
799
  8
MONTE_AND_TREES
 10
550454.98385338194
 20
881434.39638615621
 30
0.0
  0
VERTEX
  5
79A
  8
MONTE_AND_TREES
 10
550454.71799802536
 20
881433.80340659386
 30
0.0
  0
VERTEX
  5
79B
  8
MONTE_AND_TREES
 10
550454.38808995497
 20
881433.56305568526
 30
0.0
  0
VERTEX
  5
79C
  8
MONTE_AND_TREES
 10
550453.65991924587
 20
881433.05744158104
 30
0.0
  0
VERTEX
  5
79D
  8
MONTE_AND_TREES
 10
550453.47161907528
 20
881433.0667193241
 30
0.0
  0
VERTEX
  5
79E
  8
MONTE_AND_TREES
 10
550453.32643326675
 20
881432.76544830506
 30
0.0
  0
VERTEX
  5
79F
  8
MONTE_AND_TREES
 10
550452.73066193028
 20
881432.49802534655
 30
0.0
  0
VERTEX
  5
7A0
  8
MONTE_AND_TREES
 10
550452.40332715004
 20
881432.59319435689
 30
0.0
  0
VERTEX
  5
7A1
  8
MONTE_AND_TREES
 10
550451.54863550316
 20
881432.37964410475
 30
0.0
  0
VERTEX
  5
7A2
  8
MONTE_AND_TREES
 10
550451.22130072291
 20
881432.47481311543
 30
0.0
  0
VERTEX
  5
7A3
  8
MONTE_AND_TREES
 10
550450.62825653574
 20
881432.47481311543
 30
0.0
  0
VERTEX
  5
7A4
  8
MONTE_AND_TREES
 10
550450.33103826619
 20
881432.47055245866
 30
0.0
  0
VERTEX
  5
7A5
  8
MONTE_AND_TREES
 10
550450.1570707442
 20
881432.71157559915
 30
0.0
  0
VERTEX
  5
7A6
  8
MONTE_AND_TREES
 10
550449.56402655726
 20
881432.94833808264
 30
0.0
  0
VERTEX
  5
7A7
  8
MONTE_AND_TREES
 10
550449.56402655714
 20
881432.94833808264
 30
0.0
  0
VERTEX
  5
7A8
  8
MONTE_AND_TREES
 10
550449.08877881896
 20
881433.18510056683
 30
0.0
  0
VERTEX
  5
7A9
  8
MONTE_AND_TREES
 10
550448.31561663351
 20
881433.56558685272
 30
0.0
  0
VERTEX
  5
7AA
  8
MONTE_AND_TREES
 10
550448.31561663351
 20
881433.56558685272
 30
0.0
  0
VERTEX
  5
7AB
  8
MONTE_AND_TREES
 10
550447.96212954668
 20
881434.30696058134
 30
0.0
  0
VERTEX
  5
7AC
  8
MONTE_AND_TREES
 10
550447.81213740772
 20
881434.75152988196
 30
0.0
  0
VERTEX
  5
7AD
  8
MONTE_AND_TREES
 10
550447.75268895703
 20
881435.37303959113
 30
0.0
  0
VERTEX
  5
7AE
  8
MONTE_AND_TREES
 10
550447.82345212926
 20
881435.7501786853
 30
0.0
  0
VERTEX
  5
7AF
  8
MONTE_AND_TREES
 10
550447.90675239172
 20
881436.26089890546
 30
0.0
  0
VERTEX
  5
7B0
  8
MONTE_AND_TREES
 10
550447.75268895715
 20
881436.55685200996
 30
0.0
  0
VERTEX
  5
7B1
  8
MONTE_AND_TREES
 10
550447.90675239172
 20
881436.8528051147
 30
0.0
  0
SEQEND
  5
7B2
  8
MONTE_AND_TREES
  0
POLYLINE
  5
6B
  8
MONTE_AND_TREES
 66
     1
 10
0.0
 20
0.0
 30
0.0
 70
     1
  0
VERTEX
  5
7B3
  8
MONTE_AND_TREES
 10
550470.29891959287
 20
881649.1415397157
 30
0.0
  0
VERTEX
  5
7B4
  8
MONTE_AND_TREES
 10
550470.18637439783
 20
881649.02827907004
 30
0.0
  0
VERTEX
  5
7B5
  8
MONTE_AND_TREES
 10
550470.14227703447
 20
881648.98562658438
 30
0.0
  0
VERTEX
  5
7B6
  8
MONTE_AND_TREES
 10
550470.11976844538
 20
881648.85976780893
 30
0.0
  0
VERTEX
  5
7B7
  8
MONTE_AND_TREES
 10
550470.08870421664
 20
881648.73562674155
 30
0.0
  0
VERTEX
  5
7B8
  8
MONTE_AND_TREES
 10
550470.06975881429
 20
881648.59269746055
 30
0.0
  0
VERTEX
  5
7B9
  8
MONTE_AND_TREES
 10
550470.13182530901
 20
881648.46333003172
 30
0.0
  0
VERTEX
  5
7BA
  8
MONTE_AND_TREES
 10
550470.22082722362
 20
881648.38590074319
 30
0.0
  0
VERTEX
  5
7BB
  8
MONTE_AND_TREES
 10
550470.46199362888
 20
881648.32854529796
 30
0.0
  0
VERTEX
  5
7BC
  8
MONTE_AND_TREES
 10
550470.6484778194
 20
881648.33687118592
 30
0.0
  0
VERTEX
  5
7BD
  8
MONTE_AND_TREES
 10
550470.72710326698
 20
881648.35469713574
 30
0.0
  0
VERTEX
  5
7BE
  8
MONTE_AND_TREES
 10
550470.8785198296
 20
881648.39922714292
 30
0.0
  0
VERTEX
  5
7BF
  8
MONTE_AND_TREES
 10
550471.02092224616
 20
881648.52314767183
 30
0.0
  0
VERTEX
  5
7C0
  8
MONTE_AND_TREES
 10
550471.02092224616
 20
881648.52314767183
 30
0.0
  0
VERTEX
  5
7C1
  8
MONTE_AND_TREES
 10
550471.08770135278
 20
881648.71438066044
 30
0.0
  0
VERTEX
  5
7C2
  8
MONTE_AND_TREES
 10
550471.03045569174
 20
881648.81032929884
 30
0.0
  0
VERTEX
  5
7C3
  8
MONTE_AND_TREES
 10
550470.98451896571
 20
881648.94511403248
 30
0.0
  0
VERTEX
  5
7C4
  8
MONTE_AND_TREES
 10
550470.97642128903
 20
881649.02769468923
 30
0.0
  0
VERTEX
  5
7C5
  8
MONTE_AND_TREES
 10
550470.8769465877
 20
881649.14093462459
 30
0.0
  0
VERTEX
  5
7C6
  8
MONTE_AND_TREES
 10
550470.83304287784
 20
881649.19957833656
 30
0.0
  0
VERTEX
  5
7C7
  8
MONTE_AND_TREES
 10
550470.63236277504
 20
881649.18039718119
 30
0.0
  0
VERTEX
  5
7C8
  8
MONTE_AND_TREES
 10
550470.51476330985
 20
881649.19460914505
 30
0.0
  0
VERTEX
  5
7C9
  8
MONTE_AND_TREES
 10
550470.29891959298
 20
881649.1415397157
 30
0.0
  0
SEQEND
  5
7CA
  8
MONTE_AND_TREES
  0
POLYLINE
  5
6C
  8
MONTE_AND_TREES
 66
     1
 10
0.0
 20
0.0
 30
0.0
 70
     1
  0
VERTEX
  5
7CB
  8
MONTE_AND_TREES
 10
550398.90273140708
 20
881583.01888551994
 30
0.0
  0
VERTEX
  5
7CC
  8
MONTE_AND_TREES
 10
550398.9257435879
 20
881583.40714029025
 30
0.0
  0
VERTEX
  5
7CD
  8
MONTE_AND_TREES
 10
550398.92574358801
 20
881584.39575778425
 30
0.0
  0
VERTEX
  5
7CE
  8
MONTE_AND_TREES
 10
550398.92574358801
 20
881585.38437527826
 30
0.0
  0
VERTEX
  5
7CF
  8
MONTE_AND_TREES
 10
550399.17317934404
 20
881586.50179932232
 30
0.0
  0
VERTEX
  5
7D0
  8
MONTE_AND_TREES
 10
550399.79671084729
 20
881587.24326216651
 30
0.0
  0
VERTEX
  5
7D1
  8
MONTE_AND_TREES
 10
550400.66767689073
 20
881587.85591846018
 30
0.0
  0
VERTEX
  5
7D2
  8
MONTE_AND_TREES
 10
550401.52875891561
 20
881588.85499523382
 30
0.0
  0
VERTEX
  5
7D3
  8
MONTE_AND_TREES
 10
550402.15229056275
 20
881589.83315289544
 30
0.0
  0
VERTEX
  5
7D4
  8
MONTE_AND_TREES
 10
550402.15229056275
 20
881592.79900537676
 30
0.0
  0
VERTEX
  5
7D5
  8
MONTE_AND_TREES
 10
550401.78764948121
 20
881594.95318062091
 30
0.0
  0
VERTEX
  5
7D6
  8
MONTE_AND_TREES
 10
550401.78764948121
 20
881596.25916550029
 30
0.0
  0
VERTEX
  5
7D7
  8
MONTE_AND_TREES
 10
550401.04804938077
 20
881598.13192615262
 30
0.0
  0
VERTEX
  5
7D8
  8
MONTE_AND_TREES
 10
550399.67793565826
 20
881599.71932617587
 30
0.0
  0
VERTEX
  5
7D9
  8
MONTE_AND_TREES
 10
550398.68819321028
 20
881601.69656116364
 30
0.0
  0
VERTEX
  5
7DA
  8
MONTE_AND_TREES
 10
550396.70870831411
 20
881603.67379559879
 30
0.0
  0
VERTEX
  5
7DB
  8
MONTE_AND_TREES
 10
550395.59030605073
 20
881605.14626287611
 30
0.0
  0
VERTEX
  5
7DC
  8
MONTE_AND_TREES
 10
550394.84799982258
 20
881605.76937813289
 30
0.0
  0
VERTEX
  5
7DD
  8
MONTE_AND_TREES
 10
550394.22446831944
 20
881606.51084097708
 30
0.0
  0
VERTEX
  5
7DE
  8
MONTE_AND_TREES
 10
550394.22446831944
 20
881608.12257376849
 30
0.0
  0
VERTEX
  5
7DF
  8
MONTE_AND_TREES
 10
550393.73948218569
 20
881609.72384727956
 30
0.0
  0
VERTEX
  5
7E0
  8
MONTE_AND_TREES
 10
550392.25486851367
 20
881611.58273444453
 30
0.0
  0
VERTEX
  5
7E1
  8
MONTE_AND_TREES
 10
550391.25524097518
 20
881612.93685358204
 30
0.0
  0
VERTEX
  5
7E2
  8
MONTE_AND_TREES
 10
550390.64159441856
 20
881613.54950959969
 30
0.0
  0
VERTEX
  5
7E3
  8
MONTE_AND_TREES
 10
550389.77062776731
 20
881614.41977986274
 30
0.0
  0
VERTEX
  5
7E4
  8
MONTE_AND_TREES
 10
550389.52319290675
 20
881616.52582108439
 30
0.0
  0
VERTEX
  5
7E5
  8
MONTE_AND_TREES
 10
550388.79077116109
 20
881617.51443830226
 30
0.0
  0
VERTEX
  5
7E6
  8
MONTE_AND_TREES
 10
550387.91980390216
 20
881619.11571208946
 30
0.0
  0
VERTEX
  5
7E7
  8
MONTE_AND_TREES
 10
550386.30652980693
 20
881621.83440964529
 30
0.0
  0
VERTEX
  5
7E8
  8
MONTE_AND_TREES
 10
550385.94031900598
 20
881622.57587276539
 30
0.0
  0
VERTEX
  5
7E9
  8
MONTE_AND_TREES
 10
550385.0693517467
 20
881623.94045090675
 30
0.0
  0
VERTEX
  5
7EA
  8
MONTE_AND_TREES
 10
550385.32667259302
 20
881627.40061158291
 30
0.0
  0
VERTEX
  5
7EB
  8
MONTE_AND_TREES
 10
550385.06935189082
 20
881629.87215504132
 30
0.0
  0
VERTEX
  5
7EC
  8
MONTE_AND_TREES
 10
550385.32667259302
 20
881633.33231599315
 30
0.0
  0
VERTEX
  5
7ED
  8
MONTE_AND_TREES
 10
550385.32667259302
 20
881635.3095504283
 30
0.0
  0
VERTEX
  5
7EE
  8
MONTE_AND_TREES
 10
550385.82154381694
 20
881637.28678486333
 30
0.0
  0
VERTEX
  5
7EF
  8
MONTE_AND_TREES
 10
550386.81128626515
 20
881638.76971110411
 30
0.0
  0
VERTEX
  5
7F0
  8
MONTE_AND_TREES
 10
550388.41467512597
 20
881640.13428979809
 30
0.0
  0
VERTEX
  5
7F1
  8
MONTE_AND_TREES
 10
550390.88903003035
 20
881641.61721548624
 30
0.0
  0
VERTEX
  5
7F2
  8
MONTE_AND_TREES
 10
550393.73948218569
 20
881644.2071062153
 30
0.0
  0
VERTEX
  5
7F3
  8
MONTE_AND_TREES
 10
550394.72922463366
 20
881645.69003245584
 30
0.0
  0
VERTEX
  5
7F4
  8
MONTE_AND_TREES
 10
550396.21383709006
 20
881646.67864994949
 30
0.0
  0
VERTEX
  5
7F5
  8
MONTE_AND_TREES
 10
550399.18306443421
 20
881647.4305717973
 30
0.0
  0
VERTEX
  5
7F6
  8
MONTE_AND_TREES
 10
550400.1728062745
 20
881647.43057148112
 30
0.0
  0
VERTEX
  5
7F7
  8
MONTE_AND_TREES
 10
550401.65741933859
 20
881647.17295814445
 30
0.0
  0
VERTEX
  5
7F8
  8
MONTE_AND_TREES
 10
550402.15229056275
 20
881648.16157563776
 30
0.0
  0
VERTEX
  5
7F9
  8
MONTE_AND_TREES
 10
550402.27106575179
 20
881648.53753683774
 30
0.0
  0
VERTEX
  5
7FA
  8
MONTE_AND_TREES
 10
550403.14203301072
 20
881649.15019313199
 30
0.0
  0
VERTEX
  5
7FB
  8
MONTE_AND_TREES
 10
550403.14203301072
 20
881649.15019313176
 30
0.0
  0
VERTEX
  5
7FC
  8
MONTE_AND_TREES
 10
550404.62664668274
 20
881649.40780678508
 30
0.0
  0
VERTEX
  5
7FD
  8
MONTE_AND_TREES
 10
550405.61638852302
 20
881649.40780646889
 30
0.0
  0
VERTEX
  5
7FE
  8
MONTE_AND_TREES
 10
550406.11125913926
 20
881649.15019313199
 30
0.0
  0
VERTEX
  5
7FF
  8
MONTE_AND_TREES
 10
550407.59587281139
 20
881649.40780678508
 30
0.0
  0
VERTEX
  5
800
  8
MONTE_AND_TREES
 10
550408.58561525948
 20
881649.40780678508
 30
0.0
  0
VERTEX
  5
801
  8
MONTE_AND_TREES
 10
550409.57535770745
 20
881649.40780678508
 30
0.0
  0
VERTEX
  5
802
  8
MONTE_AND_TREES
 10
550410.56510015542
 20
881649.64450187876
 30
0.0
  0
VERTEX
  5
803
  8
MONTE_AND_TREES
 10
550411.7406858129
 20
881650.01800334011
 30
0.0
  0
VERTEX
  5
804
  8
MONTE_AND_TREES
 10
550412.54458383599
 20
881650.13881062565
 30
0.0
  0
VERTEX
  5
805
  8
MONTE_AND_TREES
 10
550413.53432628384
 20
881650.13881062565
 30
0.0
  0
VERTEX
  5
806
  8
MONTE_AND_TREES
 10
550415.01893995597
 20
881650.39642427885
 30
0.0
  0
VERTEX
  5
807
  8
MONTE_AND_TREES
 10
550416.00868179614
 20
881650.39642396255
 30
0.0
  0
VERTEX
  5
808
  8
MONTE_AND_TREES
 10
550417.49329486035
 20
881650.13881062565
 30
0.0
  0
VERTEX
  5
809
  8
MONTE_AND_TREES
 10
550418.97790853237
 20
881650.63311882003
 30
0.0
  0
VERTEX
  5
80A
  8
MONTE_AND_TREES
 10
550419.96765098046
 20
881650.39642427885
 30
0.0
  0
VERTEX
  5
80B
  8
MONTE_AND_TREES
 10
550419.96765098046
 20
881650.39642427885
 30
0.0
  0
VERTEX
  5
80C
  8
MONTE_AND_TREES
 10
550421.45226343686
 20
881650.13881062565
 30
0.0
  0
VERTEX
  5
80D
  8
MONTE_AND_TREES
 10
550422.44200588483
 20
881650.13881062577
 30
0.0
  0
VERTEX
  5
80E
  8
MONTE_AND_TREES
 10
550423.43174833281
 20
881650.13881062577
 30
0.0
  0
VERTEX
  5
80F
  8
MONTE_AND_TREES
 10
550425.41123322898
 20
881649.64450187876
 30
0.0
  0
VERTEX
  5
810
  8
MONTE_AND_TREES
 10
550426.89584629331
 20
881649.90211521555
 30
0.0
  0
VERTEX
  5
811
  8
MONTE_AND_TREES
 10
550428.3804593574
 20
881649.644501879
 30
0.0
  0
VERTEX
  5
812
  8
MONTE_AND_TREES
 10
550429.86507302953
 20
881649.90211553208
 30
0.0
  0
VERTEX
  5
813
  8
MONTE_AND_TREES
 10
550430.85481547762
 20
881649.90211553185
 30
0.0
  0
VERTEX
  5
814
  8
MONTE_AND_TREES
 10
550431.34968670155
 20
881649.64450187876
 30
0.0
  0
VERTEX
  5
815
  8
MONTE_AND_TREES
 10
550434.81378405401
 20
881649.90211553208
 30
0.0
  0
VERTEX
  5
816
  8
MONTE_AND_TREES
 10
550436.29839772603
 20
881650.39642427885
 30
0.0
  0
VERTEX
  5
817
  8
MONTE_AND_TREES
 10
550437.31349678291
 20
881650.54888800636
 30
0.0
  0
VERTEX
  5
818
  8
MONTE_AND_TREES
 10
550439.116500117
 20
881650.53672147426
 30
0.0
  0
VERTEX
  5
819
  8
MONTE_AND_TREES
 10
550441.18353010132
 20
881650.53672147426
 30
0.0
  0
VERTEX
  5
81A
  8
MONTE_AND_TREES
 10
550443.17928436317
 20
881650.75030919095
 30
0.0
  0
VERTEX
  5
81B
  8
MONTE_AND_TREES
 10
550444.24843721639
 20
881650.6791132855
 30
0.0
  0
VERTEX
  5
81C
  8
MONTE_AND_TREES
 10
550445.53142209921
 20
881650.60791737959
 30
0.0
  0
VERTEX
  5
81D
  8
MONTE_AND_TREES
 10
550447.10093729151
 20
881650.77488729358
 30
0.0
  0
VERTEX
  5
81E
  8
MONTE_AND_TREES
 10
550448.31122146291
 20
881650.0383501352
 30
0.0
  0
VERTEX
  5
81F
  8
MONTE_AND_TREES
 10
550448.93987787724
 20
881649.50739378843
 30
0.0
  0
VERTEX
  5
820
  8
MONTE_AND_TREES
 10
550450.73463613656
 20
881648.61443202349
 30
0.0
  0
VERTEX
  5
821
  8
MONTE_AND_TREES
 10
550451.6612363297
 20
881648.04486477887
 30
0.0
  0
VERTEX
  5
822
  8
MONTE_AND_TREES
 10
550453.23502269876
 20
881646.4103721719
 30
0.0
  0
VERTEX
  5
823
  8
MONTE_AND_TREES
 10
550453.51443550026
 20
881645.62420454167
 30
0.0
  0
VERTEX
  5
824
  8
MONTE_AND_TREES
 10
550454.57075354236
 20
881643.4557423665
 30
0.0
  0
VERTEX
  5
825
  8
MONTE_AND_TREES
 10
550455.58573680546
 20
881642.01477851474
 30
0.0
  0
VERTEX
  5
826
  8
MONTE_AND_TREES
 10
550456.22295792575
 20
881641.70842973469
 30
0.0
  0
VERTEX
  5
827
  8
MONTE_AND_TREES
 10
550457.933604436
 20
881641.2812543012
 30
0.0
  0
VERTEX
  5
828
  8
MONTE_AND_TREES
 10
550458.43254178599
 20
881640.99647067906
 30
0.0
  0
VERTEX
  5
829
  8
MONTE_AND_TREES
 10
550459.93362880289
 20
881639.80770599411
 30
0.0
  0
VERTEX
  5
82A
  8
MONTE_AND_TREES
 10
550461.6970199144
 20
881638.70416945789
 30
0.0
  0
VERTEX
  5
82B
  8
MONTE_AND_TREES
 10
550462.78043378377
 20
881637.93504729145
 30
0.0
  0
VERTEX
  5
82C
  8
MONTE_AND_TREES
 10
550463.75977918564
 20
881638.1190626293
 30
0.0
  0
VERTEX
  5
82D
  8
MONTE_AND_TREES
 10
550466.48683334037
 20
881637.86385138577
 30
0.0
  0
VERTEX
  5
82E
  8
MONTE_AND_TREES
 10
550467.3635340482
 20
881637.6547830865
 30
0.0
  0
VERTEX
  5
82F
  8
MONTE_AND_TREES
 10
550467.77266455465
 20
881637.3344015117
 30
0.0
  0
VERTEX
  5
830
  8
MONTE_AND_TREES
 10
550469.35928831005
 20
881635.65677831287
 30
0.0
  0
VERTEX
  5
831
  8
MONTE_AND_TREES
 10
550470.26450861921
 20
881634.80242799828
 30
0.0
  0
VERTEX
  5
832
  8
MONTE_AND_TREES
 10
550471.11983187438
 20
881634.09046894254
 30
0.0
  0
VERTEX
  5
833
  8
MONTE_AND_TREES
 10
550472.22604757792
 20
881633.52692727186
 30
0.0
  0
VERTEX
  5
834
  8
MONTE_AND_TREES
 10
550473.75422981475
 20
881633.48982316267
 30
0.0
  0
VERTEX
  5
835
  8
MONTE_AND_TREES
 10
550474.89750836894
 20
881634.30405665911
 30
0.0
  0
VERTEX
  5
836
  8
MONTE_AND_TREES
 10
550475.46772265667
 20
881635.15840752609
 30
0.0
  0
VERTEX
  5
837
  8
MONTE_AND_TREES
 10
550475.82410734636
 20
881636.15514965204
 30
0.0
  0
VERTEX
  5
838
  8
MONTE_AND_TREES
 10
550475.82410734636
 20
881636.79591280187
 30
0.0
  0
VERTEX
  5
839
  8
MONTE_AND_TREES
 10
550475.82410734636
 20
881637.93504729145
 30
0.0
  0
VERTEX
  5
83A
  8
MONTE_AND_TREES
 10
550475.68155347055
 20
881638.43341863086
 30
0.0
  0
VERTEX
  5
83B
  8
MONTE_AND_TREES
 10
550475.18261612044
 20
881639.85733674199
 30
0.0
  0
VERTEX
  5
83C
  8
MONTE_AND_TREES
 10
550474.4698467413
 20
881640.64049170376
 30
0.0
  0
VERTEX
  5
83D
  8
MONTE_AND_TREES
 10
550473.54324654839
 20
881641.63723382924
 30
0.0
  0
VERTEX
  5
83E
  8
MONTE_AND_TREES
 10
550472.79056737933
 20
881642.09548779798
 30
0.0
  0
VERTEX
  5
83F
  8
MONTE_AND_TREES
 10
550471.6159228927
 20
881643.02103457029
 30
0.0
  0
VERTEX
  5
840
  8
MONTE_AND_TREES
 10
550471.11698432709
 20
881643.26871376752
 30
0.0
  0
VERTEX
  5
841
  8
MONTE_AND_TREES
 10
550470.12195474352
 20
881644.20028642996
 30
0.0
  0
VERTEX
  5
842
  8
MONTE_AND_TREES
 10
550470.0635138324
 20
881645.05614376965
 30
0.0
  0
VERTEX
  5
843
  8
MONTE_AND_TREES
 10
550470.29587576748
 20
881645.55602158105
 30
0.0
  0
VERTEX
  5
844
  8
MONTE_AND_TREES
 10
550470.29587576748
 20
881645.55602158105
 30
0.0
  0
VERTEX
  5
845
  8
MONTE_AND_TREES
 10
550472.11770900537
 20
881646.19979767641
 30
0.0
  0
VERTEX
  5
846
  8
MONTE_AND_TREES
 10
550472.97303104482
 20
881646.05137997516
 30
0.0
  0
VERTEX
  5
847
  8
MONTE_AND_TREES
 10
550474.27312327514
 20
881646.43043113325
 30
0.0
  0
VERTEX
  5
848
  8
MONTE_AND_TREES
 10
550475.46629963466
 20
881646.75081211561
 30
0.0
  0
VERTEX
  5
849
  8
MONTE_AND_TREES
 10
550476.40858265036
 20
881647.32188587298
 30
0.0
  0
VERTEX
  5
84A
  8
MONTE_AND_TREES
 10
550476.40858265106
 20
881647.32188587368
 30
0.0
  0
VERTEX
  5
84B
  8
MONTE_AND_TREES
 10
550478.40718385158
 20
881647.89145280141
 30
0.0
  0
VERTEX
  5
84C
  8
MONTE_AND_TREES
 10
550478.9588676258
 20
881647.96114255057
 30
0.0
  0
VERTEX
  5
84D
  8
MONTE_AND_TREES
 10
550480.06648050062
 20
881648.04920218838
 30
0.0
  0
VERTEX
  5
84E
  8
MONTE_AND_TREES
 10
550480.88476872316
 20
881647.97366887354
 30
0.0
  0
VERTEX
  5
84F
  8
MONTE_AND_TREES
 10
550481.70302852045
 20
881648.19328248012
 30
0.0
  0
VERTEX
  5
850
  8
MONTE_AND_TREES
 10
550482.25613667606
 20
881648.28152412584
 30
0.0
  0
VERTEX
  5
851
  8
MONTE_AND_TREES
 10
550483.02307564544
 20
881648.11606068455
 30
0.0
  0
VERTEX
  5
852
  8
MONTE_AND_TREES
 10
550483.84275982389
 20
881648.140638471
 30
0.0
  0
VERTEX
  5
853
  8
MONTE_AND_TREES
 10
550484.43150584085
 20
881648.0679364088
 30
0.0
  0
VERTEX
  5
854
  8
MONTE_AND_TREES
 10
550485.66032113333
 20
881647.76008115639
 30
0.0
  0
VERTEX
  5
855
  8
MONTE_AND_TREES
 10
550486.14873758168
 20
881647.58500901435
 30
0.0
  0
VERTEX
  5
856
  8
MONTE_AND_TREES
 10
550486.76084174274
 20
881647.76309378515
 30
0.0
  0
VERTEX
  5
857
  8
MONTE_AND_TREES
 10
550486.8862876629
 20
881648.06191051903
 30
0.0
  0
VERTEX
  5
858
  8
MONTE_AND_TREES
 10
550486.87202907796
 20
881648.75682383485
 30
0.0
  0
VERTEX
  5
859
  8
MONTE_AND_TREES
 10
550486.44436745043
 20
881649.89595832396
 30
0.0
  0
VERTEX
  5
85A
  8
MONTE_AND_TREES
 10
550486.2077341947
 20
881650.62496312009
 30
0.0
  0
VERTEX
  5
85B
  8
MONTE_AND_TREES
 10
550486.30181357474
 20
881650.89270100207
 30
0.0
  0
VERTEX
  5
85C
  8
MONTE_AND_TREES
 10
550486.15925969882
 20
881651.39107234112
 30
0.0
  0
VERTEX
  5
85D
  8
MONTE_AND_TREES
 10
550486.04664934124
 20
881652.26397514448
 30
0.0
  0
VERTEX
  5
85E
  8
MONTE_AND_TREES
 10
550486.23053663655
 20
881652.53020627785
 30
0.0
  0
VERTEX
  5
85F
  8
MONTE_AND_TREES
 10
550486.37309051258
 20
881653.02857761702
 30
0.0
  0
VERTEX
  5
860
  8
MONTE_AND_TREES
 10
550486.65819826431
 20
881653.45575305074
 30
0.0
  0
VERTEX
  5
861
  8
MONTE_AND_TREES
 10
550487.10296602396
 20
881653.68638650724
 30
0.0
  0
VERTEX
  5
862
  8
MONTE_AND_TREES
 10
550486.9634373351
 20
881653.76842252293
 30
0.0
  0
VERTEX
  5
863
  8
MONTE_AND_TREES
 10
550486.80075214023
 20
881654.16771210637
 30
0.0
  0
VERTEX
  5
864
  8
MONTE_AND_TREES
 10
550486.31251261535
 20
881654.72358771786
 30
0.0
  0
VERTEX
  5
865
  8
MONTE_AND_TREES
 10
550486.3730905127
 20
881655.09325887891
 30
0.0
  0
VERTEX
  5
866
  8
MONTE_AND_TREES
 10
550486.44436745043
 20
881655.59163021785
 30
0.0
  0
VERTEX
  5
867
  8
MONTE_AND_TREES
 10
550486.58692132635
 20
881656.09000155726
 30
0.0
  0
VERTEX
  5
868
  8
MONTE_AND_TREES
 10
550487.20902536938
 20
881656.46216705127
 30
0.0
  0
VERTEX
  5
869
  8
MONTE_AND_TREES
 10
550487.65632876439
 20
881656.59466371464
 30
0.0
  0
VERTEX
  5
86A
  8
MONTE_AND_TREES
 10
550488.54478264239
 20
881656.5648232305
 30
0.0
  0
VERTEX
  5
86B
  8
MONTE_AND_TREES
 10
550489.03965265094
 20
881657.05913197715
 30
0.0
  0
VERTEX
  5
86C
  8
MONTE_AND_TREES
 10
550489.25500753778
 20
881657.24819303409
 30
0.0
  0
VERTEX
  5
86D
  8
MONTE_AND_TREES
 10
550490.02939509891
 20
881657.05913197715
 30
0.0
  0
VERTEX
  5
86E
  8
MONTE_AND_TREES
 10
550490.52426632284
 20
881657.31674563035
 30
0.0
  0
VERTEX
  5
86F
  8
MONTE_AND_TREES
 10
550490.79378094012
 20
881657.25329524674
 30
0.0
  0
VERTEX
  5
870
  8
MONTE_AND_TREES
 10
550491.51400877081
 20
881657.31674563035
 30
0.0
  0
VERTEX
  5
871
  8
MONTE_AND_TREES
 10
550491.92169965128
 20
881657.15844071319
 30
0.0
  0
VERTEX
  5
872
  8
MONTE_AND_TREES
 10
550492.50375121878
 20
881657.31674563035
 30
0.0
  0
VERTEX
  5
873
  8
MONTE_AND_TREES
 10
550493.21370748361
 20
881657.27639514906
 30
0.0
  0
VERTEX
  5
874
  8
MONTE_AND_TREES
 10
550494.84944584395
 20
881657.56389972765
 30
0.0
  0
VERTEX
  5
875
  8
MONTE_AND_TREES
 10
550496.08662376029
 20
881658.42371011886
 30
0.0
  0
VERTEX
  5
876
  8
MONTE_AND_TREES
 10
550497.07636620826
 20
881659.41232761228
 30
0.0
  0
VERTEX
  5
877
  8
MONTE_AND_TREES
 10
550498.56097988039
 20
881659.90663635929
 30
0.0
  0
VERTEX
  5
878
  8
MONTE_AND_TREES
 10
550499.43194592395
 20
881660.51929265284
 30
0.0
  0
VERTEX
  5
879
  8
MONTE_AND_TREES
 10
550500.94387959177
 20
881661.01360084757
 30
0.0
  0
VERTEX
  5
87A
  8
MONTE_AND_TREES
 10
550502.40117326798
 20
881661.01360084757
 30
0.0
  0
VERTEX
  5
87B
  8
MONTE_AND_TREES
 10
550503.39091571607
 20
881661.01360084757
 30
0.0
  0
VERTEX
  5
87C
  8
MONTE_AND_TREES
 10
550505.3703993964
 20
881661.01360084757
 30
0.0
  0
VERTEX
  5
87D
  8
MONTE_AND_TREES
 10
550506.85501306865
 20
881661.27121450065
 30
0.0
  0
VERTEX
  5
87E
  8
MONTE_AND_TREES
 10
550507.97341579595
 20
881661.02406040346
 30
0.0
  0
VERTEX
  5
87F
  8
MONTE_AND_TREES
 10
550509.82423980476
 20
881660.28259724309
 30
0.0
  0
VERTEX
  5
880
  8
MONTE_AND_TREES
 10
550510.52816867211
 20
881660.21071135462
 30
0.0
  0
VERTEX
  5
881
  8
MONTE_AND_TREES
 10
550511.80372409301
 20
881660.2825975595
 30
0.0
  0
VERTEX
  5
882
  8
MONTE_AND_TREES
 10
550511.80372409581
 20
881660.28259755962
 30
0.0
  0
VERTEX
  5
883
  8
MONTE_AND_TREES
 10
550513.78320898907
 20
881660.51929265284
 30
0.0
  0
VERTEX
  5
884
  8
MONTE_AND_TREES
 10
550514.27808021312
 20
881661.01360084757
 30
0.0
  0
VERTEX
  5
885
  8
MONTE_AND_TREES
 10
550515.2678214456
 20
881661.01360084757
 30
0.0
  0
VERTEX
  5
886
  8
MONTE_AND_TREES
 10
550516.25756389345
 20
881661.01360084757
 30
0.0
  0
VERTEX
  5
887
  8
MONTE_AND_TREES
 10
550516.88109539705
 20
881661.02406040358
 30
0.0
  0
VERTEX
  5
888
  8
MONTE_AND_TREES
 10
550518.73192001355
 20
881660.77690630616
 30
0.0
  0
VERTEX
  5
889
  8
MONTE_AND_TREES
 10
550520.0878726549
 20
881660.52975161653
 30
0.0
  0
VERTEX
  5
88A
  8
MONTE_AND_TREES
 10
550521.20627491816
 20
881660.77690630592
 30
0.0
  0
VERTEX
  5
88B
  8
MONTE_AND_TREES
 10
550522.44345297816
 20
881660.90571313282
 30
0.0
  0
VERTEX
  5
88C
  8
MONTE_AND_TREES
 10
550522.44345297816
 20
881660.90571313282
 30
0.0
  0
VERTEX
  5
88D
  8
MONTE_AND_TREES
 10
550524.17550226219
 20
881660.02498390642
 30
0.0
  0
VERTEX
  5
88E
  8
MONTE_AND_TREES
 10
550524.79903390945
 20
881660.03544318595
 30
0.0
  0
VERTEX
  5
88F
  8
MONTE_AND_TREES
 10
550525.54134013783
 20
881659.4123272961
 30
0.0
  0
VERTEX
  5
890
  8
MONTE_AND_TREES
 10
550526.64985716681
 20
881659.03636641242
 30
0.0
  0
VERTEX
  5
891
  8
MONTE_AND_TREES
 10
550528.1344708387
 20
881659.2939800655
 30
0.0
  0
VERTEX
  5
892
  8
MONTE_AND_TREES
 10
550529.00543809787
 20
881658.91801886575
 30
0.0
  0
VERTEX
  5
893
  8
MONTE_AND_TREES
 10
550529.74774493393
 20
881658.5525169454
 30
0.0
  0
VERTEX
  5
894
  8
MONTE_AND_TREES
 10
550530.7374867741
 20
881658.05820788222
 30
0.0
  0
VERTEX
  5
895
  8
MONTE_AND_TREES
 10
550531.10369696759
 20
881657.55344017188
 30
0.0
  0
VERTEX
  5
896
  8
MONTE_AND_TREES
 10
550532.5173081517
 20
881656.38963074866
 30
0.0
  0
VERTEX
  5
897
  8
MONTE_AND_TREES
 10
550533.21184228663
 20
881656.08097376337
 30
0.0
  0
VERTEX
  5
898
  8
MONTE_AND_TREES
 10
550534.19136423839
 20
881654.23388325144
 30
0.0
  0
VERTEX
  5
899
  8
MONTE_AND_TREES
 10
550534.07292431127
 20
881652.61035380769
 30
0.0
  0
VERTEX
  5
89A
  8
MONTE_AND_TREES
 10
550534.33024515735
 20
881651.12742756691
 30
0.0
  0
VERTEX
  5
89B
  8
MONTE_AND_TREES
 10
550534.33024501347
 20
881650.1388103494
 30
0.0
  0
VERTEX
  5
89C
  8
MONTE_AND_TREES
 10
550534.07292431127
 20
881648.65588438464
 30
0.0
  0
VERTEX
  5
89D
  8
MONTE_AND_TREES
 10
550534.07292431127
 20
881647.66726689099
 30
0.0
  0
VERTEX
  5
89E
  8
MONTE_AND_TREES
 10
550533.83212390263
 20
881646.61610643205
 30
0.0
  0
VERTEX
  5
89F
  8
MONTE_AND_TREES
 10
550532.96440653061
 20
881640.37098461541
 30
0.0
  0
VERTEX
  5
8A0
  8
MONTE_AND_TREES
 10
550532.46953545033
 20
881639.87667614478
 30
0.0
  0
VERTEX
  5
8A1
  8
MONTE_AND_TREES
 10
550532.35076026141
 20
881637.78109361033
 30
0.0
  0
VERTEX
  5
8A2
  8
MONTE_AND_TREES
 10
550531.85588903748
 20
881635.8038591753
 30
0.0
  0
VERTEX
  5
8A3
  8
MONTE_AND_TREES
 10
550531.36101781344
 20
881634.32093293441
 30
0.0
  0
VERTEX
  5
8A4
  8
MONTE_AND_TREES
 10
550530.49005116196
 20
881632.95635510981
 30
0.0
  0
VERTEX
  5
8A5
  8
MONTE_AND_TREES
 10
550530.37127658096
 20
881631.3550810056
 30
0.0
  0
VERTEX
  5
8A6
  8
MONTE_AND_TREES
 10
550530.37127658073
 20
881629.37784657045
 30
0.0
  0
VERTEX
  5
8A7
  8
MONTE_AND_TREES
 10
550530.37127658096
 20
881627.40061158291
 30
0.0
  0
VERTEX
  5
8A8
  8
MONTE_AND_TREES
 10
550530.37127658085
 20
881625.42337714788
 30
0.0
  0
VERTEX
  5
8A9
  8
MONTE_AND_TREES
 10
550530.11395573476
 20
881623.94045090687
 30
0.0
  0
VERTEX
  5
8AA
  8
MONTE_AND_TREES
 10
550530.00506578013
 20
881621.71606209839
 30
0.0
  0
VERTEX
  5
8AB
  8
MONTE_AND_TREES
 10
550529.61908451095
 20
881620.97459897841
 30
0.0
  0
VERTEX
  5
8AC
  8
MONTE_AND_TREES
 10
550529.12421328691
 20
881618.9973645428
 30
0.0
  0
VERTEX
  5
8AD
  8
MONTE_AND_TREES
 10
550529.00543809799
 20
881618.62140334269
 30
0.0
  0
VERTEX
  5
8AE
  8
MONTE_AND_TREES
 10
550527.77814512805
 20
881613.1840079556
 30
0.0
  0
VERTEX
  5
8AF
  8
MONTE_AND_TREES
 10
550527.14472839085
 20
881612.57135193795
 30
0.0
  0
VERTEX
  5
8B0
  8
MONTE_AND_TREES
 10
550527.02595320204
 20
881611.20677324443
 30
0.0
  0
VERTEX
  5
8B1
  8
MONTE_AND_TREES
 10
550526.907177869
 20
881609.60549973289
 30
0.0
  0
VERTEX
  5
8B2
  8
MONTE_AND_TREES
 10
550526.53108197788
 20
881607.74661256804
 30
0.0
  0
VERTEX
  5
8B3
  8
MONTE_AND_TREES
 10
550526.41230678849
 20
881607.13395627448
 30
0.0
  0
VERTEX
  5
8B4
  8
MONTE_AND_TREES
 10
550526.16487117682
 20
881605.02791501314
 30
0.0
  0
VERTEX
  5
8B5
  8
MONTE_AND_TREES
 10
550525.66011471895
 20
881603.67379559879
 30
0.0
  0
VERTEX
  5
8B6
  8
MONTE_AND_TREES
 10
550526.04609584436
 20
881602.93233275483
 30
0.0
  0
VERTEX
  5
8B7
  8
MONTE_AND_TREES
 10
550525.66011471895
 20
881602.19086991064
 30
0.0
  0
VERTEX
  5
8B8
  8
MONTE_AND_TREES
 10
550525.80660961324
 20
881601.34803406999
 30
0.0
  0
VERTEX
  5
8B9
  8
MONTE_AND_TREES
 10
550525.66011471895
 20
881600.21363492287
 30
0.0
  0
VERTEX
  5
8BA
  8
MONTE_AND_TREES
 10
550525.52503571275
 20
881599.39742406702
 30
0.0
  0
VERTEX
  5
8BB
  8
MONTE_AND_TREES
 10
550524.6802587203
 20
881598.10759366106
 30
0.0
  0
VERTEX
  5
8BC
  8
MONTE_AND_TREES
 10
550523.68063103815
 20
881597.24778299395
 30
0.0
  0
VERTEX
  5
8BD
  8
MONTE_AND_TREES
 10
550523.06698462518
 20
881596.37751304684
 30
0.0
  0
VERTEX
  5
8BE
  8
MONTE_AND_TREES
 10
550522.5721132576
 20
881595.88320457621
 30
0.0
  0
VERTEX
  5
8BF
  8
MONTE_AND_TREES
 10
550521.70114614221
 20
881595.27054855891
 30
0.0
  0
VERTEX
  5
8C0
  8
MONTE_AND_TREES
 10
550521.20627491816
 20
881594.77623981191
 30
0.0
  0
VERTEX
  5
8C1
  8
MONTE_AND_TREES
 10
550521.20627491816
 20
881593.78762231825
 30
0.0
  0
VERTEX
  5
8C2
  8
MONTE_AND_TREES
 10
550520.71140369424
 20
881593.29331357114
 30
0.0
  0
VERTEX
  5
8C3
  8
MONTE_AND_TREES
 10
550520.76916572207
 20
881591.74452789547
 30
0.0
  0
VERTEX
  5
8C4
  8
MONTE_AND_TREES
 10
550520.68815876043
 20
881590.6114449118
 30
0.0
  0
VERTEX
  5
8C5
  8
MONTE_AND_TREES
 10
550520.38438260148
 20
881589.70093185315
 30
0.0
  0
VERTEX
  5
8C6
  8
MONTE_AND_TREES
 10
550519.61565611151
 20
881588.85170948214
 30
0.0
  0
VERTEX
  5
8C7
  8
MONTE_AND_TREES
 10
550519.04334086087
 20
881587.80168890604
 30
0.0
  0
VERTEX
  5
8C8
  8
MONTE_AND_TREES
 10
550518.66298440297
 20
881587.15149519267
 30
0.0
  0
VERTEX
  5
8C9
  8
MONTE_AND_TREES
 10
550518.46899013093
 20
881586.46227527643
 30
0.0
  0
VERTEX
  5
8CA
  8
MONTE_AND_TREES
 10
550517.91366985091
 20
881585.12813282828
 30
0.0
  0
VERTEX
  5
8CB
  8
MONTE_AND_TREES
 10
550517.48015842936
 20
881584.22755341989
 30
0.0
  0
VERTEX
  5
8CC
  8
MONTE_AND_TREES
 10
550517.19563026039
 20
881583.53647495306
 30
0.0
  0
VERTEX
  5
8CD
  8
MONTE_AND_TREES
 10
550517.00231429539
 20
881582.94826965232
 30
0.0
  0
VERTEX
  5
8CE
  8
MONTE_AND_TREES
 10
550516.3137957711
 20
881582.47176992847
 30
0.0
  0
VERTEX
  5
8CF
  8
MONTE_AND_TREES
 10
550516.05548683845
 20
881582.45975532383
 30
0.0
  0
VERTEX
  5
8D0
  8
MONTE_AND_TREES
 10
550515.05991662689
 20
881582.55821197387
 30
0.0
  0
VERTEX
  5
8D1
  8
MONTE_AND_TREES
 10
550514.71427423588
 20
881582.59951714135
 30
0.0
  0
VERTEX
  5
8D2
  8
MONTE_AND_TREES
 10
550514.02649675147
 20
881582.76869799884
 30
0.0
  0
VERTEX
  5
8D3
  8
MONTE_AND_TREES
 10
550513.1012747098
 20
881582.74525306141
 30
0.0
  0
VERTEX
  5
8D4
  8
MONTE_AND_TREES
 10
550512.13192382653
 20
881582.80941880425
 30
0.0
  0
VERTEX
  5
8D5
  8
MONTE_AND_TREES
 10
550511.79458931566
 20
881582.83546139614
 30
0.0
  0
VERTEX
  5
8D6
  8
MONTE_AND_TREES
 10
550510.77520209667
 20
881582.84344905813
 30
0.0
  0
VERTEX
  5
8D7
  8
MONTE_AND_TREES
 10
550510.48384055181
 20
881583.1150476418
 30
0.0
  0
VERTEX
  5
8D8
  8
MONTE_AND_TREES
 10
550510.45245073875
 20
881583.4360048318
 30
0.0
  0
VERTEX
  5
8D9
  8
MONTE_AND_TREES
 10
550510.46832930075
 20
881584.87687136827
 30
0.0
  0
VERTEX
  5
8DA
  8
MONTE_AND_TREES
 10
550510.53756860667
 20
881585.71446481568
 30
0.0
  0
VERTEX
  5
8DB
  8
MONTE_AND_TREES
 10
550510.84167144238
 20
881586.65194420016
 30
0.0
  0
VERTEX
  5
8DC
  8
MONTE_AND_TREES
 10
550510.89255175611
 20
881587.43692874152
 30
0.0
  0
VERTEX
  5
8DD
  8
MONTE_AND_TREES
 10
550510.89255175611
 20
881587.43692874152
 30
0.0
  0
VERTEX
  5
8DE
  8
MONTE_AND_TREES
 10
550510.95717524283
 20
881587.86114858405
 30
0.0
  0
VERTEX
  5
8DF
  8
MONTE_AND_TREES
 10
550511.02179838717
 20
881588.49747825798
 30
0.0
  0
VERTEX
  5
8E0
  8
MONTE_AND_TREES
 10
550511.04026219156
 20
881589.05080837884
 30
0.0
  0
VERTEX
  5
8E1
  8
MONTE_AND_TREES
 10
550511.19720470044
 20
881589.79780418437
 30
0.0
  0
VERTEX
  5
8E2
  8
MONTE_AND_TREES
 10
550511.20643677318
 20
881589.95458104031
 30
0.0
  0
VERTEX
  5
8E3
  8
MONTE_AND_TREES
 10
550511.26182818681
 20
881590.46180025744
 30
0.0
  0
VERTEX
  5
8E4
  8
MONTE_AND_TREES
 10
550510.96640697378
 20
881591.14424083533
 30
0.0
  0
VERTEX
  5
8E5
  8
MONTE_AND_TREES
 10
550510.63405815221
 20
881591.32868408936
 30
0.0
  0
VERTEX
  5
8E6
  8
MONTE_AND_TREES
 10
550510.32940486586
 20
881591.39323931874
 30
0.0
  0
VERTEX
  5
8E7
  8
MONTE_AND_TREES
 10
550509.77549004881
 20
881591.39323931839
 30
0.0
  0
VERTEX
  5
8E8
  8
MONTE_AND_TREES
 10
550509.52622851846
 20
881591.26412903948
 30
0.0
  0
VERTEX
  5
8E9
  8
MONTE_AND_TREES
 10
550509.21234350116
 20
881590.90446442552
 30
0.0
  0
VERTEX
  5
8EA
  8
MONTE_AND_TREES
 10
550509.12002447911
 20
881590.60013278807
 30
0.0
  0
VERTEX
  5
8EB
  8
MONTE_AND_TREES
 10
550509.14680696034
 20
881590.07782145811
 30
0.0
  0
VERTEX
  5
8EC
  8
MONTE_AND_TREES
 10
550509.09621213225
 20
881589.43629647442
 30
0.0
  0
VERTEX
  5
8ED
  8
MONTE_AND_TREES
 10
550509.09621213225
 20
881589.43629647442
 30
0.0
  0
VERTEX
  5
8EE
  8
MONTE_AND_TREES
 10
550509.11467593641
 20
881589.03974320902
 30
0.0
  0
VERTEX
  5
8EF
  8
MONTE_AND_TREES
 10
550508.98542896332
 20
881588.1359705478
 30
0.0
  0
VERTEX
  5
8F0
  8
MONTE_AND_TREES
 10
550508.96696515905
 20
881587.31519761891
 30
0.0
  0
VERTEX
  5
8F1
  8
MONTE_AND_TREES
 10
550508.84695025894
 20
881586.28231467924
 30
0.0
  0
VERTEX
  5
8F2
  8
MONTE_AND_TREES
 10
550508.83882939117
 20
881585.30625129188
 30
0.0
  0
VERTEX
  5
8F3
  8
MONTE_AND_TREES
 10
550508.75463123701
 20
881585.13323828019
 30
0.0
  0
VERTEX
  5
8F4
  8
MONTE_AND_TREES
 10
550508.90345470537
 20
881584.84735105699
 30
0.0
  0
VERTEX
  5
8F5
  8
MONTE_AND_TREES
 10
550508.87040392146
 20
881583.59112265159
 30
0.0
  0
VERTEX
  5
8F6
  8
MONTE_AND_TREES
 10
550508.75463123724
 20
881583.33491538803
 30
0.0
  0
VERTEX
  5
8F7
  8
MONTE_AND_TREES
 10
550508.89606683492
 20
881583.10397156666
 30
0.0
  0
VERTEX
  5
8F8
  8
MONTE_AND_TREES
 10
550508.70681053761
 20
881582.87608101859
 30
0.0
  0
VERTEX
  5
8F9
  8
MONTE_AND_TREES
 10
550508.20680888172
 20
881582.80633057002
 30
0.0
  0
VERTEX
  5
8FA
  8
MONTE_AND_TREES
 10
550507.36559588986
 20
881583.12832747318
 30
0.0
  0
VERTEX
  5
8FB
  8
MONTE_AND_TREES
 10
550507.05281978298
 20
881583.27146582736
 30
0.0
  0
VERTEX
  5
8FC
  8
MONTE_AND_TREES
 10
550506.24465774652
 20
881583.64795078116
 30
0.0
  0
VERTEX
  5
8FD
  8
MONTE_AND_TREES
 10
550505.99336525041
 20
881583.75881152111
 30
0.0
  0
VERTEX
  5
8FE
  8
MONTE_AND_TREES
 10
550505.48690169805
 20
881583.98619565496
 30
0.0
  0
VERTEX
  5
8FF
  8
MONTE_AND_TREES
 10
550504.90584549785
 20
881584.37190294976
 30
0.0
  0
VERTEX
  5
900
  8
MONTE_AND_TREES
 10
550504.63535015646
 20
881584.52367919381
 30
0.0
  0
VERTEX
  5
901
  8
MONTE_AND_TREES
 10
550504.25019469694
 20
881584.9468593233
 30
0.0
  0
VERTEX
  5
902
  8
MONTE_AND_TREES
 10
550503.7424397337
 20
881585.45849496895
 30
0.0
  0
VERTEX
  5
903
  8
MONTE_AND_TREES
 10
550503.33549830981
 20
881585.90531473327
 30
0.0
  0
VERTEX
  5
904
  8
MONTE_AND_TREES
 10
550502.78638207726
 20
881586.33460096398
 30
0.0
  0
VERTEX
  5
905
  8
MONTE_AND_TREES
 10
550501.79376875889
 20
881587.62063807156
 30
0.0
  0
VERTEX
  5
906
  8
MONTE_AND_TREES
 10
550501.4200590105
 20
881588.23073045665
 30
0.0
  0
VERTEX
  5
907
  8
MONTE_AND_TREES
 10
550501.20348751766
 20
881588.66133962385
 30
0.0
  0
VERTEX
  5
908
  8
MONTE_AND_TREES
 10
550500.56925558718
 20
881588.94027889741
 30
0.0
  0
VERTEX
  5
909
  8
MONTE_AND_TREES
 10
550499.48986104282
 20
881589.31397132005
 30
0.0
  0
VERTEX
  5
90A
  8
MONTE_AND_TREES
 10
550499.00389404199
 20
881589.63401771884
 30
0.0
  0
VERTEX
  5
90B
  8
MONTE_AND_TREES
 10
550498.28380464274
 20
881590.01212665846
 30
0.0
  0
VERTEX
  5
90C
  8
MONTE_AND_TREES
 10
550497.51755590411
 20
881590.3810133459
 30
0.0
  0
VERTEX
  5
90D
  8
MONTE_AND_TREES
 10
550496.40972627047
 20
881590.92512121506
 30
0.0
  0
VERTEX
  5
90E
  8
MONTE_AND_TREES
 10
550496.19517466682
 20
881590.95408815797
 30
0.0
  0
VERTEX
  5
90F
  8
MONTE_AND_TREES
 10
550496.09584125294
 20
881591.14645329863
 30
0.0
  0
VERTEX
  5
910
  8
MONTE_AND_TREES
 10
550495.87427525816
 20
881591.27556375554
 30
0.0
  0
VERTEX
  5
911
  8
MONTE_AND_TREES
 10
550495.87427525816
 20
881591.27556375554
 30
0.0
  0
VERTEX
  5
912
  8
MONTE_AND_TREES
 10
550495.66175444855
 20
881591.32316972234
 30
0.0
  0
VERTEX
  5
913
  8
MONTE_AND_TREES
 10
550495.60853198322
 20
881591.00042213453
 30
0.0
  0
VERTEX
  5
914
  8
MONTE_AND_TREES
 10
550495.2304335566
 20
881591.01501284842
 30
0.0
  0
VERTEX
  5
915
  8
MONTE_AND_TREES
 10
550495.16128001374
 20
881591.16650368436
 30
0.0
  0
VERTEX
  5
916
  8
MONTE_AND_TREES
 10
550495.16128001374
 20
881591.16650368436
 30
0.0
  0
VERTEX
  5
917
  8
MONTE_AND_TREES
 10
550494.76198013441
 20
881591.06239525916
 30
0.0
  0
VERTEX
  5
918
  8
MONTE_AND_TREES
 10
550494.35795689106
 20
881591.16001036356
 30
0.0
  0
VERTEX
  5
919
  8
MONTE_AND_TREES
 10
550494.01919151249
 20
881591.14754464175
 30
0.0
  0
VERTEX
  5
91A
  8
MONTE_AND_TREES
 10
550493.35897400521
 20
881591.16629814135
 30
0.0
  0
VERTEX
  5
91B
  8
MONTE_AND_TREES
 10
550493.11400201067
 20
881590.96640598017
 30
0.0
  0
VERTEX
  5
91C
  8
MONTE_AND_TREES
 10
550492.71370389219
 20
881590.82177038898
 30
0.0
  0
VERTEX
  5
91D
  8
MONTE_AND_TREES
 10
550492.59492870327
 20
881590.44580918911
 30
0.0
  0
VERTEX
  5
91E
  8
MONTE_AND_TREES
 10
550492.21883266815
 20
881590.32746164221
 30
0.0
  0
VERTEX
  5
91F
  8
MONTE_AND_TREES
 10
550491.86270214093
 20
881590.08599503525
 30
0.0
  0
VERTEX
  5
920
  8
MONTE_AND_TREES
 10
550491.72396144411
 20
881590.06984798913
 30
0.0
  0
VERTEX
  5
921
  8
MONTE_AND_TREES
 10
550491.02163040405
 20
881590.14259565144
 30
0.0
  0
VERTEX
  5
922
  8
MONTE_AND_TREES
 10
550490.73421899613
 20
881590.06984798913
 30
0.0
  0
VERTEX
  5
923
  8
MONTE_AND_TREES
 10
550490.48135258933
 20
881590.12531487073
 30
0.0
  0
VERTEX
  5
924
  8
MONTE_AND_TREES
 10
550489.55907120043
 20
881589.66082128359
 30
0.0
  0
VERTEX
  5
925
  8
MONTE_AND_TREES
 10
550488.99809353787
 20
881589.63038449967
 30
0.0
  0
VERTEX
  5
926
  8
MONTE_AND_TREES
 10
550488.61711959844
 20
881589.69249301695
 30
0.0
  0
VERTEX
  5
927
  8
MONTE_AND_TREES
 10
550487.94720901735
 20
881589.66273675021
 30
0.0
  0
VERTEX
  5
928
  8
MONTE_AND_TREES
 10
550487.398781923
 20
881589.32838514494
 30
0.0
  0
VERTEX
  5
929
  8
MONTE_AND_TREES
 10
550487.04165586585
 20
881589.25950823049
 30
0.0
  0
VERTEX
  5
92A
  8
MONTE_AND_TREES
 10
550486.28037919558
 20
881588.84453595383
 30
0.0
  0
VERTEX
  5
92B
  8
MONTE_AND_TREES
 10
550486.28037919558
 20
881588.84453595383
 30
0.0
  0
VERTEX
  5
92C
  8
MONTE_AND_TREES
 10
550485.77403263433
 20
881588.62176320283
 30
0.0
  0
VERTEX
  5
92D
  8
MONTE_AND_TREES
 10
550485.29063674761
 20
881588.35022720695
 30
0.0
  0
VERTEX
  5
92E
  8
MONTE_AND_TREES
 10
550485.17186155857
 20
881587.97426600708
 30
0.0
  0
VERTEX
  5
92F
  8
MONTE_AND_TREES
 10
550484.78265356726
 20
881587.65428615955
 30
0.0
  0
VERTEX
  5
930
  8
MONTE_AND_TREES
 10
550484.15273509803
 20
881587.21339082927
 30
0.0
  0
VERTEX
  5
931
  8
MONTE_AND_TREES
 10
550483.31115306716
 20
881587.36160971317
 30
0.0
  0
VERTEX
  5
932
  8
MONTE_AND_TREES
 10
550482.85750380845
 20
881587.10540407104
 30
0.0
  0
VERTEX
  5
933
  8
MONTE_AND_TREES
 10
550481.58270896925
 20
881587.15538797434
 30
0.0
  0
VERTEX
  5
934
  8
MONTE_AND_TREES
 10
550480.10665590293
 20
881587.16261737607
 30
0.0
  0
VERTEX
  5
935
  8
MONTE_AND_TREES
 10
550479.05437674944
 20
881587.13704100449
 30
0.0
  0
VERTEX
  5
936
  8
MONTE_AND_TREES
 10
550478.24366685376
 20
881586.98564851319
 30
0.0
  0
VERTEX
  5
937
  8
MONTE_AND_TREES
 10
550477.74879562948
 20
881586.49133976665
 30
0.0
  0
VERTEX
  5
938
  8
MONTE_AND_TREES
 10
550477.2539242619
 20
881585.99703129556
 30
0.0
  0
VERTEX
  5
939
  8
MONTE_AND_TREES
 10
550476.78560205037
 20
881585.62510041334
 30
0.0
  0
VERTEX
  5
93A
  8
MONTE_AND_TREES
 10
550476.51161756949
 20
881585.3739159985
 30
0.0
  0
VERTEX
  5
93B
  8
MONTE_AND_TREES
 10
550475.88808592246
 20
881585.38437527826
 30
0.0
  0
VERTEX
  5
93C
  8
MONTE_AND_TREES
 10
550475.51198988757
 20
881585.50272282516
 30
0.0
  0
VERTEX
  5
93D
  8
MONTE_AND_TREES
 10
550474.89834347449
 20
881585.38437527826
 30
0.0
  0
VERTEX
  5
93E
  8
MONTE_AND_TREES
 10
550474.40347225044
 20
881584.89006653125
 30
0.0
  0
VERTEX
  5
93F
  8
MONTE_AND_TREES
 10
550473.90860163432
 20
881584.63245319459
 30
0.0
  0
VERTEX
  5
940
  8
MONTE_AND_TREES
 10
550472.91885979415
 20
881584.63245287805
 30
0.0
  0
VERTEX
  5
941
  8
MONTE_AND_TREES
 10
550470.93937489798
 20
881584.63245287805
 30
0.0
  0
VERTEX
  5
942
  8
MONTE_AND_TREES
 10
550470.45094715117
 20
881584.81688265165
 30
0.0
  0
VERTEX
  5
943
  8
MONTE_AND_TREES
 10
550467.47527754551
 20
881584.89006653125
 30
0.0
  0
VERTEX
  5
944
  8
MONTE_AND_TREES
 10
550466.48553509742
 20
881584.89006653125
 30
0.0
  0
VERTEX
  5
945
  8
MONTE_AND_TREES
 10
550465.00092142541
 20
881585.38437527826
 30
0.0
  0
VERTEX
  5
946
  8
MONTE_AND_TREES
 10
550465.00092142553
 20
881585.38437527826
 30
0.0
  0
VERTEX
  5
947
  8
MONTE_AND_TREES
 10
550463.51630775339
 20
881586.37299221952
 30
0.0
  0
VERTEX
  5
948
  8
MONTE_AND_TREES
 10
550463.02143774484
 20
881587.36160971317
 30
0.0
  0
VERTEX
  5
949
  8
MONTE_AND_TREES
 10
550462.26924567495
 20
881587.59830480709
 30
0.0
  0
VERTEX
  5
94A
  8
MONTE_AND_TREES
 10
550461.0419528489
 20
881588.35022720695
 30
0.0
  0
VERTEX
  5
94B
  8
MONTE_AND_TREES
 10
550459.55733917688
 20
881588.35022720695
 30
0.0
  0
VERTEX
  5
94C
  8
MONTE_AND_TREES
 10
550458.56759672868
 20
881587.85591846018
 30
0.0
  0
VERTEX
  5
94D
  8
MONTE_AND_TREES
 10
550456.58811304846
 20
881587.85591846018
 30
0.0
  0
VERTEX
  5
94E
  8
MONTE_AND_TREES
 10
550454.11375692824
 20
881587.36160971317
 30
0.0
  0
VERTEX
  5
94F
  8
MONTE_AND_TREES
 10
550452.62914447195
 20
881586.86730096652
 30
0.0
  0
VERTEX
  5
950
  8
MONTE_AND_TREES
 10
550451.14453079982
 20
881586.60968731332
 30
0.0
  0
VERTEX
  5
951
  8
MONTE_AND_TREES
 10
550449.16504590365
 20
881586.86730096641
 30
0.0
  0
VERTEX
  5
952
  8
MONTE_AND_TREES
 10
550448.17530345568
 20
881586.86730096652
 30
0.0
  0
VERTEX
  5
953
  8
MONTE_AND_TREES
 10
550446.19581977546
 20
881586.86730096652
 30
0.0
  0
VERTEX
  5
954
  8
MONTE_AND_TREES
 10
550444.71120610333
 20
881586.37299221952
 30
0.0
  0
VERTEX
  5
955
  8
MONTE_AND_TREES
 10
550444.71120610344
 20
881586.37299221952
 30
0.0
  0
VERTEX
  5
956
  8
MONTE_AND_TREES
 10
550443.22659243119
 20
881586.11537856632
 30
0.0
  0
VERTEX
  5
957
  8
MONTE_AND_TREES
 10
550442.36551087024
 20
881585.86822478555
 30
0.0
  0
VERTEX
  5
958
  8
MONTE_AND_TREES
 10
550440.75223752682
 20
881585.87868402479
 30
0.0
  0
VERTEX
  5
959
  8
MONTE_AND_TREES
 10
550438.90141305374
 20
881584.87960725173
 30
0.0
  0
VERTEX
  5
95A
  8
MONTE_AND_TREES
 10
550438.2778814066
 20
881584.89006653125
 30
0.0
  0
VERTEX
  5
95B
  8
MONTE_AND_TREES
 10
550437.28813956643
 20
881584.13814444758
 30
0.0
  0
VERTEX
  5
95C
  8
MONTE_AND_TREES
 10
550436.29839772603
 20
881584.13814413128
 30
0.0
  0
VERTEX
  5
95D
  8
MONTE_AND_TREES
 10
550435.30865527794
 20
881584.1381441314
 30
0.0
  0
VERTEX
  5
95E
  8
MONTE_AND_TREES
 10
550434.31891283009
 20
881584.13814413128
 30
0.0
  0
VERTEX
  5
95F
  8
MONTE_AND_TREES
 10
550433.97230103845
 20
881584.24746861844
 30
0.0
  0
VERTEX
  5
960
  8
MONTE_AND_TREES
 10
550432.71552396915
 20
881583.03117909015
 30
0.0
  0
VERTEX
  5
961
  8
MONTE_AND_TREES
 10
550431.97321759723
 20
881582.40806410939
 30
0.0
  0
VERTEX
  5
962
  8
MONTE_AND_TREES
 10
550431.60700754775
 20
881581.9242146021
 30
0.0
  0
VERTEX
  5
963
  8
MONTE_AND_TREES
 10
550431.23091151274
 20
881581.05394465523
 30
0.0
  0
VERTEX
  5
964
  8
MONTE_AND_TREES
 10
550430.2262292807
 20
881579.62634401245
 30
0.0
  0
VERTEX
  5
965
  8
MONTE_AND_TREES
 10
550428.87533058145
 20
881578.95836267306
 30
0.0
  0
VERTEX
  5
966
  8
MONTE_AND_TREES
 10
550428.38045935752
 20
881578.70074901998
 30
0.0
  0
VERTEX
  5
967
  8
MONTE_AND_TREES
 10
550427.39071690955
 20
881578.46405392629
 30
0.0
  0
VERTEX
  5
968
  8
MONTE_AND_TREES
 10
550426.28220048815
 20
881578.08809272631
 30
0.0
  0
VERTEX
  5
969
  8
MONTE_AND_TREES
 10
550425.04502242804
 20
881576.97066840599
 30
0.0
  0
VERTEX
  5
96A
  8
MONTE_AND_TREES
 10
550423.92661955697
 20
881576.72351403255
 30
0.0
  0
VERTEX
  5
96B
  8
MONTE_AND_TREES
 10
550422.93687710899
 20
881576.72351403255
 30
0.0
  0
VERTEX
  5
96C
  8
MONTE_AND_TREES
 10
550422.32323069603
 20
881576.60516648565
 30
0.0
  0
VERTEX
  5
96D
  8
MONTE_AND_TREES
 10
550420.8386182395
 20
881576.11085773865
 30
0.0
  0
VERTEX
  5
96E
  8
MONTE_AND_TREES
 10
550420.4625222045
 20
881575.99251019198
 30
0.0
  0
VERTEX
  5
96F
  8
MONTE_AND_TREES
 10
550419.47277975641
 20
881575.00389325037
 30
0.0
  0
VERTEX
  5
970
  8
MONTE_AND_TREES
 10
550418.48303730844
 20
881575.00389325037
 30
0.0
  0
VERTEX
  5
971
  8
MONTE_AND_TREES
 10
550417.49329486035
 20
881575.00389325037
 30
0.0
  0
VERTEX
  5
972
  8
MONTE_AND_TREES
 10
550416.00868179614
 20
881574.7462799137
 30
0.0
  0
VERTEX
  5
973
  8
MONTE_AND_TREES
 10
550410.81253515964
 20
881574.61747308739
 30
0.0
  0
VERTEX
  5
974
  8
MONTE_AND_TREES
 10
550408.09074403543
 20
881575.00389325037
 30
0.0
  0
VERTEX
  5
975
  8
MONTE_AND_TREES
 10
550406.27982728544
 20
881574.84198198805
 30
0.0
  0
VERTEX
  5
976
  8
MONTE_AND_TREES
 10
550406.11125913926
 20
881575.00389325037
 30
0.0
  0
VERTEX
  5
977
  8
MONTE_AND_TREES
 10
550405.48772809992
 20
881574.99343428714
 30
0.0
  0
VERTEX
  5
978
  8
MONTE_AND_TREES
 10
550405.12151790666
 20
881575.49820199725
 30
0.0
  0
VERTEX
  5
979
  8
MONTE_AND_TREES
 10
550404.74542201543
 20
881575.61654926825
 30
0.0
  0
VERTEX
  5
97A
  8
MONTE_AND_TREES
 10
550403.63690423465
 20
881575.99251019198
 30
0.0
  0
VERTEX
  5
97B
  8
MONTE_AND_TREES
 10
550401.65741933871
 20
881575.99251019198
 30
0.0
  0
VERTEX
  5
97C
  8
MONTE_AND_TREES
 10
550400.66767689073
 20
881575.99251019198
 30
0.0
  0
VERTEX
  5
97D
  8
MONTE_AND_TREES
 10
550400.1728068823
 20
881576.48681893863
 30
0.0
  0
VERTEX
  5
97E
  8
MONTE_AND_TREES
 10
550398.67830797611
 20
881577.84093835275
 30
0.0
  0
VERTEX
  5
97F
  8
MONTE_AND_TREES
 10
550398.43087250809
 20
881578.95836239716
 30
0.0
  0
VERTEX
  5
980
  8
MONTE_AND_TREES
 10
550398.68819321028
 20
881579.45267086767
 30
0.0
  0
VERTEX
  5
981
  8
MONTE_AND_TREES
 10
550398.68819321028
 20
881580.44128836168
 30
0.0
  0
VERTEX
  5
982
  8
MONTE_AND_TREES
 10
550398.4308723642
 20
881581.9242146021
 30
0.0
  0
VERTEX
  5
983
  8
MONTE_AND_TREES
 10
550398.68819321017
 20
881582.41852334875
 30
0.0
  0
SEQEND
  5
984
  8
MONTE_AND_TREES
  0
POLYLINE
  5
6D
  8
UNITS
 66
     1
 10
0.0
 20
0.0
 30
0.0
 70
     1
  0
VERTEX
  5
985
  8
UNITS
 10
550533.44443717832
 20
881290.84347992099
 30
0.0
  0
VERTEX
  5
986
  8
UNITS
 10
550534.44136815099
 20
881290.84347992099
 30
0.0
  0
VERTEX
  5
987
  8
UNITS
 10
550534.44136815099
 20
881289.84399296157
 30
0.0
  0
VERTEX
  5
988
  8
UNITS
 10
550533.44443717832
 20
881289.84399296157
 30
0.0
  0
SEQEND
  5
989
  8
UNITS
  0
POLYLINE
  5
6F
  8
UNITS
 66
     1
 10
0.0
 20
0.0
 30
0.0
 70
     1
  0
VERTEX
  5
98A
  8
UNITS
 10
550527.43648688705
 20
881287.76820213546
 30
0.0
  0
VERTEX
  5
98B
  8
UNITS
 10
550528.43088523112
 20
881287.76820213546
 30
0.0
  0
VERTEX
  5
98C
  8
UNITS
 10
550528.43341785949
 20
881288.767689095
 30
0.0
  0
VERTEX
  5
98D
  8
UNITS
 10
550527.43648688705
 20
881288.767689095
 30
0.0
  0
SEQEND
  5
98E
  8
UNITS
  0
POLYLINE
  5
70
  8
UNITS
 66
     1
 10
0.0
 20
0.0
 30
0.0
 70
     1
  0
VERTEX
  5
98F
  8
UNITS
 10
550529.21331004158
 20
881291.34815724986
 30
0.0
  0
VERTEX
  5
990
  8
UNITS
 10
550529.21331004158
 20
881290.34815724974
 30
0.0
  0
VERTEX
  5
991
  8
UNITS
 10
550531.21201119979
 20
881290.34815724974
 30
0.0
  0
VERTEX
  5
992
  8
UNITS
 10
550531.21401119977
 20
881292.34772034956
 30
0.0
  0
VERTEX
  5
993
  8
UNITS
 10
550530.21401119966
 20
881292.34772034956
 30
0.0
  0
VERTEX
  5
994
  8
UNITS
 10
550530.21401119966
 20
881291.34815724986
 30
0.0
  0
SEQEND
  5
995
  8
UNITS
  0
POLYLINE
  5
71
  8
UNITS
 66
     1
 10
0.0
 20
0.0
 30
0.0
 70
     1
  0
VERTEX
  5
996
  8
UNITS
 10
550527.13787280128
 20
881291.21747183183
 30
0.0
  0
VERTEX
  5
997
  8
UNITS
 10
550528.13480377395
 20
881291.21747183183
 30
0.0
  0
VERTEX
  5
998
  8
UNITS
 10
550528.13480377395
 20
881292.21695879125
 30
0.0
  0
VERTEX
  5
999
  8
UNITS
 10
550527.13787280128
 20
881292.21695879125
 30
0.0
  0
SEQEND
  5
99A
  8
UNITS
  0
POLYLINE
  5
72
  8
UNITS
 66
     1
 10
0.0
 20
0.0
 30
0.0
 70
     1
  0
VERTEX
  5
99B
  8
UNITS
 10
550534.29176151205
 20
881293.63303072855
 30
0.0
  0
VERTEX
  5
99C
  8
UNITS
 10
550535.28869248449
 20
881293.63303072855
 30
0.0
  0
VERTEX
  5
99D
  8
UNITS
 10
550535.28869248449
 20
881292.63354376925
 30
0.0
  0
VERTEX
  5
99E
  8
UNITS
 10
550534.29176151205
 20
881292.63354376925
 30
0.0
  0
SEQEND
  5
99F
  8
UNITS
  0
POLYLINE
  5
73
  8
UNITS
 66
     1
 10
0.0
 20
0.0
 30
0.0
 70
     1
  0
VERTEX
  5
9A0
  8
UNITS
 10
550531.23015352711
 20
881295.93904447369
 30
0.0
  0
VERTEX
  5
9A1
  8
UNITS
 10
550532.23015352711
 20
881295.93904447369
 30
0.0
  0
VERTEX
  5
9A2
  8
UNITS
 10
550532.22815352725
 20
881292.93852459767
 30
0.0
  0
VERTEX
  5
9A3
  8
UNITS
 10
550531.23015352711
 20
881292.93848592835
 30
0.0
  0
SEQEND
  5
9A4
  8
UNITS
  0
POLYLINE
  5
74
  8
UNITS
 66
     1
 10
0.0
 20
0.0
 30
0.0
 70
     1
  0
VERTEX
  5
9A5
  8
UNITS
 10
550538.54980430077
 20
881301.76569788158
 30
0.0
  0
VERTEX
  5
9A6
  8
UNITS
 10
550539.54673527344
 20
881301.76569788158
 30
0.0
  0
VERTEX
  5
9A7
  8
UNITS
 10
550539.54673527344
 20
881300.76621092216
 30
0.0
  0
VERTEX
  5
9A8
  8
UNITS
 10
550538.54980430077
 20
881300.76621092216
 30
0.0
  0
SEQEND
  5
9A9
  8
UNITS
  0
POLYLINE
  5
75
  8
UNITS
 66
     1
 10
0.0
 20
0.0
 30
0.0
 70
     1
  0
VERTEX
  5
9AA
  8
UNITS
 10
550530.26285632537
 20
881305.76522848452
 30
0.0
  0
VERTEX
  5
9AB
  8
UNITS
 10
550531.26285632525
 20
881305.76522848452
 30
0.0
  0
VERTEX
  5
9AC
  8
UNITS
 10
550531.25662767317
 20
881303.76388427266
 30
0.0
  0
VERTEX
  5
9AD
  8
UNITS
 10
550530.25862767315
 20
881303.76388427266
 30
0.0
  0
SEQEND
  5
9AE
  8
UNITS
  0
POLYLINE
  5
76
  8
UNITS
 66
     1
 10
0.0
 20
0.0
 30
0.0
 70
     1
  0
VERTEX
  5
9AF
  8
UNITS
 10
550520.83633498126
 20
881298.35080505407
 30
0.0
  0
VERTEX
  5
9B0
  8
UNITS
 10
550521.83326595358
 20
881298.35080505407
 30
0.0
  0
VERTEX
  5
9B1
  8
UNITS
 10
550521.83326595358
 20
881297.35131809465
 30
0.0
  0
VERTEX
  5
9B2
  8
UNITS
 10
550520.83633498126
 20
881297.35131809465
 30
0.0
  0
SEQEND
  5
9B3
  8
UNITS
  0
POLYLINE
  5
77
  8
UNITS
 66
     1
 10
0.0
 20
0.0
 30
0.0
 70
     1
  0
VERTEX
  5
9B4
  8
UNITS
 10
550523.42766643851
 20
881303.68897710554
 30
0.0
  0
VERTEX
  5
9B5
  8
UNITS
 10
550524.42459741107
 20
881303.68897710554
 30
0.0
  0
VERTEX
  5
9B6
  8
UNITS
 10
550524.42459741107
 20
881302.68949014635
 30
0.0
  0
VERTEX
  5
9B7
  8
UNITS
 10
550523.42766643851
 20
881302.68949014635
 30
0.0
  0
SEQEND
  5
9B8
  8
UNITS
  0
POLYLINE
  5
78
  8
UNITS
 66
     1
 10
0.0
 20
0.0
 30
0.0
 70
     1
  0
VERTEX
  5
9B9
  8
UNITS
 10
550518.30238926155
 20
881302.18571022234
 30
0.0
  0
VERTEX
  5
9BA
  8
UNITS
 10
550517.30438926152
 20
881302.18571022234
 30
0.0
  0
VERTEX
  5
9BB
  8
UNITS
 10
550517.30634386512
 20
881304.18608357827
 30
0.0
  0
VERTEX
  5
9BC
  8
UNITS
 10
550518.30634386512
 20
881304.18608357827
 30
0.0
  0
SEQEND
  5
9BD
  8
UNITS
  0
POLYLINE
  5
79
  8
UNITS
 66
     1
 10
0.0
 20
0.0
 30
0.0
 70
     1
  0
VERTEX
  5
9BE
  8
UNITS
 10
550306.21087150753
 20
881478.11570878781
 30
0.0
  0
VERTEX
  5
9BF
  8
UNITS
 10
550307.21090499475
 20
881478.11592040502
 30
0.0
  0
VERTEX
  5
9C0
  8
UNITS
 10
550307.20890499477
 20
881477.11592040525
 30
0.0
  0
VERTEX
  5
9C1
  8
UNITS
 10
550306.2109201859
 20
881477.11574537528
 30
0.0
  0
SEQEND
  5
9C2
  8
UNITS
  0
POLYLINE
  5
7A
  8
UNITS
 66
     1
 10
0.0
 20
0.0
 30
0.0
 70
     1
  0
VERTEX
  5
9C3
  8
UNITS
 10
550307.0252917842
 20
881479.42677032575
 30
0.0
  0
VERTEX
  5
9C4
  8
UNITS
 10
550308.0252917842
 20
881479.42677032575
 30
0.0
  0
VERTEX
  5
9C5
  8
UNITS
 10
550308.02329178422
 20
881478.42677032575
 30
0.0
  0
VERTEX
  5
9C6
  8
UNITS
 10
550307.0252917842
 20
881478.42677032575
 30
0.0
  0
SEQEND
  5
9C7
  8
UNITS
  0
POLYLINE
  5
7B
  8
UNITS
 66
     1
 10
0.0
 20
0.0
 30
0.0
 70
     1
  0
VERTEX
  5
9C8
  8
UNITS
 10
550307.58318996511
 20
881482.37980064773
 30
0.0
  0
VERTEX
  5
9C9
  8
UNITS
 10
550307.58522549586
 20
881483.37983939552
 30
0.0
  0
VERTEX
  5
9CA
  8
UNITS
 10
550308.58522549598
 20
881483.37983939552
 30
0.0
  0
VERTEX
  5
9CB
  8
UNITS
 10
550308.583225496
 20
881482.37983939552
 30
0.0
  0
VERTEX
  5
9CC
  8
UNITS
 10
550308.92099999997
 20
881482.3798
 30
0.0
  0
VERTEX
  5
9CD
  8
UNITS
 10
550308.92130893539
 20
881481.50531151169
 30
0.0
  0
VERTEX
  5
9CE
  8
UNITS
 10
550309.69219173293
 20
881481.50368152093
 30
0.0
  0
VERTEX
  5
9CF
  8
UNITS
 10
550309.69019173295
 20
881480.50368152105
 30
0.0
  0
VERTEX
  5
9D0
  8
UNITS
 10
550306.69212067116
 20
881480.50356535614
 30
0.0
  0
VERTEX
  5
9D1
  8
UNITS
 10
550306.6923
 20
881480.9874000001
 30
0.0
  0
VERTEX
  5
9D2
  8
UNITS
 10
550305.69999999995
 20
881480.9874000001
 30
0.0
  0
VERTEX
  5
9D3
  8
UNITS
 10
550305.70201047754
 20
881482.50417072349
 30
0.0
  0
VERTEX
  5
9D4
  8
UNITS
 10
550307.20030864491
 20
881482.50417064468
 30
0.0
  0
VERTEX
  5
9D5
  8
UNITS
 10
550307.20030000003
 20
881481.5042000002
 30
0.0
  0
VERTEX
  5
9D6
  8
UNITS
 10
550308.02100785787
 20
881481.50531151169
 30
0.0
  0
VERTEX
  5
9D7
  8
UNITS
 10
550308.02100785787
 20
881482.37981810712
 30
0.0
  0
SEQEND
  5
9D8
  8
UNITS
  0
POLYLINE
  5
7C
  8
UNITS
 66
     1
 10
0.0
 20
0.0
 30
0.0
 70
     1
  0
VERTEX
  5
9D9
  8
UNITS
 10
550303.07621440839
 20
881479.144883662
 30
0.0
  0
VERTEX
  5
9DA
  8
UNITS
 10
550304.0762144085
 20
881479.144883662
 30
0.0
  0
VERTEX
  5
9DB
  8
UNITS
 10
550304.07421440841
 20
881478.14488366188
 30
0.0
  0
VERTEX
  5
9DC
  8
UNITS
 10
550303.0762295929
 20
881478.1448449936
 30
0.0
  0
SEQEND
  5
9DD
  8
UNITS
  0
POLYLINE
  5
7D
  8
UNITS
 66
     1
 10
0.0
 20
0.0
 30
0.0
 70
     1
  0
VERTEX
  5
9DE
  8
UNITS
 10
550302.96143109968
 20
881482.03160610294
 30
0.0
  0
VERTEX
  5
9DF
  8
UNITS
 10
550302.96143109968
 20
881481.03156743408
 30
0.0
  0
VERTEX
  5
9E0
  8
UNITS
 10
550303.95943109971
 20
881481.03160610318
 30
0.0
  0
VERTEX
  5
9E1
  8
UNITS
 10
550303.96143109957
 20
881482.03160610294
 30
0.0
  0
SEQEND
  5
9E2
  8
UNITS
  0
POLYLINE
  5
7E
  8
UNITS
 66
     1
 10
0.0
 20
0.0
 30
0.0
 70
     1
  0
VERTEX
  5
9E3
  8
UNITS
 10
550309.00939999998
 20
881485.33680000005
 30
0.0
  0
VERTEX
  5
9E4
  8
UNITS
 10
550309.00939999998
 20
881484.33680000028
 30
0.0
  0
VERTEX
  5
9E5
  8
UNITS
 10
550307.50943195762
 20
881484.3368309103
 30
0.0
  0
VERTEX
  5
9E6
  8
UNITS
 10
550307.50939999986
 20
881485.33680000005
 30
0.0
  0
SEQEND
  5
9E7
  8
UNITS
  0
POLYLINE
  5
7F
  8
UNITS
 66
     1
 10
0.0
 20
0.0
 30
0.0
 70
     1
  0
VERTEX
  5
9E8
  8
UNITS
 10
550304.33742855326
 20
881484.46591063705
 30
0.0
  0
VERTEX
  5
9E9
  8
UNITS
 10
550305.33742855315
 20
881484.46591063705
 30
0.0
  0
VERTEX
  5
9EA
  8
UNITS
 10
550305.33542855328
 20
881483.46591063717
 30
0.0
  0
VERTEX
  5
9EB
  8
UNITS
 10
550304.33742855326
 20
881483.46591063717
 30
0.0
  0
SEQEND
  5
9EC
  8
UNITS
  0
POLYLINE
  5
80
  8
UNITS
 66
     1
 10
0.0
 20
0.0
 30
0.0
 70
     1
  0
VERTEX
  5
9ED
  8
UNITS
 10
550306.15380743926
 20
881486.21886151645
 30
0.0
  0
VERTEX
  5
9EE
  8
UNITS
 10
550307.15380743926
 20
881486.21886151645
 30
0.0
  0
VERTEX
  5
9EF
  8
UNITS
 10
550307.15180743928
 20
881485.21886151657
 30
0.0
  0
VERTEX
  5
9F0
  8
UNITS
 10
550306.15177190839
 20
881485.21882276866
 30
0.0
  0
SEQEND
  5
9F1
  8
UNITS
  0
POLYLINE
  5
81
  8
UNITS
 66
     1
 10
0.0
 20
0.0
 30
0.0
 70
     1
  0
VERTEX
  5
9F2
  8
UNITS
 10
550303.12024411478
 20
881486.12044507905
 30
0.0
  0
VERTEX
  5
9F3
  8
UNITS
 10
550303.12024411478
 20
881485.12044507894
 30
0.0
  0
VERTEX
  5
9F4
  8
UNITS
 10
550304.1182441148
 20
881485.12044507894
 30
0.0
  0
VERTEX
  5
9F5
  8
UNITS
 10
550304.12024411478
 20
881486.12044507905
 30
0.0
  0
SEQEND
  5
9F6
  8
UNITS
  0
POLYLINE
  5
82
  8
UNITS
 66
     1
 10
0.0
 20
0.0
 30
0.0
 70
     1
  0
VERTEX
  5
9F7
  8
UNITS
 10
550301.16659511754
 20
881483.2352271725
 30
0.0
  0
VERTEX
  5
9F8
  8
UNITS
 10
550301.16659511754
 20
881484.23522717226
 30
0.0
  0
VERTEX
  5
9F9
  8
UNITS
 10
550302.16659511765
 20
881484.23522717226
 30
0.0
  0
VERTEX
  5
9FA
  8
UNITS
 10
550302.16766576376
 20
881484.75282360427
 30
0.0
  0
VERTEX
  5
9FB
  8
UNITS
 10
550303.16766576387
 20
881484.75282360427
 30
0.0
  0
VERTEX
  5
9FC
  8
UNITS
 10
550303.16788342677
 20
881482.75278485671
 30
0.0
  0
VERTEX
  5
9FD
  8
UNITS
 10
550302.16988342674
 20
881482.75278485671
 30
0.0
  0
VERTEX
  5
9FE
  8
UNITS
 10
550302.16459511744
 20
881483.2352271725
 30
0.0
  0
SEQEND
  5
9FF
  8
UNITS
  0
POLYLINE
  5
83
  8
UNITS
 66
     1
 10
0.0
 20
0.0
 30
0.0
 70
     1
  0
VERTEX
  5
A00
  8
UNITS
 10
550385.5547355311
 20
881609.74160007865
 30
0.0
  0
VERTEX
  5
A01
  8
UNITS
 10
550386.55273553077
 20
881609.74163874774
 30
0.0
  0
VERTEX
  5
A02
  8
UNITS
 10
550386.55473553098
 20
881610.74163874786
 30
0.0
  0
VERTEX
  5
A03
  8
UNITS
 10
550385.5547355311
 20
881610.74163874786
 30
0.0
  0
SEQEND
  5
A04
  8
UNITS
  0
POLYLINE
  5
84
  8
UNITS
 66
     1
 10
0.0
 20
0.0
 30
0.0
 70
     1
  0
VERTEX
  5
A05
  8
UNITS
 10
550371.1938355309
 20
881611.73673874803
 30
0.0
  0
VERTEX
  5
A06
  8
UNITS
 10
550371.19481776538
 20
881609.73671937385
 30
0.0
  0
VERTEX
  5
A07
  8
UNITS
 10
550372.19183553092
 20
881609.73673874792
 30
0.0
  0
VERTEX
  5
A08
  8
UNITS
 10
550372.1938355309
 20
881611.73673874803
 30
0.0
  0
SEQEND
  5
A09
  8
UNITS
  0
POLYLINE
  5
85
  8
UNITS
 66
     1
 10
0.0
 20
0.0
 30
0.0
 70
     1
  0
VERTEX
  5
A0A
  8
UNITS
 10
550378.236664469
 20
881610.26806125208
 30
0.0
  0
VERTEX
  5
A0B
  8
UNITS
 10
550379.23670000001
 20
881610.26810000022
 30
0.0
  0
VERTEX
  5
A0C
  8
UNITS
 10
550379.23869999999
 20
881611.26809999975
 30
0.0
  0
VERTEX
  5
A0D
  8
UNITS
 10
550378.2387000001
 20
881611.26809999975
 30
0.0
  0
SEQEND
  5
A0E
  8
UNITS
  0
POLYLINE
  5
86
  8
UNITS
 66
     1
 10
0.0
 20
0.0
 30
0.0
 70
     1
  0
VERTEX
  5
A0F
  8
UNITS
 10
550376.34168767754
 20
881607.92623874801
 30
0.0
  0
VERTEX
  5
A10
  8
UNITS
 10
550377.32783553109
 20
881607.92623874801
 30
0.0
  0
VERTEX
  5
A11
  8
UNITS
 10
550377.325835531
 20
881606.92623874813
 30
0.0
  0
VERTEX
  5
A12
  8
UNITS
 10
550376.32783553074
 20
881606.92623874813
 30
0.0
  0
VERTEX
  5
A13
  8
UNITS
 10
550376.32783553074
 20
881607.43243820942
 30
0.0
  0
VERTEX
  5
A14
  8
UNITS
 10
550375.34169999999
 20
881607.43240000005
 30
0.0
  0
VERTEX
  5
A15
  8
UNITS
 10
550375.34169999999
 20
881607.67103899433
 30
0.0
  0
VERTEX
  5
A16
  8
UNITS
 10
550373.33530000015
 20
881607.67009999999
 30
0.0
  0
VERTEX
  5
A17
  8
UNITS
 10
550373.3373355309
 20
881610.67013874801
 30
0.0
  0
VERTEX
  5
A18
  8
UNITS
 10
550375.33530000004
 20
881610.67009999999
 30
0.0
  0
VERTEX
  5
A19
  8
UNITS
 10
550375.33533553104
 20
881609.67013874813
 30
0.0
  0
VERTEX
  5
A1A
  8
UNITS
 10
550376.33530000004
 20
881609.67010000022
 30
0.0
  0
SEQEND
  5
A1B
  8
UNITS
  0
POLYLINE
  5
87
  8
UNITS
 66
     1
 10
0.0
 20
0.0
 30
0.0
 70
     1
  0
VERTEX
  5
A1C
  8
UNITS
 10
550380.74389773048
 20
881608.63979942608
 30
0.0
  0
VERTEX
  5
A1D
  8
UNITS
 10
550380.74549999996
 20
881607.93200000003
 30
0.0
  0
VERTEX
  5
A1E
  8
UNITS
 10
550378.24753553083
 20
881607.93203874805
 30
0.0
  0
VERTEX
  5
A1F
  8
UNITS
 10
550378.24753553083
 20
881608.93203874794
 30
0.0
  0
VERTEX
  5
A20
  8
UNITS
 10
550380.74549999996
 20
881608.93200000015
 30
0.0
  0
VERTEX
  5
A21
  8
UNITS
 10
550380.74555716
 20
881609.05073901801
 30
0.0
  0
VERTEX
  5
A22
  8
UNITS
 10
550381.1510285004
 20
881609.04921762343
 30
0.0
  0
VERTEX
  5
A23
  8
UNITS
 10
550381.1510285004
 20
881608.64464722737
 30
0.0
  0
SEQEND
  5
A24
  8
UNITS
  0
POLYLINE
  5
88
  8
UNITS
 66
     1
 10
0.0
 20
0.0
 30
0.0
 70
     1
  0
VERTEX
  5
A25
  8
UNITS
 10
550379.77659999998
 20
881606.40819999995
 30
0.0
  0
VERTEX
  5
A26
  8
UNITS
 10
550379.77663553192
 20
881604.90819999995
 30
0.0
  0
VERTEX
  5
A27
  8
UNITS
 10
550380.77659999998
 20
881604.90819999995
 30
0.0
  0
VERTEX
  5
A28
  8
UNITS
 10
550380.77659999998
 20
881606.40819999995
 30
0.0
  0
SEQEND
  5
A29
  8
UNITS
  0
POLYLINE
  5
89
  8
UNITS
 66
     1
 10
0.0
 20
0.0
 30
0.0
 70
     1
  0
VERTEX
  5
A2A
  8
UNITS
 10
550374.39490139904
 20
881601.87999530195
 30
0.0
  0
VERTEX
  5
A2B
  8
UNITS
 10
550374.39490139904
 20
881600.87999530206
 30
0.0
  0
VERTEX
  5
A2C
  8
UNITS
 10
550375.39290139917
 20
881600.87999530206
 30
0.0
  0
VERTEX
  5
A2D
  8
UNITS
 10
550375.40293553087
 20
881601.48753874784
 30
0.0
  0
VERTEX
  5
A2E
  8
UNITS
 10
550376.4009355309
 20
881601.48753874784
 30
0.0
  0
VERTEX
  5
A2F
  8
UNITS
 10
550376.40090000012
 20
881602.48750000005
 30
0.0
  0
VERTEX
  5
A30
  8
UNITS
 10
550375.40293553087
 20
881602.48753874796
 30
0.0
  0
VERTEX
  5
A31
  8
UNITS
 10
550375.40293553087
 20
881601.87999530195
 30
0.0
  0
SEQEND
  5
A32
  8
UNITS
  0
POLYLINE
  5
8A
  8
UNITS
 66
     1
 10
0.0
 20
0.0
 30
0.0
 70
     1
  0
VERTEX
  5
A33
  8
UNITS
 10
550382.01450000005
 20
881601.92599999998
 30
0.0
  0
VERTEX
  5
A34
  8
UNITS
 10
550382.01653553103
 20
881600.92603874789
 30
0.0
  0
VERTEX
  5
A35
  8
UNITS
 10
550383.01453553094
 20
881600.92603874789
 30
0.0
  0
VERTEX
  5
A36
  8
UNITS
 10
550383.01450000005
 20
881601.92599999998
 30
0.0
  0
SEQEND
  5
A37
  8
UNITS
  0
POLYLINE
  5
8B
  8
UNITS
 66
     1
 10
0.0
 20
0.0
 30
0.0
 70
     1
  0
VERTEX
  5
A38
  8
UNITS
 10
550386.44663553103
 20
881596.02953874797
 30
0.0
  0
VERTEX
  5
A39
  8
UNITS
 10
550386.44460000005
 20
881595.02949999995
 30
0.0
  0
VERTEX
  5
A3A
  8
UNITS
 10
550387.44463553093
 20
881595.02953874785
 30
0.0
  0
VERTEX
  5
A3B
  8
UNITS
 10
550387.44663553091
 20
881596.02953874797
 30
0.0
  0
SEQEND
  5
A3C
  8
UNITS
  0
POLYLINE
  5
8C
  8
UNITS
 66
     1
 10
0.0
 20
0.0
 30
0.0
 70
     1
  0
VERTEX
  5
A3D
  8
UNITS
 10
550479.31919234642
 20
881656.54834636441
 30
0.0
  0
VERTEX
  5
A3E
  8
UNITS
 10
550479.84705449909
 20
881656.54834636441
 30
0.0
  0
VERTEX
  5
A3F
  8
UNITS
 10
550479.84705449909
 20
881656.05403816968
 30
0.0
  0
VERTEX
  5
A40
  8
UNITS
 10
550479.31919234642
 20
881656.05403816968
 30
0.0
  0
SEQEND
  5
A41
  8
UNITS
  0
POLYLINE
  5
8D
  8
UNITS
 66
     1
 10
0.0
 20
0.0
 30
0.0
 70
     1
  0
VERTEX
  5
A42
  8
UNITS
 10
550471.82671466097
 20
881647.61930215475
 30
0.0
  0
VERTEX
  5
A43
  8
UNITS
 10
550471.82671466097
 20
881646.61933567282
 30
0.0
  0
VERTEX
  5
A44
  8
UNITS
 10
550472.82711067703
 20
881646.61933567282
 30
0.0
  0
VERTEX
  5
A45
  8
UNITS
 10
550472.82671466097
 20
881647.61930215475
 30
0.0
  0
SEQEND
  5
A46
  8
UNITS
  0
POLYLINE
  5
8E
  8
UNITS
 66
     1
 10
0.0
 20
0.0
 30
0.0
 70
     1
  0
VERTEX
  5
A47
  8
UNITS
 10
550484.46788690507
 20
881649.21104553668
 30
0.0
  0
VERTEX
  5
A48
  8
UNITS
 10
550484.4658513742
 20
881648.21100678865
 30
0.0
  0
VERTEX
  5
A49
  8
UNITS
 10
550485.46588690509
 20
881648.21104553656
 30
0.0
  0
VERTEX
  5
A4A
  8
UNITS
 10
550485.46788690507
 20
881649.21104553668
 30
0.0
  0
SEQEND
  5
A4B
  8
UNITS
  0
POLYLINE
  5
8F
  8
UNITS
 66
     1
 10
0.0
 20
0.0
 30
0.0
 70
     1
  0
VERTEX
  5
A4C
  8
UNITS
 10
550481.90920154436
 20
881653.18987611926
 30
0.0
  0
VERTEX
  5
A4D
  8
UNITS
 10
550481.90920154436
 20
881652.18987611926
 30
0.0
  0
VERTEX
  5
A4E
  8
UNITS
 10
550482.90720154438
 20
881652.18987611926
 30
0.0
  0
VERTEX
  5
A4F
  8
UNITS
 10
550482.90920154436
 20
881653.18987611926
 30
0.0
  0
SEQEND
  5
A50
  8
UNITS
  0
POLYLINE
  5
90
  8
UNITS
 66
     1
 10
0.0
 20
0.0
 30
0.0
 70
     1
  0
VERTEX
  5
A51
  8
UNITS
 10
550479.29431729577
 20
881649.54135626613
 30
0.0
  0
VERTEX
  5
A52
  8
UNITS
 10
550480.29431729577
 20
881649.54135626613
 30
0.0
  0
VERTEX
  5
A53
  8
UNITS
 10
550480.2923172958
 20
881648.54135626613
 30
0.0
  0
VERTEX
  5
A54
  8
UNITS
 10
550479.29431729577
 20
881648.54135626613
 30
0.0
  0
SEQEND
  5
A55
  8
UNITS
  0
POLYLINE
  5
91
  8
UNITS
 66
     1
 10
0.0
 20
0.0
 30
0.0
 70
     1
  0
VERTEX
  5
A56
  8
UNITS
 10
550478.31884156528
 20
881654.13095608074
 30
0.0
  0
VERTEX
  5
A57
  8
UNITS
 10
550480.30866931798
 20
881654.13095608074
 30
0.0
  0
VERTEX
  5
A58
  8
UNITS
 10
550480.306669318
 20
881650.16336644371
 30
0.0
  0
VERTEX
  5
A59
  8
UNITS
 10
550479.30866931798
 20
881650.16336644371
 30
0.0
  0
VERTEX
  5
A5A
  8
UNITS
 10
550479.30866931798
 20
881653.13018177275
 30
0.0
  0
VERTEX
  5
A5B
  8
UNITS
 10
550478.31884156528
 20
881653.13095608063
 30
0.0
  0
SEQEND
  5
A5C
  8
UNITS
  0
POLYLINE
  5
92
  8
UNITS
 66
     1
 10
0.0
 20
0.0
 30
0.0
 70
     1
  0
VERTEX
  5
A5D
  8
UNITS
 10
550476.27828435297
 20
881656.89635272592
 30
0.0
  0
VERTEX
  5
A5E
  8
UNITS
 10
550476.27729952149
 20
881654.40961892274
 30
0.0
  0
VERTEX
  5
A5F
  8
UNITS
 10
550477.27530369291
 20
881654.40964625205
 30
0.0
  0
VERTEX
  5
A60
  8
UNITS
 10
550477.27828435297
 20
881656.89635272592
 30
0.0
  0
SEQEND
  5
A61
  8
UNITS
  0
POLYLINE
  5
93
  8
UNITS
 66
     1
 10
0.0
 20
0.0
 30
0.0
 70
     1
  0
VERTEX
  5
A62
  8
UNITS
 10
550471.78762742609
 20
881639.01205128827
 30
0.0
  0
VERTEX
  5
A63
  8
UNITS
 10
550471.78554884566
 20
881637.99086266861
 30
0.0
  0
VERTEX
  5
A64
  8
UNITS
 10
550472.80673410092
 20
881637.99086266861
 30
0.0
  0
VERTEX
  5
A65
  8
UNITS
 10
550472.80877647817
 20
881639.01205128827
 30
0.0
  0
SEQEND
  5
A66
  8
UNITS
  0
POLYLINE
  5
94
  8
UNITS
 66
     1
 10
0.0
 20
0.0
 30
0.0
 70
     1
  0
VERTEX
  5
A67
  8
UNITS
 10
550465.46372126695
 20
881640.10426844272
 30
0.0
  0
VERTEX
  5
A68
  8
UNITS
 10
550466.46372126706
 20
881640.10426844272
 30
0.0
  0
VERTEX
  5
A69
  8
UNITS
 10
550466.4617212672
 20
881639.10426844272
 30
0.0
  0
VERTEX
  5
A6A
  8
UNITS
 10
550465.46372126695
 20
881639.10426844272
 30
0.0
  0
SEQEND
  5
A6B
  8
UNITS
  0
POLYLINE
  5
95
  8
UNITS
 66
     1
 10
0.0
 20
0.0
 30
0.0
 70
     1
  0
VERTEX
  5
A6C
  8
UNITS
 10
550466.78101333161
 20
881642.09675896319
 30
0.0
  0
VERTEX
  5
A6D
  8
UNITS
 10
550467.78101333161
 20
881642.09675896319
 30
0.0
  0
VERTEX
  5
A6E
  8
UNITS
 10
550467.77901333175
 20
881641.09675896296
 30
0.0
  0
VERTEX
  5
A6F
  8
UNITS
 10
550466.78101333161
 20
881641.09675896296
 30
0.0
  0
SEQEND
  5
A70
  8
UNITS
  0
POLYLINE
  5
96
  8
UNITS
 66
     1
 10
0.0
 20
0.0
 30
0.0
 70
     1
  0
VERTEX
  5
A71
  8
UNITS
 10
550466.55563872762
 20
881643.70940416632
 30
0.0
  0
VERTEX
  5
A72
  8
UNITS
 10
550466.55559999985
 20
881644.70940000017
 30
0.0
  0
VERTEX
  5
A73
  8
UNITS
 10
550467.55559999996
 20
881644.70940000017
 30
0.0
  0
VERTEX
  5
A74
  8
UNITS
 10
550467.5574929805
 20
881644.51016617974
 30
0.0
  0
VERTEX
  5
A75
  8
UNITS
 10
550468.5574929805
 20
881644.51016617974
 30
0.0
  0
VERTEX
  5
A76
  8
UNITS
 10
550468.55549298052
 20
881643.51016617927
 30
0.0
  0
VERTEX
  5
A77
  8
UNITS
 10
550467.55559999996
 20
881643.50939999998
 30
0.0
  0
VERTEX
  5
A78
  8
UNITS
 10
550467.55559999996
 20
881643.70940000017
 30
0.0
  0
SEQEND
  5
A79
  8
UNITS
  0
POLYLINE
  5
97
  8
UNITS
 66
     1
 10
0.0
 20
0.0
 30
0.0
 70
     1
  0
VERTEX
  5
A7A
  8
UNITS
 10
550464.02410736366
 20
881643.18229007209
 30
0.0
  0
VERTEX
  5
A7B
  8
UNITS
 10
550464.02410736366
 20
881642.18229007209
 30
0.0
  0
VERTEX
  5
A7C
  8
UNITS
 10
550464.52208959847
 20
881642.18227069825
 30
0.0
  0
VERTEX
  5
A7D
  8
UNITS
 10
550464.52209999994
 20
881641.70920000004
 30
0.0
  0
VERTEX
  5
A7E
  8
UNITS
 10
550466.55501779681
 20
881641.7086725072
 30
0.0
  0
VERTEX
  5
A7F
  8
UNITS
 10
550466.55421058158
 20
881643.70938605827
 30
0.0
  0
VERTEX
  5
A80
  8
UNITS
 10
550465.55563872785
 20
881643.70940416632
 30
0.0
  0
VERTEX
  5
A81
  8
UNITS
 10
550465.55563872785
 20
881642.70940416621
 30
0.0
  0
VERTEX
  5
A82
  8
UNITS
 10
550465.02258762263
 20
881642.70856959454
 30
0.0
  0
VERTEX
  5
A83
  8
UNITS
 10
550465.02410736377
 20
881643.18229007209
 30
0.0
  0
SEQEND
  5
A84
  8
UNITS
  0
POLYLINE
  5
98
  8
UNITS
 66
     1
 10
0.0
 20
0.0
 30
0.0
 70
     1
  0
VERTEX
  5
A85
  8
UNITS
 10
550462.36508151412
 20
881644.59791646083
 30
0.0
  0
VERTEX
  5
A86
  8
UNITS
 10
550463.36308151425
 20
881644.59795513016
 30
0.0
  0
VERTEX
  5
A87
  8
UNITS
 10
550463.36309999996
 20
881645.598
 30
0.0
  0
VERTEX
  5
A88
  8
UNITS
 10
550462.36508151412
 20
881645.59795513016
 30
0.0
  0
SEQEND
  5
A89
  8
UNITS
  0
POLYLINE
  5
99
  8
UNITS
 66
     1
 10
0.0
 20
0.0
 30
0.0
 70
     1
  0
VERTEX
  5
A8A
  8
UNITS
 10
550461.77423800714
 20
881643.65038702916
 30
0.0
  0
VERTEX
  5
A8B
  8
UNITS
 10
550461.77423800714
 20
881642.6503870294
 30
0.0
  0
VERTEX
  5
A8C
  8
UNITS
 10
550460.7698034764
 20
881642.64709415205
 30
0.0
  0
VERTEX
  5
A8D
  8
UNITS
 10
550460.7698034764
 20
881641.64709415182
 30
0.0
  0
VERTEX
  5
A8E
  8
UNITS
 10
550462.77223800716
 20
881641.64709415182
 30
0.0
  0
VERTEX
  5
A8F
  8
UNITS
 10
550462.77423800714
 20
881643.65038702916
 30
0.0
  0
SEQEND
  5
A90
  8
UNITS
  0
POLYLINE
  5
9A
  8
UNITS
 66
     1
 10
0.0
 20
0.0
 30
0.0
 70
     1
  0
VERTEX
  5
A91
  8
UNITS
 10
550457.33530000015
 20
881643.56350000028
 30
0.0
  0
VERTEX
  5
A92
  8
UNITS
 10
550457.83527977683
 20
881643.56350750453
 30
0.0
  0
VERTEX
  5
A93
  8
UNITS
 10
550457.83527977683
 20
881644.06350750453
 30
0.0
  0
VERTEX
  5
A94
  8
UNITS
 10
550458.83527977683
 20
881644.06350750453
 30
0.0
  0
VERTEX
  5
A95
  8
UNITS
 10
550458.83327977685
 20
881643.06350750406
 30
0.0
  0
VERTEX
  5
A96
  8
UNITS
 10
550457.83530000015
 20
881643.06350000005
 30
0.0
  0
VERTEX
  5
A97
  8
UNITS
 10
550457.83324424585
 20
881642.56349999993
 30
0.0
  0
VERTEX
  5
A98
  8
UNITS
 10
550457.33530000015
 20
881642.56349999993
 30
0.0
  0
SEQEND
  5
A99
  8
UNITS
  0
POLYLINE
  5
9B
  8
UNITS
 66
     1
 10
0.0
 20
0.0
 30
0.0
 70
     1
  0
VERTEX
  5
A9A
  8
UNITS
 10
550454.84167115774
 20
881646.15207547985
 30
0.0
  0
VERTEX
  5
A9B
  8
UNITS
 10
550455.83967115753
 20
881646.15207547985
 30
0.0
  0
VERTEX
  5
A9C
  8
UNITS
 10
550455.84167115763
 20
881647.15207547985
 30
0.0
  0
VERTEX
  5
A9D
  8
UNITS
 10
550454.84167115774
 20
881647.15207547985
 30
0.0
  0
SEQEND
  5
A9E
  8
UNITS
  0
POLYLINE
  5
9C
  8
UNITS
 66
     1
 10
0.0
 20
0.0
 30
0.0
 70
     1
  0
VERTEX
  5
A9F
  8
UNITS
 10
550510.68544727645
 20
881589.98331701464
 30
0.0
  0
VERTEX
  5
AA0
  8
UNITS
 10
550510.69391237653
 20
881590.99382335285
 30
0.0
  0
VERTEX
  5
AA1
  8
UNITS
 10
550509.68974552175
 20
881590.99687761534
 30
0.0
  0
VERTEX
  5
AA2
  8
UNITS
 10
550509.69080330944
 20
881589.98754515254
 30
0.0
  0
SEQEND
  5
AA3
  8
UNITS
  0
POLYLINE
  5
9D
  8
UNITS
 66
     1
 10
0.0
 20
0.0
 30
0.0
 70
     1
  0
VERTEX
  5
AA4
  8
UNITS
 10
550500.09623271134
 20
881587.57020069589
 30
0.0
  0
VERTEX
  5
AA5
  8
UNITS
 10
550501.27225673001
 20
881587.56755008525
 30
0.0
  0
VERTEX
  5
AA6
  8
UNITS
 10
550501.26285591151
 20
881588.6101142664
 30
0.0
  0
VERTEX
  5
AA7
  8
UNITS
 10
550500.09714650863
 20
881588.6101142664
 30
0.0
  0
SEQEND
  5
AA8
  8
UNITS
  0
POLYLINE
  5
9E
  8
UNITS
 66
     1
 10
0.0
 20
0.0
 30
0.0
 70
     1
  0
VERTEX
  5
AA9
  8
UNITS
 10
550512.59046234784
 20
881581.73191867245
 30
0.0
  0
VERTEX
  5
AAA
  8
UNITS
 10
550513.59379796346
 20
881581.73191867245
 30
0.0
  0
VERTEX
  5
AAB
  8
UNITS
 10
550513.59379796346
 20
881582.73419537349
 30
0.0
  0
VERTEX
  5
AAC
  8
UNITS
 10
550512.59046234784
 20
881582.73419537349
 30
0.0
  0
SEQEND
  5
AAD
  8
UNITS
  0
POLYLINE
  5
9F
  8
UNITS
 66
     1
 10
0.0
 20
0.0
 30
0.0
 70
     1
  0
VERTEX
  5
AAE
  8
UNITS
 10
550510.57154684351
 20
881576.81370371231
 30
0.0
  0
VERTEX
  5
AAF
  8
UNITS
 10
550511.982338898
 20
881576.79830147105
 30
0.0
  0
VERTEX
  5
AB0
  8
UNITS
 10
550511.982338898
 20
881577.81869848433
 30
0.0
  0
VERTEX
  5
AB1
  8
UNITS
 10
550510.98784596368
 20
881577.81869848433
 30
0.0
  0
VERTEX
  5
AB2
  8
UNITS
 10
550510.98784596368
 20
881577.32197695412
 30
0.0
  0
VERTEX
  5
AB3
  8
UNITS
 10
550510.57154684351
 20
881577.32197695412
 30
0.0
  0
SEQEND
  5
AB4
  8
UNITS
  0
POLYLINE
  5
A0
  8
UNITS
 66
     1
 10
0.0
 20
0.0
 30
0.0
 70
     1
  0
VERTEX
  5
AB5
  8
UNITS
 10
550504.21398634801
 20
881577.47384829412
 30
0.0
  0
VERTEX
  5
AB6
  8
UNITS
 10
550505.22381876246
 20
881577.47384829412
 30
0.0
  0
VERTEX
  5
AB7
  8
UNITS
 10
550505.22381876246
 20
881578.48339333327
 30
0.0
  0
VERTEX
  5
AB8
  8
UNITS
 10
550504.21398634801
 20
881578.48339333327
 30
0.0
  0
SEQEND
  5
AB9
  8
UNITS
  0
POLYLINE
  5
A1
  8
UNITS
 66
     1
 10
0.0
 20
0.0
 30
0.0
 70
     1
  0
VERTEX
  5
ABA
  8
UNITS
 10
550427.67793455475
 20
881457.23330464517
 30
0.0
  0
VERTEX
  5
ABB
  8
UNITS
 10
550426.68038132053
 20
881457.23330464517
 30
0.0
  0
VERTEX
  5
ABC
  8
UNITS
 10
550426.68038132053
 20
881456.73466964334
 30
0.0
  0
VERTEX
  5
ABD
  8
UNITS
 10
550425.68282808654
 20
881456.73466964334
 30
0.0
  0
VERTEX
  5
ABE
  8
UNITS
 10
550425.68282808654
 20
881455.73739664885
 30
0.0
  0
VERTEX
  5
ABF
  8
UNITS
 10
550423.68463723001
 20
881455.73689721385
 30
0.0
  0
VERTEX
  5
AC0
  8
UNITS
 10
550423.68353282753
 20
881456.73514066718
 30
0.0
  0
VERTEX
  5
AC1
  8
UNITS
 10
550422.68656565051
 20
881456.73514066718
 30
0.0
  0
VERTEX
  5
AC2
  8
UNITS
 10
550422.68656565051
 20
881455.73379742715
 30
0.0
  0
VERTEX
  5
AC3
  8
UNITS
 10
550423.68475630926
 20
881455.73566208431
 30
0.0
  0
VERTEX
  5
AC4
  8
UNITS
 10
550423.6864864619
 20
881454.73534911568
 30
0.0
  0
VERTEX
  5
AC5
  8
UNITS
 10
550425.68569533003
 20
881454.73592481157
 30
0.0
  0
VERTEX
  5
AC6
  8
UNITS
 10
550425.68569533003
 20
881452.73665961076
 30
0.0
  0
VERTEX
  5
AC7
  8
UNITS
 10
550426.69251573784
 20
881452.73626933375
 30
0.0
  0
VERTEX
  5
AC8
  8
UNITS
 10
550426.69251573784
 20
881452.240560662
 30
0.0
  0
VERTEX
  5
AC9
  8
UNITS
 10
550427.69065035926
 20
881452.240560662
 30
0.0
  0
VERTEX
  5
ACA
  8
UNITS
 10
550427.68421073584
 20
881453.23841533356
 30
0.0
  0
VERTEX
  5
ACB
  8
UNITS
 10
550426.68607611454
 20
881453.23841533356
 30
0.0
  0
VERTEX
  5
ACC
  8
UNITS
 10
550426.68607611454
 20
881455.23412168655
 30
0.0
  0
VERTEX
  5
ACD
  8
UNITS
 10
550427.68421073584
 20
881455.23412168655
 30
0.0
  0
SEQEND
  5
ACE
  8
UNITS
  0
POLYLINE
  5
A2
  8
UNITS
 66
     1
 10
0.0
 20
0.0
 30
0.0
 70
     1
  0
VERTEX
  5
ACF
  8
UNITS
 10
550442.37910210248
 20
881457.61209917325
 30
0.0
  0
VERTEX
  5
AD0
  8
UNITS
 10
550442.38213745796
 20
881456.6134654429
 30
0.0
  0
VERTEX
  5
AD1
  8
UNITS
 10
550443.38105426705
 20
881456.6134654429
 30
0.0
  0
VERTEX
  5
AD2
  8
UNITS
 10
550443.37801657675
 20
881457.60906368506
 30
0.0
  0
SEQEND
  5
AD3
  8
UNITS
  0
POLYLINE
  5
A3
  8
UNITS
 66
     1
 10
0.0
 20
0.0
 30
0.0
 70
     1
  0
VERTEX
  5
AD4
  8
UNITS
 10
550478.99425902858
 20
881454.24729794869
 30
0.0
  0
VERTEX
  5
AD5
  8
UNITS
 10
550479.77104385407
 20
881453.75636830181
 30
0.0
  0
VERTEX
  5
AD6
  8
UNITS
 10
550480.30250191002
 20
881454.5823126632
 30
0.0
  0
VERTEX
  5
AD7
  8
UNITS
 10
550479.55362834572
 20
881455.084642587
 30
0.0
  0
SEQEND
  5
AD8
  8
UNITS
  0
POLYLINE
  5
A4
  8
UNITS
 66
     1
 10
0.0
 20
0.0
 30
0.0
 70
     1
  0
VERTEX
  5
AD9
  8
UNITS
 10
550479.55677577585
 20
881449.70691646496
 30
0.0
  0
VERTEX
  5
ADA
  8
UNITS
 10
550480.33664965921
 20
881449.21366609004
 30
0.0
  0
VERTEX
  5
ADB
  8
UNITS
 10
550480.86982852826
 20
881450.03309835726
 30
0.0
  0
VERTEX
  5
ADC
  8
UNITS
 10
550480.12178618438
 20
881450.53430529975
 30
0.0
  0
SEQEND
  5
ADD
  8
UNITS
  0
POLYLINE
  5
A5
  8
UNITS
 66
     1
 10
0.0
 20
0.0
 30
0.0
 70
     1
  0
VERTEX
  5
ADE
  8
UNITS
 10
550473.24476106057
 20
881452.08716981986
 30
0.0
  0
VERTEX
  5
ADF
  8
UNITS
 10
550474.26977959217
 20
881450.19672313076
 30
0.0
  0
VERTEX
  5
AE0
  8
UNITS
 10
550475.14752501063
 20
881450.72086520505
 30
0.0
  0
VERTEX
  5
AE1
  8
UNITS
 10
550474.14607017732
 20
881452.58775471186
 30
0.0
  0
SEQEND
  5
AE2
  8
UNITS
  0
TEXT
  5
A6
  8
UNIT_LABELS
 10
550500.38490175467
 20
881587.81560238218
 30
0.0
 40
0.35
  1
B5
  0
TEXT
  5
A8
  8
UNIT_LABELS
 10
550512.79954302439
 20
881581.99197650969
 30
0.0
 40
0.35
  1
B4
  0
TEXT
  5
A9
  8
UNIT_LABELS
 10
550509.94786157471
 20
881590.27282853925
 30
0.0
 40
0.35
  1
B3
  0
TEXT
  5
AA
  8
UNIT_LABELS
 10
550511.17703578086
 20
881576.97923568764
 30
0.0
 40
0.35
  1
B2
  0
TEXT
  5
AB
  8
UNIT_LABELS
 10
550504.52845151059
 20
881577.76551683585
 30
0.0
 40
0.35
  1
B1
  0
TEXT
  5
AC
  8
UNIT_LABELS
 10
550425.57875508652
 20
881455.15957877052
 30
0.0
 40
0.35
  1
A5
  0
TEXT
  5
AD
  8
UNIT_LABELS
 10
550442.73425737268
 20
881456.91640566417
 30
0.0
 40
0.35
  1
A4
  0
TEXT
  5
AE
  8
UNIT_LABELS
 10
550479.45435821207
 20
881454.18745696358
 30
0.0
 40
0.35
  1
A3
  0
TEXT
  5
AF
  8
UNIT_LABELS
 10
550479.95573356049
 20
881449.6543501839
 30
0.0
 40
0.35
  1
A2
  0
TEXT
  5
B0
  8
UNIT_LABELS
 10
550474.08098515123
 20
881451.07956270804
 30
0.0
 40
0.35
  1
A1
  0
TEXT
  5
B1
  8
MIDDEN_LABELS
 10
550387.2193017957
 20
881611.40455530828
 30
0.0
 40
0.5
  1
Midden
  0
TEXT
  5
B2
  8
MIDDEN_LABELS
 10
550387.97109867644
 20
881594.67717251566
 30
0.0
 40
0.5
  1
Midden
  0
TEXT
  5
B3
  8
UNIT_LABELS
 10
550306.2702388271
 20
881477.28329510475
 30
0.0
 40
0.5367407371481401
  1
E8
  0
TEXT
  5
B4
  8
UNIT_LABELS
 10
550302.96613497112
 20
881481.13011224498
 30
0.0
 40
0.4004323988633186
  1
E10
  0
TEXT
  5
B5
  8
UNIT_LABELS
 10
550303.13554824074
 20
881478.31225836184
 30
0.0
 40
0.5367407371481401
  1
E9
  0
TEXT
  5
B6
  8
UNIT_LABELS
 10
550307.11396800762
 20
881478.64746835525
 30
0.0
 40
0.5367407371481401
  1
E7
  0
TEXT
  5
B7
  8
UNIT_LABELS
 10
550307.90879644768
 20
881480.72562384361
 30
0.0
 40
0.5367407371481401
  1
E6
  0
TEXT
  5
B8
  8
UNIT_LABELS
 10
550303.3071711458
 20
881485.30958304589
 30
0.0
 40
0.4089228443014478
  1
E2
  0
TEXT
  5
B9
  8
UNIT_LABELS
 10
550307.52280848997
 20
881484.49376951065
 30
0.0
 40
0.5668990490315562
  1
E5
  0
TEXT
  5
BA
  8
UNIT_LABELS
 10
550306.3047339886
 20
881485.32844425249
 30
0.0
 40
0.4894560925637606
  1
E4
  0
TEXT
  5
BB
  8
UNIT_LABELS
 10
550304.4028581056
 20
881483.55073096696
 30
0.0
 40
0.5367407371481401
  1
E3
  0
TEXT
  5
BC
  8
UNIT_LABELS
 10
550302.01024034154
 20
881483.40648399235
 30
0.0
 40
0.6299437825426713
  1
E1
  0
TEXT
  5
BD
  8
UNIT_LABELS
 10
550482.00152570638
 20
881652.24356729561
 30
0.0
 40
0.3464271899457337
  1
C14
  0
TEXT
  5
BE
  8
UNIT_LABELS
 10
550484.51906735601
 20
881648.31763128052
 30
0.0
 40
0.3270168242963204
  1
C15
  0
TEXT
  5
BF
  8
UNIT_LABELS
 10
550479.28804060631
 20
881648.93570078001
 30
0.0
 40
0.3813523419486783
  1
C13
  0
TEXT
  5
C0
  8
UNIT_LABELS
 10
550476.31525113271
 20
881654.46572675696
 30
0.0
 40
0.3789371710754824
  1
C11
  0
TEXT
  5
C1
  8
UNIT_LABELS
 10
550479.32800339651
 20
881650.5681629905
 30
0.0
 40
0.3813523419486783
  1
C12
  0
TEXT
  5
C2
  8
UNIT_LABELS
 10
550471.80760643282
 20
881647.01657869364
 30
0.0
 40
0.3373193400598677
  1
C10
  0
TEXT
  5
C3
  8
UNIT_LABELS
 10
550471.91199306922
 20
881638.32737806079
 30
0.0
 40
0.4535621383697463
  1
C9
  0
TEXT
  5
C4
  8
UNIT_LABELS
 10
550465.61770380998
 20
881639.41844922467
 30
0.0
 40
0.4535621383697463
  1
C8
  0
TEXT
  5
C5
  8
UNIT_LABELS
 10
550466.88992198335
 20
881641.42623688432
 30
0.0
 40
0.4535621383697463
  1
C7
  0
TEXT
  5
C6
  8
UNIT_LABELS
 10
550467.30095118145
 20
881643.90961677034
 30
0.0
 40
0.4535621383697463
  1
C6
  0
TEXT
  5
C7
  8
UNIT_LABELS
 10
550465.16753571085
 20
881641.93464654137
 30
0.0
 40
0.4535621383697463
  1
C5
  0
TEXT
  5
C8
  8
UNIT_LABELS
 10
550462.42683895596
 20
881644.86776768614
 30
0.0
 40
0.4535621383697463
  1
C4
  0
TEXT
  5
C9
  8
UNIT_LABELS
 10
550461.72222222888
 20
881641.97375273448
 30
0.0
 40
0.4535621383697463
  1
C3
  0
TEXT
  5
CA
  8
UNIT_LABELS
 10
550458.00341080059
 20
881643.38165219547
 30
0.0
 40
0.4535621383697463
  1
C2
  0
TEXT
  5
CB
  8
UNIT_LABELS
 10
550454.8751615301
 20
881646.40806272463
 30
0.0
 40
0.4535621383697463
  1
C1
  0
TEXT
  5
CC
  8
UNIT_LABELS
 10
550386.51613744406
 20
881595.29913235037
 30
0.0
 40
0.508907342423138
  1
D1
  0
TEXT
  5
CD
  8
UNIT_LABELS
 10
550382.14968247944
 20
881601.19477442291
 30
0.0
 40
0.508907342423138
  1
D2
  0
TEXT
  5
CE
  8
UNIT_LABELS
 10
550380.02780006418
 20
881605.37289113307
 30
0.0
 40
0.3561159333532327
  1
D4
  0
TEXT
  5
CF
  8
UNIT_LABELS
 10
550385.63904490974
 20
881610.14931653568
 30
0.0
 40
0.508907342423138
  1
D5
  0
TEXT
  5
D0
  8
UNIT_LABELS
 10
550378.26870634255
 20
881610.83149789309
 30
0.0
 40
0.3561159333532327
  1
D7
  0
TEXT
  5
D1
  8
UNIT_LABELS
 10
550375.43369507242
 20
881601.62456726015
 30
0.0
 40
0.508907342423138
  1
D3
  0
TEXT
  5
D2
  8
UNIT_LABELS
 10
550380.02702750207
 20
881608.0559383072
 30
0.0
 40
0.3561159333532327
  1
D6
  0
TEXT
  5
D3
  8
UNIT_LABELS
 10
550374.23289727932
 20
881608.0559383072
 30
0.0
 40
0.508907342423138
  1
D8
  0
TEXT
  5
D4
  8
UNIT_LABELS
 10
550371.21400058374
 20
881610.13004581409
 30
0.0
 40
0.508907342423138
  1
D9
  0
TEXT
  5
D5
  8
UNIT_LABELS
 10
550533.48633404286
 20
881290.14342764055
 30
0.0
 40
0.3901496680295801
  1
F11
  0
TEXT
  5
D6
  8
UNIT_LABELS
 10
550534.32325573429
 20
881292.87588770606
 30
0.0
 40
0.3901496680295801
  1
F10
  0
TEXT
  5
D7
  8
UNIT_LABELS
 10
550531.41464034619
 20
881293.25617134653
 30
0.0
 40
0.5
  1
F9
  0
TEXT
  5
D8
  8
UNIT_LABELS
 10
550530.2805026843
 20
881290.68135664123
 30
0.0
 40
0.5
  1
F8
  0
TEXT
  5
D9
  8
UNIT_LABELS
 10
550527.54825287464
 20
881288.00354614144
 30
0.0
 40
0.5
  1
F7
  0
TEXT
  5
DA
  8
UNIT_LABELS
 10
550527.20319307211
 20
881291.45558493352
 30
0.0
 40
0.5
  1
F6
  0
TEXT
  5
DB
  8
UNIT_LABELS
 10
550538.69748020917
 20
881300.97208956117
 30
0.0
 40
0.5
  1
F5
  0
TEXT
  5
DC
  8
UNIT_LABELS
 10
550530.40606673656
 20
881304.05177603895
 30
0.0
 40
0.5
  1
F4
  0
TEXT
  5
DD
  8
UNIT_LABELS
 10
550523.56247635919
 20
881302.94251993066
 30
0.0
 40
0.5
  1
F3
  0
TEXT
  5
DE
  8
UNIT_LABELS
 10
550520.97082033928
 20
881297.68694709614
 30
0.0
 40
0.5
  1
F2
  0
TEXT
  5
DF
  8
UNIT_LABELS
 10
550517.51822500769
 20
881303.14758241514
 30
0.0
 40
0.5
  1
F1
  0
POLYLINE
  5
E0
  8
SITE_BOUNDARY
 66
     1
 10
0.0
 20
0.0
 30
0.0
 70
     1
  0
VERTEX
  5
AE3
  8
SITE_BOUNDARY
 10
550332.56241679215
 20
881320.07732665562
 30
0.0
  0
VERTEX
  5
AE4
  8
SITE_BOUNDARY
 10
550325.56241679203
 20
881325.07732677436
 30
0.0
  0
VERTEX
  5
AE5
  8
SITE_BOUNDARY
 10
550258.56241679192
 20
881328.07732677471
 30
0.0
  0
VERTEX
  5
AE6
  8
SITE_BOUNDARY
 10
550251.56241679192
 20
881334.07732677448
 30
0.0
  0
VERTEX
  5
AE7
  8
SITE_BOUNDARY
 10
550181.56241679192
 20
881330.0773267746
 30
0.0
  0
VERTEX
  5
AE8
  8
SITE_BOUNDARY
 10
550051.56241679203
 20
881402.07732677471
 30
0.0
  0
VERTEX
  5
AE9
  8
SITE_BOUNDARY
 10
550042.56241691113
 20
881517.07732677448
 30
0.0
  0
VERTEX
  5
AEA
  8
SITE_BOUNDARY
 10
550116.56241679192
 20
881578.07732677448
 30
0.0
  0
VERTEX
  5
AEB
  8
SITE_BOUNDARY
 10
550129.56241679192
 20
881644.07732677448
 30
0.0
  0
VERTEX
  5
AEC
  8
SITE_BOUNDARY
 10
550129.56241679192
 20
881644.07732677448
 30
0.0
  0
VERTEX
  5
AED
  8
SITE_BOUNDARY
 10
550155.56241679192
 20
881702.07732677471
 30
0.0
  0
VERTEX
  5
AEE
  8
SITE_BOUNDARY
 10
550205.56241679192
 20
881751.07732677471
 30
0.0
  0
VERTEX
  5
AEF
  8
SITE_BOUNDARY
 10
550292.56241691124
 20
881820.07732665516
 30
0.0
  0
VERTEX
  5
AF0
  8
SITE_BOUNDARY
 10
550354.56241679192
 20
881853.07732677448
 30
0.0
  0
VERTEX
  5
AF1
  8
SITE_BOUNDARY
 10
550370.37388432026
 20
881871.13999974728
 30
0.0
  0
VERTEX
  5
AF2
  8
SITE_BOUNDARY
 10
550396.82469534874
 20
881879.40192747128
 30
0.0
  0
VERTEX
  5
AF3
  8
SITE_BOUNDARY
 10
550431.54138481617
 20
881869.48761332047
 30
0.0
  0
VERTEX
  5
AF4
  8
SITE_BOUNDARY
 10
550449.72631752491
 20
881861.22568333172
 30
0.0
  0
VERTEX
  5
AF5
  8
SITE_BOUNDARY
 10
550496.3788330555
 20
881854.61616635311
 30
0.0
  0
VERTEX
  5
AF6
  8
SITE_BOUNDARY
 10
550527.78918337822
 20
881851.3114087584
 30
0.0
  0
VERTEX
  5
AF7
  8
SITE_BOUNDARY
 10
550598.51213431358
 20
881848.00659847283
 30
0.0
  0
VERTEX
  5
AF8
  8
SITE_BOUNDARY
 10
550636.53517591965
 20
881841.39705502987
 30
0.0
  0
VERTEX
  5
AF9
  8
SITE_BOUNDARY
 10
550667.56241691124
 20
881813.07732677436
 30
0.0
  0
VERTEX
  5
AFA
  8
SITE_BOUNDARY
 10
550675.56241679192
 20
881775.07732677448
 30
0.0
  0
VERTEX
  5
AFB
  8
SITE_BOUNDARY
 10
550664.56241679192
 20
881718.07732677483
 30
0.0
  0
VERTEX
  5
AFC
  8
SITE_BOUNDARY
 10
550654.56241679203
 20
881674.07732677436
 30
0.0
  0
VERTEX
  5
AFD
  8
SITE_BOUNDARY
 10
550647.56241679192
 20
881622.0773267746
 30
0.0
  0
VERTEX
  5
AFE
  8
SITE_BOUNDARY
 10
550651.56241679215
 20
881597.07732677448
 30
0.0
  0
VERTEX
  5
AFF
  8
SITE_BOUNDARY
 10
550659.56241679192
 20
881595.07732677471
 30
0.0
  0
VERTEX
  5
B00
  8
SITE_BOUNDARY
 10
550708.56241679203
 20
881561.07732677483
 30
0.0
  0
VERTEX
  5
B01
  8
SITE_BOUNDARY
 10
550715.56241679203
 20
881422.07732677471
 30
0.0
  0
VERTEX
  5
B02
  8
SITE_BOUNDARY
 10
550695.56241679192
 20
881421.07732677448
 30
0.0
  0
VERTEX
  5
B03
  8
SITE_BOUNDARY
 10
550702.56241679192
 20
881409.07732677448
 30
0.0
  0
VERTEX
  5
B04
  8
SITE_BOUNDARY
 10
550710.56241679215
 20
881348.0773267746
 30
0.0
  0
VERTEX
  5
B05
  8
SITE_BOUNDARY
 10
550703.56241679192
 20
881263.07732677471
 30
0.0
  0
VERTEX
  5
B06
  8
SITE_BOUNDARY
 10
550588.56241679215
 20
881279.0773267746
 30
0.0
  0
VERTEX
  5
B07
  8
SITE_BOUNDARY
 10
550542.55774617207
 20
881290.04564750195
 30
0.0
  0
VERTEX
  5
B08
  8
SITE_BOUNDARY
 10
550541.14160835755
 20
881237.5775374173
 30
0.0
  0
VERTEX
  5
B09
  8
SITE_BOUNDARY
 10
550541.14160835755
 20
881237.5775374173
 30
0.0
  0
VERTEX
  5
B0A
  8
SITE_BOUNDARY
 10
550522.72532522678
 20
881237.16930222511
 30
0.0
  0
VERTEX
  5
B0B
  8
SITE_BOUNDARY
 10
550448.35374319553
 20
881248.73600268376
 30
0.0
  0
VERTEX
  5
B0C
  8
SITE_BOUNDARY
 10
550430.17402136326
 20
881252.04077458393
 30
0.0
  0
VERTEX
  5
B0D
  8
SITE_BOUNDARY
 10
550329.3592107296
 20
881256.99793124187
 30
0.0
  0
SEQEND
  5
B0E
  8
SITE_BOUNDARY
  0
TEXT
  5
E3
  8
MIDDEN_LABELS
 10
550454.91304379189
 20
881648.19752538775
 30
0.0
 40
0.5
  1
Midden
  0
TEXT
  5
E4
  8
MIDDEN_LABELS
 10
550481.90377497906
 20
881645.75411100802
 30
0.0
 40
0.5
  1
Midden
  0
TEXT
  5
E5
  8
MIDDEN_LABELS
 10
550473.92439536355
 20
881644.24498067296
 30
0.0
 40
0.5
  1
Midden
  0
TEXT
  5
E6
  8
MIDDEN_LABELS
 10
550472.07283809665
 20
881634.87698252092
 30
0.0
 40
0.5
  1
Midden
  0
ENDSEC
  0
EOF
