  0
SECTION
  2
HEADER
  9
$ACADVER
  1
AC1009
  9
$INSBASE
 10
0.0
 20
0.0
 30
0.0
  9
$EXTMIN
 10
719409.74073623738
 20
3413692.6531089768
 30
0.0066225165562914
  9
$EXTMAX
 10
730659.53900161386
 20
3423794.593125009
 30
11.699999999999999
  9
$LIMMIN
 10
0.0
 20
0.0
  9
$LIMMAX
 10
12.0
 20
9.0
  9
$ORTHOMODE
 70
     0
  9
$REGENMODE
 70
     1
  9
$FILLMODE
 70
     1
  9
$QTEXTMODE
 70
     0
  9
$MIRRTEXT
 70
     0
  9
$DRAGMODE
 70
     2
  9
$LTSCALE
 40
1.0
  9
$OSMODE
 70
    37
  9
$ATTMODE
 70
     1
  9
$TEXTSIZE
 40
0.2
  9
$TRACEWID
 40
0.05
  9
$TEXTSTYLE
  7
STANDARD
  9
$CLAYER
  8
YOUZILING
  9
$CELTYPE
  6
BYLAYER
  9
$CECOLOR
 62
   256
  9
$DIMSCALE
 40
1.0
  9
$DIMASZ
 40
0.18
  9
$DIMEXO
 40
0.0625
  9
$DIMDLI
 40
0.38
  9
$DIMRND
 40
0.0
  9
$DIMDLE
 40
0.0
  9
$DIMEXE
 40
0.18
  9
$DIMTP
 40
0.0
  9
$DIMTM
 40
0.0
  9
$DIMTXT
 40
0.18
  9
$DIMCEN
 40
0.09
  9
$DIMTSZ
 40
0.0
  9
$DIMTOL
 70
     0
  9
$DIMLIM
 70
     0
  9
$DIMTIH
 70
     1
  9
$DIMTOH
 70
     1
  9
$DIMSE1
 70
     0
  9
$DIMSE2
 70
     0
  9
$DIMTAD
 70
     0
  9
$DIMZIN
 70
     0
  9
$DIMBLK
  1

  9
$DIMASO
 70
     1
  9
$DIMSHO
 70
     1
  9
$DIMPOST
  1

  9
$DIMAPOST
  1

  9
$DIMALT
 70
     0
  9
$DIMALTD
 70
     2
  9
$DIMALTF
 40
25.399999999999999
  9
$DIMLFAC
 40
1.0
  9
$DIMTOFL
 70
     0
  9
$DIMTVP
 40
0.0
  9
$DIMTIX
 70
     0
  9
$DIMSOXD
 70
     0
  9
$DIMSAH
 70
     0
  9
$DIMBLK1
  1

  9
$DIMBLK2
  1

  9
$DIMSTYLE
  2
STANDARD
  9
$DIMCLRD
 70
     0
  9
$DIMCLRE
 70
     0
  9
$DIMCLRT
 70
     0
  9
$DIMTFAC
 40
1.0
  9
$DIMGAP
 40
0.09
  9
$LUNITS
 70
     2
  9
$LUPREC
 70
     4
  9
$SKETCHINC
 40
0.1
  9
$FILLETRAD
 40
0.0
  9
$AUNITS
 70
     0
  9
$AUPREC
 70
     0
  9
$MENU
  1
.
  9
$ELEVATION
 40
0.0
  9
$PELEVATION
 40
0.0
  9
$THICKNESS
 40
0.0
  9
$LIMCHECK
 70
     0
  9
$BLIPMODE
 70
     0
  9
$CHAMFERA
 40
0.0
  9
$CHAMFERB
 40
0.0
  9
$SKPOLY
 70
     0
  9
$TDCREATE
 40
2457105.2334777541
  9
$TDUPDATE
 40
2457620.4974837271
  9
$TDINDWG
 40
0.0641876505
  9
$TDUSRTIMER
 40
0.0641823727
  9
$USRTIMER
 70
     1
  9
$ANGBASE
 50
0.0
  9
$ANGDIR
 70
     0
  9
$PDMODE
 70
     0
  9
$PDSIZE
 40
0.0
  9
$PLINEWID
 40
0.0
  9
$COORDS
 70
     1
  9
$SPLFRAME
 70
     0
  9
$SPLINETYPE
 70
     6
  9
$SPLINESEGS
 70
     8
  9
$ATTDIA
 70
     1
  9
$ATTREQ
 70
     1
  9
$HANDLING
 70
     1
  9
$HANDSEED
  5
121
  9
$SURFTAB1
 70
     6
  9
$SURFTAB2
 70
     6
  9
$SURFTYPE
 70
     6
  9
$SURFU
 70
     6
  9
$SURFV
 70
     6
  9
$UCSNAME
  2

  9
$UCSORG
 10
0.0
 20
0.0
 30
0.0
  9
$UCSXDIR
 10
1.0
 20
0.0
 30
0.0
  9
$UCSYDIR
 10
0.0
 20
1.0
 30
0.0
  9
$PUCSNAME
  2

  9
$PUCSORG
 10
0.0
 20
0.0
 30
0.0
  9
$PUCSXDIR
 10
1.0
 20
0.0
 30
0.0
  9
$PUCSYDIR
 10
0.0
 20
1.0
 30
0.0
  9
$USERI1
 70
     0
  9
$USERI2
 70
     0
  9
$USERI3
 70
     0
  9
$USERI4
 70
     0
  9
$USERI5
 70
     0
  9
$USERR1
 40
0.0
  9
$USERR2
 40
0.0
  9
$USERR3
 40
0.0
  9
$USERR4
 40
0.0
  9
$USERR5
 40
0.0
  9
$WORLDVIEW
 70
     1
  9
$SHADEDGE
 70
     3
  9
$SHADEDIF
 70
    70
  9
$TILEMODE
 70
     1
  9
$MAXACTVP
 70
    64
  9
$PLIMCHECK
 70
     0
  9
$PEXTMIN
 10
0.0
 20
0.0
 30
0.0
  9
$PEXTMAX
 10
0.0
 20
0.0
 30
0.0
  9
$PLIMMIN
 10
0.0
 20
0.0
  9
$PLIMMAX
 10
12.0
 20
9.0
  9
$UNITMODE
 70
     0
  9
$VISRETAIN
 70
     1
  9
$PLINEGEN
 70
     0
  9
$PSLTSCALE
 70
     1
  0
ENDSEC
  0
SECTION
  2
TABLES
  0
TABLE
  2
VPORT
 70
     1
  0
VPORT
  2
*ACTIVE
 70
     0
 10
0.0
 20
0.0
 11
1.0
 21
1.0
 12
725302.72659229417
 22
3419563.7322790939
 13
0.0
 23
0.0
 14
0.5
 24
0.5
 15
0.5
 25
0.5
 16
0.0
 26
0.0
 36
1.0
 17
5.1181586671325601
 27
7.0859848490330393
 37
-0.8446473595225725
 40
18880.172448750582
 41
1.1002570694087399
 42
50.0
 43
0.0
 44
0.0
 50
0.0
 51
0.0
 71
     0
 72
  1000
 73
     1
 74
     3
 75
     0
 76
     0
 77
     0
 78
     0
  0
ENDTAB
  0
TABLE
  2
LTYPE
 70
     1
  0
LTYPE
  2
CONTINUOUS
 70
     0
  3
Solid line
 72
    65
 73
     0
 40
0.0
  0
ENDTAB
  0
TABLE
  2
LAYER
 70
     2
  0
LAYER
  2
0
 70
     0
 62
    -7
  6
CONTINUOUS
  0
LAYER
  2
YOUZILING
 70
     0
 62
     5
  6
CONTINUOUS
  0
ENDTAB
  0
TABLE
  2
STYLE
 70
     1
  0
STYLE
  2
STANDARD
 70
     0
 40
0.0
 41
1.0
 50
0.0
 71
     0
 42
0.2
  3
txt
  4

  0
ENDTAB
  0
TABLE
  2
VIEW
 70
     0
  0
ENDTAB
  0
TABLE
  2
UCS
 70
     0
  0
ENDTAB
  0
TABLE
  2
APPID
 70
     6
  0
APPID
  2
ACAD
 70
     0
  0
APPID
  2
ACAD_NAV_VCDISPLAY
 70
     0
  0
APPID
  2
ADE
 70
     0
  0
APPID
  2
DCO15
 70
     0
  0
APPID
  2
IRD
 70
     0
  0
APPID
  2
ADE_PROJECTION
 70
     0
  0
ENDTAB
  0
TABLE
  2
DIMSTYLE
 70
     1
  0
DIMSTYLE
  2
STANDARD
 70
     0
  3

  4

  5

  6

  7

 40
1.0
 41
0.18
 42
0.0625
 43
0.38
 44
0.18
 45
0.0
 46
0.0
 47
0.0
 48
0.0
140
0.18
141
0.09
142
0.0
143
25.399999999999999
144
1.0
145
0.0
146
1.0
147
0.09
 71
     0
 72
     0
 73
     1
 74
     1
 75
     0
 76
     0
 77
     0
 78
     0
170
     0
171
     2
172
     0
173
     0
174
     0
175
     0
176
     0
177
     0
178
     0
  0
ENDTAB
  0
ENDSEC
  0
SECTION
  2
BLOCKS
  0
BLOCK
  8
0
  2
$MODEL_SPACE
 70
     0
 10
0.0
 20
0.0
 30
0.0
  3
$MODEL_SPACE
  1

  0
ENDBLK
  5
17
  8
0
  0
BLOCK
 67
     1
  8
0
  2
$PAPER_SPACE
 70
     0
 10
0.0
 20
0.0
 30
0.0
  3
$PAPER_SPACE
  1

  0
ENDBLK
  5
1C
 67
     1
  8
0
  0
ENDSEC
  0
SECTION
  2
ENTITIES
  0
POLYLINE
  5
60
  8
YOUZILING
 66
     1
 10
0.0
 20
0.0
 30
0.0280373831775701
 70
     1
1001
DCO15
1071
        4
1071
        4
1000
unitlink
1004
0741313500
1071
        3
1000
Link
1004
0741313500
1001
ADE
1011
-3.4803086196770878
1021
0.0
1031
0.0
1021
-0.4866047338582577
1031
0.0
1001
IRD
1002
{
1000
TPMLINK_Unit_topology-_-ade
1070
   515
1071
        2
1004
0100910300007C0000007C00000000000000882218A6290F6540882218A6290F6540000000008C030000
1002
}
  0
VERTEX
  5
92
  8
YOUZILING
 10
727146.44681336905
 20
3422227.4098281711
 30
0.0280373831775701
  0
VERTEX
  5
93
  8
YOUZILING
 10
727146.4933100458
 20
3422182.8215373061
 30
0.0280373831775701
  0
VERTEX
  5
94
  8
YOUZILING
 10
727102.87380269554
 20
3422183.2925676489
 30
0.0280373831775701
  0
VERTEX
  5
95
  8
YOUZILING
 10
727112.58676437603
 20
3422228.6450316021
 30
0.0280373831775701
  0
VERTEX
  5
96
  8
YOUZILING
 10
727146.44681336905
 20
3422227.4098281711
 30
0.0280373831775701
  0
SEQEND
  5
97
  8
YOUZILING
  0
POLYLINE
  5
63
  8
YOUZILING
 66
     1
 10
0.0
 20
0.0
 30
0.0277777777777778
 70
     1
1001
ADE
1011
-0.8370751459151506
1021
0.0
1031
0.0
1021
-8.1255796677432937
1031
0.0
1001
IRD
1002
{
1000
TPMLINK_Unit_topology-_-ade
1070
   515
1071
        5
1004
0100AF03000060000000600000000000000015058D493D606A4015058D493D606A406003000000000000
1002
}
1001
DCO15
1071
        5
1071
        5
1000
unitlink
1004
07433400
1071
        4
1000
Link
1004
07433400
  0
VERTEX
  5
98
  8
YOUZILING
 10
727258.37783821323
 20
3422348.6743112449
 30
0.0277777777777778
  0
VERTEX
  5
99
  8
YOUZILING
 10
727282.35849098512
 20
3422334.9088752889
 30
0.0277777777777778
  0
VERTEX
  5
9A
  8
YOUZILING
 10
727294.2726381484
 20
3422328.069885903
 30
0.0277777777777778
  0
VERTEX
  5
9B
  8
YOUZILING
 10
727308.27681770537
 20
3422329.4043127839
 30
0.0277777777777778
  0
VERTEX
  5
9C
  8
YOUZILING
 10
727317.91868326825
 20
3422347.3042151588
 30
0.0277777777777778
  0
VERTEX
  5
9D
  8
YOUZILING
 10
727319.01928207255
 20
3422369.878562999
 30
0.0277777777777778
  0
VERTEX
  5
9E
  8
YOUZILING
 10
727309.37741651025
 20
3422376.7612809781
 30
0.0277777777777778
  0
VERTEX
  5
9F
  8
YOUZILING
 10
727296.94159268052
 20
3422385.6384290452
 30
0.0277777777777778
  0
VERTEX
  5
A0
  8
YOUZILING
 10
727296.66627541545
 20
3422397.8124043471
 30
0.0277777777777778
  0
VERTEX
  5
A1
  8
YOUZILING
 10
727283.76911761984
 20
3422399.5371135361
 30
0.0277777777777778
  0
VERTEX
  5
A2
  8
YOUZILING
 10
727280.38981425762
 20
3422381.2020041691
 30
0.0277777777777778
  0
VERTEX
  5
A3
  8
YOUZILING
 10
727277.81658325344
 20
3422371.0068774219
 30
0.0277777777777778
  0
VERTEX
  5
A4
  8
YOUZILING
 10
727271.52301827434
 20
3422361.3436703319
 30
0.0277777777777778
  0
VERTEX
  5
A5
  8
YOUZILING
 10
727258.45534517255
 20
3422352.5186396712
 30
0.0277777777777778
  0
VERTEX
  5
A6
  8
YOUZILING
 10
727258.37783821323
 20
3422348.6743112449
 30
0.0277777777777778
  0
SEQEND
  5
A7
  8
YOUZILING
  0
POLYLINE
  5
64
  8
YOUZILING
 66
     1
 10
0.0
 20
0.0
 30
0.0625
 70
     1
1001
ADE
1011
-7.43291726137977
1021
0.0
1031
0.0
1021
-8.446239392273128
1031
0.0
1001
IRD
1002
{
1000
TPMLINK_Unit_topology-_-ade
1070
   515
1071
        5
1004
0100BF03000092000000920000000000000091C9233D5FEA6A4091C9233D5FEA6A406A03000000000000
1002
}
1001
DCO15
1071
        5
1071
        5
1000
unitlink
1004
07433700
1071
        4
1000
Link
1004
07433700
  0
VERTEX
  5
A8
  8
YOUZILING
 10
727174.12777498015
 20
3422119.5217114049
 30
0.0625
  0
VERTEX
  5
A9
  8
YOUZILING
 10
727190.68326118577
 20
3422116.6203314629
 30
0.0625
  0
VERTEX
  5
AA
  8
YOUZILING
 10
727217.00462408725
 20
3422127.6778128031
 30
0.0625
  0
VERTEX
  5
AB
  8
YOUZILING
 10
727220.89547337592
 20
3422142.3217221298
 30
0.0625
  0
VERTEX
  5
AC
  8
YOUZILING
 10
727223.29818907019
 20
3422164.1384874289
 30
0.0625
  0
VERTEX
  5
AD
  8
YOUZILING
 10
727209.88948535547
 20
3422180.047720789
 30
0.0625
  0
VERTEX
  5
AE
  8
YOUZILING
 10
727203.11537723232
 20
3422175.6231163731
 30
0.0625
  0
VERTEX
  5
AF
  8
YOUZILING
 10
727197.81390131265
 20
3422169.151427222
 30
0.0625
  0
VERTEX
  5
B0
  8
YOUZILING
 10
727184.97874908498
 20
3422168.4099634569
 30
0.0625
  0
VERTEX
  5
B1
  8
YOUZILING
 10
727160.81207961589
 20
3422171.7949067252
 30
0.0625
  0
VERTEX
  5
B2
  8
YOUZILING
 10
727162.42422433954
 20
3422163.4050830561
 30
0.0625
  0
VERTEX
  5
B3
  8
YOUZILING
 10
727169.80288673192
 20
3422150.4536453611
 30
0.0625
  0
VERTEX
  5
B4
  8
YOUZILING
 10
727165.07496229943
 20
3422142.3539596861
 30
0.0625
  0
VERTEX
  5
B5
  8
YOUZILING
 10
727169.07432132575
 20
3422124.06720665
 30
0.0625
  0
VERTEX
  5
B6
  8
YOUZILING
 10
727174.12777498015
 20
3422119.5217114049
 30
0.0625
  0
SEQEND
  5
B7
  8
YOUZILING
  0
POLYLINE
  5
65
  8
YOUZILING
 66
     1
 10
0.0
 20
0.0
 30
0.6
 70
     1
1001
ADE
1011
-12.28485282696783
1021
0.0
1031
0.0
1021
-6.8062338703311971
1031
0.0
1001
IRD
1002
{
1000
TPMLINK_Unit_topology-_-ade
1070
   515
1071
        5
1004
0100DC030000B4000000B40000000000000039352A2A67576D4039352A2A67576D403C03000000000000
1002
}
1001
DCO15
1071
        5
1071
        5
1000
unitlink
1004
0741333900
1071
        4
1000
Link
1004
0741333900
  0
VERTEX
  5
B8
  8
YOUZILING
 10
727044.64597972482
 20
3421864.4717812319
 30
0.6
  0
VERTEX
  5
B9
  8
YOUZILING
 10
727045.06318869442
 20
3421856.0280561768
 30
0.6
  0
VERTEX
  5
BA
  8
YOUZILING
 10
727046.19273962826
 20
3421833.1675277241
 30
0.6
  0
VERTEX
  5
BB
  8
YOUZILING
 10
727044.8461692112
 20
3421809.2916609151
 30
0.6
  0
VERTEX
  5
BC
  8
YOUZILING
 10
727041.35835610703
 20
3421786.7656694092
 30
0.6
  0
VERTEX
  5
BD
  8
YOUZILING
 10
727045.04768730304
 20
3421781.2933444581
 30
0.6
  0
VERTEX
  5
BE
  8
YOUZILING
 10
727060.56458027312
 20
3421780.51964314
 30
0.6
  0
VERTEX
  5
BF
  8
YOUZILING
 10
727085.02577618533
 20
3421787.8859244408
 30
0.6
  0
VERTEX
  5
C0
  8
YOUZILING
 10
727075.33740644902
 20
3421832.4462847458
 30
0.6
  0
VERTEX
  5
C1
  8
YOUZILING
 10
727074.68634800264
 20
3421847.24332246
 30
0.6
  0
VERTEX
  5
C2
  8
YOUZILING
 10
727074.02627891151
 20
3421862.2451510732
 30
0.6
  0
VERTEX
  5
C3
  8
YOUZILING
 10
727073.83741180424
 20
3421866.5376592572
 30
0.6
  0
VERTEX
  5
C4
  8
YOUZILING
 10
727062.34319889802
 20
3421866.063365032
 30
0.6
  0
SEQEND
  5
C5
  8
YOUZILING
  0
POLYLINE
  5
66
  8
YOUZILING
 66
     1
 10
0.0
 20
0.0
 30
0.0681818181818182
 70
     1
1001
ADE
1011
-14.398886511218731
1021
0.0
1031
0.0
1021
-5.004880402237176
1031
0.0
1001
IRD
1002
{
1000
TPMLINK_Unit_topology-_-ade
1070
   515
1071
        5
1004
0100DF030000B0000000B000000000000000937A1B93591F7040937A1B93591F7040000000003B030000
1002
}
1001
DCO15
1071
        5
1071
        5
1000
unitlink
1004
0741333800
1071
        4
1000
Link
1004
0741333800
  0
VERTEX
  5
C6
  8
YOUZILING
 10
727110.57206950721
 20
3421896.9213946071
 30
0.0681818181818182
  0
VERTEX
  5
C7
  8
YOUZILING
 10
727168.73329071328
 20
3421883.9860756909
 30
0.0681818181818182
  0
VERTEX
  5
C8
  8
YOUZILING
 10
727152.17780450382
 20
3421815.320083688
 30
0.0681818181818182
  0
VERTEX
  5
C9
  8
YOUZILING
 10
727111.48665161058
 20
3421814.1998286531
 30
0.0681818181818182
  0
VERTEX
  5
CA
  8
YOUZILING
 10
727105.30159636936
 20
3421825.9745955919
 30
0.0681818181818182
  0
VERTEX
  5
CB
  8
YOUZILING
 10
727101.10071925074
 20
3421845.5911477678
 30
0.0681818181818182
  0
VERTEX
  5
CC
  8
YOUZILING
 10
727098.26015205705
 20
3421858.8555525569
 30
0.0681818181818182
  0
VERTEX
  5
CD
  8
YOUZILING
 10
727103.06939598185
 20
3421878.3848005212
 30
0.0681818181818182
  0
VERTEX
  5
CE
  8
YOUZILING
 10
727110.57206950721
 20
3421896.9213946071
 30
0.0681818181818182
  0
SEQEND
  5
CF
  8
YOUZILING
  0
POLYLINE
  5
67
  8
YOUZILING
 66
     1
 10
0.0
 20
0.0
 30
0.9486486486486484
 70
     1
1001
ADE
1011
-14.331036515650339
1021
0.0
1031
0.0
1021
-2.9457065835595122
1031
0.0
1001
IRD
1002
{
1000
TPMLINK_Unit_topology-_-ade
1070
   515
1071
        5
1004
0100EC0300006F0000006F00000000000000E2B46E9180DC6740E2B46E9180DC6740F902000000000000
1002
}
1001
DCO15
1071
        5
1071
        5
1000
unitlink
1004
074133313800
1071
        4
1000
Link
1004
074133313800
  0
VERTEX
  5
D0
  8
YOUZILING
 10
727027.68612873182
 20
3422274.1169060771
 30
0.9486486486486484
  0
VERTEX
  5
D1
  8
YOUZILING
 10
727068.78031780955
 20
3422274.8261322859
 30
0.9486486486486484
  0
VERTEX
  5
D2
  8
YOUZILING
 10
727074.08179372933
 20
3422322.1750410921
 30
0.9486486486486484
  0
VERTEX
  5
D3
  8
YOUZILING
 10
727028.58520944417
 20
3422329.654153835
 30
0.9486486486486484
  0
VERTEX
  5
D4
  8
YOUZILING
 10
727031.65448497573
 20
3422295.6274146042
 30
0.9486486486486484
  0
VERTEX
  5
D5
  8
YOUZILING
 10
727027.68612873182
 20
3422274.1169060771
 30
0.9486486486486484
  0
SEQEND
  5
D6
  8
YOUZILING
  0
POLYLINE
  5
68
  8
YOUZILING
 66
     1
 10
0.0
 20
0.0
 30
0.1
 70
     1
1001
ADE
1011
-12.94237096223514
1021
0.0
1031
0.0
1021
2.3815493718720959
1031
0.0
1001
IRD
1002
{
1000
TPMLINK_Unit_topology-_-ade
1070
   515
1071
        5
1004
0100F90300001E0000001E0000000000000014EA8704F856654014EA8704F85665401403000000000000
1002
}
1001
DCO15
1071
        5
1071
        5
1000
unitlink
1004
074133373200
1071
        4
1000
Link
1004
074133373200
  0
VERTEX
  5
D7
  8
YOUZILING
 10
726833.29867833119
 20
3422693.3904861198
 30
0.1
  0
VERTEX
  5
D8
  8
YOUZILING
 10
726866.98320223391
 20
3422696.090381348
 30
0.1
  0
VERTEX
  5
D9
  8
YOUZILING
 10
726866.90569527436
 20
3422746.1472447659
 30
0.1
  0
VERTEX
  5
DA
  8
YOUZILING
 10
726835.36036341265
 20
3422747.9283696739
 30
0.1
  0
VERTEX
  5
DB
  8
YOUZILING
 10
726832.78713240812
 20
3422736.798353835
 30
0.1
  0
VERTEX
  5
DC
  8
YOUZILING
 10
726830.21131939464
 20
3422725.6571700089
 30
0.1
  0
VERTEX
  5
DD
  8
YOUZILING
 10
726833.29867833119
 20
3422693.3904861198
 30
0.1
  0
SEQEND
  5
DE
  8
YOUZILING
  0
POLYLINE
  5
69
  8
YOUZILING
 66
     1
 10
0.0
 20
0.0
 30
0.7
 70
     1
1001
ADE
1011
-10.00614826404489
1021
0.0
1031
0.0
1021
-3.4292699065990742
1031
0.0
1001
IRD
1002
{
1000
TPMLINK_Unit_topology-_-ade
1070
   515
1071
        5
1004
010022040000710000007100000000000000548D03603F476440548D03603F476440F202000000000000
1002
}
1001
DCO15
1071
        5
1071
        5
1000
unitlink
1004
074133333900
1071
        4
1000
Link
1004
074133333900
  0
VERTEX
  5
DF
  8
YOUZILING
 10
726866.36314656958
 20
3422272.601740995
 30
0.7
  0
VERTEX
  5
E0
  8
YOUZILING
 10
726904.37255872018
 20
3422272.7871069368
 30
0.7
  0
VERTEX
  5
E1
  8
YOUZILING
 10
726902.03184859105
 20
3422316.219152817
 30
0.7
  0
VERTEX
  5
E2
  8
YOUZILING
 10
726876.19102882943
 20
3422321.6753589911
 30
0.7
  0
VERTEX
  5
E3
  8
YOUZILING
 10
726865.91360621154
 20
3422314.204305633
 30
0.7
  0
VERTEX
  5
E4
  8
YOUZILING
 10
726866.36314656958
 20
3422272.601740995
 30
0.7
  0
SEQEND
  5
E5
  8
YOUZILING
  0
POLYLINE
  5
6A
  8
YOUZILING
 66
     1
 10
0.0
 20
0.0
 30
0.0217391304347826
 70
     1
1001
ADE
1011
-17.183292563888241
1021
0.0
1031
0.0
1021
-0.4311772980727257
1031
0.0
1001
IRD
1002
{
1000
TPMLINK_Unit_topology-_-ade
1070
   515
1071
        5
1004
01002B040000810000008100000000000000862C795F68616B40862C795F68616B40DA02000000000000
1002
}
1001
DCO15
1071
        5
1071
        5
1000
unitlink
1004
074133333200
1071
        4
1000
Link
1004
074133333200
  0
VERTEX
  5
E6
  8
YOUZILING
 10
726633.43923670065
 20
3422193.8453942989
 30
0.0217391304347826
  0
VERTEX
  5
E7
  8
YOUZILING
 10
726689.30625195068
 20
3422192.2496353299
 30
0.0217391304347826
  0
VERTEX
  5
E8
  8
YOUZILING
 10
726689.30625195068
 20
3422236.4876200831
 30
0.0217391304347826
  0
VERTEX
  5
E9
  8
YOUZILING
 10
726658.58249384165
 20
3422243.6604760559
 30
0.0217391304347826
  0
VERTEX
  5
EA
  8
YOUZILING
 10
726616.68223240215
 20
3422232.4982226612
 30
0.0217391304347826
  0
VERTEX
  5
EB
  8
YOUZILING
 10
726619.08494810015
 20
3422210.9796547452
 30
0.0217391304347826
  0
VERTEX
  5
EC
  8
YOUZILING
 10
726633.43923670065
 20
3422193.8453942989
 30
0.0217391304347826
  0
SEQEND
  5
ED
  8
YOUZILING
  0
POLYLINE
  5
6B
  8
YOUZILING
 66
     1
 10
0.0
 20
0.0
 30
0.3
 70
     1
1001
ADE
1011
-14.989955879165789
1021
0.0
1031
0.0
1021
-2.045803462155162
1031
0.0
1001
IRD
1002
{
1000
TPMLINK_Unit_topology-_-ade
1070
   515
1071
        5
1004
01002F0400008300000083000000000000009796DE76E59769409796DE76E5976940D602000000000000
1002
}
1001
DCO15
1071
        5
1071
        5
1000
unitlink
1004
074133323800
1071
        4
1000
Link
1004
074133323800
  0
VERTEX
  5
EE
  8
YOUZILING
 10
726878.3767250441
 20
3422187.3978833118
 30
0.3
  0
VERTEX
  5
EF
  8
YOUZILING
 10
726928.94226437435
 20
3422185.3346797959
 30
0.3
  0
VERTEX
  5
F0
  8
YOUZILING
 10
726937.10345519322
 20
3422185.001682308
 30
0.3
  0
VERTEX
  5
F1
  8
YOUZILING
 10
726933.29815540824
 20
3422229.2905859458
 30
0.3
  0
VERTEX
  5
F2
  8
YOUZILING
 10
726878.5782431328
 20
3422230.1690593171
 30
0.3
  0
VERTEX
  5
F3
  8
YOUZILING
 10
726874.40113039198
 20
3422187.5600977559
 30
0.3
  0
VERTEX
  5
F4
  8
YOUZILING
 10
726878.3767250441
 20
3422187.3978833118
 30
0.3
  0
SEQEND
  5
F5
  8
YOUZILING
  0
POLYLINE
  5
6C
  8
YOUZILING
 66
     1
 10
0.0
 20
0.0
 30
0.1
 70
     1
1001
ADE
1011
-17.186156915966421
1021
0.0
1031
0.0
1021
0.9147406206466255
1031
0.0
1001
IRD
1002
{
1000
TPMLINK_Unit_topology-_-ade
1070
   515
1071
        5
1004
0100350400005A0000005A000000000000007F338997AE4966407F338997AE496640FB02000000000000
1002
}
1001
DCO15
1071
        5
1071
        5
1000
unitlink
1004
074133323100
1071
        4
1000
Link
1004
074133323100
  0
VERTEX
  5
F6
  8
YOUZILING
 10
727048.84552823717
 20
3422361.4242642182
 30
0.1
  0
VERTEX
  5
F7
  8
YOUZILING
 10
727043.09451196354
 20
3422354.364239688
 30
0.1
  0
VERTEX
  5
F8
  8
YOUZILING
 10
727042.21093264222
 20
3422339.808983638
 30
0.1
  0
VERTEX
  5
F9
  8
YOUZILING
 10
727041.55010150443
 20
3422328.9230719991
 30
0.1
  0
VERTEX
  5
FA
  8
YOUZILING
 10
727073.1207074523
 20
3422324.4961450449
 30
0.1
  0
VERTEX
  5
FB
  8
YOUZILING
 10
727076.25198854879
 20
3422327.8730289242
 30
0.1
  0
VERTEX
  5
FC
  8
YOUZILING
 10
727096.62081708375
 20
3422330.0087669389
 30
0.1
  0
VERTEX
  5
FD
  8
YOUZILING
 10
727103.65844886377
 20
3422335.98077399
 30
0.1
  0
VERTEX
  5
FE
  8
YOUZILING
 10
727101.27123456064
 20
3422355.8310484379
 30
0.1
  0
VERTEX
  5
FF
  8
YOUZILING
 10
727092.82297614939
 20
3422365.760215356
 30
0.1
  0
VERTEX
  5
100
  8
YOUZILING
 10
727074.15930068865
 20
3422366.4452634011
 30
0.1
  0
VERTEX
  5
101
  8
YOUZILING
 10
727048.84552823717
 20
3422361.4242642182
 30
0.1
  0
SEQEND
  5
102
  8
YOUZILING
  0
POLYLINE
  5
6D
  8
YOUZILING
 66
     1
 10
0.0
 20
0.0
 30
0.1
 70
     1
1001
ADE
1011
-13.633473893511111
1021
0.0
1031
0.0
1021
-1.059809617698191
1031
0.0
1001
IRD
1002
{
1000
TPMLINK_Unit_topology-_-ade
1070
   515
1071
        5
1004
01003A040000820000008200000000000000C450FEB3FFDD6240C450FEB3FFDD6240D302000000000000
1002
}
1001
DCO15
1071
        5
1071
        5
1000
unitlink
1004
074133323300
1071
        4
1000
Link
1004
074133323300
  0
VERTEX
  5
103
  8
YOUZILING
 10
727064.88946852437
 20
3422193.5874938578
 30
0.1
  0
VERTEX
  5
104
  8
YOUZILING
 10
727099.30255782988
 20
3422193.160346257
 30
0.1
  0
VERTEX
  5
105
  8
YOUZILING
 10
727109.688490186
 20
3422229.0326855062
 30
0.1
  0
VERTEX
  5
106
  8
YOUZILING
 10
727066.84264386073
 20
3422228.8231413988
 30
0.1
  0
VERTEX
  5
107
  8
YOUZILING
 10
727064.98247687146
 20
3422224.769268868
 30
0.1
  0
VERTEX
  5
108
  8
YOUZILING
 10
727062.05271386355
 20
3422201.2922694888
 30
0.1
  0
VERTEX
  5
109
  8
YOUZILING
 10
727064.88946852437
 20
3422193.5874938578
 30
0.1
  0
SEQEND
  5
10A
  8
YOUZILING
  0
POLYLINE
  5
6E
  8
YOUZILING
 66
     1
 10
0.0
 20
0.0
 30
0.3
 70
     1
1001
ADE
1011
-13.687728766235519
1021
0.0
1031
0.0
1021
1.94634237885475
1031
0.0
1001
IRD
1002
{
1000
TPMLINK_Unit_topology-_-ade
1070
   515
1071
        5
1004
01003C0400008E0000008E00000000000000E21E1247BE696740E21E1247BE696740D202000000000000
1002
}
1001
DCO15
1071
        5
1071
        5
1000
unitlink
1004
074133323500
1071
        4
1000
Link
1004
074133323500
  0
VERTEX
  5
10B
  8
YOUZILING
 10
727009.34798249626
 20
3422138.485453093
 30
0.3
  0
VERTEX
  5
10C
  8
YOUZILING
 10
727049.26406580955
 20
3422143.8691247669
 30
0.3
  0
VERTEX
  5
10D
  8
YOUZILING
 10
727057.2782852574
 20
3422150.800199077
 30
0.3
  0
VERTEX
  5
10E
  8
YOUZILING
 10
727058.45639101812
 20
3422188.0265156338
 30
0.3
  0
VERTEX
  5
10F
  8
YOUZILING
 10
727007.89085168764
 20
3422187.0755077619
 30
0.3
  0
VERTEX
  5
110
  8
YOUZILING
 10
727009.34798249626
 20
3422138.485453093
 30
0.3
  0
SEQEND
  5
111
  8
YOUZILING
  0
POLYLINE
  5
6F
  8
YOUZILING
 66
     1
 10
0.0
 20
0.0
 30
0.06
 70
     1
1001
ADE
1011
-15.91992915060837
1021
0.0
1031
0.0
1021
0.3264052444137633
1031
0.0
1001
IRD
1002
{
1000
TPMLINK_Unit_topology-_-ade
1070
   515
1071
        5
1004
010071040000C6000000C600000000000000FE62051228DA7340FE62051228DA7340A902000000000000
1002
}
1001
DCO15
1071
        5
1071
        5
1000
unitlink
1004
0741313000
1071
        4
1000
Link
1004
0741313000
  0
VERTEX
  5
112
  8
YOUZILING
 10
725834.83854532614
 20
3421357.4500910039
 30
0.06
  0
VERTEX
  5
113
  8
YOUZILING
 10
725907.69508574903
 20
3421385.4403480729
 30
0.06
  0
VERTEX
  5
114
  8
YOUZILING
 10
725900.40943170723
 20
3421422.9406838468
 30
0.06
  0
VERTEX
  5
115
  8
YOUZILING
 10
725883.03237174812
 20
3421446.4499207782
 30
0.06
  0
VERTEX
  5
116
  8
YOUZILING
 10
725798.96832521271
 20
3421418.459663712
 30
0.06
  0
VERTEX
  5
117
  8
YOUZILING
 10
725808.50168103329
 20
3421378.7188178692
 30
0.06
  0
VERTEX
  5
118
  8
YOUZILING
 10
725829.80059306312
 20
3421351.292718011
 30
0.06
  0
VERTEX
  5
119
  8
YOUZILING
 10
725834.83854532614
 20
3421357.4500910039
 30
0.06
  0
SEQEND
  5
11A
  8
YOUZILING
  0
POLYLINE
  5
70
  8
YOUZILING
 66
     1
 10
0.0
 20
0.0
 30
0.0327868852459017
 70
     1
1001
ADE
1011
-16.803192192921411
1021
0.0
1031
0.0
1021
4.3797409455291909
1031
0.0
1001
IRD
1002
{
1000
TPMLINK_Unit_topology-_-ade
1070
   515
1071
        5
1004
01008B040000F2000000F200000000000000F8115DF679DA7540F8115DF679DA75409B02000000000000
1002
}
1001
DCO15
1071
        5
1071
        5
1000
unitlink
1004
074331343300
1071
        4
1000
Link
1004
074331343300
  0
VERTEX
  5
11B
  8
YOUZILING
 10
721221.34504515701
 20
3415439.2020137799
 30
0.0327868852459017
  0
VERTEX
  5
11C
  8
YOUZILING
 10
721221.98261011392
 20
3415354.9992493242
 30
0.0327868852459017
  0
VERTEX
  5
11D
  8
YOUZILING
 10
721310.06724218302
 20
3415355.9370526238
 30
0.0327868852459017
  0
VERTEX
  5
11E
  8
YOUZILING
 10
721316.4596697652
 20
3415437.925005028
 30
0.0327868852459017
  0
VERTEX
  5
11F
  8
YOUZILING
 10
721221.34504515701
 20
3415439.2020137799
 30
0.0327868852459017
  0
SEQEND
  5
120
  8
YOUZILING
  0
ENDSEC
  0
EOF
