  0
SECTION
  2
HEADER
  9
$ACADVER
  1
AC1009
  9
$INSBASE
 10
0.0
 20
0.0
 30
0.0
  9
$EXTMIN
 10
719409.74073623738
 20
3413692.6531089768
 30
0.0066225165562914
  9
$EXTMAX
 10
730659.53900161386
 20
3423794.593125009
 30
11.699999999999999
  9
$LIMMIN
 10
0.0
 20
0.0
  9
$LIMMAX
 10
12.0
 20
9.0
  9
$ORTHOMODE
 70
     0
  9
$REGENMODE
 70
     1
  9
$FILLMODE
 70
     1
  9
$QTEXTMODE
 70
     0
  9
$MIRRTEXT
 70
     0
  9
$DRAGMODE
 70
     2
  9
$LTSCALE
 40
1.0
  9
$OSMODE
 70
    37
  9
$ATTMODE
 70
     1
  9
$TEXTSIZE
 40
0.2
  9
$TRACEWID
 40
0.05
  9
$TEXTSTYLE
  7
STANDARD
  9
$CLAYER
  8
WESTERN_ZHOU
  9
$CELTYPE
  6
BYLAYER
  9
$CECOLOR
 62
   256
  9
$DIMSCALE
 40
1.0
  9
$DIMASZ
 40
0.18
  9
$DIMEXO
 40
0.0625
  9
$DIMDLI
 40
0.38
  9
$DIMRND
 40
0.0
  9
$DIMDLE
 40
0.0
  9
$DIMEXE
 40
0.18
  9
$DIMTP
 40
0.0
  9
$DIMTM
 40
0.0
  9
$DIMTXT
 40
0.18
  9
$DIMCEN
 40
0.09
  9
$DIMTSZ
 40
0.0
  9
$DIMTOL
 70
     0
  9
$DIMLIM
 70
     0
  9
$DIMTIH
 70
     1
  9
$DIMTOH
 70
     1
  9
$DIMSE1
 70
     0
  9
$DIMSE2
 70
     0
  9
$DIMTAD
 70
     0
  9
$DIMZIN
 70
     0
  9
$DIMBLK
  1

  9
$DIMASO
 70
     1
  9
$DIMSHO
 70
     1
  9
$DIMPOST
  1

  9
$DIMAPOST
  1

  9
$DIMALT
 70
     0
  9
$DIMALTD
 70
     2
  9
$DIMALTF
 40
25.399999999999999
  9
$DIMLFAC
 40
1.0
  9
$DIMTOFL
 70
     0
  9
$DIMTVP
 40
0.0
  9
$DIMTIX
 70
     0
  9
$DIMSOXD
 70
     0
  9
$DIMSAH
 70
     0
  9
$DIMBLK1
  1

  9
$DIMBLK2
  1

  9
$DIMSTYLE
  2
STANDARD
  9
$DIMCLRD
 70
     0
  9
$DIMCLRE
 70
     0
  9
$DIMCLRT
 70
     0
  9
$DIMTFAC
 40
1.0
  9
$DIMGAP
 40
0.09
  9
$LUNITS
 70
     2
  9
$LUPREC
 70
     4
  9
$SKETCHINC
 40
0.1
  9
$FILLETRAD
 40
0.0
  9
$AUNITS
 70
     0
  9
$AUPREC
 70
     0
  9
$MENU
  1
.
  9
$ELEVATION
 40
0.0
  9
$PELEVATION
 40
0.0
  9
$THICKNESS
 40
0.0
  9
$LIMCHECK
 70
     0
  9
$BLIPMODE
 70
     0
  9
$CHAMFERA
 40
0.0
  9
$CHAMFERB
 40
0.0
  9
$SKPOLY
 70
     0
  9
$TDCREATE
 40
2457105.2334777541
  9
$TDUPDATE
 40
2457620.4974837271
  9
$TDINDWG
 40
0.0663478009
  9
$TDUSRTIMER
 40
0.0663425231
  9
$USRTIMER
 70
     1
  9
$ANGBASE
 50
0.0
  9
$ANGDIR
 70
     0
  9
$PDMODE
 70
     0
  9
$PDSIZE
 40
0.0
  9
$PLINEWID
 40
0.0
  9
$COORDS
 70
     1
  9
$SPLFRAME
 70
     0
  9
$SPLINETYPE
 70
     6
  9
$SPLINESEGS
 70
     8
  9
$ATTDIA
 70
     1
  9
$ATTREQ
 70
     1
  9
$HANDLING
 70
     1
  9
$HANDSEED
  5
188
  9
$SURFTAB1
 70
     6
  9
$SURFTAB2
 70
     6
  9
$SURFTYPE
 70
     6
  9
$SURFU
 70
     6
  9
$SURFV
 70
     6
  9
$UCSNAME
  2

  9
$UCSORG
 10
0.0
 20
0.0
 30
0.0
  9
$UCSXDIR
 10
1.0
 20
0.0
 30
0.0
  9
$UCSYDIR
 10
0.0
 20
1.0
 30
0.0
  9
$PUCSNAME
  2

  9
$PUCSORG
 10
0.0
 20
0.0
 30
0.0
  9
$PUCSXDIR
 10
1.0
 20
0.0
 30
0.0
  9
$PUCSYDIR
 10
0.0
 20
1.0
 30
0.0
  9
$USERI1
 70
     0
  9
$USERI2
 70
     0
  9
$USERI3
 70
     0
  9
$USERI4
 70
     0
  9
$USERI5
 70
     0
  9
$USERR1
 40
0.0
  9
$USERR2
 40
0.0
  9
$USERR3
 40
0.0
  9
$USERR4
 40
0.0
  9
$USERR5
 40
0.0
  9
$WORLDVIEW
 70
     1
  9
$SHADEDGE
 70
     3
  9
$SHADEDIF
 70
    70
  9
$TILEMODE
 70
     1
  9
$MAXACTVP
 70
    64
  9
$PLIMCHECK
 70
     0
  9
$PEXTMIN
 10
0.0
 20
0.0
 30
0.0
  9
$PEXTMAX
 10
0.0
 20
0.0
 30
0.0
  9
$PLIMMIN
 10
0.0
 20
0.0
  9
$PLIMMAX
 10
12.0
 20
9.0
  9
$UNITMODE
 70
     0
  9
$VISRETAIN
 70
     1
  9
$PLINEGEN
 70
     0
  9
$PSLTSCALE
 70
     1
  0
ENDSEC
  0
SECTION
  2
TABLES
  0
TABLE
  2
VPORT
 70
     1
  0
VPORT
  2
*ACTIVE
 70
     0
 10
0.0
 20
0.0
 11
1.0
 21
1.0
 12
721965.73298006167
 22
3418082.1702937749
 13
0.0
 23
0.0
 14
0.5
 24
0.5
 15
0.5
 25
0.5
 16
0.0
 26
0.0
 36
1.0
 17
5.1181586671325601
 27
7.0859848490330393
 37
-0.8446473595225725
 40
30818.663582624871
 41
1.1002570694087399
 42
50.0
 43
0.0
 44
0.0
 50
0.0
 51
0.0
 71
     0
 72
  1000
 73
     1
 74
     3
 75
     0
 76
     0
 77
     0
 78
     0
  0
ENDTAB
  0
TABLE
  2
LTYPE
 70
     1
  0
LTYPE
  2
CONTINUOUS
 70
     0
  3
Solid line
 72
    65
 73
     0
 40
0.0
  0
ENDTAB
  0
TABLE
  2
LAYER
 70
     2
  0
LAYER
  2
0
 70
     0
 62
    -7
  6
CONTINUOUS
  0
LAYER
  2
WESTERN_ZHOU
 70
     0
 62
     4
  6
CONTINUOUS
  0
ENDTAB
  0
TABLE
  2
STYLE
 70
     1
  0
STYLE
  2
STANDARD
 70
     0
 40
0.0
 41
1.0
 50
0.0
 71
     0
 42
0.2
  3
txt
  4

  0
ENDTAB
  0
TABLE
  2
VIEW
 70
     0
  0
ENDTAB
  0
TABLE
  2
UCS
 70
     0
  0
ENDTAB
  0
TABLE
  2
APPID
 70
     6
  0
APPID
  2
ACAD
 70
     0
  0
APPID
  2
ACAD_NAV_VCDISPLAY
 70
     0
  0
APPID
  2
ADE
 70
     0
  0
APPID
  2
DCO15
 70
     0
  0
APPID
  2
IRD
 70
     0
  0
APPID
  2
ADE_PROJECTION
 70
     0
  0
ENDTAB
  0
TABLE
  2
DIMSTYLE
 70
     1
  0
DIMSTYLE
  2
STANDARD
 70
     0
  3

  4

  5

  6

  7

 40
1.0
 41
0.18
 42
0.0625
 43
0.38
 44
0.18
 45
0.0
 46
0.0
 47
0.0
 48
0.0
140
0.18
141
0.09
142
0.0
143
25.399999999999999
144
1.0
145
0.0
146
1.0
147
0.09
 71
     0
 72
     0
 73
     1
 74
     1
 75
     0
 76
     0
 77
     0
 78
     0
170
     0
171
     2
172
     0
173
     0
174
     0
175
     0
176
     0
177
     0
178
     0
  0
ENDTAB
  0
ENDSEC
  0
SECTION
  2
BLOCKS
  0
BLOCK
  8
0
  2
$MODEL_SPACE
 70
     0
 10
0.0
 20
0.0
 30
0.0
  3
$MODEL_SPACE
  1

  0
ENDBLK
  5
17
  8
0
  0
BLOCK
 67
     1
  8
0
  2
$PAPER_SPACE
 70
     0
 10
0.0
 20
0.0
 30
0.0
  3
$PAPER_SPACE
  1

  0
ENDBLK
  5
1C
 67
     1
  8
0
  0
ENDSEC
  0
SECTION
  2
ENTITIES
  0
POLYLINE
  5
60
  8
WESTERN_ZHOU
 66
     1
 10
0.0
 20
0.0
 30
0.0786516853932584
 70
     1
1001
DCO15
1071
        4
1071
        4
1000
unitlink
1004
074332323100
1071
        3
1000
Link
1004
074332323100
1001
ADE
1011
-10.545608554850331
1021
0.0
1031
0.0
1021
-6.050147915724664
1031
0.0
1001
IRD
1002
{
1000
TPMLINK_Unit_topology-_-ade
1070
   515
1071
        2
1004
0100990300007F0100007F010000000000007FCEB398827278407FCEB398827278400000000084030000
1002
}
  0
VERTEX
  5
99
  8
WESTERN_ZHOU
 10
720377.79411324556
 20
3414476.3566949922
 30
0.0786516853932584
  0
VERTEX
  5
9A
  8
WESTERN_ZHOU
 10
720353.30155581702
 20
3414485.681305205
 30
0.0786516853932584
  0
VERTEX
  5
9B
  8
WESTERN_ZHOU
 10
720353.22887760517
 20
3414499.3798032389
 30
0.0786516853932584
  0
VERTEX
  5
9C
  8
WESTERN_ZHOU
 10
720359.10127713066
 20
3414525.546395292
 30
0.0786516853932584
  0
VERTEX
  5
9D
  8
WESTERN_ZHOU
 10
720370.11444884911
 20
3414549.7575710728
 30
0.0786516853932584
  0
VERTEX
  5
9E
  8
WESTERN_ZHOU
 10
720382.86705243925
 20
3414576.3316517668
 30
0.0786516853932584
  0
VERTEX
  5
9F
  8
WESTERN_ZHOU
 10
720395.80377416778
 20
3414589.8740340229
 30
0.0786516853932584
  0
VERTEX
  5
A0
  8
WESTERN_ZHOU
 10
720404.95222575846
 20
3414599.4507901049
 30
0.0786516853932584
  0
VERTEX
  5
A1
  8
WESTERN_ZHOU
 10
720415.11679769133
 20
3414602.627899297
 30
0.0786516853932584
  0
VERTEX
  5
A2
  8
WESTERN_ZHOU
 10
720428.15042370197
 20
3414602.627899297
 30
0.0786516853932584
  0
VERTEX
  5
A3
  8
WESTERN_ZHOU
 10
720443.30140828725
 20
3414597.9338418292
 30
0.0786516853932584
  0
VERTEX
  5
A4
  8
WESTERN_ZHOU
 10
720452.14392407506
 20
3414595.0549610369
 30
0.0786516853932584
  0
VERTEX
  5
A5
  8
WESTERN_ZHOU
 10
720444.57085438923
 20
3414481.807517081
 30
0.0786516853932584
  0
VERTEX
  5
A6
  8
WESTERN_ZHOU
 10
720389.54912474123
 20
3414488.5654871701
 30
0.0786516853932584
  0
VERTEX
  5
A7
  8
WESTERN_ZHOU
 10
720382.66355344665
 20
3414486.607415753
 30
0.0786516853932584
  0
VERTEX
  5
A8
  8
WESTERN_ZHOU
 10
720381.63152283628
 20
3414482.7600879292
 30
0.0786516853932584
  0
VERTEX
  5
A9
  8
WESTERN_ZHOU
 10
720377.79411324556
 20
3414476.3566949922
 30
0.0786516853932584
  0
SEQEND
  5
AA
  8
WESTERN_ZHOU
  0
POLYLINE
  5
63
  8
WESTERN_ZHOU
 66
     1
 10
0.0
 20
0.0
 30
0.6
 70
     1
1001
ADE
1011
-17.45753517374396
1021
0.0
1031
0.0
1021
5.6467730673030001
1031
0.0
1001
IRD
1002
{
1000
TPMLINK_Unit_topology-_-ade
1070
   515
1071
        5
1004
0100E9040000B2010000B201000000000000B9736F97BD108040B9736F97BD1080400000000035020000
1002
}
1001
DCO15
1071
        5
1071
        5
1000
unitlink
1004
074132343000
1071
        4
1000
Link
1004
074132343000
  0
VERTEX
  5
AB
  8
WESTERN_ZHOU
 10
720467.27348256484
 20
3414213.5330061559
 30
0.6
  0
VERTEX
  5
AC
  8
WESTERN_ZHOU
 10
720549.16702334955
 20
3414181.8372499142
 30
0.6
  0
VERTEX
  5
AD
  8
WESTERN_ZHOU
 10
720512.27214603499
 20
3414080.1055450388
 30
0.6
  0
VERTEX
  5
AE
  8
WESTERN_ZHOU
 10
720366.20265902951
 20
3414130.2281384771
 30
0.6
  0
VERTEX
  5
AF
  8
WESTERN_ZHOU
 10
720417.10718734935
 20
3414229.0167372492
 30
0.6
  0
VERTEX
  5
B0
  8
WESTERN_ZHOU
 10
720467.27348256484
 20
3414213.5330061559
 30
0.6
  0
SEQEND
  5
B1
  8
WESTERN_ZHOU
  0
POLYLINE
  5
64
  8
WESTERN_ZHOU
 66
     1
 10
0.0
 20
0.0
 30
1.599999999999999
 70
     1
1001
ADE
1011
-11.4396461751312
1021
0.0
1031
0.0
1021
-5.886228883638978
1031
0.0
1001
IRD
1002
{
1000
TPMLINK_Unit_topology-_-ade
1070
   515
1071
        5
1004
0100EF0400009E0100009E01000000000000B88DBA77E4286440B88DBA77E42864402F02000000000000
1002
}
1001
DCO15
1071
        5
1071
        5
1000
unitlink
1004
074332333400
1071
        4
1000
Link
1004
074332333400
  0
VERTEX
  5
B2
  8
WESTERN_ZHOU
 10
720633.04997318971
 20
3414344.4937757761
 30
1.599999999999999
  0
VERTEX
  5
B3
  8
WESTERN_ZHOU
 10
720624.20028239465
 20
3414320.0792121948
 30
1.599999999999999
  0
VERTEX
  5
B4
  8
WESTERN_ZHOU
 10
720661.27155595284
 20
3414335.7409292678
 30
1.599999999999999
  0
VERTEX
  5
B5
  8
WESTERN_ZHOU
 10
720674.99263617792
 20
3414345.8546139169
 30
1.599999999999999
  0
VERTEX
  5
B6
  8
WESTERN_ZHOU
 10
720682.26724439475
 20
3414360.5339507931
 30
1.599999999999999
  0
VERTEX
  5
B7
  8
WESTERN_ZHOU
 10
720682.73814537015
 20
3414364.1333274161
 30
1.599999999999999
  0
VERTEX
  5
B8
  8
WESTERN_ZHOU
 10
720669.82896338403
 20
3414366.6053825002
 30
1.599999999999999
  0
VERTEX
  5
B9
  8
WESTERN_ZHOU
 10
720662.7004968524
 20
3414358.528928915
 30
1.599999999999999
  0
VERTEX
  5
BA
  8
WESTERN_ZHOU
 10
720655.49084049452
 20
3414351.0563975819
 30
1.599999999999999
  0
VERTEX
  5
BB
  8
WESTERN_ZHOU
 10
720646.47877005104
 20
3414346.4021700919
 30
1.599999999999999
  0
VERTEX
  5
BC
  8
WESTERN_ZHOU
 10
720633.04997318971
 20
3414344.4937757761
 30
1.599999999999999
  0
SEQEND
  5
BD
  8
WESTERN_ZHOU
  0
POLYLINE
  5
65
  8
WESTERN_ZHOU
 66
     1
 10
0.0
 20
0.0
 30
0.2
 70
     1
1001
ADE
1011
-17.082338931038962
1021
0.0
1031
0.0
1021
-5.1574960341677052
1031
0.0
1001
IRD
1002
{
1000
TPMLINK_Unit_topology-_-ade
1070
   515
1071
        5
1004
0100F00400006B0100006B01000000000000F506436BBFC46B40F506436BBFC46B40000000002B020000
1002
}
1001
DCO15
1071
        5
1071
        5
1000
unitlink
1004
074332323400
1071
        4
1000
Link
1004
074332323400
  0
VERTEX
  5
BE
  8
WESTERN_ZHOU
 10
720547.80065817782
 20
3414520.066052923
 30
0.2
  0
VERTEX
  5
BF
  8
WESTERN_ZHOU
 10
720504.85124137253
 20
3414521.6201461852
 30
0.2
  0
VERTEX
  5
C0
  8
WESTERN_ZHOU
 10
720504.85124137253
 20
3414540.3578405962
 30
0.2
  0
VERTEX
  5
C1
  8
WESTERN_ZHOU
 10
720509.02247121476
 20
3414591.495095097
 30
0.2
  0
VERTEX
  5
C2
  8
WESTERN_ZHOU
 10
720545.21882177889
 20
3414592.4159387308
 30
0.2
  0
VERTEX
  5
C3
  8
WESTERN_ZHOU
 10
720543.62750123057
 20
3414555.1901711081
 30
0.2
  0
VERTEX
  5
C4
  8
WESTERN_ZHOU
 10
720548.72622216865
 20
3414528.5692782318
 30
0.2
  0
VERTEX
  5
C5
  8
WESTERN_ZHOU
 10
720547.80065817782
 20
3414520.066052923
 30
0.2
  0
SEQEND
  5
C6
  8
WESTERN_ZHOU
  0
POLYLINE
  5
66
  8
WESTERN_ZHOU
 66
     1
 10
0.0
 20
0.0
 30
0.0242718446601942
 70
     1
1001
ADE
1011
0.089308807742782
1021
0.0
1031
0.0
1021
-0.2254643091000616
1031
0.0
1001
IRD
1002
{
1000
TPMLINK_Unit_topology-_-ade
1070
   515
1071
        5
1004
0100F10400007A0100007A01000000000000A65ECD9FD5B97040A65ECD9FD5B97040000000002A020000
1002
}
1001
DCO15
1071
        5
1071
        5
1000
unitlink
1004
074332323500
1071
        4
1000
Link
1004
074332323500
  0
VERTEX
  5
C7
  8
WESTERN_ZHOU
 10
720506.23866397282
 20
3414486.0850153249
 30
0.0242718446601942
  0
VERTEX
  5
C8
  8
WESTERN_ZHOU
 10
720506.16651651997
 20
3414519.4218691872
 30
0.0242718446601942
  0
VERTEX
  5
C9
  8
WESTERN_ZHOU
 10
720549.87911766768
 20
3414517.4168473091
 30
0.0242718446601942
  0
VERTEX
  5
CA
  8
WESTERN_ZHOU
 10
720553.71127735102
 20
3414488.34805624
 30
0.0242718446601942
  0
VERTEX
  5
CB
  8
WESTERN_ZHOU
 10
720556.61787304282
 20
3414460.0522856512
 30
0.0242718446601942
  0
VERTEX
  5
CC
  8
WESTERN_ZHOU
 10
720533.15401395794
 20
3414457.8459563572
 30
0.0242718446601942
  0
VERTEX
  5
CD
  8
WESTERN_ZHOU
 10
720506.45879988733
 20
3414459.2228990928
 30
0.0242718446601942
  0
VERTEX
  5
CE
  8
WESTERN_ZHOU
 10
720499.05428795144
 20
3414454.7780313161
 30
0.0242718446601942
  0
VERTEX
  5
CF
  8
WESTERN_ZHOU
 10
720484.74864099536
 20
3414475.6898458339
 30
0.0242718446601942
  0
VERTEX
  5
D0
  8
WESTERN_ZHOU
 10
720472.48897760001
 20
3414483.7099333429
 30
0.0242718446601942
  0
SEQEND
  5
D1
  8
WESTERN_ZHOU
  0
POLYLINE
  5
67
  8
WESTERN_ZHOU
 66
     1
 10
0.0
 20
0.0
 30
0.0382165605095541
 70
     1
1001
ADE
1011
-7.5506536159664384
1021
0.0
1031
0.0
1021
-2.411662860307842
1031
0.0
1001
IRD
1002
{
1000
TPMLINK_Unit_topology-_-ade
1070
   515
1071
        5
1004
0100F60400007D0100007D01000000000000981BAFA57FF96640981BAFA57FF966402202000000000000
1002
}
1001
DCO15
1071
        5
1071
        5
1000
unitlink
1004
074332323800
1071
        4
1000
Link
1004
074332323800
  0
VERTEX
  5
D2
  8
WESTERN_ZHOU
 10
720564.18476462376
 20
3414481.3667150051
 30
0.0382165605095541
  0
VERTEX
  5
D3
  8
WESTERN_ZHOU
 10
720567.04264642298
 20
3414426.5547313988
 30
0.0382165605095541
  0
VERTEX
  5
D4
  8
WESTERN_ZHOU
 10
720603.30202174175
 20
3414433.2622945458
 30
0.0382165605095541
  0
VERTEX
  5
D5
  8
WESTERN_ZHOU
 10
720605.26681547984
 20
3414440.2436357811
 30
0.0382165605095541
  0
VERTEX
  5
D6
  8
WESTERN_ZHOU
 10
720601.98674659815
 20
3414472.0904692118
 30
0.0382165605095541
  0
VERTEX
  5
D7
  8
WESTERN_ZHOU
 10
720598.17082487815
 20
3414489.499534667
 30
0.0382165605095541
  0
VERTEX
  5
D8
  8
WESTERN_ZHOU
 10
720564.18476462376
 20
3414481.3667150051
 30
0.0382165605095541
  0
SEQEND
  5
D9
  8
WESTERN_ZHOU
  0
POLYLINE
  5
68
  8
WESTERN_ZHOU
 66
     1
 10
0.0
 20
0.0
 30
0.0681818181818182
 70
     1
1001
ADE
1011
-2.8010489234002289
1021
0.0
1031
0.0
1021
11.98181748297065
1031
0.0
1001
IRD
1002
{
1000
TPMLINK_Unit_topology-_-ade
1070
   515
1071
        5
1004
0100FB0400008701000087010000000000009E7035F73AA46F409E7035F73AA46F400000000027020000
1002
}
1001
DCO15
1071
        5
1071
        5
1000
unitlink
1004
074332333800
1071
        4
1000
Link
1004
074332333800
  0
VERTEX
  5
DA
  8
WESTERN_ZHOU
 10
720673.0116044766
 20
3414430.041375868
 30
0.0681818181818182
  0
VERTEX
  5
DB
  8
WESTERN_ZHOU
 10
720674.53797316563
 20
3414439.9698576932
 30
0.0681818181818182
  0
VERTEX
  5
DC
  8
WESTERN_ZHOU
 10
720676.1882280201
 20
3414450.7041746709
 30
0.0681818181818182
  0
VERTEX
  5
DD
  8
WESTERN_ZHOU
 10
720671.84247101482
 20
3414500.6278086998
 30
0.0681818181818182
  0
VERTEX
  5
DE
  8
WESTERN_ZHOU
 10
720672.55694146454
 20
3414516.8612388368
 30
0.0681818181818182
  0
VERTEX
  5
DF
  8
WESTERN_ZHOU
 10
720672.11851641547
 20
3414529.3503510128
 30
0.0681818181818182
  0
VERTEX
  5
E0
  8
WESTERN_ZHOU
 10
720673.10903226573
 20
3414534.9305926231
 30
0.0681818181818182
  0
VERTEX
  5
E1
  8
WESTERN_ZHOU
 10
720684.70293910825
 20
3414522.1193885808
 30
0.0681818181818182
  0
VERTEX
  5
E2
  8
WESTERN_ZHOU
 10
720693.55262990657
 20
3414475.496590713
 30
0.0681818181818182
  0
VERTEX
  5
E3
  8
WESTERN_ZHOU
 10
720692.74073166784
 20
3414456.8635761612
 30
0.0681818181818182
  0
VERTEX
  5
E4
  8
WESTERN_ZHOU
 10
720689.75294614921
 20
3414436.8616711688
 30
0.0681818181818182
  0
VERTEX
  5
E5
  8
WESTERN_ZHOU
 10
720679.55550427735
 20
3414415.8371244972
 30
0.0681818181818182
  0
VERTEX
  5
E6
  8
WESTERN_ZHOU
 10
720672.44327571231
 20
3414416.5618311991
 30
0.0681818181818182
  0
VERTEX
  5
E7
  8
WESTERN_ZHOU
 10
720672.15099234495
 20
3414426.0796458931
 30
0.0681818181818182
  0
VERTEX
  5
E8
  8
WESTERN_ZHOU
 10
720673.0116044766
 20
3414430.041375868
 30
0.0681818181818182
  0
SEQEND
  5
E9
  8
WESTERN_ZHOU
  0
POLYLINE
  5
69
  8
WESTERN_ZHOU
 66
     1
 10
0.0
 20
0.0
 30
0.7
 70
     1
1001
ADE
1011
-15.59893630014267
1021
0.0
1031
0.0
1021
-1.4827083507552741
1031
0.0
1001
IRD
1002
{
1000
TPMLINK_Unit_topology-_-ade
1070
   515
1071
        5
1004
0100FC04000088010000880100000000000010564852E2E45E4010564852E2E45E400000000025020000
1002
}
1001
DCO15
1071
        5
1071
        5
1000
unitlink
1004
074332333900
1071
        4
1000
Link
1004
074332333900
  0
VERTEX
  5
EA
  8
WESTERN_ZHOU
 10
720647.25819236052
 20
3414428.3342889678
 30
0.7
  0
VERTEX
  5
EB
  8
WESTERN_ZHOU
 10
720666.88989176229
 20
3414429.3166691642
 30
0.7
  0
VERTEX
  5
EC
  8
WESTERN_ZHOU
 10
720670.94938295323
 20
3414425.9588614432
 30
0.7
  0
VERTEX
  5
ED
  8
WESTERN_ZHOU
 10
720670.81947923452
 20
3414416.0142750242
 30
0.7
  0
VERTEX
  5
EE
  8
WESTERN_ZHOU
 10
720680.02640525636
 20
3414413.663004389
 30
0.7
  0
VERTEX
  5
EF
  8
WESTERN_ZHOU
 10
720683.89104086906
 20
3414409.902581831
 30
0.7
  0
VERTEX
  5
F0
  8
WESTERN_ZHOU
 10
720684.10213441076
 20
3414404.427020079
 30
0.7
  0
VERTEX
  5
F1
  8
WESTERN_ZHOU
 10
720674.08331015345
 20
3414404.1693465859
 30
0.7
  0
VERTEX
  5
F2
  8
WESTERN_ZHOU
 10
720673.09279430262
 20
3414405.3208250129
 30
0.7
  0
VERTEX
  5
F3
  8
WESTERN_ZHOU
 10
720642.19194735587
 20
3414406.8185521979
 30
0.7
  0
VERTEX
  5
F4
  8
WESTERN_ZHOU
 10
720642.19194735587
 20
3414427.5451638931
 30
0.7
  0
VERTEX
  5
F5
  8
WESTERN_ZHOU
 10
720647.25819236052
 20
3414428.3342889678
 30
0.7
  0
SEQEND
  5
F6
  8
WESTERN_ZHOU
  0
POLYLINE
  5
6A
  8
WESTERN_ZHOU
 66
     1
 10
0.0
 20
0.0
 30
0.0721649484536083
 70
     1
1001
ADE
1011
-11.68321564781945
1021
0.0
1031
0.0
1021
-1.4131780704483381
1031
0.0
1001
IRD
1002
{
1000
TPMLINK_Unit_topology-_-ade
1070
   515
1071
        5
1004
0100FD0400009D0100009D01000000000000DAA381C21ED46640DAA381C21ED466402402000000000000
1002
}
1001
DCO15
1071
        5
1071
        5
1000
unitlink
1004
074332333200
1071
        4
1000
Link
1004
074332333200
  0
VERTEX
  5
F7
  8
WESTERN_ZHOU
 10
720631.60479432705
 20
3414345.9834506642
 30
0.0721649484536083
  0
VERTEX
  5
F8
  8
WESTERN_ZHOU
 10
720646.30015243974
 20
3414347.521439333
 30
0.0721649484536083
  0
VERTEX
  5
F9
  8
WESTERN_ZHOU
 10
720655.2797469534
 20
3414351.7730519888
 30
0.0721649484536083
  0
VERTEX
  5
FA
  8
WESTERN_ZHOU
 10
720659.68023540452
 20
3414355.5093176551
 30
0.0721649484536083
  0
VERTEX
  5
FB
  8
WESTERN_ZHOU
 10
720667.06850937381
 20
3414366.5651210179
 30
0.0721649484536083
  0
VERTEX
  5
FC
  8
WESTERN_ZHOU
 10
720671.71256729623
 20
3414376.5258120289
 30
0.0721649484536083
  0
VERTEX
  5
FD
  8
WESTERN_ZHOU
 10
720675.10630193364
 20
3414395.2876633289
 30
0.0721649484536083
  0
VERTEX
  5
FE
  8
WESTERN_ZHOU
 10
720672.34584792354
 20
3414405.111465299
 30
0.0721649484536083
  0
VERTEX
  5
FF
  8
WESTERN_ZHOU
 10
720641.98085381091
 20
3414404.427020079
 30
0.0721649484536083
  0
VERTEX
  5
100
  8
WESTERN_ZHOU
 10
720642.33808903769
 20
3414385.5926981089
 30
0.0721649484536083
  0
VERTEX
  5
101
  8
WESTERN_ZHOU
 10
720628.64948473871
 20
3414380.6969017182
 30
0.0721649484536083
  0
VERTEX
  5
102
  8
WESTERN_ZHOU
 10
720631.60479432705
 20
3414345.9834506642
 30
0.0721649484536083
  0
SEQEND
  5
103
  8
WESTERN_ZHOU
  0
POLYLINE
  5
6B
  8
WESTERN_ZHOU
 66
     1
 10
0.0
 20
0.0
 30
0.7
 70
     1
1001
ADE
1011
-13.28265517961699
1021
0.0
1031
0.0
1021
7.4483744413591921
1031
0.0
1001
IRD
1002
{
1000
TPMLINK_Unit_topology-_-ade
1070
   515
1071
        5
1004
0100000500009A0100009A010000000000004D59CEA40AFA70404D59CEA40AFA7040000000002E020000
1002
}
1001
DCO15
1071
        5
1071
        5
1000
unitlink
1004
074332323000
1071
        4
1000
Link
1004
074332323000
  0
VERTEX
  5
104
  8
WESTERN_ZHOU
 10
720483.61198346305
 20
3414365.8967803922
 30
0.7
  0
VERTEX
  5
105
  8
WESTERN_ZHOU
 10
720469.63109580067
 20
3414390.7300634021
 30
0.7
  0
VERTEX
  5
106
  8
WESTERN_ZHOU
 10
720458.52432790014
 20
3414404.257921848
 30
0.7
  0
VERTEX
  5
107
  8
WESTERN_ZHOU
 10
720446.97913495451
 20
3414412.898036202
 30
0.7
  0
VERTEX
  5
108
  8
WESTERN_ZHOU
 10
720438.95758035779
 20
3414477.952541206
 30
0.7
  0
VERTEX
  5
109
  8
WESTERN_ZHOU
 10
720448.06707859051
 20
3414477.348618953
 30
0.7
  0
VERTEX
  5
10A
  8
WESTERN_ZHOU
 10
720472.47273963317
 20
3414469.6828325
 30
0.7
  0
VERTEX
  5
10B
  8
WESTERN_ZHOU
 10
720485.59301516425
 20
3414451.444380485
 30
0.7
  0
VERTEX
  5
10C
  8
WESTERN_ZHOU
 10
720489.81488600385
 20
3414422.4319554898
 30
0.7
  0
VERTEX
  5
10D
  8
WESTERN_ZHOU
 10
720489.76617210743
 20
3414371.7910615732
 30
0.7
  0
VERTEX
  5
10E
  8
WESTERN_ZHOU
 10
720483.61198346305
 20
3414365.8967803922
 30
0.7
  0
SEQEND
  5
10F
  8
WESTERN_ZHOU
  0
POLYLINE
  5
6C
  8
WESTERN_ZHOU
 66
     1
 10
0.0
 20
0.0
 30
0.0617283950617284
 70
     1
1001
ADE
1011
-12.357091184705491
1021
0.0
1031
0.0
1021
-2.8746699197217822
1031
0.0
1001
IRD
1002
{
1000
TPMLINK_Unit_topology-_-ade
1070
   515
1071
        5
1004
010001050000690100006901000000000000F7B1837AC67C6A40F7B1837AC67C6A40000000002D020000
1002
}
1001
DCO15
1071
        5
1071
        5
1000
unitlink
1004
074332323200
1071
        4
1000
Link
1004
074332323200
  0
VERTEX
  5
110
  8
WESTERN_ZHOU
 10
720452.37013925612
 20
3414541.4126914628
 30
0.0617283950617284
  0
VERTEX
  5
111
  8
WESTERN_ZHOU
 10
720502.24635357095
 20
3414540.6778866109
 30
0.0617283950617284
  0
VERTEX
  5
112
  8
WESTERN_ZHOU
 10
720504.21796074871
 20
3414487.5186696812
 30
0.0617283950617284
  0
VERTEX
  5
113
  8
WESTERN_ZHOU
 10
720450.47029737767
 20
3414486.3832958448
 30
0.0617283950617284
  0
VERTEX
  5
114
  8
WESTERN_ZHOU
 10
720452.37013925612
 20
3414541.4126914628
 30
0.0617283950617284
  0
SEQEND
  5
115
  8
WESTERN_ZHOU
  0
POLYLINE
  5
6D
  8
WESTERN_ZHOU
 66
     1
 10
0.0
 20
0.0
 30
0.3583333333333333
 70
     1
1001
ADE
1011
-13.62365243781823
1021
0.0
1031
0.0
1021
-3.9053638977929932
1031
0.0
1001
IRD
1002
{
1000
TPMLINK_Unit_topology-_-ade
1070
   515
1071
        5
1004
0100020500006801000068010000000000004FFC8F590AE068404FFC8F590AE068402C02000000000000
1002
}
1001
DCO15
1071
        5
1071
        5
1000
unitlink
1004
074332323300
1071
        4
1000
Link
1004
074332323300
  0
VERTEX
  5
116
  8
WESTERN_ZHOU
 10
720453.16579952859
 20
3414543.4418702298
 30
0.3583333333333333
  0
VERTEX
  5
117
  8
WESTERN_ZHOU
 10
720502.48049851891
 20
3414543.1036737692
 30
0.3583333333333333
  0
VERTEX
  5
118
  8
WESTERN_ZHOU
 10
720507.14079440758
 20
3414591.3852447541
 30
0.3583333333333333
  0
VERTEX
  5
119
  8
WESTERN_ZHOU
 10
720470.31309032056
 20
3414589.2352815368
 30
0.3583333333333333
  0
VERTEX
  5
11A
  8
WESTERN_ZHOU
 10
720454.26998113096
 20
3414591.5140815009
 30
0.3583333333333333
  0
VERTEX
  5
11B
  8
WESTERN_ZHOU
 10
720453.16579952859
 20
3414543.4418702298
 30
0.3583333333333333
  0
SEQEND
  5
11C
  8
WESTERN_ZHOU
  0
POLYLINE
  5
6E
  8
WESTERN_ZHOU
 66
     1
 10
0.0
 20
0.0
 30
0.0833333333333333
 70
     1
1001
ADE
1011
-23.561286875978109
1021
0.0
1031
0.0
1021
29.859610978048298
1031
0.0
1001
IRD
1002
{
1000
TPMLINK_Unit_topology-_-ade
1070
   515
1071
        5
1004
0100030500006E0100006E010000000000006628D367FCA67A406628D367FCA67A40EE01000000000000
1002
}
1001
DCO15
1071
        5
1071
        5
1000
unitlink
1004
074332343600
1071
        4
1000
Link
1004
074332343600
  0
VERTEX
  5
11D
  8
WESTERN_ZHOU
 10
720333.50823717564
 20
3414511.6191936899
 30
0.0833333333333333
  0
VERTEX
  5
11E
  8
WESTERN_ZHOU
 10
720336.64216437575
 20
3414529.7851750348
 30
0.0833333333333333
  0
VERTEX
  5
11F
  8
WESTERN_ZHOU
 10
720341.26318032423
 20
3414556.571148084
 30
0.0833333333333333
  0
VERTEX
  5
120
  8
WESTERN_ZHOU
 10
720353.75697923813
 20
3414584.7984660561
 30
0.0833333333333333
  0
VERTEX
  5
121
  8
WESTERN_ZHOU
 10
720369.31294948235
 20
3414602.602094051
 30
0.0833333333333333
  0
VERTEX
  5
122
  8
WESTERN_ZHOU
 10
720389.31812207412
 20
3414619.2381390249
 30
0.0833333333333333
  0
VERTEX
  5
123
  8
WESTERN_ZHOU
 10
720401.22055024654
 20
3414625.8732314999
 30
0.0833333333333333
  0
VERTEX
  5
124
  8
WESTERN_ZHOU
 10
720314.83181819716
 20
3414650.5340266158
 30
0.0833333333333333
  0
VERTEX
  5
125
  8
WESTERN_ZHOU
 10
720287.06765795138
 20
3414592.729978303
 30
0.0833333333333333
  0
VERTEX
  5
126
  8
WESTERN_ZHOU
 10
720324.78845009964
 20
3414578.4210470752
 30
0.0833333333333333
  0
VERTEX
  5
127
  8
WESTERN_ZHOU
 10
720306.24469433737
 20
3414516.4747285978
 30
0.0833333333333333
  0
VERTEX
  5
128
  8
WESTERN_ZHOU
 10
720333.50823717564
 20
3414511.6191936899
 30
0.0833333333333333
  0
SEQEND
  5
129
  8
WESTERN_ZHOU
  0
POLYLINE
  5
6F
  8
WESTERN_ZHOU
 66
     1
 10
0.0
 20
0.0
 30
0.03
 70
     1
1001
ADE
1011
-20.662810163572441
1021
0.0
1031
0.0
1021
-15.10610860027373
1031
0.0
1001
IRD
1002
{
1000
TPMLINK_Unit_topology-_-ade
1070
   515
1071
        5
1004
010011050000080100000801000000000000891D074B99647540891D074B996475401C02000000000000
1002
}
1001
DCO15
1071
        5
1071
        5
1000
unitlink
1004
074331363300
1071
        4
1000
Link
1004
074331363300
  0
VERTEX
  5
12A
  8
WESTERN_ZHOU
 10
720320.90757652
 20
3415144.2559358631
 30
0.03
  0
VERTEX
  5
12B
  8
WESTERN_ZHOU
 10
720327.24038277951
 20
3415124.447285993
 30
0.03
  0
VERTEX
  5
12C
  8
WESTERN_ZHOU
 10
720322.98603600997
 20
3415075.746995579
 30
0.03
  0
VERTEX
  5
12D
  8
WESTERN_ZHOU
 10
720409.0310112983
 20
3415079.2819538298
 30
0.03
  0
VERTEX
  5
12E
  8
WESTERN_ZHOU
 10
720405.06894789648
 20
3415143.9982623691
 30
0.03
  0
VERTEX
  5
12F
  8
WESTERN_ZHOU
 10
720404.17585983139
 20
3415176.3845996782
 30
0.03
  0
VERTEX
  5
130
  8
WESTERN_ZHOU
 10
720320.90757652
 20
3415144.2559358631
 30
0.03
  0
SEQEND
  5
131
  8
WESTERN_ZHOU
  0
POLYLINE
  5
70
  8
WESTERN_ZHOU
 66
     1
 10
0.0
 20
0.0
 30
0.0384615384615385
 70
     1
1001
ADE
1011
-23.1959326636279
1021
0.0
1031
0.0
1021
0.6562621793709696
1031
0.0
1001
IRD
1002
{
1000
TPMLINK_Unit_topology-_-ade
1070
   515
1071
        5
1004
01001405000011010000110100000000000082627CE026B8744082627CE026B874400E02000000000000
1002
}
1001
DCO15
1071
        5
1071
        5
1000
unitlink
1004
074332353500
1071
        4
1000
Link
1004
074332353500
  0
VERTEX
  5
132
  8
WESTERN_ZHOU
 10
720673.28764987714
 20
3415087.0685247309
 30
0.0384615384615385
  0
VERTEX
  5
133
  8
WESTERN_ZHOU
 10
720673.9696443975
 20
3415022.1106472891
 30
0.0384615384615385
  0
VERTEX
  5
134
  8
WESTERN_ZHOU
 10
720768.08488817525
 20
3415018.4951660759
 30
0.0384615384615385
  0
VERTEX
  5
135
  8
WESTERN_ZHOU
 10
720773.52460636932
 20
3415090.3619140801
 30
0.0384615384615385
  0
VERTEX
  5
136
  8
WESTERN_ZHOU
 10
720673.28764987714
 20
3415087.0685247309
 30
0.0384615384615385
  0
SEQEND
  5
137
  8
WESTERN_ZHOU
  0
POLYLINE
  5
71
  8
WESTERN_ZHOU
 66
     1
 10
0.0
 20
0.0
 30
0.0357142857142857
 70
     1
1001
ADE
1011
-13.79087979963515
1021
0.0
1031
0.0
1021
3.36183387087658
1031
0.0
1001
IRD
1002
{
1000
TPMLINK_Unit_topology-_-ade
1070
   515
1071
        5
1004
0100240500005E0100005E0100000000000054014C694E566C4054014C694E566C40F901000000000000
1002
}
1001
DCO15
1071
        5
1071
        5
1000
unitlink
1004
074332343300
1071
        4
1000
Link
1004
074332343300
  0
VERTEX
  5
138
  8
WESTERN_ZHOU
 10
720511.02166798338
 20
3414607.3126876168
 30
0.0357142857142857
  0
VERTEX
  5
139
  8
WESTERN_ZHOU
 10
720549.52188244089
 20
3414600.669542843
 30
0.0357142857142857
  0
VERTEX
  5
13A
  8
WESTERN_ZHOU
 10
720570.9072820358
 20
3414669.516679591
 30
0.0357142857142857
  0
VERTEX
  5
13B
  8
WESTERN_ZHOU
 10
720537.26221904543
 20
3414677.2549367142
 30
0.0357142857142857
  0
VERTEX
  5
13C
  8
WESTERN_ZHOU
 10
720519.17312629544
 20
3414645.7060382608
 30
0.0357142857142857
  0
VERTEX
  5
13D
  8
WESTERN_ZHOU
 10
720512.30446720135
 20
3414628.6190646738
 30
0.0357142857142857
  0
VERTEX
  5
13E
  8
WESTERN_ZHOU
 10
720506.22492584737
 20
3414608.1403570962
 30
0.0357142857142857
  0
VERTEX
  5
13F
  8
WESTERN_ZHOU
 10
720511.02166798338
 20
3414607.3126876168
 30
0.0357142857142857
  0
SEQEND
  5
140
  8
WESTERN_ZHOU
  0
POLYLINE
  5
72
  8
WESTERN_ZHOU
 66
     1
 10
0.0
 20
0.0
 30
1.92621951219512
 70
     1
1001
ADE
1011
-6.4954707355936971
1021
0.0
1031
0.0
1021
0.7567461617290974
1031
0.0
1001
IRD
1002
{
1000
TPMLINK_Unit_topology-_-ade
1070
   515
1071
        5
1004
0100290500007E0100007E010000000000003AA923F6094179403AA923F609417940EC01000000000000
1002
}
1001
DCO15
1071
        5
1071
        5
1000
unitlink
1004
074332313900
1071
        4
1000
Link
1004
074332313900
  0
VERTEX
  5
141
  8
WESTERN_ZHOU
 10
720431.89406568557
 20
3414479.28117016
 30
1.92621951219512
  0
VERTEX
  5
142
  8
WESTERN_ZHOU
 10
720385.74576982483
 20
3414480.0622429401
 30
1.92621951219512
  0
VERTEX
  5
143
  8
WESTERN_ZHOU
 10
720378.08145045489
 20
3414462.9269555709
 30
1.92621951219512
  0
VERTEX
  5
144
  8
WESTERN_ZHOU
 10
720368.45233735081
 20
3414420.966437493
 30
1.92621951219512
  0
VERTEX
  5
145
  8
WESTERN_ZHOU
 10
720350.36381426326
 20
3414352.644676642
 30
1.92621951219512
  0
VERTEX
  5
146
  8
WESTERN_ZHOU
 10
720422.55060473469
 20
3414332.3190426282
 30
1.92621951219512
  0
VERTEX
  5
147
  8
WESTERN_ZHOU
 10
720442.6923122555
 20
3414407.6318341638
 30
1.92621951219512
  0
VERTEX
  5
148
  8
WESTERN_ZHOU
 10
720431.89406568557
 20
3414479.28117016
 30
1.92621951219512
  0
SEQEND
  5
149
  8
WESTERN_ZHOU
  0
POLYLINE
  5
73
  8
WESTERN_ZHOU
 66
     1
 10
0.0
 20
0.0
 30
1.8999999999999999
 70
     1
1001
ADE
1011
-14.54921642690897
1021
0.0
1031
0.0
1021
1.690982306376098
1031
0.0
1001
IRD
1002
{
1000
TPMLINK_Unit_topology-_-ade
1070
   515
1071
        5
1004
01002A050000AB010000AB01000000000000002C1721403B7540002C1721403B7540EB01000000000000
1002
}
1001
DCO15
1071
        5
1071
        5
1000
unitlink
1004
074332313800
1071
        4
1000
Link
1004
074332313800
  0
VERTEX
  5
14A
  8
WESTERN_ZHOU
 10
720314.26624893048
 20
3414264.5022604018
 30
1.8999999999999999
  0
VERTEX
  5
14B
  8
WESTERN_ZHOU
 10
720393.31266140565
 20
3414242.9704190399
 30
1.8999999999999999
  0
VERTEX
  5
14C
  8
WESTERN_ZHOU
 10
720421.50176823512
 20
3414329.113889087
 30
1.8999999999999999
  0
VERTEX
  5
14D
  8
WESTERN_ZHOU
 10
720349.09668334958
 20
3414349.5506181
 30
1.8999999999999999
  0
VERTEX
  5
14E
  8
WESTERN_ZHOU
 10
720314.26624893048
 20
3414264.5022604018
 30
1.8999999999999999
  0
SEQEND
  5
14F
  8
WESTERN_ZHOU
  0
POLYLINE
  5
74
  8
WESTERN_ZHOU
 66
     1
 10
0.0
 20
0.0
 30
0.0303030303030303
 70
     1
1001
ADE
1011
-9.2312829701695591
1021
0.0
1031
0.0
1021
-2.9431144404225038
1031
0.0
1001
IRD
1002
{
1000
TPMLINK_Unit_topology-_-ade
1070
   515
1071
        5
1004
01002B05000076010000760100000000000033AB31E6CC6B784033AB31E6CC6B784000000000EA010000
1002
}
1001
DCO15
1071
        5
1071
        5
1000
unitlink
1004
074332313700
1071
        4
1000
Link
1004
074332313700
  0
VERTEX
  5
150
  8
WESTERN_ZHOU
 10
720309.167527996
 20
3414499.0737154372
 30
0.0303030303030303
  0
VERTEX
  5
151
  8
WESTERN_ZHOU
 10
720371.05041171238
 20
3414468.4910925892
 30
0.0303030303030303
  0
VERTEX
  5
152
  8
WESTERN_ZHOU
 10
720348.08992953598
 20
3414361.435808022
 30
0.0303030303030303
  0
VERTEX
  5
153
  8
WESTERN_ZHOU
 10
720262.30476168566
 20
3414385.1015080111
 30
0.0303030303030303
  0
VERTEX
  5
154
  8
WESTERN_ZHOU
 10
720309.167527996
 20
3414499.0737154372
 30
0.0303030303030303
  0
SEQEND
  5
155
  8
WESTERN_ZHOU
  0
POLYLINE
  5
75
  8
WESTERN_ZHOU
 66
     1
 10
0.0
 20
0.0
 30
0.0288461538461539
 70
     1
1001
ADE
1011
-14.75219098676461
1021
0.0
1031
0.0
1021
5.8016797690652311
1031
0.0
1001
IRD
1002
{
1000
TPMLINK_Unit_topology-_-ade
1070
   515
1071
        5
1004
01002C0500004D0100004D010000000000007E55BEC1C4E76C407E55BEC1C4E76C4000000000F7010000
1002
}
1001
DCO15
1071
        5
1071
        5
1000
unitlink
1004
074332343400
1071
        4
1000
Link
1004
074332343400
  0
VERTEX
  5
156
  8
WESTERN_ZHOU
 10
720415.62362499139
 20
3414697.6352996519
 30
0.0288461538461539
  0
VERTEX
  5
157
  8
WESTERN_ZHOU
 10
720452.04537995916
 20
3414696.66097175
 30
0.0288461538461539
  0
VERTEX
  5
158
  8
WESTERN_ZHOU
 10
720465.37674903125
 20
3414688.214112516
 30
0.0288461538461539
  0
VERTEX
  5
159
  8
WESTERN_ZHOU
 10
720456.91676938906
 20
3414645.3356326129
 30
0.0288461538461539
  0
VERTEX
  5
15A
  8
WESTERN_ZHOU
 10
720448.14826841652
 20
3414621.9517630101
 30
0.0288461538461539
  0
VERTEX
  5
15B
  8
WESTERN_ZHOU
 10
720407.61830836162
 20
3414628.8686858709
 30
0.0288461538461539
  0
VERTEX
  5
15C
  8
WESTERN_ZHOU
 10
720415.62362499139
 20
3414697.6352996519
 30
0.0288461538461539
  0
SEQEND
  5
15D
  8
WESTERN_ZHOU
  0
POLYLINE
  5
76
  8
WESTERN_ZHOU
 66
     1
 10
0.0
 20
0.0
 30
0.2
 70
     1
1001
ADE
1011
-33.036063026636839
1021
0.0
1031
0.0
1021
0.757140800356865
1031
0.0
1001
IRD
1002
{
1000
TPMLINK_Unit_topology-_-ade
1070
   515
1071
        5
1004
0100400500000B0100000B0100000000000021437F060370774021437F0603707740E001000000000000
1002
}
1001
DCO15
1071
        5
1071
        5
1000
unitlink
1004
074132363700
1071
        4
1000
Link
1004
074132363700
  0
VERTEX
  5
15E
  8
WESTERN_ZHOU
 10
720124.42983521125
 20
3415128.1575670922
 30
0.2
  0
VERTEX
  5
15F
  8
WESTERN_ZHOU
 10
720127.69820472947
 20
3415155.3810304892
 30
0.2
  0
VERTEX
  5
160
  8
WESTERN_ZHOU
 10
720119.81597679108
 20
3415188.4636039431
 30
0.2
  0
VERTEX
  5
161
  8
WESTERN_ZHOU
 10
720111.77465312066
 20
3415222.2139195972
 30
0.2
  0
VERTEX
  5
162
  8
WESTERN_ZHOU
 10
720089.84618705139
 20
3415222.0702067339
 30
0.2
  0
VERTEX
  5
163
  8
WESTERN_ZHOU
 10
720065.87035525974
 20
3415217.6889778432
 30
0.2
  0
VERTEX
  5
164
  8
WESTERN_ZHOU
 10
720045.86652086745
 20
3415214.0335727669
 30
0.2
  0
VERTEX
  5
165
  8
WESTERN_ZHOU
 10
720021.63206732413
 20
3415209.605084572
 30
0.2
  0
VERTEX
  5
166
  8
WESTERN_ZHOU
 10
720017.95333883155
 20
3415196.736394966
 30
0.2
  0
VERTEX
  5
167
  8
WESTERN_ZHOU
 10
720016.41154040035
 20
3415177.8455668632
 30
0.2
  0
VERTEX
  5
168
  8
WESTERN_ZHOU
 10
720021.57396660745
 20
3415160.5182361309
 30
0.2
  0
VERTEX
  5
169
  8
WESTERN_ZHOU
 10
720025.33318300918
 20
3415140.355992585
 30
0.2
  0
VERTEX
  5
16A
  8
WESTERN_ZHOU
 10
720027.08120590728
 20
3415130.9806176079
 30
0.2
  0
VERTEX
  5
16B
  8
WESTERN_ZHOU
 10
720032.59176214412
 20
3415119.0168306911
 30
0.2
  0
VERTEX
  5
16C
  8
WESTERN_ZHOU
 10
720043.28040969744
 20
3415115.5548008019
 30
0.2
  0
VERTEX
  5
16D
  8
WESTERN_ZHOU
 10
720058.00545090064
 20
3415116.4224559348
 30
0.2
  0
VERTEX
  5
16E
  8
WESTERN_ZHOU
 10
720075.07700018585
 20
3415117.428376202
 30
0.2
  0
VERTEX
  5
16F
  8
WESTERN_ZHOU
 10
720094.44523042161
 20
3415118.5696255988
 30
0.2
  0
VERTEX
  5
170
  8
WESTERN_ZHOU
 10
720110.27068537474
 20
3415123.6300069941
 30
0.2
  0
VERTEX
  5
171
  8
WESTERN_ZHOU
 10
720124.42983521125
 20
3415128.1575670922
 30
0.2
  0
SEQEND
  5
172
  8
WESTERN_ZHOU
  0
POLYLINE
  5
77
  8
WESTERN_ZHOU
 66
     1
 10
0.0
 20
0.0
 30
0.015
 70
     1
1001
ADE
1011
-25.526779463631101
1021
0.0
1031
0.0
1021
-0.6440339549444616
1031
0.0
1001
IRD
1002
{
1000
TPMLINK_Unit_topology-_-ade
1070
   515
1071
        5
1004
010051050000660100006601000000000000B179614BC8287D40B179614BC8287D40CC01000000000000
1002
}
1001
DCO15
1071
        5
1071
        5
1000
unitlink
1004
074132353800
1071
        4
1000
Link
1004
074132353800
  0
VERTEX
  5
173
  8
WESTERN_ZHOU
 10
719871.27469960204
 20
3414560.7446046602
 30
0.015
  0
VERTEX
  5
174
  8
WESTERN_ZHOU
 10
719866.48561378557
 20
3414603.5487113041
 30
0.015
  0
VERTEX
  5
175
  8
WESTERN_ZHOU
 10
719861.42054675543
 20
3414617.105626029
 30
0.015
  0
VERTEX
  5
176
  8
WESTERN_ZHOU
 10
719838.53033997479
 20
3414616.3086340101
 30
0.015
  0
VERTEX
  5
177
  8
WESTERN_ZHOU
 10
719832.94577889144
 20
3414602.478004857
 30
0.015
  0
VERTEX
  5
178
  8
WESTERN_ZHOU
 10
719807.39316508186
 20
3414602.2123408518
 30
0.015
  0
VERTEX
  5
179
  8
WESTERN_ZHOU
 10
719768.82073153579
 20
3414605.9396873582
 30
0.015
  0
VERTEX
  5
17A
  8
WESTERN_ZHOU
 10
719735.45947271958
 20
3414607.074797201
 30
0.015
  0
VERTEX
  5
17B
  8
WESTERN_ZHOU
 10
719719.35515702912
 20
3414608.2018566211
 30
0.015
  0
VERTEX
  5
17C
  8
WESTERN_ZHOU
 10
719707.92628782988
 20
3414612.6134892032
 30
0.015
  0
VERTEX
  5
17D
  8
WESTERN_ZHOU
 10
719689.12709673122
 20
3414604.6999219959
 30
0.015
  0
VERTEX
  5
17E
  8
WESTERN_ZHOU
 10
719687.47120943293
 20
3414591.8192429231
 30
0.015
  0
VERTEX
  5
17F
  8
WESTERN_ZHOU
 10
719685.89352695667
 20
3414579.5468970481
 30
0.015
  0
VERTEX
  5
180
  8
WESTERN_ZHOU
 10
719694.46814497944
 20
3414561.6301513468
 30
0.015
  0
VERTEX
  5
181
  8
WESTERN_ZHOU
 10
719709.20878877502
 20
3414553.3462646189
 30
0.015
  0
VERTEX
  5
182
  8
WESTERN_ZHOU
 10
719751.40144651767
 20
3414555.5601313328
 30
0.015
  0
VERTEX
  5
183
  8
WESTERN_ZHOU
 10
719782.18146925035
 20
3414553.9017439019
 30
0.015
  0
VERTEX
  5
184
  8
WESTERN_ZHOU
 10
719831.28989159327
 20
3414556.485930142
 30
0.015
  0
VERTEX
  5
185
  8
WESTERN_ZHOU
 10
719857.95376678288
 20
3414557.8890381241
 30
0.015
  0
VERTEX
  5
186
  8
WESTERN_ZHOU
 10
719871.27469960204
 20
3414560.7446046602
 30
0.015
  0
SEQEND
  5
187
  8
WESTERN_ZHOU
  0
ENDSEC
  0
EOF
