  0
SECTION
  2
HEADER
  9
$ACADVER
  1
AC1009
  9
$INSBASE
 10
0.0
 20
0.0
 30
0.0
  9
$EXTMIN
 10
719409.74073623738
 20
3413692.6531089768
 30
0.0066225165562914
  9
$EXTMAX
 10
730659.53900161386
 20
3423794.593125009
 30
11.699999999999999
  9
$LIMMIN
 10
0.0
 20
0.0
  9
$LIMMAX
 10
12.0
 20
9.0
  9
$ORTHOMODE
 70
     0
  9
$REGENMODE
 70
     1
  9
$FILLMODE
 70
     1
  9
$QTEXTMODE
 70
     0
  9
$MIRRTEXT
 70
     0
  9
$DRAGMODE
 70
     2
  9
$LTSCALE
 40
1.0
  9
$OSMODE
 70
    37
  9
$ATTMODE
 70
     1
  9
$TEXTSIZE
 40
0.2
  9
$TRACEWID
 40
0.05
  9
$TEXTSTYLE
  7
STANDARD
  9
$CLAYER
  8
SHIJIAHE
  9
$CELTYPE
  6
BYLAYER
  9
$CECOLOR
 62
   256
  9
$DIMSCALE
 40
1.0
  9
$DIMASZ
 40
0.18
  9
$DIMEXO
 40
0.0625
  9
$DIMDLI
 40
0.38
  9
$DIMRND
 40
0.0
  9
$DIMDLE
 40
0.0
  9
$DIMEXE
 40
0.18
  9
$DIMTP
 40
0.0
  9
$DIMTM
 40
0.0
  9
$DIMTXT
 40
0.18
  9
$DIMCEN
 40
0.09
  9
$DIMTSZ
 40
0.0
  9
$DIMTOL
 70
     0
  9
$DIMLIM
 70
     0
  9
$DIMTIH
 70
     1
  9
$DIMTOH
 70
     1
  9
$DIMSE1
 70
     0
  9
$DIMSE2
 70
     0
  9
$DIMTAD
 70
     0
  9
$DIMZIN
 70
     0
  9
$DIMBLK
  1

  9
$DIMASO
 70
     1
  9
$DIMSHO
 70
     1
  9
$DIMPOST
  1

  9
$DIMAPOST
  1

  9
$DIMALT
 70
     0
  9
$DIMALTD
 70
     2
  9
$DIMALTF
 40
25.399999999999999
  9
$DIMLFAC
 40
1.0
  9
$DIMTOFL
 70
     0
  9
$DIMTVP
 40
0.0
  9
$DIMTIX
 70
     0
  9
$DIMSOXD
 70
     0
  9
$DIMSAH
 70
     0
  9
$DIMBLK1
  1

  9
$DIMBLK2
  1

  9
$DIMSTYLE
  2
STANDARD
  9
$DIMCLRD
 70
     0
  9
$DIMCLRE
 70
     0
  9
$DIMCLRT
 70
     0
  9
$DIMTFAC
 40
1.0
  9
$DIMGAP
 40
0.09
  9
$LUNITS
 70
     2
  9
$LUPREC
 70
     4
  9
$SKETCHINC
 40
0.1
  9
$FILLETRAD
 40
0.0
  9
$AUNITS
 70
     0
  9
$AUPREC
 70
     0
  9
$MENU
  1
.
  9
$ELEVATION
 40
0.0
  9
$PELEVATION
 40
0.0
  9
$THICKNESS
 40
0.0
  9
$LIMCHECK
 70
     0
  9
$BLIPMODE
 70
     0
  9
$CHAMFERA
 40
0.0
  9
$CHAMFERB
 40
0.0
  9
$SKPOLY
 70
     0
  9
$TDCREATE
 40
2457105.2334777541
  9
$TDUPDATE
 40
2457620.4974837271
  9
$TDINDWG
 40
0.0650251852
  9
$TDUSRTIMER
 40
0.0650199074
  9
$USRTIMER
 70
     1
  9
$ANGBASE
 50
0.0
  9
$ANGDIR
 70
     0
  9
$PDMODE
 70
     0
  9
$PDSIZE
 40
0.0
  9
$PLINEWID
 40
0.0
  9
$COORDS
 70
     1
  9
$SPLFRAME
 70
     0
  9
$SPLINETYPE
 70
     6
  9
$SPLINESEGS
 70
     8
  9
$ATTDIA
 70
     1
  9
$ATTREQ
 70
     1
  9
$HANDLING
 70
     1
  9
$HANDSEED
  5
953
  9
$SURFTAB1
 70
     6
  9
$SURFTAB2
 70
     6
  9
$SURFTYPE
 70
     6
  9
$SURFU
 70
     6
  9
$SURFV
 70
     6
  9
$UCSNAME
  2

  9
$UCSORG
 10
0.0
 20
0.0
 30
0.0
  9
$UCSXDIR
 10
1.0
 20
0.0
 30
0.0
  9
$UCSYDIR
 10
0.0
 20
1.0
 30
0.0
  9
$PUCSNAME
  2

  9
$PUCSORG
 10
0.0
 20
0.0
 30
0.0
  9
$PUCSXDIR
 10
1.0
 20
0.0
 30
0.0
  9
$PUCSYDIR
 10
0.0
 20
1.0
 30
0.0
  9
$USERI1
 70
     0
  9
$USERI2
 70
     0
  9
$USERI3
 70
     0
  9
$USERI4
 70
     0
  9
$USERI5
 70
     0
  9
$USERR1
 40
0.0
  9
$USERR2
 40
0.0
  9
$USERR3
 40
0.0
  9
$USERR4
 40
0.0
  9
$USERR5
 40
0.0
  9
$WORLDVIEW
 70
     1
  9
$SHADEDGE
 70
     3
  9
$SHADEDIF
 70
    70
  9
$TILEMODE
 70
     1
  9
$MAXACTVP
 70
    64
  9
$PLIMCHECK
 70
     0
  9
$PEXTMIN
 10
0.0
 20
0.0
 30
0.0
  9
$PEXTMAX
 10
0.0
 20
0.0
 30
0.0
  9
$PLIMMIN
 10
0.0
 20
0.0
  9
$PLIMMAX
 10
12.0
 20
9.0
  9
$UNITMODE
 70
     0
  9
$VISRETAIN
 70
     1
  9
$PLINEGEN
 70
     0
  9
$PSLTSCALE
 70
     1
  0
ENDSEC
  0
SECTION
  2
TABLES
  0
TABLE
  2
VPORT
 70
     1
  0
VPORT
  2
*ACTIVE
 70
     0
 10
0.0
 20
0.0
 11
1.0
 21
1.0
 12
725234.10673570156
 22
3413016.987437523
 13
0.0
 23
0.0
 14
0.5
 24
0.5
 15
0.5
 25
0.5
 16
0.0
 26
0.0
 36
1.0
 17
5.1181586671325601
 27
7.0859848490330393
 37
-0.8446473595225725
 40
77184.181905738544
 41
1.1002570694087399
 42
50.0
 43
0.0
 44
0.0
 50
0.0
 51
0.0
 71
     0
 72
  1000
 73
     1
 74
     3
 75
     0
 76
     0
 77
     0
 78
     0
  0
ENDTAB
  0
TABLE
  2
LTYPE
 70
     1
  0
LTYPE
  2
CONTINUOUS
 70
     0
  3
Solid line
 72
    65
 73
     0
 40
0.0
  0
ENDTAB
  0
TABLE
  2
LAYER
 70
     2
  0
LAYER
  2
0
 70
     0
 62
    -7
  6
CONTINUOUS
  0
LAYER
  2
SHIJIAHE
 70
     0
 62
     6
  6
CONTINUOUS
  0
ENDTAB
  0
TABLE
  2
STYLE
 70
     1
  0
STYLE
  2
STANDARD
 70
     0
 40
0.0
 41
1.0
 50
0.0
 71
     0
 42
0.2
  3
txt
  4

  0
ENDTAB
  0
TABLE
  2
VIEW
 70
     0
  0
ENDTAB
  0
TABLE
  2
UCS
 70
     0
  0
ENDTAB
  0
TABLE
  2
APPID
 70
     6
  0
APPID
  2
ACAD
 70
     0
  0
APPID
  2
ACAD_NAV_VCDISPLAY
 70
     0
  0
APPID
  2
ADE
 70
     0
  0
APPID
  2
DCO15
 70
     0
  0
APPID
  2
IRD
 70
     0
  0
APPID
  2
ADE_PROJECTION
 70
     0
  0
ENDTAB
  0
TABLE
  2
DIMSTYLE
 70
     1
  0
DIMSTYLE
  2
STANDARD
 70
     0
  3

  4

  5

  6

  7

 40
1.0
 41
0.18
 42
0.0625
 43
0.38
 44
0.18
 45
0.0
 46
0.0
 47
0.0
 48
0.0
140
0.18
141
0.09
142
0.0
143
25.399999999999999
144
1.0
145
0.0
146
1.0
147
0.09
 71
     0
 72
     0
 73
     1
 74
     1
 75
     0
 76
     0
 77
     0
 78
     0
170
     0
171
     2
172
     0
173
     0
174
     0
175
     0
176
     0
177
     0
178
     0
  0
ENDTAB
  0
ENDSEC
  0
SECTION
  2
BLOCKS
  0
BLOCK
  8
0
  2
$MODEL_SPACE
 70
     0
 10
0.0
 20
0.0
 30
0.0
  3
$MODEL_SPACE
  1

  0
ENDBLK
  5
17
  8
0
  0
BLOCK
 67
     1
  8
0
  2
$PAPER_SPACE
 70
     0
 10
0.0
 20
0.0
 30
0.0
  3
$PAPER_SPACE
  1

  0
ENDBLK
  5
1C
 67
     1
  8
0
  0
ENDSEC
  0
SECTION
  2
ENTITIES
  0
POLYLINE
  5
60
  8
SHIJIAHE
 66
     1
 10
0.0
 20
0.0
 30
0.06
 70
     1
1001
DCO15
1071
        2
1071
        2
1000
unitlink
1004
0743363300
1071
        1
1000
Link
1004
0743363300
1001
ADE
1011
-12.668044504942371
1021
0.0
1031
-0.0
1021
5.9315110198222092
1031
0.0
1001
IRD
1002
{
1000
TPMLINK_Unit_topology-_-ade
1070
   515
1071
        1
1004
01008F030000CD000000CD000000000000007E35402B75D174407E35402B75D174408E03000000000000
1002
}
  0
VERTEX
  5
153
  8
SHIJIAHE
 10
727849.80414173391
 20
3420408.7031007651
 30
0.06
  0
VERTEX
  5
154
  8
SHIJIAHE
 10
727851.58604540245
 20
3420321.4266441748
 30
0.06
  0
VERTEX
  5
155
  8
SHIJIAHE
 10
727931.33359312976
 20
3420353.9327154509
 30
0.06
  0
VERTEX
  5
156
  8
SHIJIAHE
 10
727916.63147275674
 20
3420438.982596653
 30
0.06
  0
VERTEX
  5
157
  8
SHIJIAHE
 10
727849.80414173391
 20
3420408.7031007651
 30
0.06
  0
SEQEND
  5
158
  8
SHIJIAHE
  0
POLYLINE
  5
63
  8
SHIJIAHE
 66
     1
 10
0.0
 20
0.0
 30
0.06
 70
     1
1001
DCO15
1071
        4
1071
        4
1000
unitlink
1004
0742323800
1071
        3
1000
Link
1004
0742323800
1001
ADE
1011
-19.059912444790822
1021
0.0
1031
-0.0
1021
13.66702029528096
1031
0.0
1001
IRD
1002
{
1000
TPMLINK_Unit_topology-_-ade
1070
   515
1071
        1
1004
0100900300006E0000006E000000000000007A15386AF7ED79407A15386AF7ED7940000000008D030000
1002
}
  0
VERTEX
  5
159
  8
SHIJIAHE
 10
730555.24084660597
 20
3422296.63639744
 30
0.06
  0
VERTEX
  5
15A
  8
SHIJIAHE
 10
730659.53900161386
 20
3422300.6793227112
 30
0.06
  0
VERTEX
  5
15B
  8
SHIJIAHE
 10
730659.53900161386
 20
3422180.2452499489
 30
0.06
  0
VERTEX
  5
15C
  8
SHIJIAHE
 10
730551.19116543955
 20
3422223.2597198309
 30
0.06
  0
VERTEX
  5
15D
  8
SHIJIAHE
 10
730555.24084660597
 20
3422296.63639744
 30
0.06
  0
SEQEND
  5
15E
  8
SHIJIAHE
  0
POLYLINE
  5
64
  8
SHIJIAHE
 66
     1
 10
0.0
 20
0.0
 30
0.125
 70
     1
1001
DCO15
1071
        4
1071
        4
1000
unitlink
1004
0741313900
1071
        3
1000
Link
1004
0741313900
1001
ADE
1011
-9.2252877042628825
1021
0.0
1031
-0.0
1021
0.0357214058749378
1031
0.0
1001
IRD
1002
{
1000
TPMLINK_Unit_topology-_-ade
1070
   515
1071
        2
1004
010093030000A6000000A600000000000000A7AD0F6069AC6640A7AD0F6069AC6640000000008A030000
1002
}
  0
VERTEX
  5
15F
  8
SHIJIAHE
 10
726998.80344839103
 20
3422010.7978628301
 30
0.125
  0
VERTEX
  5
160
  8
SHIJIAHE
 10
726998.40129561815
 20
3422055.502542044
 30
0.125
  0
VERTEX
  5
161
  8
SHIJIAHE
 10
727022.57891412824
 20
3422069.1957480181
 30
0.125
  0
VERTEX
  5
162
  8
SHIJIAHE
 10
727037.75412478484
 20
3422042.404692851
 30
0.125
  0
VERTEX
  5
163
  8
SHIJIAHE
 10
727041.12639381934
 20
3422027.9388460768
 30
0.125
  0
VERTEX
  5
164
  8
SHIJIAHE
 10
727035.01444501546
 20
3422022.9309845208
 30
0.125
  0
VERTEX
  5
165
  8
SHIJIAHE
 10
727035.01444501546
 20
3422004.3600714998
 30
0.125
  0
VERTEX
  5
166
  8
SHIJIAHE
 10
726998.80344839103
 20
3422010.7978628301
 30
0.125
  0
SEQEND
  5
167
  8
SHIJIAHE
  0
POLYLINE
  5
65
  8
SHIJIAHE
 66
     1
 10
0.0
 20
0.0
 30
0.125
 70
     1
1001
DCO15
1071
        4
1071
        4
1000
unitlink
1004
0741313800
1071
        3
1000
Link
1004
0741313800
1001
ADE
1011
-7.9752224583644411
1021
0.0
1031
-0.0
1021
-0.1230404023081064
1031
0.0
1001
IRD
1002
{
1000
TPMLINK_Unit_topology-_-ade
1070
   515
1071
        2
1004
010094030000A0000000A0000000000000009B5E7AF74C3E68409B5E7AF74C3E68408903000000000000
1002
}
  0
VERTEX
  5
168
  8
SHIJIAHE
 10
727073.29861564504
 20
3422043.0476781749
 30
0.125
  0
VERTEX
  5
169
  8
SHIJIAHE
 10
727077.67868921824
 20
3422068.4019389749
 30
0.125
  0
VERTEX
  5
16A
  8
SHIJIAHE
 10
727091.5892989859
 20
3422089.0833105482
 30
0.125
  0
VERTEX
  5
16B
  8
SHIJIAHE
 10
727056.98477966723
 20
3422110.65639428
 30
0.125
  0
VERTEX
  5
16C
  8
SHIJIAHE
 10
727042.17780528485
 20
3422087.122602215
 30
0.125
  0
VERTEX
  5
16D
  8
SHIJIAHE
 10
727037.00311659381
 20
3422069.2936511319
 30
0.125
  0
VERTEX
  5
16E
  8
SHIJIAHE
 10
727040.03622063983
 20
3422046.828855244
 30
0.125
  0
VERTEX
  5
16F
  8
SHIJIAHE
 10
727073.29861564504
 20
3422043.0476781749
 30
0.125
  0
SEQEND
  5
170
  8
SHIJIAHE
  0
POLYLINE
  5
66
  8
SHIJIAHE
 66
     1
 10
0.0
 20
0.0
 30
0.125
 70
     1
1001
DCO15
1071
        4
1071
        4
1000
unitlink
1004
0741313700
1071
        3
1000
Link
1004
0741313700
1001
ADE
1011
-7.1006613074569032
1021
0.0
1031
-0.0
1021
-0.0277833160944283
1031
0.0
1001
IRD
1002
{
1000
TPMLINK_Unit_topology-_-ade
1070
   515
1071
        2
1004
0100950300009300000093000000000000002E828C738E6065402E828C738E6065400000000088030000
1002
}
  0
VERTEX
  5
171
  8
SHIJIAHE
 10
727060.65745197795
 20
3422112.6038724631
 30
0.125
  0
VERTEX
  5
172
  8
SHIJIAHE
 10
727097.76210178796
 20
3422144.7319704201
 30
0.125
  0
VERTEX
  5
173
  8
SHIJIAHE
 10
727126.57659022138
 20
3422119.533825398
 30
0.125
  0
VERTEX
  5
174
  8
SHIJIAHE
 10
727094.87919938075
 20
3422090.5545033058
 30
0.125
  0
VERTEX
  5
175
  8
SHIJIAHE
 10
727060.65745197795
 20
3422112.6038724631
 30
0.125
  0
SEQEND
  5
176
  8
SHIJIAHE
  0
POLYLINE
  5
67
  8
SHIJIAHE
 66
     1
 10
0.0
 20
0.0
 30
0.06
 70
     1
1001
DCO15
1071
        4
1071
        4
1000
unitlink
1004
0743313500
1071
        3
1000
Link
1004
0743313500
1001
ADE
1011
-18.145326917525381
1021
0.0
1031
-0.0
1021
6.603168214671312
1031
0.0
1001
IRD
1002
{
1000
TPMLINK_Unit_topology-_-ade
1070
   515
1071
        2
1004
010098030000150000001500000000000000A2E91BD5C7917940A2E91BD5C79179408503000000000000
1002
}
  0
VERTEX
  5
177
  8
SHIJIAHE
 10
726405.88035155705
 20
3422775.278306724
 30
0.06
  0
VERTEX
  5
178
  8
SHIJIAHE
 10
726403.45745255635
 20
3422673.6257668398
 30
0.06
  0
VERTEX
  5
179
  8
SHIJIAHE
 10
726403.45745255635
 20
3422673.6257668398
 30
0.06
  0
VERTEX
  5
17A
  8
SHIJIAHE
 10
726403.45745255635
 20
3422673.6257668398
 30
0.06
  0
VERTEX
  5
17B
  8
SHIJIAHE
 10
726403.45745255635
 20
3422669.0269664568
 30
0.06
  0
VERTEX
  5
17C
  8
SHIJIAHE
 10
726502.95876993705
 20
3422669.0269664568
 30
0.06
  0
VERTEX
  5
17D
  8
SHIJIAHE
 10
726502.95876993705
 20
3422775.278306724
 30
0.06
  0
VERTEX
  5
17E
  8
SHIJIAHE
 10
726463.28131142375
 20
3422775.278306724
 30
0.06
  0
VERTEX
  5
17F
  8
SHIJIAHE
 10
726435.16453382559
 20
3422775.278306724
 30
0.06
  0
VERTEX
  5
180
  8
SHIJIAHE
 10
726405.88035155705
 20
3422775.278306724
 30
0.06
  0
SEQEND
  5
181
  8
SHIJIAHE
  0
POLYLINE
  5
68
  8
SHIJIAHE
 66
     1
 10
0.0
 20
0.0
 30
0.6179775280898876
 70
     1
1001
DCO15
1071
        4
1071
        4
1000
unitlink
1004
074332323100
1071
        3
1000
Link
1004
074332323100
1001
ADE
1011
-10.545608554850331
1021
0.0
1031
-0.0
1021
-6.050147915724664
1031
0.0
1001
IRD
1002
{
1000
TPMLINK_Unit_topology-_-ade
1070
   515
1071
        2
1004
0100990300007F0100007F010000000000007FCEB398827278407FCEB398827278400000000084030000
1002
}
  0
VERTEX
  5
182
  8
SHIJIAHE
 10
720377.79411324556
 20
3414476.3566949922
 30
0.6179775280898876
  0
VERTEX
  5
183
  8
SHIJIAHE
 10
720353.30155581702
 20
3414485.681305205
 30
0.6179775280898876
  0
VERTEX
  5
184
  8
SHIJIAHE
 10
720353.22887760517
 20
3414499.3798032389
 30
0.6179775280898876
  0
VERTEX
  5
185
  8
SHIJIAHE
 10
720359.10127713066
 20
3414525.546395292
 30
0.6179775280898876
  0
VERTEX
  5
186
  8
SHIJIAHE
 10
720370.11444884911
 20
3414549.7575710728
 30
0.6179775280898876
  0
VERTEX
  5
187
  8
SHIJIAHE
 10
720382.86705243925
 20
3414576.3316517668
 30
0.6179775280898876
  0
VERTEX
  5
188
  8
SHIJIAHE
 10
720395.80377416778
 20
3414589.8740340229
 30
0.6179775280898876
  0
VERTEX
  5
189
  8
SHIJIAHE
 10
720404.95222575846
 20
3414599.4507901049
 30
0.6179775280898876
  0
VERTEX
  5
18A
  8
SHIJIAHE
 10
720415.11679769133
 20
3414602.627899297
 30
0.6179775280898876
  0
VERTEX
  5
18B
  8
SHIJIAHE
 10
720428.15042370197
 20
3414602.627899297
 30
0.6179775280898876
  0
VERTEX
  5
18C
  8
SHIJIAHE
 10
720443.30140828725
 20
3414597.9338418292
 30
0.6179775280898876
  0
VERTEX
  5
18D
  8
SHIJIAHE
 10
720452.14392407506
 20
3414595.0549610369
 30
0.6179775280898876
  0
VERTEX
  5
18E
  8
SHIJIAHE
 10
720444.57085438923
 20
3414481.807517081
 30
0.6179775280898876
  0
VERTEX
  5
18F
  8
SHIJIAHE
 10
720389.54912474123
 20
3414488.5654871701
 30
0.6179775280898876
  0
VERTEX
  5
190
  8
SHIJIAHE
 10
720382.66355344665
 20
3414486.607415753
 30
0.6179775280898876
  0
VERTEX
  5
191
  8
SHIJIAHE
 10
720381.63152283628
 20
3414482.7600879292
 30
0.6179775280898876
  0
VERTEX
  5
192
  8
SHIJIAHE
 10
720377.79411324556
 20
3414476.3566949922
 30
0.6179775280898876
  0
SEQEND
  5
193
  8
SHIJIAHE
  0
POLYLINE
  5
69
  8
SHIJIAHE
 66
     1
 10
0.0
 20
0.0
 30
0.03125
 70
     1
1001
DCO15
1071
        4
1071
        4
1000
unitlink
1004
074132353400
1071
        3
1000
Link
1004
074132353400
1001
ADE
1011
-24.378562266123481
1021
0.0
1031
-0.0
1021
9.7789249308407271
1031
0.0
1001
IRD
1002
{
1000
TPMLINK_Unit_topology-_-ade
1070
   515
1071
        2
1004
01009A030000AE010000AE01000000000000C521B8D0C71D7040C521B8D0C71D70408303000000000000
1002
}
  0
VERTEX
  5
194
  8
SHIJIAHE
 10
720612.12427385058
 20
3414245.4291283251
 30
0.03125
  0
VERTEX
  5
195
  8
SHIJIAHE
 10
720604.49562187318
 20
3414310.069403606
 30
0.03125
  0
VERTEX
  5
196
  8
SHIJIAHE
 10
720528.20887725975
 20
3414299.4617650681
 30
0.03125
  0
VERTEX
  5
197
  8
SHIJIAHE
 10
720528.20887725975
 20
3414271.6167484368
 30
0.03125
  0
VERTEX
  5
198
  8
SHIJIAHE
 10
720612.12427385058
 20
3414245.4291283251
 30
0.03125
  0
SEQEND
  5
199
  8
SHIJIAHE
  0
POLYLINE
  5
6A
  8
SHIJIAHE
 66
     1
 10
0.0
 20
0.0
 30
0.012
 70
     1
1001
ADE
1011
2.1662232298403961
1021
0.0
1031
-0.0
1021
-4.9322001566179079
1031
0.0
1001
IRD
1002
{
1000
TPMLINK_Unit_topology-_-ade
1070
   515
1071
        5
1004
01009C030000310100003101000000000000C08108F573537840C08108F573537840D301000000000000
1002
}
1001
DCO15
1071
        5
1071
        5
1000
unitlink
1004
074332303400
1071
        4
1000
Link
1004
074332303400
  0
VERTEX
  5
19A
  8
SHIJIAHE
 10
719942.50310500362
 20
3414900.7315330999
 30
0.012
  0
VERTEX
  5
19B
  8
SHIJIAHE
 10
719970.89682623371
 20
3414904.8435108862
 30
0.012
  0
VERTEX
  5
19C
  8
SHIJIAHE
 10
719995.16330194753
 20
3414908.8863666202
 30
0.012
  0
VERTEX
  5
19D
  8
SHIJIAHE
 10
720005.68669369817
 20
3414909.9233286949
 30
0.012
  0
VERTEX
  5
19E
  8
SHIJIAHE
 10
720004.38795856014
 20
3414965.9542826619
 30
0.012
  0
VERTEX
  5
19F
  8
SHIJIAHE
 10
720003.65656625631
 20
3414997.508529034
 30
0.012
  0
VERTEX
  5
1A0
  8
SHIJIAHE
 10
720003.29656680801
 20
3415013.0398809812
 30
0.012
  0
VERTEX
  5
1A1
  8
SHIJIAHE
 10
719981.96854326886
 20
3415026.8557434059
 30
0.012
  0
VERTEX
  5
1A2
  8
SHIJIAHE
 10
719948.96911945834
 20
3415024.155910288
 30
0.012
  0
VERTEX
  5
1A3
  8
SHIJIAHE
 10
719921.20115634426
 20
3415017.1146010612
 30
0.012
  0
VERTEX
  5
1A4
  8
SHIJIAHE
 10
719906.25090863206
 20
3415008.4724123068
 30
0.012
  0
VERTEX
  5
1A5
  8
SHIJIAHE
 10
719907.42891192797
 20
3414997.0726265442
 30
0.012
  0
VERTEX
  5
1A6
  8
SHIJIAHE
 10
719921.57735943049
 20
3414978.5934490031
 30
0.012
  0
VERTEX
  5
1A7
  8
SHIJIAHE
 10
719935.19900160423
 20
3414961.3689669459
 30
0.012
  0
SEQEND
  5
1A8
  8
SHIJIAHE
  0
POLYLINE
  5
6B
  8
SHIJIAHE
 66
     1
 10
0.0
 20
0.0
 30
0.06
 70
     1
1001
ADE
1011
-11.07609512272756
1021
0.0
1031
-0.0
1021
0.4675442879088223
1031
0.0
1001
IRD
1002
{
1000
TPMLINK_Unit_topology-_-ade
1070
   515
1071
        5
1004
01009E030000CF000000CF00000000000000CE21A206F84D6840CE21A206F84D6840000000007E030000
1002
}
1001
DCO15
1071
        5
1071
        5
1000
unitlink
1004
0742363300
1071
        4
1000
Link
1004
0742363300
  0
VERTEX
  5
1A9
  8
SHIJIAHE
 10
724832.97406412661
 20
3420255.66145674
 30
0.06
  0
VERTEX
  5
1AA
  8
SHIJIAHE
 10
724873.17265074712
 20
3420246.254465681
 30
0.06
  0
VERTEX
  5
1AB
  8
SHIJIAHE
 10
724859.47075720865
 20
3420193.0105222501
 30
0.06
  0
VERTEX
  5
1AC
  8
SHIJIAHE
 10
724815.40508565295
 20
3420206.6815172099
 30
0.06
  0
VERTEX
  5
1AD
  8
SHIJIAHE
 10
724832.97406412661
 20
3420255.66145674
 30
0.06
  0
SEQEND
  5
1AE
  8
SHIJIAHE
  0
POLYLINE
  5
6C
  8
SHIJIAHE
 66
     1
 10
0.0
 20
0.0
 30
1.1999999999999991
 70
     1
1001
ADE
1011
-16.733497161534611
1021
0.0
1031
-0.0
1021
-4.7221973021514723
1031
0.0
1001
IRD
1002
{
1000
TPMLINK_Unit_topology-_-ade
1070
   515
1071
        5
1004
0100A00300008600000086000000000000009EF17A20C23275409EF17A20C23275407C03000000000000
1002
}
1001
DCO15
1071
        5
1071
        5
1000
unitlink
1004
0742333600
1071
        4
1000
Link
1004
0742333600
  0
VERTEX
  5
1AF
  8
SHIJIAHE
 10
729227.27157945186
 20
3422181.4950776361
 30
1.1999999999999991
  0
VERTEX
  5
1B0
  8
SHIJIAHE
 10
729221.59030652035
 20
3422105.6780960192
 30
1.1999999999999991
  0
VERTEX
  5
1B1
  8
SHIJIAHE
 10
729221.73353188485
 20
3422101.096162003
 30
1.1999999999999991
  0
VERTEX
  5
1B2
  8
SHIJIAHE
 10
729310.19906751812
 20
3422097.8794573061
 30
1.1999999999999991
  0
VERTEX
  5
1B3
  8
SHIJIAHE
 10
729317.02614339441
 20
3422177.7921268819
 30
1.1999999999999991
  0
VERTEX
  5
1B4
  8
SHIJIAHE
 10
729227.27157945186
 20
3422181.4950776361
 30
1.1999999999999991
  0
SEQEND
  5
1B5
  8
SHIJIAHE
  0
POLYLINE
  5
6D
  8
SHIJIAHE
 66
     1
 10
0.0
 20
0.0
 30
0.06
 70
     1
1001
ADE
1011
-7.3089061285136268
1021
0.0
1031
-0.0
1021
-8.6598131936043501
1031
0.0
1001
IRD
1002
{
1000
TPMLINK_Unit_topology-_-ade
1070
   515
1071
        5
1004
0100A1030000CA000000CA000000000000006297545C89FA73406297545C89FA73407B03000000000000
1002
}
1001
DCO15
1071
        5
1071
        5
1000
unitlink
1004
0743363700
1071
        4
1000
Link
1004
0743363700
  0
VERTEX
  5
1B6
  8
SHIJIAHE
 10
728746.46492563572
 20
3420997.7918094159
 30
0.06
  0
VERTEX
  5
1B7
  8
SHIJIAHE
 10
728774.66195691761
 20
3420967.05330079
 30
0.06
  0
VERTEX
  5
1B8
  8
SHIJIAHE
 10
728811.27624382835
 20
3421000.2338042031
 30
0.06
  0
VERTEX
  5
1B9
  8
SHIJIAHE
 10
728831.95510019362
 20
3421027.9983983869
 30
0.06
  0
VERTEX
  5
1BA
  8
SHIJIAHE
 10
728837.58210533846
 20
3421061.9203655631
 30
0.06
  0
VERTEX
  5
1BB
  8
SHIJIAHE
 10
728842.31002976745
 20
3421075.5487919091
 30
0.06
  0
VERTEX
  5
1BC
  8
SHIJIAHE
 10
728800.51827806979
 20
3421083.8257841389
 30
0.06
  0
VERTEX
  5
1BD
  8
SHIJIAHE
 10
728790.39586937067
 20
3421056.2465558941
 30
0.06
  0
VERTEX
  5
1BE
  8
SHIJIAHE
 10
728775.29751397297
 20
3421036.2028561169
 30
0.06
  0
VERTEX
  5
1BF
  8
SHIJIAHE
 10
728746.46492563572
 20
3420997.7918094159
 30
0.06
  0
SEQEND
  5
1C0
  8
SHIJIAHE
  0
POLYLINE
  5
6E
  8
SHIJIAHE
 66
     1
 10
0.0
 20
0.0
 30
0.06
 70
     1
1001
ADE
1011
-12.55612717953044
1021
0.0
1031
-0.0
1021
-3.9128332287073122
1031
0.0
1001
IRD
1002
{
1000
TPMLINK_Unit_topology-_-ade
1070
   515
1071
        5
1004
0100A2030000D3000000D30000000000000087DB8B771D087D4087DB8B771D087D40000000007A030000
1002
}
1001
DCO15
1071
        5
1071
        5
1000
unitlink
1004
0743393900
1071
        4
1000
Link
1004
0743393900
  0
VERTEX
  5
1C1
  8
SHIJIAHE
 10
727989.28395256028
 20
3420158.7691453961
 30
0.06
  0
VERTEX
  5
1C2
  8
SHIJIAHE
 10
728034.37750066433
 20
3420190.4667212809
 30
0.06
  0
VERTEX
  5
1C3
  8
SHIJIAHE
 10
728051.63054949045
 20
3420184.9057430541
 30
0.06
  0
VERTEX
  5
1C4
  8
SHIJIAHE
 10
728068.8835983203
 20
3420167.6667105551
 30
0.06
  0
VERTEX
  5
1C5
  8
SHIJIAHE
 10
728076.12274818856
 20
3420143.7625635732
 30
0.06
  0
VERTEX
  5
1C6
  8
SHIJIAHE
 10
728067.20944802836
 20
3420125.4113354292
 30
0.06
  0
VERTEX
  5
1C7
  8
SHIJIAHE
 10
727959.92431690905
 20
3420036.9434253089
 30
0.06
  0
VERTEX
  5
1C8
  8
SHIJIAHE
 10
727908.70771913265
 20
3420106.5523657938
 30
0.06
  0
VERTEX
  5
1C9
  8
SHIJIAHE
 10
727989.28395256028
 20
3420158.7691453961
 30
0.06
  0
SEQEND
  5
1CA
  8
SHIJIAHE
  0
POLYLINE
  5
6F
  8
SHIJIAHE
 66
     1
 10
0.0
 20
0.0
 30
0.06
 70
     1
1001
ADE
1011
-30.072699662414379
1021
0.0
1031
-0.0
1021
-20.75292598828673
1031
0.0
1001
IRD
1002
{
1000
TPMLINK_Unit_topology-_-ade
1070
   515
1071
        5
1004
0100A3030000D9000000D9000000000000000C2A229B70077A400C2A229B70077A400000000076030000
1002
}
1001
DCO15
1071
        5
1071
        5
1000
unitlink
1004
074331303800
1071
        4
1000
Link
1004
074331303800
  0
VERTEX
  5
1CB
  8
SHIJIAHE
 10
728710.53269995376
 20
3419521.1909027458
 30
0.06
  0
VERTEX
  5
1CC
  8
SHIJIAHE
 10
728800.00673215091
 20
3419583.8284719782
 30
0.06
  0
VERTEX
  5
1CD
  8
SHIJIAHE
 10
728820.06553285196
 20
3419460.221626983
 30
0.06
  0
VERTEX
  5
1CE
  8
SHIJIAHE
 10
728723.07332574215
 20
3419439.339750777
 30
0.06
  0
VERTEX
  5
1CF
  8
SHIJIAHE
 10
728710.53269995376
 20
3419521.1909027458
 30
0.06
  0
SEQEND
  5
1D0
  8
SHIJIAHE
  0
POLYLINE
  5
70
  8
SHIJIAHE
 66
     1
 10
0.0
 20
0.0
 30
0.06
 70
     1
1001
ADE
1011
-19.08221303299069
1021
0.0
1031
-0.0
1021
5.3353153420612198
1031
0.0
1001
IRD
1002
{
1000
TPMLINK_Unit_topology-_-ade
1070
   515
1071
        5
1004
0100A4030000DD000000DD000000000000006F9D72CF88BC78406F9D72CF88BC78400000000077030000
1002
}
1001
DCO15
1071
        5
1071
        5
1000
unitlink
1004
074331303700
1071
        4
1000
Link
1004
074331303700
  0
VERTEX
  5
1D1
  8
SHIJIAHE
 10
728295.59145016596
 20
3419069.7925992152
 30
0.06
  0
VERTEX
  5
1D2
  8
SHIJIAHE
 10
728375.34610983741
 20
3419146.0988917369
 30
0.06
  0
VERTEX
  5
1D3
  8
SHIJIAHE
 10
728435.66202447191
 20
3419077.8278097799
 30
0.06
  0
VERTEX
  5
1D4
  8
SHIJIAHE
 10
728378.69441042095
 20
3419007.5418806421
 30
0.06
  0
VERTEX
  5
1D5
  8
SHIJIAHE
 10
728295.59145016596
 20
3419069.7925992152
 30
0.06
  0
SEQEND
  5
1D6
  8
SHIJIAHE
  0
POLYLINE
  5
71
  8
SHIJIAHE
 66
     1
 10
0.0
 20
0.0
 30
0.06
 70
     1
1001
ADE
1011
-8.5102639759425074
1021
0.0
1031
-0.0
1021
-8.0271511771716177
1031
0.0
1001
IRD
1002
{
1000
TPMLINK_Unit_topology-_-ade
1070
   515
1071
        5
1004
0100A5030000DB000000DB00000000000000FCB2A23652B67740FCB2A23652B677407903000000000000
1002
}
1001
DCO15
1071
        5
1071
        5
1000
unitlink
1004
0743383700
1071
        4
1000
Link
1004
0743383700
  0
VERTEX
  5
1D7
  8
SHIJIAHE
 10
728067.4574702942
 20
3419256.5044579851
 30
0.06
  0
VERTEX
  5
1D8
  8
SHIJIAHE
 10
728106.90851186204
 20
3419179.2229794278
 30
0.06
  0
VERTEX
  5
1D9
  8
SHIJIAHE
 10
728182.01275406405
 20
3419221.6556611061
 30
0.06
  0
VERTEX
  5
1DA
  8
SHIJIAHE
 10
728141.04257611942
 20
3419321.6646158891
 30
0.06
  0
VERTEX
  5
1DB
  8
SHIJIAHE
 10
728067.4574702942
 20
3419256.5044579851
 30
0.06
  0
SEQEND
  5
1DC
  8
SHIJIAHE
  0
POLYLINE
  5
72
  8
SHIJIAHE
 66
     1
 10
0.0
 20
0.0
 30
0.06
 70
     1
1001
ADE
1011
-9.7968794795451686
1021
0.0
1031
-0.0
1021
-8.9338324116542935
1031
0.0
1001
IRD
1002
{
1000
TPMLINK_Unit_topology-_-ade
1070
   515
1071
        5
1004
0100A6030000DC000000DC00000000000000DDEFB2572B107940DDEFB2572B1079400000000078030000
1002
}
1001
DCO15
1071
        5
1071
        5
1000
unitlink
1004
0743383600
1071
        4
1000
Link
1004
0743383600
  0
VERTEX
  5
1DD
  8
SHIJIAHE
 10
728153.93973391515
 20
3419186.7988048359
 30
0.06
  0
VERTEX
  5
1DE
  8
SHIJIAHE
 10
728177.45534494123
 20
3419189.8291349998
 30
0.06
  0
VERTEX
  5
1DF
  8
SHIJIAHE
 10
728200.97095596418
 20
3419163.31374607
 30
0.06
  0
VERTEX
  5
1E0
  8
SHIJIAHE
 10
728211.58940919861
 20
3419125.4346190249
 30
0.06
  0
VERTEX
  5
1E1
  8
SHIJIAHE
 10
728194.15034367156
 20
3419070.1230341522
 30
0.06
  0
VERTEX
  5
1E2
  8
SHIJIAHE
 10
728156.21843847667
 20
3419050.4258880909
 30
0.06
  0
VERTEX
  5
1E3
  8
SHIJIAHE
 10
728117.52696509624
 20
3419048.9107230082
 30
0.06
  0
VERTEX
  5
1E4
  8
SHIJIAHE
 10
728100.84746775776
 20
3419058.7592960401
 30
0.06
  0
VERTEX
  5
1E5
  8
SHIJIAHE
 10
728113.72912415862
 20
3419104.2142484919
 30
0.06
  0
VERTEX
  5
1E6
  8
SHIJIAHE
 10
728114.48869234684
 20
3419137.555939679
 30
0.06
  0
VERTEX
  5
1E7
  8
SHIJIAHE
 10
728153.93973391515
 20
3419186.7988048359
 30
0.06
  0
SEQEND
  5
1E8
  8
SHIJIAHE
  0
POLYLINE
  5
73
  8
SHIJIAHE
 66
     1
 10
0.0
 20
0.0
 30
0.06
 70
     1
1001
ADE
1011
-47.224989447742701
1021
0.0
1031
-0.0
1021
-13.49169572861865
1031
0.0
1001
IRD
1002
{
1000
TPMLINK_Unit_topology-_-ade
1070
   515
1071
        5
1004
0100A7030000DA000000DA0000000000000044888A75D9F4784044888A75D9F478407503000000000000
1002
}
1001
DCO15
1071
        5
1071
        5
1000
unitlink
1004
0743383200
1071
        4
1000
Link
1004
0743383200
  0
VERTEX
  5
1E9
  8
SHIJIAHE
 10
728468.89700802055
 20
3419361.5827682829
 30
0.06
  0
VERTEX
  5
1EA
  8
SHIJIAHE
 10
728477.93431931001
 20
3419292.9651326118
 30
0.06
  0
VERTEX
  5
1EB
  8
SHIJIAHE
 10
728581.59212480125
 20
3419294.7704356881
 30
0.06
  0
VERTEX
  5
1EC
  8
SHIJIAHE
 10
728606.90589724842
 20
3419310.421768608
 30
0.06
  0
VERTEX
  5
1ED
  8
SHIJIAHE
 10
728577.37574629101
 20
3419366.9986775122
 30
0.06
  0
VERTEX
  5
1EE
  8
SHIJIAHE
 10
728574.08591402392
 20
3419373.3016774789
 30
0.06
  0
VERTEX
  5
1EF
  8
SHIJIAHE
 10
728562.30839367595
 20
3419356.166859054
 30
0.06
  0
VERTEX
  5
1F0
  8
SHIJIAHE
 10
728552.13542352302
 20
3419341.3664603909
 30
0.06
  0
VERTEX
  5
1F1
  8
SHIJIAHE
 10
728527.35275566578
 20
3419344.126132288
 30
0.06
  0
VERTEX
  5
1F2
  8
SHIJIAHE
 10
728495.94308673847
 20
3419347.6237533321
 30
0.06
  0
VERTEX
  5
1F3
  8
SHIJIAHE
 10
728479.14342785277
 20
3419356.166859054
 30
0.06
  0
VERTEX
  5
1F4
  8
SHIJIAHE
 10
728468.89700802055
 20
3419361.5827682829
 30
0.06
  0
SEQEND
  5
1F5
  8
SHIJIAHE
  0
POLYLINE
  5
74
  8
SHIJIAHE
 66
     1
 10
0.0
 20
0.0
 30
0.06
 70
     1
1001
ADE
1011
-41.512726651737452
1021
0.0
1031
-0.0
1021
-12.54846825636923
1031
0.0
1001
IRD
1002
{
1000
TPMLINK_Unit_topology-_-ade
1070
   515
1071
        5
1004
0100A8030000DF000000DF000000000000000DB5B363044A7E400DB5B363044A7E407303000000000000
1002
}
1001
DCO15
1071
        5
1071
        5
1000
unitlink
1004
074331303600
1071
        4
1000
Link
1004
074331303600
  0
VERTEX
  5
1F6
  8
SHIJIAHE
 10
728498.13263253856
 20
3418997.0485565132
 30
0.06
  0
VERTEX
  5
1F7
  8
SHIJIAHE
 10
728490.2114214414
 20
3418920.6294325488
 30
0.06
  0
VERTEX
  5
1F8
  8
SHIJIAHE
 10
728646.9614930898
 20
3418933.806533128
 30
0.06
  0
VERTEX
  5
1F9
  8
SHIJIAHE
 10
728593.12516013545
 20
3418999.160116361
 30
0.06
  0
VERTEX
  5
1FA
  8
SHIJIAHE
 10
728541.93956514064
 20
3419048.177318634
 30
0.06
  0
VERTEX
  5
1FB
  8
SHIJIAHE
 10
728487.57618487254
 20
3419034.4763577869
 30
0.06
  0
VERTEX
  5
1FC
  8
SHIJIAHE
 10
728498.13263253856
 20
3418997.0485565132
 30
0.06
  0
SEQEND
  5
1FD
  8
SHIJIAHE
  0
POLYLINE
  5
75
  8
SHIJIAHE
 66
     1
 10
0.0
 20
0.0
 30
0.06
 70
     1
1001
ADE
1011
-27.91800623387099
1021
0.0
1031
-0.0
1021
-0.1732768574729562
1031
0.0
1001
IRD
1002
{
1000
TPMLINK_Unit_topology-_-ade
1070
   515
1071
        5
1004
0100A9030000E3000000E300000000000000EA41080A1DFB7940EA41080A1DFB79407403000000000000
1002
}
1001
DCO15
1071
        5
1071
        5
1000
unitlink
1004
074331303200
1071
        4
1000
Link
1004
074331303200
  0
VERTEX
  5
1FE
  8
SHIJIAHE
 10
727596.61820247024
 20
3418808.402444446
 30
0.06
  0
VERTEX
  5
1FF
  8
SHIJIAHE
 10
727697.16022825253
 20
3418796.5067866752
 30
0.06
  0
VERTEX
  5
200
  8
SHIJIAHE
 10
727711.14248345792
 20
3418904.0512699261
 30
0.06
  0
VERTEX
  5
201
  8
SHIJIAHE
 10
727614.94084731513
 20
3418915.9227495301
 30
0.06
  0
VERTEX
  5
202
  8
SHIJIAHE
 10
727596.61820247024
 20
3418808.402444446
 30
0.06
  0
SEQEND
  5
203
  8
SHIJIAHE
  0
POLYLINE
  5
76
  8
SHIJIAHE
 66
     1
 10
0.0
 20
0.0
 30
0.06
 70
     1
1001
ADE
1011
-20.113055573776371
1021
0.0
1031
-0.0
1021
8.2286358964629471
1031
0.0
1001
IRD
1002
{
1000
TPMLINK_Unit_topology-_-ade
1070
   515
1071
        5
1004
0100AB0300000700000007000000000000007B7A3292C2B575407B7A3292C2B57540000000006F030000
1002
}
1001
DCO15
1071
        5
1071
        5
1000
unitlink
1004
0743323800
1071
        4
1000
Link
1004
0743323800
  0
VERTEX
  5
204
  8
SHIJIAHE
 10
727020.04394268617
 20
3423176.8973943638
 30
0.06
  0
VERTEX
  5
205
  8
SHIJIAHE
 10
727025.2989144288
 20
3423203.4611396259
 30
0.06
  0
VERTEX
  5
206
  8
SHIJIAHE
 10
727033.77817562222
 20
3423223.3114140751
 30
0.06
  0
VERTEX
  5
207
  8
SHIJIAHE
 10
727054.53453894705
 20
3423229.7266875068
 30
0.06
  0
VERTEX
  5
208
  8
SHIJIAHE
 10
727085.21179288265
 20
3423224.7701634369
 30
0.06
  0
VERTEX
  5
209
  8
SHIJIAHE
 10
727109.77433163254
 20
3423220.8015939291
 30
0.06
  0
VERTEX
  5
20A
  8
SHIJIAHE
 10
727130.21233263635
 20
3423201.1239168951
 30
0.06
  0
VERTEX
  5
20B
  8
SHIJIAHE
 10
727121.15951995563
 20
3423184.4893385489
 30
0.06
  0
VERTEX
  5
20C
  8
SHIJIAHE
 10
727111.796679441
 20
3423160.8511513979
 30
0.06
  0
VERTEX
  5
20D
  8
SHIJIAHE
 10
727104.73170885595
 20
3423143.0143531882
 30
0.06
  0
VERTEX
  5
20E
  8
SHIJIAHE
 10
727087.25797657284
 20
3423124.946574592
 30
0.06
  0
VERTEX
  5
20F
  8
SHIJIAHE
 10
727063.58735163126
 20
3423118.2331037791
 30
0.06
  0
VERTEX
  5
210
  8
SHIJIAHE
 10
727047.80693500093
 20
3423125.5349099701
 30
0.06
  0
VERTEX
  5
211
  8
SHIJIAHE
 10
727037.5760165602
 20
3423133.1187947681
 30
0.06
  0
VERTEX
  5
212
  8
SHIJIAHE
 10
727025.00438798952
 20
3423146.255598403
 30
0.06
  0
VERTEX
  5
213
  8
SHIJIAHE
 10
727021.79559993371
 20
3423163.7686501169
 30
0.06
  0
VERTEX
  5
214
  8
SHIJIAHE
 10
727020.04394268617
 20
3423176.8973943638
 30
0.06
  0
SEQEND
  5
215
  8
SHIJIAHE
  0
POLYLINE
  5
77
  8
SHIJIAHE
 66
     1
 10
0.0
 20
0.0
 30
0.06
 70
     1
1001
ADE
1011
-18.93494981341064
1021
0.0
1031
-0.0
1021
3.2598595377057791
1031
0.0
1001
IRD
1002
{
1000
TPMLINK_Unit_topology-_-ade
1070
   515
1071
        5
1004
0100AC030000040000000400000000000000949F6E090DE47540949F6E090DE475400000000070030000
1002
}
1001
DCO15
1071
        5
1071
        5
1000
unitlink
1004
0743323700
1071
        4
1000
Link
1004
0743323700
  0
VERTEX
  5
216
  8
SHIJIAHE
 10
727113.3003144227
 20
3423259.2965847692
 30
0.06
  0
VERTEX
  5
217
  8
SHIJIAHE
 10
727115.73403290275
 20
3423283.0234251958
 30
0.06
  0
VERTEX
  5
218
  8
SHIJIAHE
 10
727127.91812668345
 20
3423293.37168033
 30
0.06
  0
VERTEX
  5
219
  8
SHIJIAHE
 10
727157.15375120204
 20
3423303.0993625289
 30
0.06
  0
VERTEX
  5
21A
  8
SHIJIAHE
 10
727186.58413054049
 20
3423312.8918462512
 30
0.06
  0
VERTEX
  5
21B
  8
SHIJIAHE
 10
727200.30962535739
 20
3423311.182929432
 30
0.06
  0
VERTEX
  5
21C
  8
SHIJIAHE
 10
727219.68636483315
 20
3423310.7396630491
 30
0.06
  0
VERTEX
  5
21D
  8
SHIJIAHE
 10
727239.1871154384
 20
3423300.0609729779
 30
0.06
  0
VERTEX
  5
21E
  8
SHIJIAHE
 10
727243.7135217787
 20
3423283.0879003061
 30
0.06
  0
VERTEX
  5
21F
  8
SHIJIAHE
 10
727235.79231068131
 20
3423274.407938642
 30
0.06
  0
VERTEX
  5
220
  8
SHIJIAHE
 10
727217.65568253433
 20
3423268.7502477518
 30
0.06
  0
VERTEX
  5
221
  8
SHIJIAHE
 10
727202.30930487078
 20
3423247.7394213239
 30
0.06
  0
VERTEX
  5
222
  8
SHIJIAHE
 10
727181.30491928384
 20
3423227.139623723
 30
0.06
  0
VERTEX
  5
223
  8
SHIJIAHE
 10
727151.38723353297
 20
3423220.5712219062
 30
0.06
  0
VERTEX
  5
224
  8
SHIJIAHE
 10
727132.24301493552
 20
3423227.139623723
 30
0.06
  0
VERTEX
  5
225
  8
SHIJIAHE
 10
727117.26867066685
 20
3423243.2825793568
 30
0.06
  0
VERTEX
  5
226
  8
SHIJIAHE
 10
727113.3003144227
 20
3423259.2965847692
 30
0.06
  0
SEQEND
  5
227
  8
SHIJIAHE
  0
POLYLINE
  5
78
  8
SHIJIAHE
 66
     1
 10
0.0
 20
0.0
 30
0.06
 70
     1
1001
ADE
1011
-6.417576113715767
1021
0.0
1031
-0.0
1021
4.6180297429673374
1031
0.0
1001
IRD
1002
{
1000
TPMLINK_Unit_topology-_-ade
1070
   515
1071
        5
1004
0100AD0300000200000002000000000000002BBF238E946675402BBF238E946675407103000000000000
1002
}
1001
DCO15
1071
        5
1071
        5
1000
unitlink
1004
0743323600
1071
        4
1000
Link
1004
0743323600
  0
VERTEX
  5
228
  8
SHIJIAHE
 10
727134.01017357421
 20
3423397.4022700912
 30
0.06
  0
VERTEX
  5
229
  8
SHIJIAHE
 10
727146.19426735514
 20
3423367.590591169
 30
0.06
  0
VERTEX
  5
22A
  8
SHIJIAHE
 10
727165.67951656843
 20
3423362.1182662202
 30
0.06
  0
VERTEX
  5
22B
  8
SHIJIAHE
 10
727179.088220287
 20
3423335.3449768489
 30
0.06
  0
VERTEX
  5
22C
  8
SHIJIAHE
 10
727185.78482144699
 20
3423321.9583321651
 30
0.06
  0
VERTEX
  5
22D
  8
SHIJIAHE
 10
727205.89012632496
 20
3423312.2306499649
 30
0.06
  0
VERTEX
  5
22E
  8
SHIJIAHE
 10
727223.54621133592
 20
3423323.7878134078
 30
0.06
  0
VERTEX
  5
22F
  8
SHIJIAHE
 10
727243.88964781631
 20
3423337.1040395279
 30
0.06
  0
VERTEX
  5
230
  8
SHIJIAHE
 10
727246.08523469046
 20
3423382.1942035519
 30
0.06
  0
VERTEX
  5
231
  8
SHIJIAHE
 10
727233.90114090964
 20
3423407.1299522929
 30
0.06
  0
VERTEX
  5
232
  8
SHIJIAHE
 10
727207.09923487157
 20
3423416.261239727
 30
0.06
  0
VERTEX
  5
233
  8
SHIJIAHE
 10
727164.45490663499
 20
3423410.1764012328
 30
0.06
  0
VERTEX
  5
234
  8
SHIJIAHE
 10
727134.01017357421
 20
3423397.4022700912
 30
0.06
  0
SEQEND
  5
235
  8
SHIJIAHE
  0
POLYLINE
  5
79
  8
SHIJIAHE
 66
     1
 10
0.0
 20
0.0
 30
0.06
 70
     1
1001
ADE
1011
-25.120005052653141
1021
0.0
1031
-0.0
1021
-6.2863232125528139
1031
0.0
1001
IRD
1002
{
1000
TPMLINK_Unit_topology-_-ade
1070
   515
1071
        5
1004
0100AE030000960000009600000000000000548CFA7CF07F7240548CFA7CF07F72406C03000000000000
1002
}
1001
DCO15
1071
        5
1071
        5
1000
unitlink
1004
0741373800
1071
        4
1000
Link
1004
0741373800
  0
VERTEX
  5
236
  8
SHIJIAHE
 10
727687.48735990759
 20
3422083.1496900548
 30
0.06
  0
VERTEX
  5
237
  8
SHIJIAHE
 10
727688.18492252764
 20
3422017.0224055029
 30
0.06
  0
VERTEX
  5
238
  8
SHIJIAHE
 10
727697.84228948143
 20
3422008.753472663
 30
0.06
  0
VERTEX
  5
239
  8
SHIJIAHE
 10
727764.04873291776
 20
3422008.0684246211
 30
0.06
  0
VERTEX
  5
23A
  8
SHIJIAHE
 10
727772.32647601888
 20
3422050.7751255161
 30
0.06
  0
VERTEX
  5
23B
  8
SHIJIAHE
 10
727768.18760446832
 20
3422076.9520201189
 30
0.06
  0
VERTEX
  5
23C
  8
SHIJIAHE
 10
727687.48735990759
 20
3422083.1496900548
 30
0.06
  0
SEQEND
  5
23D
  8
SHIJIAHE
  0
POLYLINE
  5
7A
  8
SHIJIAHE
 66
     1
 10
0.0
 20
0.0
 30
0.2222222222222222
 70
     1
1001
ADE
1011
-0.8370751459151506
1021
0.0
1031
-0.0
1021
-8.1255796677432937
1031
0.0
1001
IRD
1002
{
1000
TPMLINK_Unit_topology-_-ade
1070
   515
1071
        5
1004
0100AF03000060000000600000000000000015058D493D606A4015058D493D606A406003000000000000
1002
}
1001
DCO15
1071
        5
1071
        5
1000
unitlink
1004
07433400
1071
        4
1000
Link
1004
07433400
  0
VERTEX
  5
23E
  8
SHIJIAHE
 10
727258.37783821323
 20
3422348.6743112449
 30
0.2222222222222222
  0
VERTEX
  5
23F
  8
SHIJIAHE
 10
727282.35849098512
 20
3422334.9088752889
 30
0.2222222222222222
  0
VERTEX
  5
240
  8
SHIJIAHE
 10
727294.2726381484
 20
3422328.069885903
 30
0.2222222222222222
  0
VERTEX
  5
241
  8
SHIJIAHE
 10
727308.27681770537
 20
3422329.4043127839
 30
0.2222222222222222
  0
VERTEX
  5
242
  8
SHIJIAHE
 10
727317.91868326825
 20
3422347.3042151588
 30
0.2222222222222222
  0
VERTEX
  5
243
  8
SHIJIAHE
 10
727319.01928207255
 20
3422369.878562999
 30
0.2222222222222222
  0
VERTEX
  5
244
  8
SHIJIAHE
 10
727309.37741651025
 20
3422376.7612809781
 30
0.2222222222222222
  0
VERTEX
  5
245
  8
SHIJIAHE
 10
727296.94159268052
 20
3422385.6384290452
 30
0.2222222222222222
  0
VERTEX
  5
246
  8
SHIJIAHE
 10
727296.66627541545
 20
3422397.8124043471
 30
0.2222222222222222
  0
VERTEX
  5
247
  8
SHIJIAHE
 10
727283.76911761984
 20
3422399.5371135361
 30
0.2222222222222222
  0
VERTEX
  5
248
  8
SHIJIAHE
 10
727280.38981425762
 20
3422381.2020041691
 30
0.2222222222222222
  0
VERTEX
  5
249
  8
SHIJIAHE
 10
727277.81658325344
 20
3422371.0068774219
 30
0.2222222222222222
  0
VERTEX
  5
24A
  8
SHIJIAHE
 10
727271.52301827434
 20
3422361.3436703319
 30
0.2222222222222222
  0
VERTEX
  5
24B
  8
SHIJIAHE
 10
727258.45534517255
 20
3422352.5186396712
 30
0.2222222222222222
  0
VERTEX
  5
24C
  8
SHIJIAHE
 10
727258.37783821323
 20
3422348.6743112449
 30
0.2222222222222222
  0
SEQEND
  5
24D
  8
SHIJIAHE
  0
POLYLINE
  5
7B
  8
SHIJIAHE
 66
     1
 10
0.0
 20
0.0
 30
0.125
 70
     1
1001
ADE
1011
-5.1193854839075339
1021
0.0
1031
-0.0
1021
-10.041998360306019
1031
0.0
1001
IRD
1002
{
1000
TPMLINK_Unit_topology-_-ade
1070
   515
1071
        5
1004
0100B0030000570000005700000000000000238157A962C26740238157A962C267405803000000000000
1002
}
1001
DCO15
1071
        5
1071
        5
1000
unitlink
1004
07433300
1071
        4
1000
Link
1004
07433300
  0
VERTEX
  5
24E
  8
SHIJIAHE
 10
727214.71041813504
 20
3422364.6883166558
 30
0.125
  0
VERTEX
  5
24F
  8
SHIJIAHE
 10
727225.94892702985
 20
3422356.540274648
 30
0.125
  0
VERTEX
  5
250
  8
SHIJIAHE
 10
727244.47308996704
 20
3422354.7833279031
 30
0.125
  0
VERTEX
  5
251
  8
SHIJIAHE
 10
727259.01339526859
 20
3422356.105067655
 30
0.125
  0
VERTEX
  5
252
  8
SHIJIAHE
 10
727268.71726639546
 20
3422362.4881035308
 30
0.125
  0
VERTEX
  5
253
  8
SHIJIAHE
 10
727275.77039956674
 20
3422372.6106957798
 30
0.125
  0
VERTEX
  5
254
  8
SHIJIAHE
 10
727279.28921545297
 20
3422387.3674365501
 30
0.125
  0
VERTEX
  5
255
  8
SHIJIAHE
 10
727281.96330733458
 20
3422398.5816864469
 30
0.125
  0
VERTEX
  5
256
  8
SHIJIAHE
 10
727256.36265730846
 20
3422409.6032900629
 30
0.125
  0
VERTEX
  5
257
  8
SHIJIAHE
 10
727247.99190585653
 20
3422399.6983013111
 30
0.125
  0
VERTEX
  5
258
  8
SHIJIAHE
 10
727240.7217532061
 20
3422386.0456967968
 30
0.125
  0
VERTEX
  5
259
  8
SHIJIAHE
 10
727236.56962622784
 20
3422378.248426198
 30
0.125
  0
VERTEX
  5
25A
  8
SHIJIAHE
 10
727223.03466541297
 20
3422375.0365717891
 30
0.125
  0
VERTEX
  5
25B
  8
SHIJIAHE
 10
727214.71041813504
 20
3422364.6883166558
 30
0.125
  0
SEQEND
  5
25C
  8
SHIJIAHE
  0
POLYLINE
  5
7C
  8
SHIJIAHE
 66
     1
 10
0.0
 20
0.0
 30
3.0
 70
     1
1001
ADE
1011
-9.5274083985714242
1021
0.0
1031
-0.0
1021
-4.7630987418815476
1031
0.0
1001
IRD
1002
{
1000
TPMLINK_Unit_topology-_-ade
1070
   515
1071
        5
1004
0100B10300004A0000004A0000000000000005D74D4175B1664005D74D4175B166405903000000000000
1002
}
1001
DCO15
1071
        5
1071
        5
1000
unitlink
1004
07423100
1071
        4
1000
Link
1004
07423100
  0
VERTEX
  5
25D
  8
SHIJIAHE
 10
727287.16392237716
 20
3422454.776163911
 30
3.0
  0
VERTEX
  5
25E
  8
SHIJIAHE
 10
727260.33101355284
 20
3422416.36511721
 30
3.0
  0
VERTEX
  5
25F
  8
SHIJIAHE
 10
727264.5318906717
 20
3422407.306364275
 30
3.0
  0
VERTEX
  5
260
  8
SHIJIAHE
 10
727275.24335225311
 20
3422402.5755030881
 30
3.0
  0
VERTEX
  5
261
  8
SHIJIAHE
 10
727293.44198596512
 20
3422400.0851519699
 30
3.0
  0
VERTEX
  5
262
  8
SHIJIAHE
 10
727306.40114932496
 20
3422408.5475101401
 30
3.0
  0
VERTEX
  5
263
  8
SHIJIAHE
 10
727317.62415682909
 20
3422426.971272782
 30
3.0
  0
VERTEX
  5
264
  8
SHIJIAHE
 10
727326.07602178236
 20
3422440.8459096611
 30
3.0
  0
VERTEX
  5
265
  8
SHIJIAHE
 10
727287.16392237716
 20
3422454.776163911
 30
3.0
  0
SEQEND
  5
266
  8
SHIJIAHE
  0
POLYLINE
  5
7D
  8
SHIJIAHE
 66
     1
 10
0.0
 20
0.0
 30
0.125
 70
     1
1001
ADE
1011
-11.013738718116651
1021
0.0
1031
-0.0
1021
-4.738920574542135
1031
0.0
1001
IRD
1002
{
1000
TPMLINK_Unit_topology-_-ade
1070
   515
1071
        5
1004
0100B303000033000000330000000000000014CA5B35FDB7684014CA5B35FDB76840000000005B030000
1002
}
1001
DCO15
1071
        5
1071
        5
1000
unitlink
1004
07433100
1071
        4
1000
Link
1004
07433100
  0
VERTEX
  5
267
  8
SHIJIAHE
 10
727315.40745783225
 20
3422547.8379256059
 30
0.125
  0
VERTEX
  5
268
  8
SHIJIAHE
 10
727351.80472525954
 20
3422546.185750918
 30
0.125
  0
VERTEX
  5
269
  8
SHIJIAHE
 10
727370.00335897505
 20
3422534.6205280861
 30
0.125
  0
VERTEX
  5
26A
  8
SHIJIAHE
 10
727350.98315150675
 20
3422490.8338691019
 30
0.125
  0
VERTEX
  5
26B
  8
SHIJIAHE
 10
727324.52227608114
 20
3422490.1649398361
 30
0.125
  0
VERTEX
  5
26C
  8
SHIJIAHE
 10
727311.08256958425
 20
3422499.3848805479
 30
0.125
  0
VERTEX
  5
26D
  8
SHIJIAHE
 10
727317.01960255555
 20
3422522.813523591
 30
0.125
  0
VERTEX
  5
26E
  8
SHIJIAHE
 10
727315.40745783225
 20
3422547.8379256059
 30
0.125
  0
SEQEND
  5
26F
  8
SHIJIAHE
  0
POLYLINE
  5
7E
  8
SHIJIAHE
 66
     1
 10
0.0
 20
0.0
 30
0.25
 70
     1
1001
ADE
1011
-8.7660369405057281
1021
0.0
1031
-0.0
1021
-12.81863477639854
1031
0.0
1001
IRD
1002
{
1000
TPMLINK_Unit_topology-_-ade
1070
   515
1071
        5
1004
0100BA030000980000009800000000000000711189A925126C40711189A925126C406403000000000000
1002
}
1001
DCO15
1071
        5
1071
        5
1000
unitlink
1004
0741343800
1071
        4
1000
Link
1004
0741343800
  0
VERTEX
  5
270
  8
SHIJIAHE
 10
727387.29025392025
 20
3422067.4503547968
 30
0.25
  0
VERTEX
  5
271
  8
SHIJIAHE
 10
727396.12320378434
 20
3422079.2408865201
 30
0.25
  0
VERTEX
  5
272
  8
SHIJIAHE
 10
727424.32023506996
 20
3422158.2631930439
 30
0.25
  0
VERTEX
  5
273
  8
SHIJIAHE
 10
727408.18328643602
 20
3422162.7361537898
 30
0.25
  0
VERTEX
  5
274
  8
SHIJIAHE
 10
727380.85433308047
 20
3422091.1284849001
 30
0.25
  0
VERTEX
  5
275
  8
SHIJIAHE
 10
727374.63827505696
 20
3422079.136114466
 30
0.25
  0
VERTEX
  5
276
  8
SHIJIAHE
 10
727378.04858120542
 20
3422070.4722715779
 30
0.25
  0
SEQEND
  5
277
  8
SHIJIAHE
  0
POLYLINE
  5
7F
  8
SHIJIAHE
 66
     1
 10
0.0
 20
0.0
 30
0.06
 70
     1
1001
ADE
1011
-15.81917010620236
1021
0.0
1031
-0.0
1021
-2.357371203135699
1031
0.0
1001
IRD
1002
{
1000
TPMLINK_Unit_topology-_-ade
1070
   515
1071
        5
1004
0100BD0300008D0000008D00000000000000B0DA08E153046C40B0DA08E153046C406203000000000000
1002
}
1001
DCO15
1071
        5
1071
        5
1000
unitlink
1004
0741333300
1071
        4
1000
Link
1004
0741333300
  0
VERTEX
  5
278
  8
SHIJIAHE
 10
727288.24901978672
 20
3422154.6525868909
 30
0.06
  0
VERTEX
  5
279
  8
SHIJIAHE
 10
727275.61538564775
 20
3422133.125959585
 30
0.06
  0
VERTEX
  5
27A
  8
SHIJIAHE
 10
727272.57711289811
 20
3422104.418416921
 30
0.06
  0
VERTEX
  5
27B
  8
SHIJIAHE
 10
727303.51789049071
 20
3422104.0557444268
 30
0.06
  0
VERTEX
  5
27C
  8
SHIJIAHE
 10
727329.69974086818
 20
3422096.0044150832
 30
0.06
  0
VERTEX
  5
27D
  8
SHIJIAHE
 10
727341.79082630202
 20
3422116.668687793
 30
0.06
  0
VERTEX
  5
27E
  8
SHIJIAHE
 10
727347.46433562052
 20
3422143.5467492188
 30
0.06
  0
VERTEX
  5
27F
  8
SHIJIAHE
 10
727319.26730433479
 20
3422151.9607510539
 30
0.06
  0
VERTEX
  5
280
  8
SHIJIAHE
 10
727288.24901978672
 20
3422154.6525868909
 30
0.06
  0
SEQEND
  5
281
  8
SHIJIAHE
  0
POLYLINE
  5
80
  8
SHIJIAHE
 66
     1
 10
0.0
 20
0.0
 30
0.06
 70
     1
1001
ADE
1011
-1.534637765958905
1021
0.0
1031
-0.0
1021
-1.0033938954584301
1031
0.0
1001
IRD
1002
{
1000
TPMLINK_Unit_topology-_-ade
1070
   515
1071
        5
1004
0100BE0300009D0000009D00000000000000426089D6BF776D40426089D6BF776D406503000000000000
1002
}
1001
DCO15
1071
        5
1071
        5
1000
unitlink
1004
0741333400
1071
        4
1000
Link
1004
0741333400
  0
VERTEX
  5
282
  8
SHIJIAHE
 10
727298.94497997686
 20
3422045.472047728
 30
0.06
  0
VERTEX
  5
283
  8
SHIJIAHE
 10
727318.12020136055
 20
3422074.9291135469
 30
0.06
  0
VERTEX
  5
284
  8
SHIJIAHE
 10
727328.56813928485
 20
3422093.8042019601
 30
0.06
  0
VERTEX
  5
285
  8
SHIJIAHE
 10
727305.31605191564
 20
3422100.7675138232
 30
0.06
  0
VERTEX
  5
286
  8
SHIJIAHE
 10
727278.00259995426
 20
3422100.332306833
 30
0.06
  0
VERTEX
  5
287
  8
SHIJIAHE
 10
727272.03456419334
 20
3422100.6224448262
 30
0.06
  0
VERTEX
  5
288
  8
SHIJIAHE
 10
727265.78750338778
 20
3422085.2451311252
 30
0.06
  0
VERTEX
  5
289
  8
SHIJIAHE
 10
727257.80428672582
 20
3422070.5851030201
 30
0.06
  0
VERTEX
  5
28A
  8
SHIJIAHE
 10
727253.15386925265
 20
3422063.0415151669
 30
0.06
  0
VERTEX
  5
28B
  8
SHIJIAHE
 10
727238.0400124602
 20
3422060.2852042201
 30
0.06
  0
VERTEX
  5
28C
  8
SHIJIAHE
 10
727242.5354160181
 20
3422055.5543430331
 30
0.06
  0
VERTEX
  5
28D
  8
SHIJIAHE
 10
727258.14531733841
 20
3422051.4762923359
 30
0.06
  0
VERTEX
  5
28E
  8
SHIJIAHE
 10
727277.10351924202
 20
3422049.6145735378
 30
0.06
  0
VERTEX
  5
28F
  8
SHIJIAHE
 10
727298.94497997686
 20
3422045.472047728
 30
0.06
  0
SEQEND
  5
290
  8
SHIJIAHE
  0
POLYLINE
  5
81
  8
SHIJIAHE
 66
     1
 10
0.0
 20
0.0
 30
0.0625
 70
     1
1001
ADE
1011
-7.43291726137977
1021
0.0
1031
-0.0
1021
-8.446239392273128
1031
0.0
1001
IRD
1002
{
1000
TPMLINK_Unit_topology-_-ade
1070
   515
1071
        5
1004
0100BF03000092000000920000000000000091C9233D5FEA6A4091C9233D5FEA6A406A03000000000000
1002
}
1001
DCO15
1071
        5
1071
        5
1000
unitlink
1004
07433700
1071
        4
1000
Link
1004
07433700
  0
VERTEX
  5
291
  8
SHIJIAHE
 10
727174.12777498015
 20
3422119.5217114049
 30
0.0625
  0
VERTEX
  5
292
  8
SHIJIAHE
 10
727190.68326118577
 20
3422116.6203314629
 30
0.0625
  0
VERTEX
  5
293
  8
SHIJIAHE
 10
727217.00462408725
 20
3422127.6778128031
 30
0.0625
  0
VERTEX
  5
294
  8
SHIJIAHE
 10
727220.89547337592
 20
3422142.3217221298
 30
0.0625
  0
VERTEX
  5
295
  8
SHIJIAHE
 10
727223.29818907019
 20
3422164.1384874289
 30
0.0625
  0
VERTEX
  5
296
  8
SHIJIAHE
 10
727209.88948535547
 20
3422180.047720789
 30
0.0625
  0
VERTEX
  5
297
  8
SHIJIAHE
 10
727203.11537723232
 20
3422175.6231163731
 30
0.0625
  0
VERTEX
  5
298
  8
SHIJIAHE
 10
727197.81390131265
 20
3422169.151427222
 30
0.0625
  0
VERTEX
  5
299
  8
SHIJIAHE
 10
727184.97874908498
 20
3422168.4099634569
 30
0.0625
  0
VERTEX
  5
29A
  8
SHIJIAHE
 10
727160.81207961589
 20
3422171.7949067252
 30
0.0625
  0
VERTEX
  5
29B
  8
SHIJIAHE
 10
727162.42422433954
 20
3422163.4050830561
 30
0.0625
  0
VERTEX
  5
29C
  8
SHIJIAHE
 10
727169.80288673192
 20
3422150.4536453611
 30
0.0625
  0
VERTEX
  5
29D
  8
SHIJIAHE
 10
727165.07496229943
 20
3422142.3539596861
 30
0.0625
  0
VERTEX
  5
29E
  8
SHIJIAHE
 10
727169.07432132575
 20
3422124.06720665
 30
0.0625
  0
VERTEX
  5
29F
  8
SHIJIAHE
 10
727174.12777498015
 20
3422119.5217114049
 30
0.0625
  0
SEQEND
  5
2A0
  8
SHIJIAHE
  0
POLYLINE
  5
82
  8
SHIJIAHE
 66
     1
 10
0.0
 20
0.0
 30
0.25
 70
     1
1001
ADE
1011
-9.3783419037936238
1021
0.0
1031
-0.0
1021
-1.075928395148366
1031
0.0
1001
IRD
1002
{
1000
TPMLINK_Unit_topology-_-ade
1070
   515
1071
        5
1004
0100C1030000770000007700000000000000709F9B5E91E16640709F9B5E91E166400000000068030000
1002
}
1001
DCO15
1071
        5
1071
        5
1000
unitlink
1004
07423300
1071
        4
1000
Link
1004
07423300
  0
VERTEX
  5
2A1
  8
SHIJIAHE
 10
727219.57785509154
 20
3422247.7546455311
 30
0.25
  0
VERTEX
  5
2A2
  8
SHIJIAHE
 10
727255.64959329739
 20
3422239.5985441338
 30
0.25
  0
VERTEX
  5
2A3
  8
SHIJIAHE
 10
727257.55626446032
 20
3422227.654530033
 30
0.25
  0
VERTEX
  5
2A4
  8
SHIJIAHE
 10
727250.54963546642
 20
3422193.9179287972
 30
0.25
  0
VERTEX
  5
2A5
  8
SHIJIAHE
 10
727245.75970546913
 20
3422189.6222746032
 30
0.25
  0
VERTEX
  5
2A6
  8
SHIJIAHE
 10
727206.29316250596
 20
3422198.221642381
 30
0.25
  0
VERTEX
  5
2A7
  8
SHIJIAHE
 10
727204.01445794455
 20
3422204.5240843701
 30
0.25
  0
VERTEX
  5
2A8
  8
SHIJIAHE
 10
727206.49468059861
 20
3422213.7037281371
 30
0.25
  0
VERTEX
  5
2A9
  8
SHIJIAHE
 10
727219.57785509154
 20
3422247.7546455311
 30
0.25
  0
SEQEND
  5
2AA
  8
SHIJIAHE
  0
POLYLINE
  5
83
  8
SHIJIAHE
 66
     1
 10
0.0
 20
0.0
 30
0.06
 70
     1
1001
ADE
1011
-7.9522138796746731
1021
0.0
1031
-0.0
1021
1.623966829385608
1031
0.0
1001
IRD
1002
{
1000
TPMLINK_Unit_topology-_-ade
1070
   515
1071
        5
1004
0100C2030000700000007000000000000000624D90FC96146840624D90FC961468406703000000000000
1002
}
1001
DCO15
1071
        5
1071
        5
1000
unitlink
1004
07423200
1071
        4
1000
Link
1004
07423200
  0
VERTEX
  5
2AB
  8
SHIJIAHE
 10
727162.39322155702
 20
3422274.0282528
 30
0.06
  0
VERTEX
  5
2AC
  8
SHIJIAHE
 10
727154.16198262584
 20
3422240.5737301721
 30
0.06
  0
VERTEX
  5
2AD
  8
SHIJIAHE
 10
727159.10692654189
 20
3422227.9607868041
 30
0.06
  0
VERTEX
  5
2AE
  8
SHIJIAHE
 10
727186.55989102635
 20
3422218.0960949948
 30
0.06
  0
VERTEX
  5
2AF
  8
SHIJIAHE
 10
727205.7196110189
 20
3422216.8468897431
 30
0.06
  0
VERTEX
  5
2B0
  8
SHIJIAHE
 10
727215.02044596523
 20
3422241.6859258162
 30
0.06
  0
VERTEX
  5
2B1
  8
SHIJIAHE
 10
727211.9821732156
 20
3422259.5052343039
 30
0.06
  0
VERTEX
  5
2B2
  8
SHIJIAHE
 10
727162.39322155702
 20
3422274.0282528
 30
0.06
  0
SEQEND
  5
2B3
  8
SHIJIAHE
  0
POLYLINE
  5
84
  8
SHIJIAHE
 66
     1
 10
0.0
 20
0.0
 30
0.06
 70
     1
1001
ADE
1011
-13.043778743362051
1021
0.0
1031
-0.0
1021
-1.515165082179009
1031
0.0
1001
IRD
1002
{
1000
TPMLINK_Unit_topology-_-ade
1070
   515
1071
        5
1004
0100CC030000340000003400000000000000D8A8CAC8672D6B40D8A8CAC8672D6B404F03000000000000
1002
}
1001
DCO15
1071
        5
1071
        5
1000
unitlink
1004
0741323000
1071
        4
1000
Link
1004
0741323000
  0
VERTEX
  5
2B4
  8
SHIJIAHE
 10
727227.7315870598
 20
3422546.6209579082
 30
0.06
  0
VERTEX
  5
2B5
  8
SHIJIAHE
 10
727289.07059353974
 20
3422565.6169371521
 30
0.06
  0
VERTEX
  5
2B6
  8
SHIJIAHE
 10
727305.23854495562
 20
3422577.4884167551
 30
0.06
  0
VERTEX
  5
2B7
  8
SHIJIAHE
 10
727307.12971473101
 20
3422588.1751662148
 30
0.06
  0
VERTEX
  5
2B8
  8
SHIJIAHE
 10
727300.96016088093
 20
3422593.1558684511
 30
0.06
  0
VERTEX
  5
2B9
  8
SHIJIAHE
 10
727289.30311441433
 20
3422594.3486579838
 30
0.06
  0
VERTEX
  5
2BA
  8
SHIJIAHE
 10
727262.43920280784
 20
3422587.9333845521
 30
0.06
  0
VERTEX
  5
2BB
  8
SHIJIAHE
 10
727220.7081721311
 20
3422577.9677482629
 30
0.06
  0
VERTEX
  5
2BC
  8
SHIJIAHE
 10
727227.7315870598
 20
3422546.6209579082
 30
0.06
  0
SEQEND
  5
2BD
  8
SHIJIAHE
  0
POLYLINE
  5
85
  8
SHIJIAHE
 66
     1
 10
0.0
 20
0.0
 30
0.06
 70
     1
1001
ADE
1011
-34.692114355275422
1021
0.0
1031
-0.0
1021
-9.3811284843832237
1031
0.0
1001
IRD
1002
{
1000
TPMLINK_Unit_topology-_-ade
1070
   515
1071
        5
1004
0100CD03000029000000290000000000000090ADCEB8A1C7744090ADCEB8A1C774404D03000000000000
1002
}
1001
DCO15
1071
        5
1071
        5
1000
unitlink
1004
0741353100
1071
        4
1000
Link
1004
0741353100
  0
VERTEX
  5
2BE
  8
SHIJIAHE
 10
727209.42444360664
 20
3422615.6979787368
 30
0.06
  0
VERTEX
  5
2BF
  8
SHIJIAHE
 10
727211.61013982072
 20
3422581.7921303371
 30
0.06
  0
VERTEX
  5
2C0
  8
SHIJIAHE
 10
727338.9230688588
 20
3422613.0142022879
 30
0.06
  0
VERTEX
  5
2C1
  8
SHIJIAHE
 10
727337.58994918293
 20
3422648.18537472
 30
0.06
  0
VERTEX
  5
2C2
  8
SHIJIAHE
 10
727209.42444360664
 20
3422615.6979787368
 30
0.06
  0
SEQEND
  5
2C3
  8
SHIJIAHE
  0
POLYLINE
  5
86
  8
SHIJIAHE
 66
     1
 10
0.0
 20
0.0
 30
0.06
 70
     1
1001
ADE
1011
-16.578738296520878
1021
0.0
1031
-0.0
1021
-4.803395683411507
1031
0.0
1001
IRD
1002
{
1000
TPMLINK_Unit_topology-_-ade
1070
   515
1071
        5
1004
0100CE0300002C0000002C00000000000000925A6181C11A7540925A6181C11A75404C03000000000000
1002
}
1001
DCO15
1071
        5
1071
        5
1000
unitlink
1004
0741353200
1071
        4
1000
Link
1004
0741353200
  0
VERTEX
  5
2C4
  8
SHIJIAHE
 10
727075.07388279215
 20
3422593.8489758819
 30
0.06
  0
VERTEX
  5
2C5
  8
SHIJIAHE
 10
727067.95874405652
 20
3422563.9486436839
 30
0.06
  0
VERTEX
  5
2C6
  8
SHIJIAHE
 10
727126.78652509651
 20
3422568.7036830368
 30
0.06
  0
VERTEX
  5
2C7
  8
SHIJIAHE
 10
727159.55646689585
 20
3422571.1376184332
 30
0.06
  0
VERTEX
  5
2C8
  8
SHIJIAHE
 10
727205.9521318936
 20
3422578.9149285601
 30
0.06
  0
VERTEX
  5
2C9
  8
SHIJIAHE
 10
727207.14573904523
 20
3422613.2882215059
 30
0.06
  0
VERTEX
  5
2CA
  8
SHIJIAHE
 10
727172.20560242585
 20
3422607.429045896
 30
0.06
  0
VERTEX
  5
2CB
  8
SHIJIAHE
 10
727109.48697209731
 20
3422596.363505167
 30
0.06
  0
VERTEX
  5
2CC
  8
SHIJIAHE
 10
727075.07388279215
 20
3422593.8489758819
 30
0.06
  0
SEQEND
  5
2CD
  8
SHIJIAHE
  0
POLYLINE
  5
87
  8
SHIJIAHE
 66
     1
 10
0.0
 20
0.0
 30
4.2000000000000002
 70
     1
1001
ADE
1011
-7.851454835385085
1021
0.0
1031
-0.0
1021
2.1317083206959051
1031
0.0
1001
IRD
1002
{
1000
TPMLINK_Unit_topology-_-ade
1070
   515
1071
        5
1004
0100CF03000030000000300000000000000086B1E4282E8A684086B1E4282E8A68404B03000000000000
1002
}
1001
DCO15
1071
        5
1071
        5
1000
unitlink
1004
0741353300
1071
        4
1000
Link
1004
0741353300
  0
VERTEX
  5
2CE
  8
SHIJIAHE
 10
727051.17073697585
 20
3422574.2807800388
 30
4.2000000000000002
  0
VERTEX
  5
2CF
  8
SHIJIAHE
 10
727070.36145975068
 20
3422597.3628693698
 30
4.2000000000000002
  0
VERTEX
  5
2D0
  8
SHIJIAHE
 10
727062.51775561273
 20
3422604.3342406242
 30
4.2000000000000002
  0
VERTEX
  5
2D1
  8
SHIJIAHE
 10
727054.37952503178
 20
3422611.9745411412
 30
4.2000000000000002
  0
VERTEX
  5
2D2
  8
SHIJIAHE
 10
727052.24033299461
 20
3422620.1306425398
 30
4.2000000000000002
  0
VERTEX
  5
2D3
  8
SHIJIAHE
 10
727051.80629403156
 20
3422632.1471911399
 30
4.2000000000000002
  0
VERTEX
  5
2D4
  8
SHIJIAHE
 10
727045.57473461702
 20
3422651.4655459332
 30
4.2000000000000002
  0
VERTEX
  5
2D5
  8
SHIJIAHE
 10
727021.29955540225
 20
3422645.6708454341
 30
4.2000000000000002
  0
VERTEX
  5
2D6
  8
SHIJIAHE
 10
727041.91640620294
 20
3422582.1467434419
 30
4.2000000000000002
  0
VERTEX
  5
2D7
  8
SHIJIAHE
 10
727051.17073697585
 20
3422574.2807800388
 30
4.2000000000000002
  0
SEQEND
  5
2D8
  8
SHIJIAHE
  0
POLYLINE
  5
88
  8
SHIJIAHE
 66
     1
 10
0.0
 20
0.0
 30
3.1000000000000001
 70
     1
1001
ADE
1011
-13.14518005971331
1021
0.0
1031
-0.0
1021
-1.047720535658299
1031
0.0
1001
IRD
1002
{
1000
TPMLINK_Unit_topology-_-ade
1070
   515
1071
        5
1004
0100D0030000270000002700000000000000493B6D4969EC6640493B6D4969EC66404A03000000000000
1002
}
1001
DCO15
1071
        5
1071
        5
1000
unitlink
1004
0741353400
1071
        4
1000
Link
1004
0741353400
  0
VERTEX
  5
2D9
  8
SHIJIAHE
 10
727008.86743935547
 20
3422649.023551147
 30
3.1000000000000001
  0
VERTEX
  5
2DA
  8
SHIJIAHE
 10
727045.9002638387
 20
3422654.898845532
 30
3.1000000000000001
  0
VERTEX
  5
2DB
  8
SHIJIAHE
 10
727033.09611439332
 20
3422703.6420285879
 30
3.1000000000000001
  0
VERTEX
  5
2DC
  8
SHIJIAHE
 10
726998.40400004014
 20
3422708.5663151052
 30
3.1000000000000001
  0
VERTEX
  5
2DD
  8
SHIJIAHE
 10
727008.86743935547
 20
3422649.023551147
 30
3.1000000000000001
  0
SEQEND
  5
2DE
  8
SHIJIAHE
  0
POLYLINE
  5
89
  8
SHIJIAHE
 66
     1
 10
0.0
 20
0.0
 30
3.7999999999999989
 70
     1
1001
ADE
1011
-12.01357847265899
1021
0.0
1031
-0.0
1021
-9.2602376556023973
1031
0.0
1001
IRD
1002
{
1000
TPMLINK_Unit_topology-_-ade
1070
   515
1071
        5
1004
0100D10300001B0000001B000000000000007C224DBE305D62407C224DBE305D62404903000000000000
1002
}
1001
DCO15
1071
        5
1071
        5
1000
unitlink
1004
0741353500
1071
        4
1000
Link
1004
0741353500
  0
VERTEX
  5
2DF
  8
SHIJIAHE
 10
726992.40496150043
 20
3422714.4174313238
 30
3.7999999999999989
  0
VERTEX
  5
2E0
  8
SHIJIAHE
 10
727026.32200627413
 20
3422716.4403378968
 30
3.7999999999999989
  0
VERTEX
  5
2E1
  8
SHIJIAHE
 10
727013.95189579541
 20
3422760.1625217721
 30
3.7999999999999989
  0
VERTEX
  5
2E2
  8
SHIJIAHE
 10
726985.4293352887
 20
3422751.4342037728
 30
3.7999999999999989
  0
VERTEX
  5
2E3
  8
SHIJIAHE
 10
726992.40496150043
 20
3422714.4174313238
 30
3.7999999999999989
  0
SEQEND
  5
2E4
  8
SHIJIAHE
  0
POLYLINE
  5
8A
  8
SHIJIAHE
 66
     1
 10
0.0
 20
0.0
 30
0.5
 70
     1
1001
ADE
1011
-11.46327907219529
1021
0.0
1031
-0.0
1021
-0.5762462946586311
1031
0.0
1001
IRD
1002
{
1000
TPMLINK_Unit_topology-_-ade
1070
   515
1071
        5
1004
0100D203000019000000190000000000000066EB968BA82D634066EB968BA82D63404803000000000000
1002
}
1001
DCO15
1071
        5
1071
        5
1000
unitlink
1004
0741353600
1071
        4
1000
Link
1004
0741353600
  0
VERTEX
  5
2E5
  8
SHIJIAHE
 10
726980.53089554992
 20
3422756.4632623428
 30
0.5
  0
VERTEX
  5
2E6
  8
SHIJIAHE
 10
727014.8509765045
 20
3422764.2405724698
 30
0.5
  0
VERTEX
  5
2E7
  8
SHIJIAHE
 10
727016.13759200624
 20
3422798.3559649768
 30
0.5
  0
VERTEX
  5
2E8
  8
SHIJIAHE
 10
726983.66217665013
 20
3422806.729669868
 30
0.5
  0
VERTEX
  5
2E9
  8
SHIJIAHE
 10
726980.28287328407
 20
3422787.3146024118
 30
0.5
  0
VERTEX
  5
2EA
  8
SHIJIAHE
 10
726980.53089554992
 20
3422756.4632623428
 30
0.5
  0
SEQEND
  5
2EB
  8
SHIJIAHE
  0
POLYLINE
  5
8B
  8
SHIJIAHE
 66
     1
 10
0.0
 20
0.0
 30
0.06
 70
     1
1001
ADE
1011
-9.7193725182441995
1021
0.0
1031
-0.0
1021
-1.611877746414393
1031
0.0
1001
IRD
1002
{
1000
TPMLINK_Unit_topology-_-ade
1070
   515
1071
        5
1004
0100D3030000120000001200000000000000371578FFD7CB6140371578FFD7CB61400000000047030000
1002
}
1001
DCO15
1071
        5
1071
        5
1000
unitlink
1004
0741353700
1071
        4
1000
Link
1004
0741353700
  0
VERTEX
  5
2EC
  8
SHIJIAHE
 10
726999.95413919911
 20
3422813.0079336921
 30
0.06
  0
VERTEX
  5
2ED
  8
SHIJIAHE
 10
727035.62284122035
 20
3422843.0210973332
 30
0.06
  0
VERTEX
  5
2EE
  8
SHIJIAHE
 10
727056.41020732757
 20
3422825.3468578421
 30
0.06
  0
VERTEX
  5
2EF
  8
SHIJIAHE
 10
727020.46248025796
 20
3422799.8227737262
 30
0.06
  0
VERTEX
  5
2F0
  8
SHIJIAHE
 10
726999.95413919911
 20
3422813.0079336921
 30
0.06
  0
SEQEND
  5
2F1
  8
SHIJIAHE
  0
POLYLINE
  5
8C
  8
SHIJIAHE
 66
     1
 10
0.0
 20
0.0
 30
0.06
 70
     1
1001
ADE
1011
-14.80382895632647
1021
0.0
1031
-0.0
1021
-7.6644786838442069
1031
0.0
1001
IRD
1002
{
1000
TPMLINK_Unit_topology-_-ade
1070
   515
1071
        5
1004
0100D40300000E0000000E00000000000000AF18DF50B1866740AF18DF50B18667404603000000000000
1002
}
1001
DCO15
1071
        5
1071
        5
1000
unitlink
1004
0741353800
1071
        4
1000
Link
1004
0741353800
  0
VERTEX
  5
2F2
  8
SHIJIAHE
 10
727038.14956804726
 20
3422851.7574747191
 30
0.06
  0
VERTEX
  5
2F3
  8
SHIJIAHE
 10
727060.20804826554
 20
3422828.6109102811
 30
0.06
  0
VERTEX
  5
2F4
  8
SHIJIAHE
 10
727102.79037093371
 20
3422857.5441158311
 30
0.06
  0
VERTEX
  5
2F5
  8
SHIJIAHE
 10
727063.10680849093
 20
3422895.1653424329
 30
0.06
  0
VERTEX
  5
2F6
  8
SHIJIAHE
 10
727038.14956804726
 20
3422851.7574747191
 30
0.06
  0
SEQEND
  5
2F7
  8
SHIJIAHE
  0
POLYLINE
  5
8D
  8
SHIJIAHE
 66
     1
 10
0.0
 20
0.0
 30
0.06
 70
     1
1001
ADE
1011
-9.0450619867770001
1021
0.0
1031
-0.0
1021
-2.7818506634794158
1031
0.0
1001
IRD
1002
{
1000
TPMLINK_Unit_topology-_-ade
1070
   515
1071
        5
1004
0100D50300000C0000000C00000000000000D91C67CB17D16340D91C67CB17D163404503000000000000
1002
}
1001
DCO15
1071
        5
1071
        5
1000
unitlink
1004
0741353900
1071
        4
1000
Link
1004
0741353900
  0
VERTEX
  5
2F8
  8
SHIJIAHE
 10
727105.48761306715
 20
3422860.9935342059
 30
0.06
  0
VERTEX
  5
2F9
  8
SHIJIAHE
 10
727143.79155166075
 20
3422882.2542016832
 30
0.06
  0
VERTEX
  5
2FA
  8
SHIJIAHE
 10
727124.22447821952
 20
3422912.0283067641
 30
0.06
  0
VERTEX
  5
2FB
  8
SHIJIAHE
 10
727085.18079010025
 20
3422885.8164515048
 30
0.06
  0
VERTEX
  5
2FC
  8
SHIJIAHE
 10
727105.48761306715
 20
3422860.9935342059
 30
0.06
  0
SEQEND
  5
2FD
  8
SHIJIAHE
  0
POLYLINE
  5
8E
  8
SHIJIAHE
 66
     1
 10
0.0
 20
0.0
 30
0.06
 70
     1
1001
ADE
1011
-9.0218098984332773
1021
0.0
1031
-0.0
1021
-1.885896965395659
1031
0.0
1001
IRD
1002
{
1000
TPMLINK_Unit_topology-_-ade
1070
   515
1071
        5
1004
0100D60300000B0000000B000000000000004768AD0A631466404768AD0A631466400000000044030000
1002
}
1001
DCO15
1071
        5
1071
        5
1000
unitlink
1004
0741363000
1071
        4
1000
Link
1004
0741363000
  0
VERTEX
  5
2FE
  8
SHIJIAHE
 10
727146.62830631807
 20
3422884.3093458111
 30
0.06
  0
VERTEX
  5
2FF
  8
SHIJIAHE
 10
727126.63151118159
 20
3422913.919540016
 30
0.06
  0
VERTEX
  5
300
  8
SHIJIAHE
 10
727165.95854162052
 20
3422944.8192364159
 30
0.06
  0
VERTEX
  5
301
  8
SHIJIAHE
 10
727189.81518325955
 20
3422916.4985444089
 30
0.06
  0
VERTEX
  5
302
  8
SHIJIAHE
 10
727146.62830631807
 20
3422884.3093458111
 30
0.06
  0
SEQEND
  5
303
  8
SHIJIAHE
  0
POLYLINE
  5
8F
  8
SHIJIAHE
 66
     1
 10
0.0
 20
0.0
 30
0.06
 70
     1
1001
ADE
1011
-35.645449938368991
1021
0.0
1031
-0.0
1021
6.7618271461687982
1031
0.0
1001
IRD
1002
{
1000
TPMLINK_Unit_topology-_-ade
1070
   515
1071
        5
1004
0100D7030000AF000000AF00000000000000FBDF4D149DC07840FBDF4D149DC078404203000000000000
1002
}
1001
DCO15
1071
        5
1071
        5
1000
unitlink
1004
0741373700
1071
        4
1000
Link
1004
0741373700
  0
VERTEX
  5
304
  8
SHIJIAHE
 10
727589.68908043578
 20
3421902.8692234922
 30
0.06
  0
VERTEX
  5
305
  8
SHIJIAHE
 10
727573.86215963215
 20
3421867.2306065168
 30
0.06
  0
VERTEX
  5
306
  8
SHIJIAHE
 10
727579.19463833433
 20
3421821.2517937962
 30
0.06
  0
VERTEX
  5
307
  8
SHIJIAHE
 10
727684.61960246426
 20
3421795.2602651319
 30
0.06
  0
VERTEX
  5
308
  8
SHIJIAHE
 10
727698.61735906068
 20
3421809.2594233621
 30
0.06
  0
VERTEX
  5
309
  8
SHIJIAHE
 10
727707.96469818451
 20
3421849.2420508652
 30
0.06
  0
VERTEX
  5
30A
  8
SHIJIAHE
 10
727695.95111970976
 20
3421877.2242485438
 30
0.06
  0
VERTEX
  5
30B
  8
SHIJIAHE
 10
727675.27226334414
 20
3421888.555749103
 30
0.06
  0
VERTEX
  5
30C
  8
SHIJIAHE
 10
727618.55267155555
 20
3421902.5468479418
 30
0.06
  0
VERTEX
  5
30D
  8
SHIJIAHE
 10
727589.68908043578
 20
3421902.8692234922
 30
0.06
  0
SEQEND
  5
30E
  8
SHIJIAHE
  0
POLYLINE
  5
90
  8
SHIJIAHE
 66
     1
 10
0.0
 20
0.0
 30
0.06
 70
     1
1001
ADE
1011
-14.48605043266434
1021
0.0
1031
-0.0
1021
-1.305620974395423
1031
0.0
1001
IRD
1002
{
1000
TPMLINK_Unit_topology-_-ade
1070
   515
1071
        5
1004
0100D8030000BC000000BC000000000000008E6EC823D49270408E6EC823D49270404103000000000000
1002
}
1001
DCO15
1071
        5
1071
        5
1000
unitlink
1004
0741383000
1071
        4
1000
Link
1004
0741383000
  0
VERTEX
  5
30F
  8
SHIJIAHE
 10
727303.79691553861
 20
3421673.410366883
 30
0.06
  0
VERTEX
  5
310
  8
SHIJIAHE
 10
727341.89933604375
 20
3421656.9208575361
 30
0.06
  0
VERTEX
  5
311
  8
SHIJIAHE
 10
727359.67943218385
 20
3421677.6334865768
 30
0.06
  0
VERTEX
  5
312
  8
SHIJIAHE
 10
727376.18841421581
 20
3421683.9762255112
 30
0.06
  0
VERTEX
  5
313
  8
SHIJIAHE
 10
727390.99224317435
 20
3421716.1090083881
 30
0.06
  0
VERTEX
  5
314
  8
SHIJIAHE
 10
727323.26666336495
 20
3421741.0447571268
 30
0.06
  0
VERTEX
  5
315
  8
SHIJIAHE
 10
727302.95984039456
 20
3421683.1299896939
 30
0.06
  0
VERTEX
  5
316
  8
SHIJIAHE
 10
727303.79691553861
 20
3421673.410366883
 30
0.06
  0
SEQEND
  5
317
  8
SHIJIAHE
  0
POLYLINE
  5
91
  8
SHIJIAHE
 66
     1
 10
0.0
 20
0.0
 30
0.06
 70
     1
1001
ADE
1011
-22.546774052316319
1021
0.0
1031
-0.0
1021
-2.0551441274583322
1031
0.0
1001
IRD
1002
{
1000
TPMLINK_Unit_topology-_-ade
1070
   515
1071
        5
1004
0100D9030000C2000000C200000000000000116D00F97B117640116D00F97B1176404303000000000000
1002
}
1001
DCO15
1071
        5
1071
        5
1000
unitlink
1004
0741383100
1071
        4
1000
Link
1004
0741383100
  0
VERTEX
  5
318
  8
SHIJIAHE
 10
727150.59666256246
 20
3421593.275864712
 30
0.06
  0
VERTEX
  5
319
  8
SHIJIAHE
 10
727135.32779185846
 20
3421520.306159127
 30
0.06
  0
VERTEX
  5
31A
  8
SHIJIAHE
 10
727237.83849437186
 20
3421511.5939599061
 30
0.06
  0
VERTEX
  5
31B
  8
SHIJIAHE
 10
727244.41108440235
 20
3421571.4671588009
 30
0.06
  0
VERTEX
  5
31C
  8
SHIJIAHE
 10
727234.21116873994
 20
3421599.9006822519
 30
0.06
  0
VERTEX
  5
31D
  8
SHIJIAHE
 10
727203.05337166786
 20
3421604.7282561031
 30
0.06
  0
VERTEX
  5
31E
  8
SHIJIAHE
 10
727150.59666256246
 20
3421593.275864712
 30
0.06
  0
SEQEND
  5
31F
  8
SHIJIAHE
  0
POLYLINE
  5
92
  8
SHIJIAHE
 66
     1
 10
0.0
 20
0.0
 30
0.06
 70
     1
1001
ADE
1011
-21.577937075635411
1021
0.0
1031
-0.0
1021
3.0263004684820758
1031
0.0
1001
IRD
1002
{
1000
TPMLINK_Unit_topology-_-ade
1070
   515
1071
        5
1004
0100DA030000B9000000B900000000000000B41613908A8D7040B41613908A8D70404003000000000000
1002
}
1001
DCO15
1071
        5
1071
        5
1000
unitlink
1004
0741343500
1071
        4
1000
Link
1004
0741343500
  0
VERTEX
  5
320
  8
SHIJIAHE
 10
727260.17599963734
 20
3421778.2791330731
 30
0.06
  0
VERTEX
  5
321
  8
SHIJIAHE
 10
727232.49051427469
 20
3421716.906887874
 30
0.06
  0
VERTEX
  5
322
  8
SHIJIAHE
 10
727299.11549528304
 20
3421690.6171618262
 30
0.06
  0
VERTEX
  5
323
  8
SHIJIAHE
 10
727318.30621805775
 20
3421747.6776340539
 30
0.06
  0
VERTEX
  5
324
  8
SHIJIAHE
 10
727260.17599963734
 20
3421778.2791330731
 30
0.06
  0
SEQEND
  5
325
  8
SHIJIAHE
  0
POLYLINE
  5
93
  8
SHIJIAHE
 66
     1
 10
0.0
 20
0.0
 30
0.5
 70
     1
1001
ADE
1011
-14.121767729520791
1021
0.0
1031
-0.0
1021
2.6112419501878321
1031
0.0
1001
IRD
1002
{
1000
TPMLINK_Unit_topology-_-ade
1070
   515
1071
        5
1004
0100E0030000AB000000AB00000000000000E7636ABEAF1E7140E7636ABEAF1E71400000000039030000
1002
}
1001
DCO15
1071
        5
1071
        5
1000
unitlink
1004
0741333600
1071
        4
1000
Link
1004
0741333600
  0
VERTEX
  5
326
  8
SHIJIAHE
 10
727186.14135345421
 20
3421954.6910930439
 30
0.5
  0
VERTEX
  5
327
  8
SHIJIAHE
 10
727251.94476071012
 20
3421948.2597008338
 30
0.5
  0
VERTEX
  5
328
  8
SHIJIAHE
 10
727249.15451022238
 20
3421928.9655242092
 30
0.5
  0
VERTEX
  5
329
  8
SHIJIAHE
 10
727234.7692188397
 20
3421875.870271238
 30
0.5
  0
VERTEX
  5
32A
  8
SHIJIAHE
 10
727172.67064417154
 20
3421885.5415377161
 30
0.5
  0
VERTEX
  5
32B
  8
SHIJIAHE
 10
727186.14135345421
 20
3421954.6910930439
 30
0.5
  0
SEQEND
  5
32C
  8
SHIJIAHE
  0
POLYLINE
  5
94
  8
SHIJIAHE
 66
     1
 10
0.0
 20
0.0
 30
0.06
 70
     1
1001
ADE
1011
-5.0302015653578547
1021
0.0
1031
-0.0
1021
-1.0718987029977141
1031
0.0
1001
IRD
1002
{
1000
TPMLINK_Unit_topology-_-ade
1070
   515
1071
        5
1004
0100E3030000CB000000CB000000000000006BEAD95B9FF877406BEAD95B9FF877400000000037030000
1002
}
1001
DCO15
1071
        5
1071
        5
1000
unitlink
1004
0743363000
1071
        4
1000
Link
1004
0743363000
  0
VERTEX
  5
32D
  8
SHIJIAHE
 10
727716.49046355125
 20
3420504.5249814182
 30
0.06
  0
VERTEX
  5
32E
  8
SHIJIAHE
 10
727740.92065668141
 20
3420527.4781205272
 30
0.06
  0
VERTEX
  5
32F
  8
SHIJIAHE
 10
727778.9920744003
 20
3420532.4991197111
 30
0.06
  0
VERTEX
  5
330
  8
SHIJIAHE
 10
727812.02553985245
 20
3420516.0015509729
 30
0.06
  0
VERTEX
  5
331
  8
SHIJIAHE
 10
727831.43328211072
 20
3420448.5605860571
 30
0.06
  0
VERTEX
  5
332
  8
SHIJIAHE
 10
727823.52757240436
 20
3420426.324732543
 30
0.06
  0
VERTEX
  5
333
  8
SHIJIAHE
 10
727775.39575155091
 20
3420406.9499620311
 30
0.06
  0
VERTEX
  5
334
  8
SHIJIAHE
 10
727747.38473697018
 20
3420408.3845332242
 30
0.06
  0
VERTEX
  5
335
  8
SHIJIAHE
 10
727716.49046355125
 20
3420504.5249814182
 30
0.06
  0
SEQEND
  5
336
  8
SHIJIAHE
  0
POLYLINE
  5
95
  8
SHIJIAHE
 66
     1
 10
0.0
 20
0.0
 30
0.06
 70
     1
1001
ADE
1011
-21.02763767726719
1021
0.0
1031
-0.0
1021
0.9993642023764549
1031
0.0
1001
IRD
1002
{
1000
TPMLINK_Unit_topology-_-ade
1070
   515
1071
        5
1004
0100E4030000CC000000CC000000000000009AE63B21CA6A74409AE63B21CA6A74400000000036030000
1002
}
1001
DCO15
1071
        5
1071
        5
1000
unitlink
1004
0743353700
1071
        4
1000
Link
1004
0743353700
  0
VERTEX
  5
337
  8
SHIJIAHE
 10
727221.26750677463
 20
3420503.1145883892
 30
0.06
  0
VERTEX
  5
338
  8
SHIJIAHE
 10
727237.49746375543
 20
3420593.3636234188
 30
0.06
  0
VERTEX
  5
339
  8
SHIJIAHE
 10
727284.17215380061
 20
3420583.2571499469
 30
0.06
  0
VERTEX
  5
33A
  8
SHIJIAHE
 10
727315.99651071464
 20
3420568.0813209629
 30
0.06
  0
VERTEX
  5
33B
  8
SHIJIAHE
 10
727317.05060534191
 20
3420550.2378343111
 30
0.06
  0
VERTEX
  5
33C
  8
SHIJIAHE
 10
727309.56343320757
 20
3420527.8085554661
 30
0.06
  0
VERTEX
  5
33D
  8
SHIJIAHE
 10
727293.53499431547
 20
3420506.0885028308
 30
0.06
  0
VERTEX
  5
33E
  8
SHIJIAHE
 10
727277.13452202454
 20
3420486.866860704
 30
0.06
  0
VERTEX
  5
33F
  8
SHIJIAHE
 10
727221.26750677463
 20
3420503.1145883892
 30
0.06
  0
SEQEND
  5
340
  8
SHIJIAHE
  0
POLYLINE
  5
96
  8
SHIJIAHE
 66
     1
 10
0.0
 20
0.0
 30
0.06
 70
     1
1001
ADE
1011
-35.730707591283128
1021
0.0
1031
-0.0
1021
-9.6027616737410408
1031
0.0
1001
IRD
1002
{
1000
TPMLINK_Unit_topology-_-ade
1070
   515
1071
        5
1004
0100E5030000D7000000D7000000000000003AB128415A4D7D403AB128415A4D7D403503000000000000
1002
}
1001
DCO15
1071
        5
1071
        5
1000
unitlink
1004
074331303000
1071
        4
1000
Link
1004
074331303000
  0
VERTEX
  5
341
  8
SHIJIAHE
 10
727669.10270949453
 20
3419931.7764617372
 30
0.06
  0
VERTEX
  5
342
  8
SHIJIAHE
 10
727672.14098224405
 20
3419855.3573377719
 30
0.06
  0
VERTEX
  5
343
  8
SHIJIAHE
 10
727688.49495035782
 20
3419847.193176988
 30
0.06
  0
VERTEX
  5
344
  8
SHIJIAHE
 10
727740.84314972186
 20
3419868.429666297
 30
0.06
  0
VERTEX
  5
345
  8
SHIJIAHE
 10
727766.60646252707
 20
3419894.5662639569
 30
0.06
  0
VERTEX
  5
346
  8
SHIJIAHE
 10
727787.87437177461
 20
3419940.72238323
 30
0.06
  0
VERTEX
  5
347
  8
SHIJIAHE
 10
727811.03345079324
 20
3419983.63862823
 30
0.06
  0
VERTEX
  5
348
  8
SHIJIAHE
 10
727784.88260319841
 20
3420009.7591071138
 30
0.06
  0
VERTEX
  5
349
  8
SHIJIAHE
 10
727752.45369201503
 20
3420002.4411821449
 30
0.06
  0
VERTEX
  5
34A
  8
SHIJIAHE
 10
727700.15199682862
 20
3419965.883794853
 30
0.06
  0
VERTEX
  5
34B
  8
SHIJIAHE
 10
727677.1479317249
 20
3419948.120902088
 30
0.06
  0
VERTEX
  5
34C
  8
SHIJIAHE
 10
727669.10270949453
 20
3419931.7764617372
 30
0.06
  0
SEQEND
  5
34D
  8
SHIJIAHE
  0
POLYLINE
  5
97
  8
SHIJIAHE
 66
     1
 10
0.0
 20
0.0
 30
0.06
 70
     1
1001
ADE
1011
-23.461356155690741
1021
0.0
1031
-0.0
1021
7.7732804333791128
1031
0.0
1001
IRD
1002
{
1000
TPMLINK_Unit_topology-_-ade
1070
   515
1071
        5
1004
0100E6030000E2000000E200000000000000AAF170D7C5AC7640AAF170D7C5AC76403403000000000000
1002
}
1001
DCO15
1071
        5
1071
        5
1000
unitlink
1004
0743373300
1071
        4
1000
Link
1004
0743373300
  0
VERTEX
  5
34E
  8
SHIJIAHE
 10
727459.05885359657
 20
3418848.1513496758
 30
0.06
  0
VERTEX
  5
34F
  8
SHIJIAHE
 10
727473.61466028937
 20
3418801.455251358
 30
0.06
  0
VERTEX
  5
350
  8
SHIJIAHE
 10
727473.61466028937
 20
3418763.1812142669
 30
0.06
  0
VERTEX
  5
351
  8
SHIJIAHE
 10
727567.89412387426
 20
3418767.0094239139
 30
0.06
  0
VERTEX
  5
352
  8
SHIJIAHE
 10
727543.02989178151
 20
3418860.1759576639
 30
0.06
  0
VERTEX
  5
353
  8
SHIJIAHE
 10
727459.05885359657
 20
3418848.1513496758
 30
0.06
  0
SEQEND
  5
354
  8
SHIJIAHE
  0
POLYLINE
  5
98
  8
SHIJIAHE
 66
     1
 10
0.0
 20
0.0
 30
0.06
 70
     1
1001
ADE
1011
-28.034266667440541
1021
0.0
1031
-0.0
1021
11.311352086253461
1031
0.0
1001
IRD
1002
{
1000
TPMLINK_Unit_topology-_-ade
1070
   515
1071
        5
1004
0100E7030000030000000300000000000000C9BDCFDCE7418040C9BDCFDCE74180403203000000000000
1002
}
1001
DCO15
1071
        5
1071
        5
1000
unitlink
1004
0743313900
1071
        4
1000
Link
1004
0743313900
  0
VERTEX
  5
355
  8
SHIJIAHE
 10
726569.79052287713
 20
3423260.658621463
 30
0.06
  0
VERTEX
  5
356
  8
SHIJIAHE
 10
726614.20200975251
 20
3423153.089960047
 30
0.06
  0
VERTEX
  5
357
  8
SHIJIAHE
 10
726744.56871293124
 20
3423177.62273935
 30
0.06
  0
VERTEX
  5
358
  8
SHIJIAHE
 10
726746.45988270268
 20
3423202.1555186519
 30
0.06
  0
VERTEX
  5
359
  8
SHIJIAHE
 10
726682.22211600095
 20
3423294.6289449721
 30
0.06
  0
VERTEX
  5
35A
  8
SHIJIAHE
 10
726637.8106291258
 20
3423299.3436873811
 30
0.06
  0
VERTEX
  5
35B
  8
SHIJIAHE
 10
726566.0081833303
 20
3423272.9250111151
 30
0.06
  0
VERTEX
  5
35C
  8
SHIJIAHE
 10
726569.79052287713
 20
3423260.658621463
 30
0.06
  0
SEQEND
  5
35D
  8
SHIJIAHE
  0
POLYLINE
  5
99
  8
SHIJIAHE
 66
     1
 10
0.0
 20
0.0
 30
0.06
 70
     1
1001
ADE
1011
-20.314573664451029
1021
0.0
1031
-0.0
1021
3.3164384630508721
1031
0.0
1001
IRD
1002
{
1000
TPMLINK_Unit_topology-_-ade
1070
   515
1071
        5
1004
0100E8030000080000000800000000000000A2405EE5A9977D40A2405EE5A9977D403303000000000000
1002
}
1001
DCO15
1071
        5
1071
        5
1000
unitlink
1004
0743313800
1071
        4
1000
Link
1004
0743313800
  0
VERTEX
  5
35E
  8
SHIJIAHE
 10
726675.60302179714
 20
3423133.2719231541
 30
0.06
  0
VERTEX
  5
35F
  8
SHIJIAHE
 10
726704.90065187996
 20
3423028.5321071818
 30
0.06
  0
VERTEX
  5
360
  8
SHIJIAHE
 10
726762.53482577205
 20
3423014.379820568
 30
0.06
  0
VERTEX
  5
361
  8
SHIJIAHE
 10
726822.04466804524
 20
3423020.9885193291
 30
0.06
  0
VERTEX
  5
362
  8
SHIJIAHE
 10
726786.14344514546
 20
3423143.6524158409
 30
0.06
  0
VERTEX
  5
363
  8
SHIJIAHE
 10
726767.24724881339
 20
3423156.8617539741
 30
0.06
  0
VERTEX
  5
364
  8
SHIJIAHE
 10
726675.60302179714
 20
3423133.2719231541
 30
0.06
  0
SEQEND
  5
365
  8
SHIJIAHE
  0
POLYLINE
  5
9A
  8
SHIJIAHE
 66
     1
 10
0.0
 20
0.0
 30
0.06
 70
     1
1001
ADE
1011
-34.444921737071127
1021
0.0
1031
-0.0
1021
-13.02800188539549
1031
0.0
1001
IRD
1002
{
1000
TPMLINK_Unit_topology-_-ade
1070
   515
1071
        5
1004
0100E9030000050000000500000000000000961270BA03DC7C40961270BA03DC7C403103000000000000
1002
}
1001
DCO15
1071
        5
1071
        5
1000
unitlink
1004
0743333200
1071
        4
1000
Link
1004
0743333200
  0
VERTEX
  5
366
  8
SHIJIAHE
 10
726059.3607009612
 20
3423194.9343063468
 30
0.06
  0
VERTEX
  5
367
  8
SHIJIAHE
 10
726092.92121372733
 20
3423222.4732376481
 30
0.06
  0
VERTEX
  5
368
  8
SHIJIAHE
 10
726127.20429671812
 20
3423250.605092302
 30
0.06
  0
VERTEX
  5
369
  8
SHIJIAHE
 10
726151.63892989652
 20
3423270.655551279
 30
0.06
  0
VERTEX
  5
36A
  8
SHIJIAHE
 10
726117.59942912322
 20
3423302.2047703802
 30
0.06
  0
VERTEX
  5
36B
  8
SHIJIAHE
 10
726092.13158585504
 20
3423325.8094223002
 30
0.06
  0
VERTEX
  5
36C
  8
SHIJIAHE
 10
726059.5312162675
 20
3423331.6779549769
 30
0.06
  0
VERTEX
  5
36D
  8
SHIJIAHE
 10
726055.34584054002
 20
3423325.4238693211
 30
0.06
  0
VERTEX
  5
36E
  8
SHIJIAHE
 10
726064.53816574812
 20
3423310.4011687222
 30
0.06
  0
VERTEX
  5
36F
  8
SHIJIAHE
 10
726067.04939118435
 20
3423294.5564104738
 30
0.06
  0
VERTEX
  5
370
  8
SHIJIAHE
 10
726054.92730296776
 20
3423278.2845046232
 30
0.06
  0
VERTEX
  5
371
  8
SHIJIAHE
 10
726039.05387799058
 20
3423274.5288294712
 30
0.06
  0
VERTEX
  5
372
  8
SHIJIAHE
 10
726031.11716550204
 20
3423284.1275614528
 30
0.06
  0
VERTEX
  5
373
  8
SHIJIAHE
 10
726024.18534116435
 20
3423292.5109726018
 30
0.06
  0
VERTEX
  5
374
  8
SHIJIAHE
 10
726013.58509162825
 20
3423284.1275614528
 30
0.06
  0
VERTEX
  5
375
  8
SHIJIAHE
 10
726009.39971590054
 20
3423255.3474842878
 30
0.06
  0
VERTEX
  5
376
  8
SHIJIAHE
 10
726007.20173272712
 20
3423240.233399089
 30
0.06
  0
VERTEX
  5
377
  8
SHIJIAHE
 10
726031.95424064621
 20
3423216.9686751431
 30
0.06
  0
VERTEX
  5
378
  8
SHIJIAHE
 10
726059.3607009612
 20
3423194.9343063468
 30
0.06
  0
SEQEND
  5
379
  8
SHIJIAHE
  0
POLYLINE
  5
9B
  8
SHIJIAHE
 66
     1
 10
0.0
 20
0.0
 30
0.5
 70
     1
1001
ADE
1011
-18.011245136265639
1021
0.0
1031
-0.0
1021
7.0347856455482543
1031
0.0
1001
IRD
1002
{
1000
TPMLINK_Unit_topology-_-ade
1070
   515
1071
        5
1004
0100EA030000B2000000B20000000000000036D622196DE1724036D622196DE172402803000000000000
1002
}
1001
DCO15
1071
        5
1071
        5
1000
unitlink
1004
074133303600
1071
        4
1000
Link
1004
074133303600
  0
VERTEX
  5
37A
  8
SHIJIAHE
 10
726497.69355064293
 20
3421875.3867079122
 30
0.5
  0
VERTEX
  5
37B
  8
SHIJIAHE
 10
726563.73910872382
 20
3421856.0179714719
 30
0.5
  0
VERTEX
  5
37C
  8
SHIJIAHE
 10
726596.86871021055
 20
3421927.1843992989
 30
0.5
  0
VERTEX
  5
37D
  8
SHIJIAHE
 10
726545.12780887645
 20
3421956.0250389338
 30
0.5
  0
VERTEX
  5
37E
  8
SHIJIAHE
 10
726499.57650602644
 20
3421893.268758168
 30
0.5
  0
VERTEX
  5
37F
  8
SHIJIAHE
 10
726497.69355064293
 20
3421875.3867079122
 30
0.5
  0
SEQEND
  5
380
  8
SHIJIAHE
  0
POLYLINE
  5
9C
  8
SHIJIAHE
 66
     1
 10
0.0
 20
0.0
 30
0.06
 70
     1
1001
ADE
1011
-24.75572235300206
1021
0.0
1031
-0.0
1021
-6.8665992007590821
1031
0.0
1001
IRD
1002
{
1000
TPMLINK_Unit_topology-_-ade
1070
   515
1071
        5
1004
0100EB030000BA000000BA000000000000007288CD00B06F76407288CD00B06F76402B03000000000000
1002
}
1001
DCO15
1071
        5
1071
        5
1000
unitlink
1004
074133303800
1071
        4
1000
Link
1004
074133303800
  0
VERTEX
  5
381
  8
SHIJIAHE
 10
726558.50550980843
 20
3421775.8049007319
 30
0.06
  0
VERTEX
  5
382
  8
SHIJIAHE
 10
726543.70168085012
 20
3421751.916872527
 30
0.06
  0
VERTEX
  5
383
  8
SHIJIAHE
 10
726537.43911864969
 20
3421717.7853612448
 30
0.06
  0
VERTEX
  5
384
  8
SHIJIAHE
 10
726528.32430040464
 20
3421681.9452595501
 30
0.06
  0
VERTEX
  5
385
  8
SHIJIAHE
 10
726605.21120263624
 20
3421670.5654026601
 30
0.06
  0
VERTEX
  5
386
  8
SHIJIAHE
 10
726631.98210589215
 20
3421702.4241663199
 30
0.06
  0
VERTEX
  5
387
  8
SHIJIAHE
 10
726638.81821957976
 20
3421735.4193037921
 30
0.06
  0
VERTEX
  5
388
  8
SHIJIAHE
 10
726635.40791343153
 20
3421761.0159224081
 30
0.06
  0
VERTEX
  5
389
  8
SHIJIAHE
 10
726611.47376483295
 20
3421771.8235626989
 30
0.06
  0
VERTEX
  5
38A
  8
SHIJIAHE
 10
726578.44029937685
 20
3421779.2220815541
 30
0.06
  0
SEQEND
  5
38B
  8
SHIJIAHE
  0
POLYLINE
  5
9D
  8
SHIJIAHE
 66
     1
 10
0.0
 20
0.0
 30
11.199999999999999
 70
     1
1001
ADE
1011
-15.02859913569409
1021
0.0
1031
-0.0
1021
-0.3949100477620959
1031
0.0
1001
IRD
1002
{
1000
TPMLINK_Unit_topology-_-ade
1070
   515
1071
        5
1004
0100EF0300000F0000000F000000000000003EED8FD0BB6764403EED8FD0BB6764400000000018030000
1002
}
1001
DCO15
1071
        5
1071
        5
1000
unitlink
1004
074133383000
1071
        4
1000
Link
1004
074133383000
  0
VERTEX
  5
38C
  8
SHIJIAHE
 10
726824.10635312286
 20
3422851.322267727
 30
11.199999999999999
  0
VERTEX
  5
38D
  8
SHIJIAHE
 10
726868.44033304218
 20
3422854.3284197231
 30
11.199999999999999
  0
VERTEX
  5
38E
  8
SHIJIAHE
 10
726864.17745035514
 20
3422820.615996656
 30
11.199999999999999
  0
VERTEX
  5
38F
  8
SHIJIAHE
 10
726841.52991725877
 20
3422815.570819308
 30
11.199999999999999
  0
VERTEX
  5
390
  8
SHIJIAHE
 10
726827.95069823426
 20
3422815.0147214858
 30
11.199999999999999
  0
VERTEX
  5
391
  8
SHIJIAHE
 10
726818.20032293361
 20
3422816.9167372282
 30
11.199999999999999
  0
VERTEX
  5
392
  8
SHIJIAHE
 10
726814.94503070042
 20
3422823.4126045448
 30
11.199999999999999
  0
VERTEX
  5
393
  8
SHIJIAHE
 10
726815.84411141276
 20
3422840.9981907601
 30
11.199999999999999
  0
VERTEX
  5
394
  8
SHIJIAHE
 10
726824.10635312286
 20
3422851.322267727
 30
11.199999999999999
  0
SEQEND
  5
395
  8
SHIJIAHE
  0
POLYLINE
  5
9E
  8
SHIJIAHE
 66
     1
 10
0.0
 20
0.0
 30
0.06
 70
     1
1001
ADE
1011
-19.15971999254543
1021
0.0
1031
-0.0
1021
0.9099478190764783
1031
0.0
1001
IRD
1002
{
1000
TPMLINK_Unit_topology-_-ade
1070
   515
1071
        5
1004
0100F00300000D0000000D0000000000000082B2A9BCDB7F654082B2A9BCDB7F65401903000000000000
1002
}
1001
DCO15
1071
        5
1071
        5
1000
unitlink
1004
074133373800
1071
        4
1000
Link
1004
074133373800
  0
VERTEX
  5
396
  8
SHIJIAHE
 10
726873.97432983306
 20
3422853.8287376231
 30
0.06
  0
VERTEX
  5
397
  8
SHIJIAHE
 10
726873.19926025742
 20
3422824.7827006308
 30
0.06
  0
VERTEX
  5
398
  8
SHIJIAHE
 10
726876.62506779307
 20
3422819.020237688
 30
0.06
  0
VERTEX
  5
399
  8
SHIJIAHE
 10
726898.17200208828
 20
3422814.7568210461
 30
0.06
  0
VERTEX
  5
39A
  8
SHIJIAHE
 10
726922.44718130294
 20
3422814.2651983341
 30
0.06
  0
VERTEX
  5
39B
  8
SHIJIAHE
 10
726927.23711130035
 20
3422838.1371077611
 30
0.06
  0
VERTEX
  5
39C
  8
SHIJIAHE
 10
726922.67970217764
 20
3422852.6843044241
 30
0.06
  0
VERTEX
  5
39D
  8
SHIJIAHE
 10
726883.07364669058
 20
3422856.0934258569
 30
0.06
  0
VERTEX
  5
39E
  8
SHIJIAHE
 10
726875.93993400736
 20
3422856.7074656161
 30
0.06
  0
VERTEX
  5
39F
  8
SHIJIAHE
 10
726873.97432983306
 20
3422853.8287376231
 30
0.06
  0
SEQEND
  5
3A0
  8
SHIJIAHE
  0
POLYLINE
  5
9F
  8
SHIJIAHE
 66
     1
 10
0.0
 20
0.0
 30
11.593498049414819
 70
     1
1001
ADE
1011
-23.93414859869517
1021
0.0
1031
-0.0
1021
0.1893956353887915
1031
0.0
1001
IRD
1002
{
1000
TPMLINK_Unit_topology-_-ade
1070
   515
1071
        5
1004
0100F1030000110000001100000000000000F47D7C940D826740F47D7C940D8267401703000000000000
1002
}
1001
DCO15
1071
        5
1071
        5
1000
unitlink
1004
074133373900
1071
        4
1000
Link
1004
074133373900
  0
VERTEX
  5
3A1
  8
SHIJIAHE
 10
726856.8142893574
 20
3422815.2323249811
 30
11.593498049414819
  0
VERTEX
  5
3A2
  8
SHIJIAHE
 10
726854.98512515065
 20
3422790.9735648958
 30
11.593498049414819
  0
VERTEX
  5
3A3
  8
SHIJIAHE
 10
726855.24864880764
 20
3422777.7078110431
 30
11.593498049414819
  0
VERTEX
  5
3A4
  8
SHIJIAHE
 10
726882.01955206285
 20
3422775.5237166951
 30
11.593498049414819
  0
VERTEX
  5
3A5
  8
SHIJIAHE
 10
726909.5965276846
 20
3422777.143653831
 30
11.593498049414819
  0
VERTEX
  5
3A6
  8
SHIJIAHE
 10
726916.89768311777
 20
3422810.179088247
 30
11.593498049414819
  0
VERTEX
  5
3A7
  8
SHIJIAHE
 10
726882.19006736961
 20
3422814.0475948388
 30
11.593498049414819
  0
VERTEX
  5
3A8
  8
SHIJIAHE
 10
726872.16066702094
 20
3422819.342613236
 30
11.593498049414819
  0
VERTEX
  5
3A9
  8
SHIJIAHE
 10
726856.8142893574
 20
3422815.2323249811
 30
11.593498049414819
  0
SEQEND
  5
3AA
  8
SHIJIAHE
  0
POLYLINE
  5
A0
  8
SHIJIAHE
 66
     1
 10
0.0
 20
0.0
 30
7.7999999999999989
 70
     1
1001
ADE
1011
-8.8822973764035851
1021
0.0
1031
-0.0
1021
0.5158008779399097
1031
0.0
1001
IRD
1002
{
1000
TPMLINK_Unit_topology-_-ade
1070
   515
1071
        5
1004
0100F203000018000000180000000000000037CC8FB519B6634037CC8FB519B663401603000000000000
1002
}
1001
DCO15
1071
        5
1071
        5
1000
unitlink
1004
074133373400
1071
        4
1000
Link
1004
074133373400
  0
VERTEX
  5
3AB
  8
SHIJIAHE
 10
726852.19487466651
 20
3422768.8102458818
 30
7.7999999999999989
  0
VERTEX
  5
3AC
  8
SHIJIAHE
 10
726853.83802217245
 20
3422752.884893747
 30
7.7999999999999989
  0
VERTEX
  5
3AD
  8
SHIJIAHE
 10
726868.42483164754
 20
3422749.2178718718
 30
7.7999999999999989
  0
VERTEX
  5
3AE
  8
SHIJIAHE
 10
726870.50201812014
 20
3422741.7226403509
 30
7.7999999999999989
  0
VERTEX
  5
3AF
  8
SHIJIAHE
 10
726904.55857542146
 20
3422746.106947822
 30
7.7999999999999989
  0
VERTEX
  5
3B0
  8
SHIJIAHE
 10
726907.16280920454
 20
3422772.976949858
 30
7.7999999999999989
  0
VERTEX
  5
3B1
  8
SHIJIAHE
 10
726858.86047304422
 20
3422775.1207472598
 30
7.7999999999999989
  0
VERTEX
  5
3B2
  8
SHIJIAHE
 10
726852.19487466651
 20
3422768.8102458818
 30
7.7999999999999989
  0
SEQEND
  5
3B3
  8
SHIJIAHE
  0
POLYLINE
  5
A1
  8
SHIJIAHE
 66
     1
 10
0.0
 20
0.0
 30
9.8000000000000007
 70
     1
1001
ADE
1011
-14.67346924822777
1021
0.0
1031
-0.0
1021
2.8933205562643689
1031
0.0
1001
IRD
1002
{
1000
TPMLINK_Unit_topology-_-ade
1070
   515
1071
        5
1004
0100F303000013000000130000000000000082C57E46EA6F664082C57E46EA6F66401303000000000000
1002
}
1001
DCO15
1071
        5
1071
        5
1000
unitlink
1004
074133373300
1071
        4
1000
Link
1004
074133373300
  0
VERTEX
  5
3B4
  8
SHIJIAHE
 10
726806.00353199826
 20
3422802.226718606
 30
9.8000000000000007
  0
VERTEX
  5
3B5
  8
SHIJIAHE
 10
726811.30220368109
 20
3422757.4062108239
 30
9.8000000000000007
  0
VERTEX
  5
3B6
  8
SHIJIAHE
 10
726831.77954195451
 20
3422749.4112972021
 30
9.8000000000000007
  0
VERTEX
  5
3B7
  8
SHIJIAHE
 10
726847.97849615652
 20
3422752.9896657998
 30
9.8000000000000007
  0
VERTEX
  5
3B8
  8
SHIJIAHE
 10
726850.72224246699
 20
3422799.4117449
 30
9.8000000000000007
  0
VERTEX
  5
3B9
  8
SHIJIAHE
 10
726834.02724373341
 20
3422810.53370135
 30
9.8000000000000007
  0
VERTEX
  5
3BA
  8
SHIJIAHE
 10
726806.00353199826
 20
3422802.226718606
 30
9.8000000000000007
  0
SEQEND
  5
3BB
  8
SHIJIAHE
  0
POLYLINE
  5
A2
  8
SHIJIAHE
 66
     1
 10
0.0
 20
0.0
 30
0.25
 70
     1
1001
ADE
1011
-19.82850742386654
1021
0.0
1031
-0.0
1021
0.5158008779399097
1031
0.0
1001
IRD
1002
{
1000
TPMLINK_Unit_topology-_-ade
1070
   515
1071
        5
1004
0100F40300001400000014000000000000004483991141DB64404483991141DB64401203000000000000
1002
}
1001
DCO15
1071
        5
1071
        5
1000
unitlink
1004
074133383500
1071
        4
1000
Link
1004
074133383500
  0
VERTEX
  5
3BC
  8
SHIJIAHE
 10
726764.03846075374
 20
3422794.3585081641
 30
0.25
  0
VERTEX
  5
3BD
  8
SHIJIAHE
 10
726760.19411564246
 20
3422783.776530758
 30
0.25
  0
VERTEX
  5
3BE
  8
SHIJIAHE
 10
726759.66706832882
 20
3422771.8647542112
 30
0.25
  0
VERTEX
  5
3BF
  8
SHIJIAHE
 10
726760.86067548022
 20
3422761.153826586
 30
0.25
  0
VERTEX
  5
3C0
  8
SHIJIAHE
 10
726768.93690049264
 20
3422747.1224308028
 30
0.25
  0
VERTEX
  5
3C1
  8
SHIJIAHE
 10
726791.58443359286
 20
3422751.6276291031
 30
0.25
  0
VERTEX
  5
3C2
  8
SHIJIAHE
 10
726802.85394527018
 20
3422755.9877584078
 30
0.25
  0
VERTEX
  5
3C3
  8
SHIJIAHE
 10
726805.24115957308
 20
3422760.8878667569
 30
0.25
  0
VERTEX
  5
3C4
  8
SHIJIAHE
 10
726805.50468323007
 20
3422775.1771629811
 30
0.25
  0
VERTEX
  5
3C5
  8
SHIJIAHE
 10
726805.77266207815
 20
3422789.7080373089
 30
0.25
  0
VERTEX
  5
3C6
  8
SHIJIAHE
 10
726802.97795640305
 20
3422796.7440872299
 30
0.25
  0
VERTEX
  5
3C7
  8
SHIJIAHE
 10
726796.54487889621
 20
3422798.783112579
 30
0.25
  0
VERTEX
  5
3C8
  8
SHIJIAHE
 10
726787.02702446654
 20
3422798.613865416
 30
0.25
  0
VERTEX
  5
3C9
  8
SHIJIAHE
 10
726775.18396130204
 20
3422795.7769605811
 30
0.25
  0
VERTEX
  5
3CA
  8
SHIJIAHE
 10
726764.03846075374
 20
3422794.3585081641
 30
0.25
  0
SEQEND
  5
3CB
  8
SHIJIAHE
  0
POLYLINE
  5
A3
  8
SHIJIAHE
 66
     1
 10
0.0
 20
0.0
 30
4.5999999999999979
 70
     1
1001
ADE
1011
-14.05976216110866
1021
0.0
1031
-0.0
1021
-0.491622711531818
1031
0.0
1001
IRD
1002
{
1000
TPMLINK_Unit_topology-_-ade
1070
   515
1071
        5
1004
0100F50300001A0000001A000000000000008C31CC9102CB62408C31CC9102CB62400000000011030000
1002
}
1001
DCO15
1071
        5
1071
        5
1000
unitlink
1004
074133383600
1071
        4
1000
Link
1004
074133383600
  0
VERTEX
  5
3CC
  8
SHIJIAHE
 10
726722.99077585316
 20
3422744.0437443061
 30
4.5999999999999979
  0
VERTEX
  5
3CD
  8
SHIJIAHE
 10
726745.15776581317
 20
3422758.2524466412
 30
4.5999999999999979
  0
VERTEX
  5
3CE
  8
SHIJIAHE
 10
726757.07833593735
 20
3422758.8569007958
 30
4.5999999999999979
  0
VERTEX
  5
3CF
  8
SHIJIAHE
 10
726762.2092965506
 20
3422752.2240238688
 30
4.5999999999999979
  0
VERTEX
  5
3D0
  8
SHIJIAHE
 10
726769.15391997632
 20
3422728.8679153221
 30
4.5999999999999979
  0
VERTEX
  5
3D1
  8
SHIJIAHE
 10
726753.90055066335
 20
3422715.900358852
 30
4.5999999999999979
  0
VERTEX
  5
3D2
  8
SHIJIAHE
 10
726731.68705653015
 20
3422710.226549183
 30
4.5999999999999979
  0
VERTEX
  5
3D3
  8
SHIJIAHE
 10
726725.28498180583
 20
3422726.3372672601
 30
4.5999999999999979
  0
VERTEX
  5
3D4
  8
SHIJIAHE
 10
726720.72757268313
 20
3422735.9521180182
 30
4.5999999999999979
  0
VERTEX
  5
3D5
  8
SHIJIAHE
 10
726722.99077585316
 20
3422744.0437443061
 30
4.5999999999999979
  0
SEQEND
  5
3D6
  8
SHIJIAHE
  0
POLYLINE
  5
A4
  8
SHIJIAHE
 66
     1
 10
0.0
 20
0.0
 30
2.8999999999999999
 70
     1
1001
ADE
1011
-10.812220625695771
1021
0.0
1031
-0.0
1021
-8.7484664698131382
1031
0.0
1001
IRD
1002
{
1000
TPMLINK_Unit_topology-_-ade
1070
   515
1071
        5
1004
0100F603000020000000200000000000000040DE673245F8654040DE673245F865400000000010030000
1002
}
1001
DCO15
1071
        5
1071
        5
1000
unitlink
1004
074133383100
1071
        4
1000
Link
1004
074133383100
  0
VERTEX
  5
3D7
  8
SHIJIAHE
 10
726674.6884396933
 20
3422680.318157596
 30
2.8999999999999999
  0
VERTEX
  5
3D8
  8
SHIJIAHE
 10
726679.71089056495
 20
3422703.3115936508
 30
2.8999999999999999
  0
VERTEX
  5
3D9
  8
SHIJIAHE
 10
726702.90097236633
 20
3422732.0997302039
 30
2.8999999999999999
  0
VERTEX
  5
3DA
  8
SHIJIAHE
 10
726712.83736436826
 20
3422733.4698262881
 30
2.8999999999999999
  0
VERTEX
  5
3DB
  8
SHIJIAHE
 10
726723.57982873556
 20
3422727.247978189
 30
2.8999999999999999
  0
VERTEX
  5
3DC
  8
SHIJIAHE
 10
726727.99772533413
 20
3422710.8229439491
 30
2.8999999999999999
  0
VERTEX
  5
3DD
  8
SHIJIAHE
 10
726713.90696038702
 20
3422690.8598380568
 30
2.8999999999999999
  0
VERTEX
  5
3DE
  8
SHIJIAHE
 10
726702.73045706027
 20
3422674.3622693229
 30
2.8999999999999999
  0
VERTEX
  5
3DF
  8
SHIJIAHE
 10
726695.28978910297
 20
3422671.6623740969
 30
2.8999999999999999
  0
VERTEX
  5
3E0
  8
SHIJIAHE
 10
726685.66342493135
 20
3422671.791324317
 30
2.8999999999999999
  0
VERTEX
  5
3E1
  8
SHIJIAHE
 10
726674.6884396933
 20
3422680.318157596
 30
2.8999999999999999
  0
SEQEND
  5
3E2
  8
SHIJIAHE
  0
POLYLINE
  5
A5
  8
SHIJIAHE
 66
     1
 10
0.0
 20
0.0
 30
0.06
 70
     1
1001
ADE
1011
-19.965792352682911
1021
0.0
1031
-0.0
1021
-0.104772053193301
1031
0.0
1001
IRD
1002
{
1000
TPMLINK_Unit_topology-_-ade
1070
   515
1071
        5
1004
0100F7030000210000002100000000000000C20C6A2205666440C20C6A2205666440000000000F030000
1002
}
1001
DCO15
1071
        5
1071
        5
1000
unitlink
1004
074133383700
1071
        4
1000
Link
1004
074133383700
  0
VERTEX
  5
3E3
  8
SHIJIAHE
 10
726728.77279491362
 20
3422677.4006588748
 30
0.06
  0
VERTEX
  5
3E4
  8
SHIJIAHE
 10
726728.55577543017
 20
3422707.4782976261
 30
0.06
  0
VERTEX
  5
3E5
  8
SHIJIAHE
 10
726772.61073029775
 20
3422718.310116082
 30
0.06
  0
VERTEX
  5
3E6
  8
SHIJIAHE
 10
726779.07481058699
 20
3422715.5779833021
 30
0.06
  0
VERTEX
  5
3E7
  8
SHIJIAHE
 10
726781.29150958371
 20
3422696.8479638868
 30
0.06
  0
VERTEX
  5
3E8
  8
SHIJIAHE
 10
726777.38515890425
 20
3422684.766940176
 30
0.06
  0
VERTEX
  5
3E9
  8
SHIJIAHE
 10
726728.77279491362
 20
3422677.4006588748
 30
0.06
  0
SEQEND
  5
3EA
  8
SHIJIAHE
  0
POLYLINE
  5
A6
  8
SHIJIAHE
 66
     1
 10
0.0
 20
0.0
 30
0.25
 70
     1
1001
ADE
1011
-12.238348653656431
1021
0.0
1031
-0.0
1021
-2.3281046007759851
1031
0.0
1001
IRD
1002
{
1000
TPMLINK_Unit_topology-_-ade
1070
   515
1071
        5
1004
0100F8030000220000002200000000000000E19127F51ECB6740E19127F51ECB67400E03000000000000
1002
}
1001
DCO15
1071
        5
1071
        5
1000
unitlink
1004
074133383200
1071
        4
1000
Link
1004
074133383200
  0
VERTEX
  5
3EB
  8
SHIJIAHE
 10
726792.12698229786
 20
3422671.5656614322
 30
0.25
  0
VERTEX
  5
3EC
  8
SHIJIAHE
 10
726821.03707759071
 20
3422678.2307759151
 30
0.25
  0
VERTEX
  5
3ED
  8
SHIJIAHE
 10
726825.17594914546
 20
3422693.77733678
 30
0.25
  0
VERTEX
  5
3EE
  8
SHIJIAHE
 10
726819.13040642813
 20
3422724.5561423511
 30
0.25
  0
VERTEX
  5
3EF
  8
SHIJIAHE
 10
726817.27394315775
 20
3422734.0076878481
 30
0.25
  0
VERTEX
  5
3F0
  8
SHIJIAHE
 10
726781.32251236564
 20
3422729.9478734131
 30
0.25
  0
VERTEX
  5
3F1
  8
SHIJIAHE
 10
726781.32251236564
 20
3422708.0585736139
 30
0.25
  0
VERTEX
  5
3F2
  8
SHIJIAHE
 10
726790.22031113144
 20
3422667.7616299498
 30
0.25
  0
VERTEX
  5
3F3
  8
SHIJIAHE
 10
726792.12698229786
 20
3422671.5656614322
 30
0.25
  0
SEQEND
  5
3F4
  8
SHIJIAHE
  0
POLYLINE
  5
A7
  8
SHIJIAHE
 66
     1
 10
0.0
 20
0.0
 30
9.0999999999999996
 70
     1
1001
ADE
1011
-12.94237096223514
1021
0.0
1031
-0.0
1021
2.3815493718720959
1031
0.0
1001
IRD
1002
{
1000
TPMLINK_Unit_topology-_-ade
1070
   515
1071
        5
1004
0100F90300001E0000001E0000000000000014EA8704F856654014EA8704F85665401403000000000000
1002
}
1001
DCO15
1071
        5
1071
        5
1000
unitlink
1004
074133373200
1071
        4
1000
Link
1004
074133373200
  0
VERTEX
  5
3F5
  8
SHIJIAHE
 10
726833.29867833119
 20
3422693.3904861198
 30
9.0999999999999996
  0
VERTEX
  5
3F6
  8
SHIJIAHE
 10
726866.98320223391
 20
3422696.090381348
 30
9.0999999999999996
  0
VERTEX
  5
3F7
  8
SHIJIAHE
 10
726866.90569527436
 20
3422746.1472447659
 30
9.0999999999999996
  0
VERTEX
  5
3F8
  8
SHIJIAHE
 10
726835.36036341265
 20
3422747.9283696739
 30
9.0999999999999996
  0
VERTEX
  5
3F9
  8
SHIJIAHE
 10
726832.78713240812
 20
3422736.798353835
 30
9.0999999999999996
  0
VERTEX
  5
3FA
  8
SHIJIAHE
 10
726830.21131939464
 20
3422725.6571700089
 30
9.0999999999999996
  0
VERTEX
  5
3FB
  8
SHIJIAHE
 10
726833.29867833119
 20
3422693.3904861198
 30
9.0999999999999996
  0
SEQEND
  5
3FC
  8
SHIJIAHE
  0
POLYLINE
  5
A8
  8
SHIJIAHE
 66
     1
 10
0.0
 20
0.0
 30
4.5999999999999979
 70
     1
1001
ADE
1011
-11.881816642475311
1021
0.0
1031
-0.0
1021
2.0632035154849282
1031
0.0
1001
IRD
1002
{
1000
TPMLINK_Unit_topology-_-ade
1070
   515
1071
        5
1004
0100FA0300001D0000001D000000000000007207EE35A52F64407207EE35A52F64401503000000000000
1002
}
1001
DCO15
1071
        5
1071
        5
1000
unitlink
1004
074133373500
1071
        4
1000
Link
1004
074133373500
  0
VERTEX
  5
3FD
  8
SHIJIAHE
 10
726869.21540261793
 20
3422695.4939865801
 30
4.5999999999999979
  0
VERTEX
  5
3FE
  8
SHIJIAHE
 10
726902.99293487146
 20
3422696.5900634462
 30
4.5999999999999979
  0
VERTEX
  5
3FF
  8
SHIJIAHE
 10
726906.49624936655
 20
3422743.286161765
 30
4.5999999999999979
  0
VERTEX
  5
400
  8
SHIJIAHE
 10
726869.95946941525
 20
3422739.6352586681
 30
4.5999999999999979
  0
VERTEX
  5
401
  8
SHIJIAHE
 10
726869.21540261793
 20
3422695.4939865801
 30
4.5999999999999979
  0
SEQEND
  5
402
  8
SHIJIAHE
  0
POLYLINE
  5
A9
  8
SHIJIAHE
 66
     1
 10
0.0
 20
0.0
 30
0.06
 70
     1
1001
ADE
1011
-9.0605633795494214
1021
0.0
1031
-0.0
1021
2.538707450963555
1031
0.0
1001
IRD
1002
{
1000
TPMLINK_Unit_topology-_-ade
1070
   515
1071
        5
1004
0100FB030000100000001000000000000000E8C3798098DC6340E8C3798098DC63401A03000000000000
1002
}
1001
DCO15
1071
        5
1071
        5
1000
unitlink
1004
074133373700
1071
        4
1000
Link
1004
074133373700
  0
VERTEX
  5
403
  8
SHIJIAHE
 10
726937.70055061567
 20
3422820.0196018899
 30
0.06
  0
VERTEX
  5
404
  8
SHIJIAHE
 10
726938.59963132825
 20
3422784.08278753
 30
0.06
  0
VERTEX
  5
405
  8
SHIJIAHE
 10
726970.28447571385
 20
3422773.6861760649
 30
0.06
  0
VERTEX
  5
406
  8
SHIJIAHE
 10
726975.41543632734
 20
3422777.0791787221
 30
0.06
  0
VERTEX
  5
407
  8
SHIJIAHE
 10
726977.33760888514
 20
3422785.3884085049
 30
0.06
  0
VERTEX
  5
408
  8
SHIJIAHE
 10
726978.29869516182
 20
3422801.37017636
 30
0.06
  0
VERTEX
  5
409
  8
SHIJIAHE
 10
726980.25187050167
 20
3422816.658836788
 30
0.06
  0
VERTEX
  5
40A
  8
SHIJIAHE
 10
726954.89159387699
 20
3422822.7678534468
 30
0.06
  0
VERTEX
  5
40B
  8
SHIJIAHE
 10
726937.70055061567
 20
3422820.0196018899
 30
0.06
  0
SEQEND
  5
40C
  8
SHIJIAHE
  0
POLYLINE
  5
AA
  8
SHIJIAHE
 66
     1
 10
0.0
 20
0.0
 30
0.125
 70
     1
1001
ADE
1011
-3.4103061464847979
1021
0.0
1031
-0.0
1021
1.159461156930774
1031
0.0
1001
IRD
1002
{
1000
TPMLINK_Unit_topology-_-ade
1070
   515
1071
        5
1004
0100FC0300001700000017000000000000004D43D9EC3DCA63404D43D9EC3DCA63401C03000000000000
1002
}
1001
DCO15
1071
        5
1071
        5
1000
unitlink
1004
074133383800
1071
        4
1000
Link
1004
074133383800
  0
VERTEX
  5
40D
  8
SHIJIAHE
 10
726954.25603682187
 20
3422769.229334095
 30
0.125
  0
VERTEX
  5
40E
  8
SHIJIAHE
 10
726953.69798672583
 20
3422739.31288312
 30
0.125
  0
VERTEX
  5
40F
  8
SHIJIAHE
 10
726955.72866902105
 20
3422720.2927257088
 30
0.125
  0
VERTEX
  5
410
  8
SHIJIAHE
 10
726956.2154556663
 20
3422715.733293328
 30
0.125
  0
VERTEX
  5
411
  8
SHIJIAHE
 10
726973.84979577735
 20
3422715.8600619081
 30
0.125
  0
VERTEX
  5
412
  8
SHIJIAHE
 10
726984.76277545094
 20
3422716.214675012
 30
0.125
  0
VERTEX
  5
413
  8
SHIJIAHE
 10
726983.73968360573
 20
3422723.693787755
 30
0.125
  0
VERTEX
  5
414
  8
SHIJIAHE
 10
726979.25978143874
 20
3422739.038863902
 30
0.125
  0
VERTEX
  5
415
  8
SHIJIAHE
 10
726978.29869516182
 20
3422755.0206317599
 30
0.125
  0
VERTEX
  5
416
  8
SHIJIAHE
 10
726973.81879299495
 20
3422771.3247751649
 30
0.125
  0
VERTEX
  5
417
  8
SHIJIAHE
 10
726959.07696960506
 20
3422769.8982633599
 30
0.125
  0
VERTEX
  5
418
  8
SHIJIAHE
 10
726954.25603682187
 20
3422769.229334095
 30
0.125
  0
SEQEND
  5
419
  8
SHIJIAHE
  0
POLYLINE
  5
AB
  8
SHIJIAHE
 66
     1
 10
0.0
 20
0.0
 30
4.9000000000000004
 70
     1
1001
ADE
1011
-17.043780041974959
1021
0.0
1031
-0.0
1021
1.0839877836406231
1031
0.0
1001
IRD
1002
{
1000
TPMLINK_Unit_topology-_-ade
1070
   515
1071
        5
1004
0100FD03000016000000160000000000000014BC7FA3ABFD664014BC7FA3ABFD66401B03000000000000
1002
}
1001
DCO15
1071
        5
1071
        5
1000
unitlink
1004
074133373600
1071
        4
1000
Link
1004
074133373600
  0
VERTEX
  5
41A
  8
SHIJIAHE
 10
726911.99924337864
 20
3422773.5652852319
 30
4.9000000000000004
  0
VERTEX
  5
41B
  8
SHIJIAHE
 10
726908.30991218262
 20
3422759.1148012369
 30
4.9000000000000004
  0
VERTEX
  5
41C
  8
SHIJIAHE
 10
726908.89896506094
 20
3422736.8386507789
 30
4.9000000000000004
  0
VERTEX
  5
41D
  8
SHIJIAHE
 10
726909.32944771263
 20
3422720.5591338282
 30
4.9000000000000004
  0
VERTEX
  5
41E
  8
SHIJIAHE
 10
726944.39715177938
 20
3422719.551261948
 30
4.9000000000000004
  0
VERTEX
  5
41F
  8
SHIJIAHE
 10
726950.41169171024
 20
3422726.2889109282
 30
4.9000000000000004
  0
VERTEX
  5
420
  8
SHIJIAHE
 10
726951.45028494671
 20
3422748.7101303809
 30
4.9000000000000004
  0
VERTEX
  5
421
  8
SHIJIAHE
 10
726949.80713744089
 20
3422774.7177778231
 30
4.9000000000000004
  0
VERTEX
  5
422
  8
SHIJIAHE
 10
726911.99924337864
 20
3422773.5652852319
 30
4.9000000000000004
  0
SEQEND
  5
423
  8
SHIJIAHE
  0
POLYLINE
  5
AC
  8
SHIJIAHE
 66
     1
 10
0.0
 20
0.0
 30
2.299999999999998
 70
     1
1001
ADE
1011
-11.866315254825169
1021
0.0
1031
-0.0
1021
-1.3338288362137971
1031
0.0
1001
IRD
1002
{
1000
TPMLINK_Unit_topology-_-ade
1070
   515
1071
        5
1004
0100FE0300001C0000001C000000000000007C97C786227066407C97C786227066401D03000000000000
1002
}
1001
DCO15
1071
        5
1071
        5
1000
unitlink
1004
074133383900
1071
        4
1000
Link
1004
074133383900
  0
VERTEX
  5
424
  8
SHIJIAHE
 10
726912.40227955976
 20
3422709.9525299659
 30
2.299999999999998
  0
VERTEX
  5
425
  8
SHIJIAHE
 10
726917.36272486311
 20
3422665.456644773
 30
2.299999999999998
  0
VERTEX
  5
426
  8
SHIJIAHE
 10
726961.15415607393
 20
3422663.1758377631
 30
2.299999999999998
  0
VERTEX
  5
427
  8
SHIJIAHE
 10
726955.79067458946
 20
3422710.3635587902
 30
2.299999999999998
  0
VERTEX
  5
428
  8
SHIJIAHE
 10
726912.40227955976
 20
3422709.9525299659
 30
2.299999999999998
  0
SEQEND
  5
429
  8
SHIJIAHE
  0
POLYLINE
  5
AD
  8
SHIJIAHE
 66
     1
 10
0.0
 20
0.0
 30
0.06
 70
     1
1001
ADE
1011
-10.4634393149754
1021
0.0
1031
-0.0
1021
3.1673397724516681
1031
0.0
1001
IRD
1002
{
1000
TPMLINK_Unit_topology-_-ade
1070
   515
1071
        5
1004
0100FF0300001F0000001F00000000000000F550202A940C6440F550202A940C64401E03000000000000
1002
}
1001
DCO15
1071
        5
1071
        5
1000
unitlink
1004
074133393000
1071
        4
1000
Link
1004
074133393000
  0
VERTEX
  5
42A
  8
SHIJIAHE
 10
726961.72770756495
 20
3422685.9597297092
 30
0.06
  0
VERTEX
  5
42B
  8
SHIJIAHE
 10
726972.1911468805
 20
3422657.4697905378
 30
0.06
  0
VERTEX
  5
42C
  8
SHIJIAHE
 10
726997.13288593141
 20
3422658.6101940442
 30
0.06
  0
VERTEX
  5
42D
  8
SHIJIAHE
 10
726991.61439052981
 20
3422709.0176408719
 30
0.06
  0
VERTEX
  5
42E
  8
SHIJIAHE
 10
726959.92954614013
 20
3422708.5663151052
 30
0.06
  0
VERTEX
  5
42F
  8
SHIJIAHE
 10
726961.72770756495
 20
3422685.9597297092
 30
0.06
  0
SEQEND
  5
430
  8
SHIJIAHE
  0
POLYLINE
  5
AE
  8
SHIJIAHE
 66
     1
 10
0.0
 20
0.0
 30
0.06
 70
     1
1001
ADE
1011
-16.09044445853214
1021
0.0
1031
-0.0
1021
1.035631452687084
1031
0.0
1001
IRD
1002
{
1000
TPMLINK_Unit_topology-_-ade
1070
   515
1071
        5
1004
0100000400002500000025000000000000001A484AA2C29864401A484AA2C29864402303000000000000
1002
}
1001
DCO15
1071
        5
1071
        5
1000
unitlink
1004
074133393100
1071
        4
1000
Link
1004
074133393100
  0
VERTEX
  5
431
  8
SHIJIAHE
 10
726913.25485609483
 20
3422656.5510202232
 30
0.06
  0
VERTEX
  5
432
  8
SHIJIAHE
 10
726912.65030182526
 20
3422644.1798585178
 30
0.06
  0
VERTEX
  5
433
  8
SHIJIAHE
 10
726916.27762745344
 20
3422628.7864260389
 30
0.06
  0
VERTEX
  5
434
  8
SHIJIAHE
 10
726917.71687069559
 20
3422622.6786496919
 30
0.06
  0
VERTEX
  5
435
  8
SHIJIAHE
 10
726926.53954868042
 20
3422619.727673104
 30
0.06
  0
VERTEX
  5
436
  8
SHIJIAHE
 10
726938.02607984096
 20
3422623.6525954171
 30
0.06
  0
VERTEX
  5
437
  8
SHIJIAHE
 10
726965.23102206003
 20
3422626.0704120351
 30
0.06
  0
VERTEX
  5
438
  8
SHIJIAHE
 10
726967.33921131515
 20
3422634.2184540448
 30
0.06
  0
VERTEX
  5
439
  8
SHIJIAHE
 10
726961.89822287101
 20
3422658.066185304
 30
0.06
  0
VERTEX
  5
43A
  8
SHIJIAHE
 10
726913.25485609483
 20
3422656.5510202232
 30
0.06
  0
SEQEND
  5
43B
  8
SHIJIAHE
  0
POLYLINE
  5
AF
  8
SHIJIAHE
 66
     1
 10
0.0
 20
0.0
 30
0.06
 70
     1
1001
ADE
1011
-16.555486205732439
1021
0.0
1031
-0.0
1021
-1.3297991412691761
1031
0.0
1001
IRD
1002
{
1000
TPMLINK_Unit_topology-_-ade
1070
   515
1071
        5
1004
0100020400002300000023000000000000005DD852EE826565405DD852EE826565400C03000000000000
1002
}
1001
DCO15
1071
        5
1071
        5
1000
unitlink
1004
074133383300
1071
        4
1000
Link
1004
074133383300
  0
VERTEX
  5
43C
  8
SHIJIAHE
 10
726732.38461915008
 20
3422664.9972596141
 30
0.06
  0
VERTEX
  5
43D
  8
SHIJIAHE
 10
726733.74643397285
 20
3422637.6189381802
 30
0.06
  0
VERTEX
  5
43E
  8
SHIJIAHE
 10
726739.67027319223
 20
3422630.8979858859
 30
0.06
  0
VERTEX
  5
43F
  8
SHIJIAHE
 10
726764.22447745514
 20
3422634.3474042648
 30
0.06
  0
VERTEX
  5
440
  8
SHIJIAHE
 10
726786.85650916025
 20
3422651.207645494
 30
0.06
  0
VERTEX
  5
441
  8
SHIJIAHE
 10
726786.46897437063
 20
3422674.1930221589
 30
0.06
  0
VERTEX
  5
442
  8
SHIJIAHE
 10
726779.95838990808
 20
3422679.560575054
 30
0.06
  0
VERTEX
  5
443
  8
SHIJIAHE
 10
726747.34346202423
 20
3422673.4273802289
 30
0.06
  0
VERTEX
  5
444
  8
SHIJIAHE
 10
726732.38461915008
 20
3422664.9972596141
 30
0.06
  0
SEQEND
  5
445
  8
SHIJIAHE
  0
POLYLINE
  5
B0
  8
SHIJIAHE
 66
     1
 10
0.0
 20
0.0
 30
0.125
 70
     1
1001
ADE
1011
-18.919448420638211
1021
0.0
1031
-0.0
1021
0.0846235817298293
1031
0.0
1001
IRD
1002
{
1000
TPMLINK_Unit_topology-_-ade
1070
   515
1071
        5
1004
010003040000260000002600000000000000421D0B58FF1C6640421D0B58FF1C66400B03000000000000
1002
}
1001
DCO15
1071
        5
1071
        5
1000
unitlink
1004
074133383400
1071
        4
1000
Link
1004
074133383400
  0
VERTEX
  5
446
  8
SHIJIAHE
 10
726670.62707509845
 20
3422655.801497072
 30
0.125
  0
VERTEX
  5
447
  8
SHIJIAHE
 10
726670.99910849705
 20
3422628.9798513688
 30
0.125
  0
VERTEX
  5
448
  8
SHIJIAHE
 10
726682.90417722985
 20
3422622.0890740021
 30
0.125
  0
VERTEX
  5
449
  8
SHIJIAHE
 10
726717.03824148711
 20
3422623.6203578608
 30
0.125
  0
VERTEX
  5
44A
  8
SHIJIAHE
 10
726728.92780882877
 20
3422633.5817623362
 30
0.125
  0
VERTEX
  5
44B
  8
SHIJIAHE
 10
726722.41722436622
 20
3422663.8447670261
 30
0.125
  0
VERTEX
  5
44C
  8
SHIJIAHE
 10
726707.83041488763
 20
3422667.2941854019
 30
0.125
  0
VERTEX
  5
44D
  8
SHIJIAHE
 10
726683.27621062845
 20
3422665.7629015441
 30
0.125
  0
VERTEX
  5
44E
  8
SHIJIAHE
 10
726670.62707509845
 20
3422655.801497072
 30
0.125
  0
SEQEND
  5
44F
  8
SHIJIAHE
  0
POLYLINE
  5
B1
  8
SHIJIAHE
 66
     1
 10
0.0
 20
0.0
 30
10.6
 70
     1
1001
ADE
1011
-15.08285400632303
1021
0.0
1031
-0.0
1021
-7.579855102580038
1031
0.0
1001
IRD
1002
{
1000
TPMLINK_Unit_topology-_-ade
1070
   515
1071
        5
1004
01000A04000036000000360000000000000059882713CDF3654059882713CDF365400703000000000000
1002
}
1001
DCO15
1071
        5
1071
        5
1000
unitlink
1004
074133373000
1071
        4
1000
Link
1004
074133373000
  0
VERTEX
  5
450
  8
SHIJIAHE
 10
726822.94374875713
 20
3422536.8126818212
 30
10.6
  0
VERTEX
  5
451
  8
SHIJIAHE
 10
726857.46534780436
 20
3422546.0890382519
 30
10.6
  0
VERTEX
  5
452
  8
SHIJIAHE
 10
726869.58743601653
 20
3422553.6487448839
 30
10.6
  0
VERTEX
  5
453
  8
SHIJIAHE
 10
726872.28467815369
 20
3422560.4831065279
 30
10.6
  0
VERTEX
  5
454
  8
SHIJIAHE
 10
726860.6896372512
 20
3422591.6890597041
 30
10.6
  0
VERTEX
  5
455
  8
SHIJIAHE
 10
726838.2436222434
 20
3422585.096479719
 30
10.6
  0
VERTEX
  5
456
  8
SHIJIAHE
 10
726819.54894400015
 20
3422571.9113197522
 30
10.6
  0
VERTEX
  5
457
  8
SHIJIAHE
 10
726814.92952930916
 20
3422563.336130139
 30
10.6
  0
VERTEX
  5
458
  8
SHIJIAHE
 10
726819.09940364584
 20
3422539.383626827
 30
10.6
  0
VERTEX
  5
459
  8
SHIJIAHE
 10
726822.94374875713
 20
3422536.8126818212
 30
10.6
  0
SEQEND
  5
45A
  8
SHIJIAHE
  0
POLYLINE
  5
B2
  8
SHIJIAHE
 66
     1
 10
0.0
 20
0.0
 30
0.06
 70
     1
1001
ADE
1011
-14.41629416879732
1021
0.0
1031
-0.0
1021
-0.104772053193301
1031
0.0
1001
IRD
1002
{
1000
TPMLINK_Unit_topology-_-ade
1070
   515
1071
        5
1004
01000C04000028000000280000000000000028F128DDC10E644028F128DDC10E64400000000004030000
1002
}
1001
DCO15
1071
        5
1071
        5
1000
unitlink
1004
074133393200
1071
        4
1000
Link
1004
074133393200
  0
VERTEX
  5
45B
  8
SHIJIAHE
 10
727008.60391569894
 20
3422625.8366897618
 30
0.06
  0
VERTEX
  5
45C
  8
SHIJIAHE
 10
727015.96707670018
 20
3422605.349723605
 30
0.06
  0
VERTEX
  5
45D
  8
SHIJIAHE
 10
727016.29260592174
 20
3422583.8956307969
 30
0.06
  0
VERTEX
  5
45E
  8
SHIJIAHE
 10
726985.66185616318
 20
3422574.0309389881
 30
0.06
  0
VERTEX
  5
45F
  8
SHIJIAHE
 10
726976.1285003426
 20
3422585.2173705511
 30
0.06
  0
VERTEX
  5
460
  8
SHIJIAHE
 10
726976.88806852675
 20
3422605.6640397641
 30
0.06
  0
VERTEX
  5
461
  8
SHIJIAHE
 10
726975.02790153795
 20
3422618.7444276782
 30
0.06
  0
VERTEX
  5
462
  8
SHIJIAHE
 10
726982.56157784536
 20
3422626.2557779779
 30
0.06
  0
VERTEX
  5
463
  8
SHIJIAHE
 10
727008.60391569894
 20
3422625.8366897618
 30
0.06
  0
SEQEND
  5
464
  8
SHIJIAHE
  0
POLYLINE
  5
B3
  8
SHIJIAHE
 66
     1
 10
0.0
 20
0.0
 30
6.299999999999998
 70
     1
1001
ADE
1011
-13.64897528465371
1021
0.0
1031
-0.0
1021
-3.2460738788358849
1031
0.0
1001
IRD
1002
{
1000
TPMLINK_Unit_topology-_-ade
1070
   515
1071
        5
1004
01000D0400002F0000002F00000000000000A4CB0FD8331B6740A4CB0FD8331B67400503000000000000
1002
}
1001
DCO15
1071
        5
1071
        5
1000
unitlink
1004
074133373100
1071
        4
1000
Link
1004
074133373100
  0
VERTEX
  5
465
  8
SHIJIAHE
 10
726927.01014184451
 20
3422574.3737731408
 30
6.299999999999998
  0
VERTEX
  5
466
  8
SHIJIAHE
 10
726974.29933613539
 20
3422579.736986212
 30
6.299999999999998
  0
VERTEX
  5
467
  8
SHIJIAHE
 10
726971.41607730091
 20
3422622.3147368869
 30
6.299999999999998
  0
VERTEX
  5
468
  8
SHIJIAHE
 10
726917.23871373013
 20
3422612.7079455182
 30
6.299999999999998
  0
VERTEX
  5
469
  8
SHIJIAHE
 10
726927.01014184451
 20
3422574.3737731408
 30
6.299999999999998
  0
SEQEND
  5
46A
  8
SHIJIAHE
  0
POLYLINE
  5
B4
  8
SHIJIAHE
 66
     1
 10
0.0
 20
0.0
 30
0.25
 70
     1
1001
ADE
1011
-18.74893311411142
1021
0.0
1031
-0.0
1021
-0.4835633230395615
1031
0.0
1001
IRD
1002
{
1000
TPMLINK_Unit_topology-_-ade
1070
   515
1071
        5
1004
01000E040000370000003700000000000000A6836AE277536740A6836AE2775367400303000000000000
1002
}
1001
DCO15
1071
        5
1071
        5
1000
unitlink
1004
074133393300
1071
        4
1000
Link
1004
074133393300
  0
VERTEX
  5
46B
  8
SHIJIAHE
 10
726939.35919951648
 20
3422526.271001359
 30
0.25
  0
VERTEX
  5
46C
  8
SHIJIAHE
 10
726994.17212013912
 20
3422543.8807657389
 30
0.25
  0
VERTEX
  5
46D
  8
SHIJIAHE
 10
726996.41982191824
 20
3422572.6930804579
 30
0.25
  0
VERTEX
  5
46E
  8
SHIJIAHE
 10
726940.32028579339
 20
3422569.1711275829
 30
0.25
  0
VERTEX
  5
46F
  8
SHIJIAHE
 10
726936.47594068188
 20
3422561.4905301202
 30
0.25
  0
VERTEX
  5
470
  8
SHIJIAHE
 10
726939.35919951648
 20
3422526.271001359
 30
0.25
  0
SEQEND
  5
471
  8
SHIJIAHE
  0
POLYLINE
  5
B5
  8
SHIJIAHE
 66
     1
 10
0.0
 20
0.0
 30
1.5
 70
     1
1001
ADE
1011
-19.562756171566431
1021
0.0
1031
-0.0
1021
-7.3904594662599239
1031
0.0
1001
IRD
1002
{
1000
TPMLINK_Unit_topology-_-ade
1070
   515
1071
        5
1004
0100130400004300000043000000000000005FF35767282B67405FF35767282B6740E502000000000000
1002
}
1001
DCO15
1071
        5
1071
        5
1000
unitlink
1004
074133353700
1071
        4
1000
Link
1004
074133353700
  0
VERTEX
  5
472
  8
SHIJIAHE
 10
726688.84121020511
 20
3422483.3144594119
 30
1.5
  0
VERTEX
  5
473
  8
SHIJIAHE
 10
726675.10697726544
 20
3422434.8049986321
 30
1.5
  0
VERTEX
  5
474
  8
SHIJIAHE
 10
726688.74820185453
 20
3422431.0412640921
 30
1.5
  0
VERTEX
  5
475
  8
SHIJIAHE
 10
726715.31758702185
 20
3422436.9084990891
 30
1.5
  0
VERTEX
  5
476
  8
SHIJIAHE
 10
726726.85062235605
 20
3422461.1027840651
 30
1.5
  0
VERTEX
  5
477
  8
SHIJIAHE
 10
726731.59404817969
 20
3422480.4856139668
 30
1.5
  0
VERTEX
  5
478
  8
SHIJIAHE
 10
726723.99836630735
 20
3422488.5691808658
 30
1.5
  0
VERTEX
  5
479
  8
SHIJIAHE
 10
726715.08506614703
 20
3422488.7787249731
 30
1.5
  0
VERTEX
  5
47A
  8
SHIJIAHE
 10
726688.84121020511
 20
3422483.3144594119
 30
1.5
  0
SEQEND
  5
47B
  8
SHIJIAHE
  0
POLYLINE
  5
B6
  8
SHIJIAHE
 66
     1
 10
0.0
 20
0.0
 30
0.2352941176470588
 70
     1
1001
ADE
1011
-18.242851515067741
1021
0.0
1031
-0.0
1021
-2.9416768876835691
1031
0.0
1001
IRD
1002
{
1000
TPMLINK_Unit_topology-_-ade
1070
   515
1071
        5
1004
01002C04000080000000800000000000000050B086ECD4526C4050B086ECD4526C40D902000000000000
1002
}
1001
DCO15
1071
        5
1071
        5
1000
unitlink
1004
074133333100
1071
        4
1000
Link
1004
074133333100
  0
VERTEX
  5
47C
  8
SHIJIAHE
 10
726700.75720758107
 20
3422195.4645385141
 30
0.2352941176470588
  0
VERTEX
  5
47D
  8
SHIJIAHE
 10
726753.10997969285
 20
3422184.9317103601
 30
0.2352941176470588
  0
VERTEX
  5
47E
  8
SHIJIAHE
 10
726763.65092596423
 20
3422186.9707357092
 30
0.2352941176470588
  0
VERTEX
  5
47F
  8
SHIJIAHE
 10
726770.30102295463
 20
3422238.268744993
 30
0.2352941176470588
  0
VERTEX
  5
480
  8
SHIJIAHE
 10
726758.41145561263
 20
3422243.0237843459
 30
0.2352941176470588
  0
VERTEX
  5
481
  8
SHIJIAHE
 10
726707.87691906455
 20
3422241.6214507059
 30
0.2352941176470588
  0
VERTEX
  5
482
  8
SHIJIAHE
 10
726703.10249045875
 20
3422232.1194313909
 30
0.2352941176470588
  0
VERTEX
  5
483
  8
SHIJIAHE
 10
726700.75720758107
 20
3422195.4645385141
 30
0.2352941176470588
  0
SEQEND
  5
484
  8
SHIJIAHE
  0
POLYLINE
  5
B7
  8
SHIJIAHE
 66
     1
 10
0.0
 20
0.0
 30
4.5
 70
     1
1001
ADE
1011
-23.182331107673232
1021
0.0
1031
-0.0
1021
-0.9026515386067329
1031
0.0
1001
IRD
1002
{
1000
TPMLINK_Unit_topology-_-ade
1070
   515
1071
        5
1004
01003E0400008A0000008A000000000000005CD155BD9A626E405CD155BD9A626E40CF02000000000000
1002
}
1001
DCO15
1071
        5
1071
        5
1000
unitlink
1004
074133313500
1071
        4
1000
Link
1004
074133313500
  0
VERTEX
  5
485
  8
SHIJIAHE
 10
726860.59662890062
 20
3422172.302648216
 30
4.5
  0
VERTEX
  5
486
  8
SHIJIAHE
 10
726862.37928893405
 20
3422145.7711405079
 30
4.5
  0
VERTEX
  5
487
  8
SHIJIAHE
 10
726869.95946941525
 20
3422126.1545883319
 30
4.5
  0
VERTEX
  5
488
  8
SHIJIAHE
 10
726878.98127931345
 20
3422119.6828991799
 30
4.5
  0
VERTEX
  5
489
  8
SHIJIAHE
 10
726892.8705261685
 20
3422124.6394232512
 30
4.5
  0
VERTEX
  5
48A
  8
SHIJIAHE
 10
726916.33963302197
 20
3422126.001459945
 30
4.5
  0
VERTEX
  5
48B
  8
SHIJIAHE
 10
726935.57685996953
 20
3422120.5452537751
 30
4.5
  0
VERTEX
  5
48C
  8
SHIJIAHE
 10
726932.8486150502
 20
3422148.2211946831
 30
4.5
  0
VERTEX
  5
48D
  8
SHIJIAHE
 10
726931.35392592859
 20
3422163.383663239
 30
4.5
  0
VERTEX
  5
48E
  8
SHIJIAHE
 10
726920.46300318104
 20
3422170.7310674139
 30
4.5
  0
VERTEX
  5
48F
  8
SHIJIAHE
 10
726913.50287836033
 20
3422182.6509033488
 30
4.5
  0
VERTEX
  5
490
  8
SHIJIAHE
 10
726899.27260089293
 20
3422185.7698867889
 30
4.5
  0
VERTEX
  5
491
  8
SHIJIAHE
 10
726882.06605624035
 20
3422183.4326640568
 30
4.5
  0
VERTEX
  5
492
  8
SHIJIAHE
 10
726867.5257509388
 20
3422176.0905609201
 30
4.5
  0
VERTEX
  5
493
  8
SHIJIAHE
 10
726860.59662890062
 20
3422172.302648216
 30
4.5
  0
SEQEND
  5
494
  8
SHIJIAHE
  0
POLYLINE
  5
B8
  8
SHIJIAHE
 66
     1
 10
0.0
 20
0.0
 30
0.25
 70
     1
1001
ADE
1011
-16.76475499197841
1021
0.0
1031
-0.0
1021
-0.2256628833711147
1031
0.0
1001
IRD
1002
{
1000
TPMLINK_Unit_topology-_-ade
1070
   515
1071
        5
1004
01003F0400009900000099000000000000002A2F1D5CDA1E6B402A2F1D5CDA1E6B40CE02000000000000
1002
}
1001
DCO15
1071
        5
1071
        5
1000
unitlink
1004
074133313300
1071
        4
1000
Link
1004
074133313300
  0
VERTEX
  5
495
  8
SHIJIAHE
 10
726877.86517912149
 20
3422064.121473257
 30
0.25
  0
VERTEX
  5
496
  8
SHIJIAHE
 10
726902.55889590457
 20
3422058.7297421941
 30
0.25
  0
VERTEX
  5
497
  8
SHIJIAHE
 10
726925.48545405304
 20
3422060.3174417759
 30
0.25
  0
VERTEX
  5
498
  8
SHIJIAHE
 10
726929.53131725267
 20
3422068.4332462279
 30
0.25
  0
VERTEX
  5
499
  8
SHIJIAHE
 10
726929.26779359579
 20
3422093.3851137459
 30
0.25
  0
VERTEX
  5
49A
  8
SHIJIAHE
 10
726934.24374029436
 20
3422107.02159948
 30
0.25
  0
VERTEX
  5
49B
  8
SHIJIAHE
 10
726930.554409098
 20
3422119.0542668579
 30
0.25
  0
VERTEX
  5
49C
  8
SHIJIAHE
 10
726916.15361632034
 20
3422124.4459979208
 30
0.25
  0
VERTEX
  5
49D
  8
SHIJIAHE
 10
726896.35833927616
 20
3422123.8496031552
 30
0.25
  0
VERTEX
  5
49E
  8
SHIJIAHE
 10
726879.55483080447
 20
3422118.0549026551
 30
0.25
  0
VERTEX
  5
49F
  8
SHIJIAHE
 10
726876.95059701812
 20
3422106.0705916109
 30
0.25
  0
VERTEX
  5
4A0
  8
SHIJIAHE
 10
726874.54788132373
 20
3422082.8998490041
 30
0.25
  0
VERTEX
  5
4A1
  8
SHIJIAHE
 10
726877.86517912149
 20
3422064.121473257
 30
0.25
  0
SEQEND
  5
4A2
  8
SHIJIAHE
  0
POLYLINE
  5
B9
  8
SHIJIAHE
 66
     1
 10
0.0
 20
0.0
 30
2.6000000000000001
 70
     1
1001
ADE
1011
-19.934789569932018
1021
0.0
1031
-0.0
1021
-2.8127266671508551
1031
0.0
1001
IRD
1002
{
1000
TPMLINK_Unit_topology-_-ade
1070
   515
1071
        5
1004
0100400400009B0000009B000000000000001723A93AED266B401723A93AED266B40CD02000000000000
1002
}
1001
DCO15
1071
        5
1071
        5
1000
unitlink
1004
074133313400
1071
        4
1000
Link
1004
074133313400
  0
VERTEX
  5
4A3
  8
SHIJIAHE
 10
726936.4604392912
 20
3422050.1303744158
 30
2.6000000000000001
  0
VERTEX
  5
4A4
  8
SHIJIAHE
 10
726983.94120169815
 20
3422048.8247534418
 30
2.6000000000000001
  0
VERTEX
  5
4A5
  8
SHIJIAHE
 10
726993.10252412024
 20
3422061.550528253
 30
2.6000000000000001
  0
VERTEX
  5
4A6
  8
SHIJIAHE
 10
726989.90923745546
 20
3422095.883524253
 30
2.6000000000000001
  0
VERTEX
  5
4A7
  8
SHIJIAHE
 10
726984.73177266854
 20
3422108.2305077901
 30
2.6000000000000001
  0
VERTEX
  5
4A8
  8
SHIJIAHE
 10
726972.87320810952
 20
3422109.963276369
 30
2.6000000000000001
  0
VERTEX
  5
4A9
  8
SHIJIAHE
 10
726948.00897601619
 20
3422108.0854387931
 30
2.6000000000000001
  0
VERTEX
  5
4AA
  8
SHIJIAHE
 10
726935.00330848235
 20
3422103.7575470442
 30
2.6000000000000001
  0
VERTEX
  5
4AB
  8
SHIJIAHE
 10
726930.95744527876
 20
3422093.36093558
 30
2.6000000000000001
  0
VERTEX
  5
4AC
  8
SHIJIAHE
 10
726930.60091327142
 20
3422064.4519081949
 30
2.6000000000000001
  0
VERTEX
  5
4AD
  8
SHIJIAHE
 10
726936.4604392912
 20
3422050.1303744158
 30
2.6000000000000001
  0
SEQEND
  5
4AE
  8
SHIJIAHE
  0
POLYLINE
  5
BA
  8
SHIJIAHE
 66
     1
 10
0.0
 20
0.0
 30
2.6000000000000001
 70
     1
1001
ADE
1011
-10.0294003522722
1021
0.0
1031
-0.0
1021
-0.2740192175842822
1031
0.0
1001
IRD
1002
{
1000
TPMLINK_Unit_topology-_-ade
1070
   515
1071
        5
1004
0100410400009F0000009F0000000000000010892C3682D9684010892C3682D96840CB02000000000000
1002
}
1001
DCO15
1071
        5
1071
        5
1000
unitlink
1004
074133313200
1071
        4
1000
Link
1004
074133313200
  0
VERTEX
  5
4AF
  8
SHIJIAHE
 10
726935.53035579622
 20
3422043.7876354838
 30
2.6000000000000001
  0
VERTEX
  5
4B0
  8
SHIJIAHE
 10
726938.50662297732
 20
3421991.3210148341
 30
2.6000000000000001
  0
VERTEX
  5
4B1
  8
SHIJIAHE
 10
726982.71659176075
 20
3421989.9992750818
 30
2.6000000000000001
  0
VERTEX
  5
4B2
  8
SHIJIAHE
 10
726981.1354498195
 20
3422046.3182835458
 30
2.6000000000000001
  0
VERTEX
  5
4B3
  8
SHIJIAHE
 10
726935.53035579622
 20
3422043.7876354838
 30
2.6000000000000001
  0
SEQEND
  5
4B4
  8
SHIJIAHE
  0
POLYLINE
  5
BB
  8
SHIJIAHE
 66
     1
 10
0.0
 20
0.0
 30
8.0999999999999979
 70
     1
1001
ADE
1011
-14.03651007637381
1021
0.0
1031
-0.0
1021
-4.4608716634102148
1031
0.0
1001
IRD
1002
{
1000
TPMLINK_Unit_topology-_-ade
1070
   515
1071
        5
1004
010042040000AD000000AD0000000000000065300981A624694065300981A6246940CC02000000000000
1002
}
1001
DCO15
1071
        5
1071
        5
1000
unitlink
1004
074133313100
1071
        4
1000
Link
1004
074133313100
  0
VERTEX
  5
4B5
  8
SHIJIAHE
 10
726937.43702695915
 20
3421935.0100657581
 30
8.0999999999999979
  0
VERTEX
  5
4B6
  8
SHIJIAHE
 10
726980.28287328407
 20
3421934.5103836572
 30
8.0999999999999979
  0
VERTEX
  5
4B7
  8
SHIJIAHE
 10
726988.60712056246
 20
3421948.1629881701
 30
8.0999999999999979
  0
VERTEX
  5
4B8
  8
SHIJIAHE
 10
726988.82414004626
 20
3421987.420270686
 30
8.0999999999999979
  0
VERTEX
  5
4B9
  8
SHIJIAHE
 10
726937.97957566392
 20
3421987.210726582
 30
8.0999999999999979
  0
VERTEX
  5
4BA
  8
SHIJIAHE
 10
726937.43702695915
 20
3421935.0100657581
 30
8.0999999999999979
  0
SEQEND
  5
4BB
  8
SHIJIAHE
  0
POLYLINE
  5
BC
  8
SHIJIAHE
 66
     1
 10
0.0
 20
0.0
 30
0.06
 70
     1
1001
ADE
1011
-18.500910850358188
1021
0.0
1031
-0.0
1021
-7.6201520487666121
1031
0.0
1001
IRD
1002
{
1000
TPMLINK_Unit_topology-_-ade
1070
   515
1071
        5
1004
0100470400009A0000009A000000000000002069B118B13C71402069B118B13C714000000000C6020000
1002
}
1001
DCO15
1071
        5
1071
        5
1000
unitlink
1004
074133313000
1071
        4
1000
Link
1004
074133313000
  0
VERTEX
  5
4BC
  8
SHIJIAHE
 10
726711.95378505089
 20
3422063.9119291501
 30
0.06
  0
VERTEX
  5
4BD
  8
SHIJIAHE
 10
726758.00841943175
 20
3422052.2177561
 30
0.06
  0
VERTEX
  5
4BE
  8
SHIJIAHE
 10
726741.93347636261
 20
3421978.546883692
 30
0.06
  0
VERTEX
  5
4BF
  8
SHIJIAHE
 10
726717.45677905902
 20
3421970.3021290191
 30
0.06
  0
VERTEX
  5
4C0
  8
SHIJIAHE
 10
726696.73141852033
 20
3421971.930125542
 30
0.06
  0
VERTEX
  5
4C1
  8
SHIJIAHE
 10
726685.75643328205
 20
3421980.4488994339
 30
0.06
  0
VERTEX
  5
4C2
  8
SHIJIAHE
 10
726682.51664244011
 20
3421991.8126375461
 30
0.06
  0
VERTEX
  5
4C3
  8
SHIJIAHE
 10
726682.09810486808
 20
3422015.3460526462
 30
0.06
  0
VERTEX
  5
4C4
  8
SHIJIAHE
 10
726711.95378505089
 20
3422063.9119291501
 30
0.06
  0
SEQEND
  5
4C5
  8
SHIJIAHE
  0
POLYLINE
  5
BD
  8
SHIJIAHE
 66
     1
 10
0.0
 20
0.0
 30
0.02
 70
     1
1001
ADE
1011
-19.475968685583211
1021
0.0
1031
-0.0
1021
-5.8309677466750127
1031
0.0
1001
IRD
1002
{
1000
TPMLINK_Unit_topology-_-ade
1070
   515
1071
        5
1004
0100490400000A0000000A00000000000000AB95981026367B40AB95981026367B40BA02000000000000
1002
}
1001
DCO15
1071
        5
1071
        5
1000
unitlink
1004
0743323900
1071
        4
1000
Link
1004
0743323900
  0
VERTEX
  5
4C6
  8
SHIJIAHE
 10
727073.46173806465
 20
3422911.3082980649
 30
0.02
  0
VERTEX
  5
4C7
  8
SHIJIAHE
 10
727118.36926947173
 20
3422925.500881623
 30
0.02
  0
VERTEX
  5
4C8
  8
SHIJIAHE
 10
727147.93042321166
 20
3422951.0572032961
 30
0.02
  0
VERTEX
  5
4C9
  8
SHIJIAHE
 10
727155.89813848201
 20
3422974.9049345539
 30
0.02
  0
VERTEX
  5
4CA
  8
SHIJIAHE
 10
727153.04588243365
 20
3422997.0440754062
 30
0.02
  0
VERTEX
  5
4CB
  8
SHIJIAHE
 10
727139.97820933175
 20
3423027.7100495319
 30
0.02
  0
VERTEX
  5
4CC
  8
SHIJIAHE
 10
727124.63183166832
 20
3423040.2021020679
 30
0.02
  0
VERTEX
  5
4CD
  8
SHIJIAHE
 10
727100.18613714725
 20
3423043.0390069019
 30
0.02
  0
VERTEX
  5
4CE
  8
SHIJIAHE
 10
727051.29474810907
 20
3423031.6833281768
 30
0.02
  0
VERTEX
  5
4CF
  8
SHIJIAHE
 10
727019.12630091375
 20
3423024.2117762621
 30
0.02
  0
VERTEX
  5
4D0
  8
SHIJIAHE
 10
727023.99679753545
 20
3422964.1134130419
 30
0.02
  0
VERTEX
  5
4D1
  8
SHIJIAHE
 10
727037.07997202885
 20
3422924.3645078121
 30
0.02
  0
VERTEX
  5
4D2
  8
SHIJIAHE
 10
727073.46173806465
 20
3422911.3082980649
 30
0.02
  0
SEQEND
  5
4D3
  8
SHIJIAHE
  0
POLYLINE
  5
BE
  8
SHIJIAHE
 66
     1
 10
0.0
 20
0.0
 30
0.06
 70
     1
1001
ADE
1011
-32.05687778594438
1021
0.0
1031
-0.0
1021
-2.8127266671508551
1031
0.0
1001
IRD
1002
{
1000
TPMLINK_Unit_topology-_-ade
1070
   515
1071
        5
1004
01004A040000090000000900000000000000235E0CAF5F957540235E0CAF5F957540B902000000000000
1002
}
1001
DCO15
1071
        5
1071
        5
1000
unitlink
1004
0743313700
1071
        4
1000
Link
1004
0743313700
  0
VERTEX
  5
4D4
  8
SHIJIAHE
 10
726681.15251998208
 20
3422981.7473555892
 30
0.06
  0
VERTEX
  5
4D5
  8
SHIJIAHE
 10
726681.60206033662
 20
3422895.286233264
 30
0.06
  0
VERTEX
  5
4D6
  8
SHIJIAHE
 10
726725.34698737424
 20
3422885.7277982258
 30
0.06
  0
VERTEX
  5
4D7
  8
SHIJIAHE
 10
726765.89862774324
 20
3422882.9956654469
 30
0.06
  0
VERTEX
  5
4D8
  8
SHIJIAHE
 10
726775.46298634983
 20
3422907.5687416941
 30
0.06
  0
VERTEX
  5
4D9
  8
SHIJIAHE
 10
726760.89167826634
 20
3422915.3057548772
 30
0.06
  0
VERTEX
  5
4DA
  8
SHIJIAHE
 10
726742.66204176832
 20
3422931.2311070119
 30
0.06
  0
VERTEX
  5
4DB
  8
SHIJIAHE
 10
726742.21250141063
 20
3422964.9032331379
 30
0.06
  0
VERTEX
  5
4DC
  8
SHIJIAHE
 10
726732.63264141604
 20
3422982.6500071278
 30
0.06
  0
VERTEX
  5
4DD
  8
SHIJIAHE
 10
726701.19581929245
 20
3422987.2035617619
 30
0.06
  0
VERTEX
  5
4DE
  8
SHIJIAHE
 10
726681.15251998208
 20
3422981.7473555892
 30
0.06
  0
SEQEND
  5
4DF
  8
SHIJIAHE
  0
POLYLINE
  5
BF
  8
SHIJIAHE
 66
     1
 10
0.0
 20
0.0
 30
0.06
 70
     1
1001
ADE
1011
-7.8194856415502709
1021
0.0
1031
-0.0
1021
0.564157210290432
1031
0.0
1001
IRD
1002
{
1000
TPMLINK_Unit_topology-_-ade
1070
   515
1071
        5
1004
01004B0400002D0000002D00000000000000C6F25FCC59177440C6F25FCC59177440BB02000000000000
1002
}
1001
DCO15
1071
        5
1071
        5
1000
unitlink
1004
0743313400
1071
        4
1000
Link
1004
0743313400
  0
VERTEX
  5
4E0
  8
SHIJIAHE
 10
726420.83765119314
 20
3422576.9323189328
 30
0.06
  0
VERTEX
  5
4E1
  8
SHIJIAHE
 10
726495.0428126828
 20
3422539.4158643819
 30
0.06
  0
VERTEX
  5
4E2
  8
SHIJIAHE
 10
726511.73781141255
 20
3422550.997205989
 30
0.06
  0
VERTEX
  5
4E3
  8
SHIJIAHE
 10
726514.04751875985
 20
3422571.3794000968
 30
0.06
  0
VERTEX
  5
4E4
  8
SHIJIAHE
 10
726523.33285231516
 20
3422596.3876833329
 30
0.06
  0
VERTEX
  5
4E5
  8
SHIJIAHE
 10
726532.33722799912
 20
3422620.639259879
 30
0.06
  0
VERTEX
  5
4E6
  8
SHIJIAHE
 10
726527.96776839695
 20
3422637.144012155
 30
0.06
  0
VERTEX
  5
4E7
  8
SHIJIAHE
 10
726517.30281098932
 20
3422640.8513309718
 30
0.06
  0
VERTEX
  5
4E8
  8
SHIJIAHE
 10
726482.51768828544
 20
3422625.1032853881
 30
0.06
  0
VERTEX
  5
4E9
  8
SHIJIAHE
 10
726454.02613056463
 20
3422605.6156834322
 30
0.06
  0
VERTEX
  5
4EA
  8
SHIJIAHE
 10
726420.83765119314
 20
3422576.9323189328
 30
0.06
  0
SEQEND
  5
4EB
  8
SHIJIAHE
  0
POLYLINE
  5
C0
  8
SHIJIAHE
 66
     1
 10
0.0
 20
0.0
 30
0.06
 70
     1
1001
ADE
1011
-14.7495740855811
1021
0.0
1031
-0.0
1021
-1.3902445561252521
1031
0.0
1001
IRD
1002
{
1000
TPMLINK_Unit_topology-_-ade
1070
   515
1071
        5
1004
01004C0400003C0000003C000000000000003D2F381DBBBC74403D2F381DBBBC744000000000BE020000
1002
}
1001
DCO15
1071
        5
1071
        5
1000
unitlink
1004
0743313200
1071
        4
1000
Link
1004
0743313200
  0
VERTEX
  5
4EC
  8
SHIJIAHE
 10
726068.01047746092
 20
3422506.2353609679
 30
0.06
  0
VERTEX
  5
4ED
  8
SHIJIAHE
 10
726116.34381640318
 20
3422490.398662108
 30
0.06
  0
VERTEX
  5
4EE
  8
SHIJIAHE
 10
726123.76898296946
 20
3422468.1708679842
 30
0.06
  0
VERTEX
  5
4EF
  8
SHIJIAHE
 10
726092.99872068677
 20
3422406.3472970161
 30
0.06
  0
VERTEX
  5
4F0
  8
SHIJIAHE
 10
726076.47423726297
 20
3422387.705930877
 30
0.06
  0
VERTEX
  5
4F1
  8
SHIJIAHE
 10
726040.71252689161
 20
3422388.6569387461
 30
0.06
  0
VERTEX
  5
4F2
  8
SHIJIAHE
 10
726033.22535475704
 20
3422411.0700988132
 30
0.06
  0
VERTEX
  5
4F3
  8
SHIJIAHE
 10
726037.50373883185
 20
3422442.0181515468
 30
0.06
  0
VERTEX
  5
4F4
  8
SHIJIAHE
 10
726040.96406767156
 20
3422467.0487326132
 30
0.06
  0
VERTEX
  5
4F5
  8
SHIJIAHE
 10
726068.01047746092
 20
3422506.2353609679
 30
0.06
  0
SEQEND
  5
4F6
  8
SHIJIAHE
  0
POLYLINE
  5
C1
  8
SHIJIAHE
 66
     1
 10
0.0
 20
0.0
 30
0.06
 70
     1
1001
ADE
1011
-14.08301424991804
1021
0.0
1031
-0.0
1021
-11.14613461820408
1031
0.0
1001
IRD
1002
{
1000
TPMLINK_Unit_topology-_-ade
1070
   515
1071
        5
1004
01004E0400006400000064000000000000001E2DC759E6F774401E2DC759E6F77440BF02000000000000
1002
}
1001
DCO15
1071
        5
1071
        5
1000
unitlink
1004
0743313000
1071
        4
1000
Link
1004
0743313000
  0
VERTEX
  5
4F7
  8
SHIJIAHE
 10
726138.85183697566
 20
3422329.4526691171
 30
0.06
  0
VERTEX
  5
4F8
  8
SHIJIAHE
 10
726127.53582112503
 20
3422242.830359017
 30
0.06
  0
VERTEX
  5
4F9
  8
SHIJIAHE
 10
726142.33965008345
 20
3422229.7741492698
 30
0.06
  0
VERTEX
  5
4FA
  8
SHIJIAHE
 10
726204.67074562202
 20
3422243.2655660068
 30
0.06
  0
VERTEX
  5
4FB
  8
SHIJIAHE
 10
726216.00226286799
 20
3422329.0174621241
 30
0.06
  0
VERTEX
  5
4FC
  8
SHIJIAHE
 10
726187.66571905825
 20
3422335.1103600068
 30
0.06
  0
VERTEX
  5
4FD
  8
SHIJIAHE
 10
726138.85183697566
 20
3422329.4526691171
 30
0.06
  0
SEQEND
  5
4FE
  8
SHIJIAHE
  0
POLYLINE
  5
C2
  8
SHIJIAHE
 66
     1
 10
0.0
 20
0.0
 30
0.06
 70
     1
1001
ADE
1011
-11.78105759993195
1021
0.0
1031
-0.0
1021
0.9993642019107936
1031
0.0
1001
IRD
1002
{
1000
TPMLINK_Unit_topology-_-ade
1070
   515
1071
        5
1004
01004F04000041000000410000000000000019AFF2AB9FB16E4019AFF2AB9FB16E40BC02000000000000
1002
}
1001
DCO15
1071
        5
1071
        5
1000
unitlink
1004
07433900
1071
        4
1000
Link
1004
07433900
  0
VERTEX
  5
4FF
  8
SHIJIAHE
 10
726313.94005486381
 20
3422491.954124135
 30
0.06
  0
VERTEX
  5
500
  8
SHIJIAHE
 10
726367.57486972574
 20
3422476.59292921
 30
0.06
  0
VERTEX
  5
501
  8
SHIJIAHE
 10
726389.55584298843
 20
3422538.0618870729
 30
0.06
  0
VERTEX
  5
502
  8
SHIJIAHE
 10
726336.35506708559
 20
3422554.75288114
 30
0.06
  0
VERTEX
  5
503
  8
SHIJIAHE
 10
726316.57529143256
 20
3422524.0143725132
 30
0.06
  0
VERTEX
  5
504
  8
SHIJIAHE
 10
726313.94005486381
 20
3422491.954124135
 30
0.06
  0
SEQEND
  5
505
  8
SHIJIAHE
  0
POLYLINE
  5
C3
  8
SHIJIAHE
 66
     1
 10
0.0
 20
0.0
 30
0.0525
 70
     1
1001
ADE
1011
-14.191523989778929
1021
0.0
1031
-0.0
1021
-11.51283680554479
1031
0.0
1001
IRD
1002
{
1000
TPMLINK_Unit_topology-_-ade
1070
   515
1071
        5
1004
0100500400005B0000005B0000000000000071B6FC7DDBA8744071B6FC7DDBA874400000000022030000
1002
}
1001
DCO15
1071
        5
1071
        5
1000
unitlink
1004
07433800
1071
        4
1000
Link
1004
07433800
  0
VERTEX
  5
506
  8
SHIJIAHE
 10
726459.34310787555
 20
3422356.717581199
 30
0.0525
  0
VERTEX
  5
507
  8
SHIJIAHE
 10
726477.07669984177
 20
3422408.4185599191
 30
0.0525
  0
VERTEX
  5
508
  8
SHIJIAHE
 10
726495.29640990682
 20
3422461.536780084
 30
0.0525
  0
VERTEX
  5
509
  8
SHIJIAHE
 10
726526.71215567738
 20
3422480.6468017432
 30
0.0525
  0
VERTEX
  5
50A
  8
SHIJIAHE
 10
726538.22968962055
 20
3422469.3314199611
 30
0.0525
  0
VERTEX
  5
50B
  8
SHIJIAHE
 10
726531.25406341255
 20
3422453.6317307111
 30
0.0525
  0
VERTEX
  5
50C
  8
SHIJIAHE
 10
726517.62834021449
 20
3422437.9401008491
 30
0.0525
  0
VERTEX
  5
50D
  8
SHIJIAHE
 10
726508.90105675545
 20
3422412.1178193479
 30
0.0525
  0
VERTEX
  5
50E
  8
SHIJIAHE
 10
726509.59861937515
 20
3422387.3513177722
 30
0.0525
  0
VERTEX
  5
50F
  8
SHIJIAHE
 10
726510.19602866343
 20
3422366.1406943141
 30
0.0525
  0
VERTEX
  5
510
  8
SHIJIAHE
 10
726490.73342582199
 20
3422354.5576650179
 30
0.0525
  0
VERTEX
  5
511
  8
SHIJIAHE
 10
726475.01501476427
 20
3422350.721395982
 30
0.0525
  0
VERTEX
  5
512
  8
SHIJIAHE
 10
726459.34310787555
 20
3422356.717581199
 30
0.0525
  0
SEQEND
  5
513
  8
SHIJIAHE
  0
POLYLINE
  5
C4
  8
SHIJIAHE
 66
     1
 10
0.0
 20
0.0
 30
0.06
 70
     1
1001
ADE
1011
-28.85584042605478
1021
0.0
1031
-0.0
1021
-10.8036105968058
1031
0.0
1001
IRD
1002
{
1000
TPMLINK_Unit_topology-_-ade
1070
   515
1071
        5
1004
0100510400009500000095000000000000006F399691F73077406F399691F730774000000000C0020000
1002
}
1001
DCO15
1071
        5
1071
        5
1000
unitlink
1004
0741383800
1071
        4
1000
Link
1004
0741383800
  0
VERTEX
  5
514
  8
SHIJIAHE
 10
726172.36584557209
 20
3422089.3795975451
 30
0.06
  0
VERTEX
  5
515
  8
SHIJIAHE
 10
726246.01295696595
 20
3422100.5096133859
 30
0.06
  0
VERTEX
  5
516
  8
SHIJIAHE
 10
726273.93096319993
 20
3422095.4966735919
 30
0.06
  0
VERTEX
  5
517
  8
SHIJIAHE
 10
726283.4333162345
 20
3422017.3850779948
 30
0.06
  0
VERTEX
  5
518
  8
SHIJIAHE
 10
726263.9015628472
 20
3422004.5948280762
 30
0.06
  0
VERTEX
  5
519
  8
SHIJIAHE
 10
726242.52514385805
 20
3422003.8533643121
 30
0.06
  0
VERTEX
  5
51A
  8
SHIJIAHE
 10
726205.05828041234
 20
3421999.3562254012
 30
0.06
  0
VERTEX
  5
51B
  8
SHIJIAHE
 10
726188.56479977071
 20
3422000.855271704
 30
0.06
  0
VERTEX
  5
51C
  8
SHIJIAHE
 10
726182.93779462948
 20
3422028.1846588971
 30
0.06
  0
VERTEX
  5
51D
  8
SHIJIAHE
 10
726178.8144244703
 20
3422049.5178608722
 30
0.06
  0
VERTEX
  5
51E
  8
SHIJIAHE
 10
726172.81538592651
 20
3422067.1115064761
 30
0.06
  0
VERTEX
  5
51F
  8
SHIJIAHE
 10
726172.36584557209
 20
3422089.3795975451
 30
0.06
  0
SEQEND
  5
520
  8
SHIJIAHE
  0
POLYLINE
  5
C5
  8
SHIJIAHE
 66
     1
 10
0.0
 20
0.0
 30
0.06
 70
     1
1001
ADE
1011
-24.43019312620163
1021
0.0
1031
-0.0
1021
-4.912197431549429
1031
0.0
1001
IRD
1002
{
1000
TPMLINK_Unit_topology-_-ade
1070
   515
1071
        5
1004
0100520400006A0000006A000000000000006721C985591375406721C9855913754000000000C3020000
1002
}
1001
DCO15
1071
        5
1071
        5
1000
unitlink
1004
0741383300
1071
        4
1000
Link
1004
0741383300
  0
VERTEX
  5
521
  8
SHIJIAHE
 10
726428.24731636781
 20
3422318.2340000002
 30
0.06
  0
VERTEX
  5
522
  8
SHIJIAHE
 10
726504.59166989441
 20
3422343.0327391289
 30
0.06
  0
VERTEX
  5
523
  8
SHIJIAHE
 10
726522.58878551796
 20
3422307.7003789269
 30
0.06
  0
VERTEX
  5
524
  8
SHIJIAHE
 10
726524.44895250723
 20
3422258.1029006648
 30
0.06
  0
VERTEX
  5
525
  8
SHIJIAHE
 10
726434.81990639854
 20
3422244.4744743179
 30
0.06
  0
VERTEX
  5
526
  8
SHIJIAHE
 10
726421.24068737403
 20
3422278.275550663
 30
0.06
  0
VERTEX
  5
527
  8
SHIJIAHE
 10
726428.24731636781
 20
3422318.2340000002
 30
0.06
  0
SEQEND
  5
528
  8
SHIJIAHE
  0
POLYLINE
  5
C6
  8
SHIJIAHE
 66
     1
 10
0.0
 20
0.0
 30
0.125
 70
     1
1001
ADE
1011
-26.66239351592958
1021
0.0
1031
-0.0
1021
9.4375442056916636
1031
0.0
1001
IRD
1002
{
1000
TPMLINK_Unit_topology-_-ade
1070
   515
1071
        5
1004
0100530400008B0000008B0000000000000031F302428DCD774031F302428DCD7740C202000000000000
1002
}
1001
DCO15
1071
        5
1071
        5
1000
unitlink
1004
0741383400
1071
        4
1000
Link
1004
0741383400
  0
VERTEX
  5
529
  8
SHIJIAHE
 10
726411.28879398108
 20
3422161.6239581462
 30
0.125
  0
VERTEX
  5
52A
  8
SHIJIAHE
 10
726489.94285485137
 20
3422138.6627596458
 30
0.125
  0
VERTEX
  5
52B
  8
SHIJIAHE
 10
726509.38159989205
 20
3422145.7227841769
 30
0.125
  0
VERTEX
  5
52C
  8
SHIJIAHE
 10
726522.92981613427
 20
3422170.7874831348
 30
0.125
  0
VERTEX
  5
52D
  8
SHIJIAHE
 10
726524.38694694266
 20
3422238.9699118128
 30
0.125
  0
VERTEX
  5
52E
  8
SHIJIAHE
 10
726521.5501922816
 20
3422246.1266490081
 30
0.125
  0
VERTEX
  5
52F
  8
SHIJIAHE
 10
726432.20017122081
 20
3422240.912224499
 30
0.125
  0
VERTEX
  5
530
  8
SHIJIAHE
 10
726419.83006073907
 20
3422223.8827361069
 30
0.125
  0
VERTEX
  5
531
  8
SHIJIAHE
 10
726412.12586912513
 20
3422195.3283218248
 30
0.125
  0
VERTEX
  5
532
  8
SHIJIAHE
 10
726411.28879398108
 20
3422161.6239581462
 30
0.125
  0
SEQEND
  5
533
  8
SHIJIAHE
  0
POLYLINE
  5
C7
  8
SHIJIAHE
 66
     1
 10
0.0
 20
0.0
 30
0.06
 70
     1
1001
ADE
1011
-17.33055578533094
1021
0.0
1031
-0.0
1021
-29.412739180028439
1031
0.0
1001
IRD
1002
{
1000
TPMLINK_Unit_topology-_-ade
1070
   515
1071
        5
1004
0100540400007F0000007F00000000000000162A9B151AA77B40162A9B151AA77B4000000000C1020000
1002
}
1001
DCO15
1071
        5
1071
        5
1000
unitlink
1004
0741383900
1071
        4
1000
Link
1004
0741383900
  0
VERTEX
  5
534
  8
SHIJIAHE
 10
726530.75801888085
 20
3422204.5885594799
 30
0.06
  0
VERTEX
  5
535
  8
SHIJIAHE
 10
726556.86236229911
 20
3422201.8000109792
 30
0.06
  0
VERTEX
  5
536
  8
SHIJIAHE
 10
726568.05436702061
 20
3422177.5896072248
 30
0.06
  0
VERTEX
  5
537
  8
SHIJIAHE
 10
726568.05436702061
 20
3422148.7208767841
 30
0.06
  0
VERTEX
  5
538
  8
SHIJIAHE
 10
726560.08665174979
 20
3422069.4729073751
 30
0.06
  0
VERTEX
  5
539
  8
SHIJIAHE
 10
726553.70007841673
 20
3422042.796330669
 30
0.06
  0
VERTEX
  5
53A
  8
SHIJIAHE
 10
726470.79863625392
 20
3422058.1649549291
 30
0.06
  0
VERTEX
  5
53B
  8
SHIJIAHE
 10
726470.39560007304
 20
3422087.042374813
 30
0.06
  0
VERTEX
  5
53C
  8
SHIJIAHE
 10
726490.2838854678
 20
3422133.6498198542
 30
0.06
  0
VERTEX
  5
53D
  8
SHIJIAHE
 10
726512.2958615087
 20
3422143.224373668
 30
0.06
  0
VERTEX
  5
53E
  8
SHIJIAHE
 10
726527.96776839695
 20
3422170.1910883691
 30
0.06
  0
VERTEX
  5
53F
  8
SHIJIAHE
 10
726530.75801888085
 20
3422204.5885594799
 30
0.06
  0
SEQEND
  5
540
  8
SHIJIAHE
  0
POLYLINE
  5
C8
  8
SHIJIAHE
 66
     1
 10
0.0
 20
0.0
 30
0.125
 70
     1
1001
ADE
1011
-16.60199038148858
1021
0.0
1031
-0.0
1021
-0.0161187774501741
1031
0.0
1001
IRD
1002
{
1000
TPMLINK_Unit_topology-_-ade
1070
   515
1071
        5
1004
01005504000094000000940000000000000038E78EECE8D4734038E78EECE8D47340C402000000000000
1002
}
1001
DCO15
1071
        5
1071
        5
1000
unitlink
1004
074133303900
1071
        4
1000
Link
1004
074133303900
  0
VERTEX
  5
541
  8
SHIJIAHE
 10
726620.743596997
 20
3422104.4828920299
 30
0.125
  0
VERTEX
  5
542
  8
SHIJIAHE
 10
726599.42918357626
 20
3422043.8601699821
 30
0.125
  0
VERTEX
  5
543
  8
SHIJIAHE
 10
726662.44234034454
 20
3422012.84764214
 30
0.125
  0
VERTEX
  5
544
  8
SHIJIAHE
 10
726690.70137719461
 20
3422031.8275026041
 30
0.125
  0
VERTEX
  5
545
  8
SHIJIAHE
 10
726712.03129200626
 20
3422070.2385493042
 30
0.125
  0
VERTEX
  5
546
  8
SHIJIAHE
 10
726660.13263300061
 20
3422103.5560623249
 30
0.125
  0
VERTEX
  5
547
  8
SHIJIAHE
 10
726632.32313650846
 20
3422112.3488554331
 30
0.125
  0
VERTEX
  5
548
  8
SHIJIAHE
 10
726620.743596997
 20
3422104.4828920299
 30
0.125
  0
SEQEND
  5
549
  8
SHIJIAHE
  0
POLYLINE
  5
C9
  8
SHIJIAHE
 66
     1
 10
0.0
 20
0.0
 30
0.06
 70
     1
1001
ADE
1011
-15.64090410247444
1021
0.0
1031
-0.0
1021
-2.0994707643985731
1031
0.0
1001
IRD
1002
{
1000
TPMLINK_Unit_topology-_-ade
1070
   515
1071
        5
1004
010056040000A2000000A20000000000000059EC96FC1605724059EC96FC16057240C502000000000000
1002
}
1001
DCO15
1071
        5
1071
        5
1000
unitlink
1004
074133303700
1071
        4
1000
Link
1004
074133303700
  0
VERTEX
  5
54A
  8
SHIJIAHE
 10
726597.16598040634
 20
3422030.1833873028
 30
0.06
  0
VERTEX
  5
54B
  8
SHIJIAHE
 10
726589.39978322398
 20
3422021.0682186461
 30
0.06
  0
VERTEX
  5
54C
  8
SHIJIAHE
 10
726582.57917093101
 20
3422009.7608962529
 30
0.06
  0
VERTEX
  5
54D
  8
SHIJIAHE
 10
726567.48081553355
 20
3421988.524406943
 30
0.06
  0
VERTEX
  5
54E
  8
SHIJIAHE
 10
726555.26571896672
 20
3421966.014534214
 30
0.06
  0
VERTEX
  5
54F
  8
SHIJIAHE
 10
726608.9625393973
 20
3421932.962981021
 30
0.06
  0
VERTEX
  5
550
  8
SHIJIAHE
 10
726639.17475158721
 20
3421970.2054163539
 30
0.06
  0
VERTEX
  5
551
  8
SHIJIAHE
 10
726652.55245251965
 20
3422009.212857821
 30
0.06
  0
VERTEX
  5
552
  8
SHIJIAHE
 10
726597.16598040634
 20
3422030.1833873028
 30
0.06
  0
SEQEND
  5
553
  8
SHIJIAHE
  0
POLYLINE
  5
CA
  8
SHIJIAHE
 66
     1
 10
0.0
 20
0.0
 30
0.125
 70
     1
1001
ADE
1011
-17.516572484746568
1021
0.0
1031
-0.0
1021
3.6065764585509879
1031
0.0
1001
IRD
1002
{
1000
TPMLINK_Unit_topology-_-ade
1070
   515
1071
        5
1004
010057040000B5000000B5000000000000009C34372309F674409C34372309F674402903000000000000
1002
}
1001
DCO15
1071
        5
1071
        5
1000
unitlink
1004
074133303500
1071
        4
1000
Link
1004
074133303500
  0
VERTEX
  5
554
  8
SHIJIAHE
 10
726494.99630850914
 20
3421855.4236020208
 30
0.125
  0
VERTEX
  5
555
  8
SHIJIAHE
 10
726462.10235557705
 20
3421795.0346022481
 30
0.125
  0
VERTEX
  5
556
  8
SHIJIAHE
 10
726459.42061483487
 20
3421777.15887804
 30
0.125
  0
VERTEX
  5
557
  8
SHIJIAHE
 10
726534.66436955705
 20
3421756.2850612211
 30
0.125
  0
VERTEX
  5
558
  8
SHIJIAHE
 10
726565.49663741142
 20
3421816.8191299909
 30
0.125
  0
VERTEX
  5
559
  8
SHIJIAHE
 10
726570.72060637176
 20
3421841.8677101741
 30
0.125
  0
VERTEX
  5
55A
  8
SHIJIAHE
 10
726494.99630850914
 20
3421855.4236020208
 30
0.125
  0
SEQEND
  5
55B
  8
SHIJIAHE
  0
POLYLINE
  5
CB
  8
SHIJIAHE
 66
     1
 10
0.0
 20
0.0
 30
0.06
 70
     1
1001
ADE
1011
-29.987442009150978
1021
0.0
1031
-0.0
1021
-1.5957589703612021
1031
0.0
1001
IRD
1002
{
1000
TPMLINK_Unit_topology-_-ade
1070
   515
1071
        5
1004
010058040000C0000000C000000000000000E340C74420A67440E340C74420A674402C03000000000000
1002
}
1001
DCO15
1071
        5
1071
        5
1000
unitlink
1004
074133303400
1071
        4
1000
Link
1004
074133303400
  0
VERTEX
  5
55C
  8
SHIJIAHE
 10
726531.25406341255
 20
3421627.7539297109
 30
0.06
  0
VERTEX
  5
55D
  8
SHIJIAHE
 10
726532.10663994774
 20
3421550.4079760439
 30
0.06
  0
VERTEX
  5
55E
  8
SHIJIAHE
 10
726604.49813862145
 20
3421545.3627986959
 30
0.06
  0
VERTEX
  5
55F
  8
SHIJIAHE
 10
726623.02230155841
 20
3421559.6520949188
 30
0.06
  0
VERTEX
  5
560
  8
SHIJIAHE
 10
726626.38610353344
 20
3421597.4909250191
 30
0.06
  0
VERTEX
  5
561
  8
SHIJIAHE
 10
726616.27919622161
 20
3421624.39316461
 30
0.06
  0
VERTEX
  5
562
  8
SHIJIAHE
 10
726600.28176011518
 20
3421635.321695731
 30
0.06
  0
VERTEX
  5
563
  8
SHIJIAHE
 10
726573.35584294063
 20
3421639.528696652
 30
0.06
  0
VERTEX
  5
564
  8
SHIJIAHE
 10
726531.25406341255
 20
3421627.7539297109
 30
0.06
  0
SEQEND
  5
565
  8
SHIJIAHE
  0
POLYLINE
  5
CC
  8
SHIJIAHE
 66
     1
 10
0.0
 20
0.0
 30
0.06
 70
     1
1001
ADE
1011
-23.810137465596199
1021
0.0
1031
-0.0
1021
1.7085904097184521
1031
0.0
1001
IRD
1002
{
1000
TPMLINK_Unit_topology-_-ade
1070
   515
1071
        5
1004
010059040000BD000000BD000000000000003DCCC6EDD80A74403DCCC6EDD80A7440000000002A030000
1002
}
1001
DCO15
1071
        5
1071
        5
1000
unitlink
1004
074133303300
1071
        4
1000
Link
1004
074133303300
  0
VERTEX
  5
566
  8
SHIJIAHE
 10
726455.46775998175
 20
3421671.7984891362
 30
0.06
  0
VERTEX
  5
567
  8
SHIJIAHE
 10
726437.57915410015
 20
3421708.5895986999
 30
0.06
  0
VERTEX
  5
568
  8
SHIJIAHE
 10
726439.68734335504
 20
3421740.657906468
 30
0.06
  0
VERTEX
  5
569
  8
SHIJIAHE
 10
726454.95621405903
 20
3421766.4157128572
 30
0.06
  0
VERTEX
  5
56A
  8
SHIJIAHE
 10
726482.84321751061
 20
3421764.3122123992
 30
0.06
  0
VERTEX
  5
56B
  8
SHIJIAHE
 10
726511.79981698096
 20
3421754.8504900248
 30
0.06
  0
VERTEX
  5
56C
  8
SHIJIAHE
 10
726530.74251748994
 20
3421740.657906468
 30
0.06
  0
VERTEX
  5
56D
  8
SHIJIAHE
 10
726512.32686429482
 20
3421674.4258498619
 30
0.06
  0
VERTEX
  5
56E
  8
SHIJIAHE
 10
726485.47845407925
 20
3421659.1774863801
 30
0.06
  0
VERTEX
  5
56F
  8
SHIJIAHE
 10
726469.68253605824
 20
3421657.597846189
 30
0.06
  0
VERTEX
  5
570
  8
SHIJIAHE
 10
726455.46775998175
 20
3421671.7984891362
 30
0.06
  0
SEQEND
  5
571
  8
SHIJIAHE
  0
POLYLINE
  5
CD
  8
SHIJIAHE
 66
     1
 10
0.0
 20
0.0
 30
0.06
 70
     1
1001
ADE
1011
-22.79173969919793
1021
0.0
1031
-0.0
1021
-0.8690360616892576
1031
0.0
1001
IRD
1002
{
1000
TPMLINK_Unit_topology-_-ade
1070
   515
1071
        5
1004
01005A040000A9000000A90000000000000086EF50160E54734086EF50160E5473402603000000000000
1002
}
1001
DCO15
1071
        5
1071
        5
1000
unitlink
1004
074133303000
1071
        4
1000
Link
1004
074133303000
  0
VERTEX
  5
572
  8
SHIJIAHE
 10
726846.36416930566
 20
3421974.9012841419
 30
0.06
  0
VERTEX
  5
573
  8
SHIJIAHE
 10
726822.8662417978
 20
3421916.2478087889
 30
0.06
  0
VERTEX
  5
574
  8
SHIJIAHE
 10
726822.33919448406
 20
3421899.8388933288
 30
0.06
  0
VERTEX
  5
575
  8
SHIJIAHE
 10
726834.0117423425
 20
3421884.4776984039
 30
0.06
  0
VERTEX
  5
576
  8
SHIJIAHE
 10
726892.85502477747
 20
3421873.8876616089
 30
0.06
  0
VERTEX
  5
577
  8
SHIJIAHE
 10
726899.27305972576
 20
3421889.2488565338
 30
0.06
  0
VERTEX
  5
578
  8
SHIJIAHE
 10
726906.10871457704
 20
3421936.9040221111
 30
0.06
  0
VERTEX
  5
579
  8
SHIJIAHE
 10
726909.0013615652
 20
3421957.4595253039
 30
0.06
  0
VERTEX
  5
57A
  8
SHIJIAHE
 10
726846.36416930566
 20
3421974.9012841419
 30
0.06
  0
SEQEND
  5
57B
  8
SHIJIAHE
  0
POLYLINE
  5
CE
  8
SHIJIAHE
 66
     1
 10
0.0
 20
0.0
 30
1.0
 70
     1
1001
ADE
1011
-30.786233463557441
1021
0.0
1031
-0.0
1021
2.4661729536019261
1031
0.0
1001
IRD
1002
{
1000
TPMLINK_Unit_topology-_-ade
1070
   515
1071
        5
1004
01005C0400009E0000009E0000000000000007E2FDBC037A7A4007E2FDBC037A7A400000000024030000
1002
}
1001
DCO15
1071
        5
1071
        5
1000
unitlink
1004
0741393000
1071
        4
1000
Link
1004
0741393000
  0
VERTEX
  5
57C
  8
SHIJIAHE
 10
726473.60438812885
 20
3422045.4478695621
 30
1.0
  0
VERTEX
  5
57D
  8
SHIJIAHE
 10
726535.25342243898
 20
3422030.1376971221
 30
1.0
  0
VERTEX
  5
57E
  8
SHIJIAHE
 10
726543.0515619762
 20
3422010.9777578739
 30
1.0
  0
VERTEX
  5
57F
  8
SHIJIAHE
 10
726542.16704308242
 20
3421990.6440261798
 30
1.0
  0
VERTEX
  5
580
  8
SHIJIAHE
 10
726524.37144555151
 20
3421952.2732764231
 30
1.0
  0
VERTEX
  5
581
  8
SHIJIAHE
 10
726505.38224086526
 20
3421933.92204828
 30
1.0
  0
VERTEX
  5
582
  8
SHIJIAHE
 10
726497.41452559445
 20
3421904.5455763489
 30
1.0
  0
VERTEX
  5
583
  8
SHIJIAHE
 10
726478.25480560225
 20
3421891.561901099
 30
1.0
  0
VERTEX
  5
584
  8
SHIJIAHE
 10
726459.85465379816
 20
3421892.1582958652
 30
1.0
  0
VERTEX
  5
585
  8
SHIJIAHE
 10
726439.62533778721
 20
3421903.0142924888
 30
1.0
  0
VERTEX
  5
586
  8
SHIJIAHE
 10
726433.59529646125
 20
3421924.113772192
 30
1.0
  0
VERTEX
  5
587
  8
SHIJIAHE
 10
726432.99074219167
 20
3421958.1808083639
 30
1.0
  0
VERTEX
  5
588
  8
SHIJIAHE
 10
726448.39912541956
 20
3422012.7831670311
 30
1.0
  0
VERTEX
  5
589
  8
SHIJIAHE
 10
726456.64586574188
 20
3422032.3433034839
 30
1.0
  0
VERTEX
  5
58A
  8
SHIJIAHE
 10
726473.60438812885
 20
3422045.4478695621
 30
1.0
  0
SEQEND
  5
58B
  8
SHIJIAHE
  0
POLYLINE
  5
CF
  8
SHIJIAHE
 66
     1
 10
0.0
 20
0.0
 30
0.06
 70
     1
1001
ADE
1011
-32.142135437694371
1021
0.0
1031
-0.0
1021
11.952073491644111
1031
0.0
1001
IRD
1002
{
1000
TPMLINK_Unit_topology-_-ade
1070
   515
1071
        5
1004
01005D040000C9000000C900000000000000CB32A7BBC7097740CB32A7BBC7097740000000006E030000
1002
}
1001
DCO15
1071
        5
1071
        5
1000
unitlink
1004
0741393300
1071
        4
1000
Link
1004
0741393300
  0
VERTEX
  5
58C
  8
SHIJIAHE
 10
726377.97630347696
 20
3421023.4126061979
 30
0.06
  0
VERTEX
  5
58D
  8
SHIJIAHE
 10
726360.95577552146
 20
3421083.4228147021
 30
0.06
  0
VERTEX
  5
58E
  8
SHIJIAHE
 10
726392.99715191859
 20
3421103.4262175369
 30
0.06
  0
VERTEX
  5
58F
  8
SHIJIAHE
 10
726436.06001772371
 20
3421106.424310145
 30
0.06
  0
VERTEX
  5
590
  8
SHIJIAHE
 10
726472.61229906592
 20
3421106.6499730288
 30
0.06
  0
VERTEX
  5
591
  8
SHIJIAHE
 10
726478.53383065015
 20
3421082.0124216722
 30
0.06
  0
VERTEX
  5
592
  8
SHIJIAHE
 10
726471.12416547548
 20
3421020.4225729769
 30
0.06
  0
VERTEX
  5
593
  8
SHIJIAHE
 10
726464.72209075454
 20
3421015.4982864619
 30
0.06
  0
VERTEX
  5
594
  8
SHIJIAHE
 10
726378.37933965761
 20
3421016.4815318868
 30
0.06
  0
VERTEX
  5
595
  8
SHIJIAHE
 10
726377.97630347696
 20
3421023.4126061979
 30
0.06
  0
SEQEND
  5
596
  8
SHIJIAHE
  0
POLYLINE
  5
D0
  8
SHIJIAHE
 66
     1
 10
0.0
 20
0.0
 30
0.06
 70
     1
1001
ADE
1011
-25.02699670556467
1021
0.0
1031
-0.0
1021
13.38664468470961
1031
0.0
1001
IRD
1002
{
1000
TPMLINK_Unit_topology-_-ade
1070
   515
1071
        5
1004
01005E040000C8000000C80000000000000018BE017985F9784018BE017985F978403003000000000000
1002
}
1001
DCO15
1071
        5
1071
        5
1000
unitlink
1004
0741393200
1071
        4
1000
Link
1004
0741393200
  0
VERTEX
  5
597
  8
SHIJIAHE
 10
726337.73469093826
 20
3421240.1215098328
 30
0.06
  0
VERTEX
  5
598
  8
SHIJIAHE
 10
726435.39345788583
 20
3421252.1138802669
 30
0.06
  0
VERTEX
  5
599
  8
SHIJIAHE
 10
726441.79553260654
 20
3421317.6770076081
 30
0.06
  0
VERTEX
  5
59A
  8
SHIJIAHE
 10
726425.78259510547
 20
3421340.0579301189
 30
0.06
  0
VERTEX
  5
59B
  8
SHIJIAHE
 10
726346.53948135325
 20
3421340.0579301189
 30
0.06
  0
VERTEX
  5
59C
  8
SHIJIAHE
 10
726315.07165645063
 20
3421333.4089344139
 30
0.06
  0
VERTEX
  5
59D
  8
SHIJIAHE
 10
726320.18711566902
 20
3421294.0227016769
 30
0.06
  0
VERTEX
  5
59E
  8
SHIJIAHE
 10
726337.73469093826
 20
3421240.1215098328
 30
0.06
  0
SEQEND
  5
59F
  8
SHIJIAHE
  0
POLYLINE
  5
D1
  8
SHIJIAHE
 66
     1
 10
0.0
 20
0.0
 30
0.06
 70
     1
1001
ADE
1011
-24.871982788550671
1021
0.0
1031
-0.0
1021
-3.51389348739758
1031
0.0
1001
IRD
1002
{
1000
TPMLINK_Unit_topology-_-ade
1070
   515
1071
        5
1004
01005F040000C7000000C7000000000000008EB560D3769D75408EB560D3769D7540000000002F030000
1002
}
1001
DCO15
1071
        5
1071
        5
1000
unitlink
1004
0741383700
1071
        4
1000
Link
1004
0741383700
  0
VERTEX
  5
5A0
  8
SHIJIAHE
 10
726313.18048667547
 20
3421348.8023668919
 30
0.06
  0
VERTEX
  5
5A1
  8
SHIJIAHE
 10
726300.50034836296
 20
3421419.3139589168
 30
0.06
  0
VERTEX
  5
5A2
  8
SHIJIAHE
 10
726329.47244922444
 20
3421424.7379275332
 30
0.06
  0
VERTEX
  5
5A3
  8
SHIJIAHE
 10
726405.50677492097
 20
3421426.543230609
 30
0.06
  0
VERTEX
  5
5A4
  8
SHIJIAHE
 10
726418.17141184211
 20
3421409.3686732198
 30
0.06
  0
VERTEX
  5
5A5
  8
SHIJIAHE
 10
726412.74592478934
 20
3421365.976924283
 30
0.06
  0
VERTEX
  5
5A6
  8
SHIJIAHE
 10
726399.16670576483
 20
3421355.1289870492
 30
0.06
  0
VERTEX
  5
5A7
  8
SHIJIAHE
 10
726313.18048667547
 20
3421348.8023668919
 30
0.06
  0
SEQEND
  5
5A8
  8
SHIJIAHE
  0
POLYLINE
  5
D2
  8
SHIJIAHE
 66
     1
 10
0.0
 20
0.0
 30
0.06
 70
     1
1001
ADE
1011
-22.11741753062233
1021
0.0
1031
-0.0
1021
8.5429520569741726
1031
0.0
1001
IRD
1002
{
1000
TPMLINK_Unit_topology-_-ade
1070
   515
1071
        5
1004
010060040000C3000000C3000000000000009233B3676FC675409233B3676FC67540000000002E030000
1002
}
1001
DCO15
1071
        5
1071
        5
1000
unitlink
1004
0741393100
1071
        4
1000
Link
1004
0741393100
  0
VERTEX
  5
5A9
  8
SHIJIAHE
 10
726421.48870963976
 20
3421583.8302611168
 30
0.06
  0
VERTEX
  5
5AA
  8
SHIJIAHE
 10
726467.07830227551
 20
3421614.7863732399
 30
0.06
  0
VERTEX
  5
5AB
  8
SHIJIAHE
 10
726495.19782659796
 20
3421604.5912464922
 30
0.06
  0
VERTEX
  5
5AC
  8
SHIJIAHE
 10
726508.63753309846
 20
3421533.6444474789
 30
0.06
  0
VERTEX
  5
5AD
  8
SHIJIAHE
 10
726513.18880571355
 20
3421509.6187573751
 30
0.06
  0
VERTEX
  5
5AE
  8
SHIJIAHE
 10
726490.71792443097
 20
3421487.6333972039
 30
0.06
  0
VERTEX
  5
5AF
  8
SHIJIAHE
 10
726465.76068399101
 20
3421486.351954394
 30
0.06
  0
VERTEX
  5
5B0
  8
SHIJIAHE
 10
726443.99673021236
 20
3421508.7248175172
 30
0.06
  0
VERTEX
  5
5B1
  8
SHIJIAHE
 10
726442.7256161049
 20
3421528.534795023
 30
0.06
  0
VERTEX
  5
5B2
  8
SHIJIAHE
 10
726421.48870963976
 20
3421583.8302611168
 30
0.06
  0
SEQEND
  5
5B3
  8
SHIJIAHE
  0
POLYLINE
  5
D3
  8
SHIJIAHE
 66
     1
 10
0.0
 20
0.0
 30
0.25
 70
     1
1001
ADE
1011
-16.400472290930342
1021
0.0
1031
-0.0
1021
-0.6689292639493945
1031
0.0
1001
IRD
1002
{
1000
TPMLINK_Unit_topology-_-ade
1070
   515
1071
        5
1004
010061040000BE000000BE000000000000001FCAAAD45B6676401FCAAAD45B667640000000002D030000
1002
}
1001
DCO15
1071
        5
1071
        5
1000
unitlink
1004
0741383600
1071
        4
1000
Link
1004
0741383600
  0
VERTEX
  5
5B4
  8
SHIJIAHE
 10
726335.47148776799
 20
3421668.389367701
 30
0.25
  0
VERTEX
  5
5B5
  8
SHIJIAHE
 10
726397.43054990843
 20
3421705.422258928
 30
0.25
  0
VERTEX
  5
5B6
  8
SHIJIAHE
 10
726426.88319391024
 20
3421705.9300004179
 30
0.25
  0
VERTEX
  5
5B7
  8
SHIJIAHE
 10
726439.57883361354
 20
3421670.928075152
 30
0.25
  0
VERTEX
  5
5B8
  8
SHIJIAHE
 10
726455.14223075658
 20
3421636.0712188841
 30
0.25
  0
VERTEX
  5
5B9
  8
SHIJIAHE
 10
726451.57691069331
 20
3421621.8383383821
 30
0.25
  0
VERTEX
  5
5BA
  8
SHIJIAHE
 10
726419.50453151762
 20
3421603.3259224631
 30
0.25
  0
VERTEX
  5
5BB
  8
SHIJIAHE
 10
726392.76463104424
 20
3421593.0018454948
 30
0.25
  0
VERTEX
  5
5BC
  8
SHIJIAHE
 10
726371.72924267151
 20
3421601.8994106571
 30
0.25
  0
VERTEX
  5
5BD
  8
SHIJIAHE
 10
726349.28322766372
 20
3421627.1736537232
 30
0.25
  0
VERTEX
  5
5BE
  8
SHIJIAHE
 10
726337.87420346215
 20
3421647.4671945521
 30
0.25
  0
VERTEX
  5
5BF
  8
SHIJIAHE
 10
726335.47148776799
 20
3421668.389367701
 30
0.25
  0
SEQEND
  5
5C0
  8
SHIJIAHE
  0
POLYLINE
  5
D4
  8
SHIJIAHE
 66
     1
 10
0.0
 20
0.0
 30
0.06
 70
     1
1001
ADE
1011
-34.118562865885913
1021
0.0
1031
-0.0
1021
4.2875948059372604
1031
0.0
1001
IRD
1002
{
1000
TPMLINK_Unit_topology-_-ade
1070
   515
1071
        5
1004
010062040000AA000000AA000000000000006AE00134177D7C406AE00134177D7C402503000000000000
1002
}
1001
DCO15
1071
        5
1071
        5
1000
unitlink
1004
0741383500
1071
        4
1000
Link
1004
0741383500
  0
VERTEX
  5
5C1
  8
SHIJIAHE
 10
726313.13398250216
 20
3421963.4677673741
 30
0.06
  0
VERTEX
  5
5C2
  8
SHIJIAHE
 10
726306.53038968903
 20
3421842.3996298299
 30
0.06
  0
VERTEX
  5
5C3
  8
SHIJIAHE
 10
726408.71556297713
 20
3421851.4503233768
 30
0.06
  0
VERTEX
  5
5C4
  8
SHIJIAHE
 10
726430.57252510625
 20
3421897.6145020379
 30
0.06
  0
VERTEX
  5
5C5
  8
SHIJIAHE
 10
726429.1153942981
 20
3421953.6675506751
 30
0.06
  0
VERTEX
  5
5C6
  8
SHIJIAHE
 10
726420.66713588673
 20
3421968.6257761628
 30
0.06
  0
VERTEX
  5
5C7
  8
SHIJIAHE
 10
726313.13398250216
 20
3421963.4677673741
 30
0.06
  0
SEQEND
  5
5C8
  8
SHIJIAHE
  0
POLYLINE
  5
D5
  8
SHIJIAHE
 66
     1
 10
0.0
 20
0.0
 30
0.0714285714285714
 70
     1
1001
ADE
1011
-15.98193471878767
1021
0.0
1031
-0.0
1021
1.1968192267231641
1031
0.0
1001
IRD
1002
{
1000
TPMLINK_Unit_topology-_-ade
1070
   515
1071
        5
1004
010063040000D2000000D20000000000000096B6D96F5CE6724096B6D96F5CE67240B302000000000000
1002
}
1001
DCO15
1071
        5
1071
        5
1000
unitlink
1004
074131313100
1071
        4
1000
Link
1004
074131313100
  0
VERTEX
  5
5C9
  8
SHIJIAHE
 10
726277.32576795295
 20
3420232.1901767491
 30
0.0714285714285714
  0
VERTEX
  5
5CA
  8
SHIJIAHE
 10
726279.21693772823
 20
3420169.6332014059
 30
0.0714285714285714
  0
VERTEX
  5
5CB
  8
SHIJIAHE
 10
726281.85217429325
 20
3420162.3958703242
 30
0.0714285714285714
  0
VERTEX
  5
5CC
  8
SHIJIAHE
 10
726292.31561361253
 20
3420159.2204711628
 30
0.0714285714285714
  0
VERTEX
  5
5CD
  8
SHIJIAHE
 10
726357.21994015202
 20
3420171.3901481489
 30
0.0714285714285714
  0
VERTEX
  5
5CE
  8
SHIJIAHE
 10
726355.18925785634
 20
3420247.2048179568
 30
0.0714285714285714
  0
VERTEX
  5
5CF
  8
SHIJIAHE
 10
726277.32576795295
 20
3420232.1901767491
 30
0.0714285714285714
  0
SEQEND
  5
5D0
  8
SHIJIAHE
  0
POLYLINE
  5
D6
  8
SHIJIAHE
 66
     1
 10
0.0
 20
0.0
 30
0.06
 70
     1
1001
ADE
1011
-19.39224086527247
1021
0.0
1031
-0.0
1021
-5.7866411106660962
1031
0.0
1001
IRD
1002
{
1000
TPMLINK_Unit_topology-_-ade
1070
   515
1071
        5
1004
010064040000D0000000D00000000000000075B346E716F0724075B346E716F0724000000000B4020000
1002
}
1001
DCO15
1071
        5
1071
        5
1000
unitlink
1004
074131313000
1071
        4
1000
Link
1004
074131313000
  0
VERTEX
  5
5D1
  8
SHIJIAHE
 10
726357.88649998989
 20
3420253.6442695549
 30
0.06
  0
VERTEX
  5
5D2
  8
SHIJIAHE
 10
726432.30868096265
 20
3420261.212035575
 30
0.06
  0
VERTEX
  5
5D3
  8
SHIJIAHE
 10
726444.81830396503
 20
3420188.9515561978
 30
0.06
  0
VERTEX
  5
5D4
  8
SHIJIAHE
 10
726360.83176438918
 20
3420183.035964868
 30
0.06
  0
VERTEX
  5
5D5
  8
SHIJIAHE
 10
726357.88649998989
 20
3420253.6442695549
 30
0.06
  0
SEQEND
  5
5D6
  8
SHIJIAHE
  0
POLYLINE
  5
D7
  8
SHIJIAHE
 66
     1
 10
0.0
 20
0.0
 30
11.699999999999999
 70
     1
1001
ADE
1011
-28.724078595638279
1021
0.0
1031
-0.0
1021
4.1425258093513531
1031
0.0
1001
IRD
1002
{
1000
TPMLINK_Unit_topology-_-ade
1070
   515
1071
        5
1004
010065040000D4000000D4000000000000005737A7B82EC170405737A7B82EC17040B602000000000000
1002
}
1001
DCO15
1071
        5
1071
        5
1000
unitlink
1004
074131303700
1071
        4
1000
Link
1004
074131303700
  0
VERTEX
  5
5D7
  8
SHIJIAHE
 10
726372.36479972675
 20
3420121.2365720649
 30
11.699999999999999
  0
VERTEX
  5
5D8
  8
SHIJIAHE
 10
726452.92553176347
 20
3420148.9447505288
 30
11.699999999999999
  0
VERTEX
  5
5D9
  8
SHIJIAHE
 10
726445.40735684708
 20
3420184.6639613928
 30
11.699999999999999
  0
VERTEX
  5
5DA
  8
SHIJIAHE
 10
726363.14147173625
 20
3420180.505316806
 30
11.699999999999999
  0
VERTEX
  5
5DB
  8
SHIJIAHE
 10
726359.04910435912
 20
3420150.266490282
 30
11.699999999999999
  0
VERTEX
  5
5DC
  8
SHIJIAHE
 10
726363.68402044114
 20
3420128.7398629761
 30
11.699999999999999
  0
VERTEX
  5
5DD
  8
SHIJIAHE
 10
726372.36479972675
 20
3420121.2365720649
 30
11.699999999999999
  0
SEQEND
  5
5DE
  8
SHIJIAHE
  0
POLYLINE
  5
D8
  8
SHIJIAHE
 66
     1
 10
0.0
 20
0.0
 30
0.0795454545454546
 70
     1
1001
ADE
1011
-26.856160910800099
1021
0.0
1031
-0.0
1021
-6.036482160910964
1031
0.0
1001
IRD
1002
{
1000
TPMLINK_Unit_topology-_-ade
1070
   515
1071
        5
1004
010066040000D5000000D500000000000000967EDC61E8617140967EDC61E8617140B802000000000000
1002
}
1001
DCO15
1071
        5
1071
        5
1000
unitlink
1004
074131303800
1071
        4
1000
Link
1004
074131303800
  0
VERTEX
  5
5DF
  8
SHIJIAHE
 10
726374.69000846124
 20
3420116.12691961
 30
0.0795454545454546
  0
VERTEX
  5
5E0
  8
SHIJIAHE
 10
726381.37110823393
 20
3420061.387551337
 30
0.0795454545454546
  0
VERTEX
  5
5E1
  8
SHIJIAHE
 10
726466.72177026805
 20
3420100.4030521922
 30
0.0795454545454546
  0
VERTEX
  5
5E2
  8
SHIJIAHE
 10
726454.28965422139
 20
3420143.5771976332
 30
0.0795454545454546
  0
VERTEX
  5
5E3
  8
SHIJIAHE
 10
726374.69000846124
 20
3420116.12691961
 30
0.0795454545454546
  0
SEQEND
  5
5E4
  8
SHIJIAHE
  0
POLYLINE
  5
D9
  8
SHIJIAHE
 66
     1
 10
0.0
 20
0.0
 30
0.125
 70
     1
1001
ADE
1011
-23.352846414083618
1021
0.0
1031
-0.0
1021
-3.2892010053619729
1031
0.0
1001
IRD
1002
{
1000
TPMLINK_Unit_topology-_-ade
1070
   515
1071
        5
1004
010067040000CE000000CE0000000000000054BEB1FA3A0B734054BEB1FA3A0B7340B502000000000000
1002
}
1001
DCO15
1071
        5
1071
        5
1000
unitlink
1004
074131303900
1071
        4
1000
Link
1004
074131303900
  0
VERTEX
  5
5E5
  8
SHIJIAHE
 10
726436.66457199701
 20
3420260.8493630821
 30
0.125
  0
VERTEX
  5
5E6
  8
SHIJIAHE
 10
726449.54739540746
 20
3420182.6591144032
 30
0.125
  0
VERTEX
  5
5E7
  8
SHIJIAHE
 10
726524.16992745944
 20
3420203.732475135
 30
0.125
  0
VERTEX
  5
5E8
  8
SHIJIAHE
 10
726510.18767225347
 20
3420275.3562628021
 30
0.125
  0
VERTEX
  5
5E9
  8
SHIJIAHE
 10
726436.66457199701
 20
3420260.8493630821
 30
0.125
  0
SEQEND
  5
5EA
  8
SHIJIAHE
  0
POLYLINE
  5
DA
  8
SHIJIAHE
 66
     1
 10
0.0
 20
0.0
 30
0.06
 70
     1
1001
ADE
1011
-20.67885636549909
1021
0.0
1031
-0.0
1021
2.776459417771548
1031
0.0
1001
IRD
1002
{
1000
TPMLINK_Unit_topology-_-ade
1070
   515
1071
        5
1004
010068040000D6000000D600000000000000CC4053F665027340CC4053F665027340B702000000000000
1002
}
1001
DCO15
1071
        5
1071
        5
1000
unitlink
1004
074131303600
1071
        4
1000
Link
1004
074131303600
  0
VERTEX
  5
5EB
  8
SHIJIAHE
 10
726470.6281209439
 20
3420102.579087148
 30
0.06
  0
VERTEX
  5
5EC
  8
SHIJIAHE
 10
726538.53971745423
 20
3420119.5360410418
 30
0.06
  0
VERTEX
  5
5ED
  8
SHIJIAHE
 10
726519.86054060236
 20
3420199.2353362208
 30
0.06
  0
VERTEX
  5
5EE
  8
SHIJIAHE
 10
726450.24379101768
 20
3420180.013694094
 30
0.06
  0
VERTEX
  5
5EF
  8
SHIJIAHE
 10
726470.6281209439
 20
3420102.579087148
 30
0.06
  0
SEQEND
  5
5F0
  8
SHIJIAHE
  0
POLYLINE
  5
DB
  8
SHIJIAHE
 66
     1
 10
0.0
 20
0.0
 30
0.06
 70
     1
1001
ADE
1011
-26.84065951814409
1021
0.0
1031
-0.0
1021
-4.1344664194621128
1031
0.0
1001
IRD
1002
{
1000
TPMLINK_Unit_topology-_-ade
1070
   515
1071
        5
1004
010069040000D8000000D800000000000000A87DA2ADC7997640A87DA2ADC799764000000000B2020000
1002
}
1001
DCO15
1071
        5
1071
        5
1000
unitlink
1004
074131303100
1071
        4
1000
Link
1004
074131303100
  0
VERTEX
  5
5F1
  8
SHIJIAHE
 10
726862.05375970912
 20
3419688.447397117
 30
0.06
  0
VERTEX
  5
5F2
  8
SHIJIAHE
 10
726857.1863227525
 20
3419769.8633420961
 30
0.06
  0
VERTEX
  5
5F3
  8
SHIJIAHE
 10
726953.31045193598
 20
3419788.093679409
 30
0.06
  0
VERTEX
  5
5F4
  8
SHIJIAHE
 10
726956.96878035017
 20
3419701.8098636358
 30
0.06
  0
VERTEX
  5
5F5
  8
SHIJIAHE
 10
726862.05375970912
 20
3419688.447397117
 30
0.06
  0
SEQEND
  5
5F6
  8
SHIJIAHE
  0
POLYLINE
  5
DC
  8
SHIJIAHE
 66
     1
 10
0.0
 20
0.0
 30
0.06
 70
     1
1001
ADE
1011
-26.75540186651051
1021
0.0
1031
-0.0
1021
8.2084874249994755
1031
0.0
1001
IRD
1002
{
1000
TPMLINK_Unit_topology-_-ade
1070
   515
1071
        5
1004
01006A040000DE000000DE000000000000003522D9683BA179403522D9683BA17940B102000000000000
1002
}
1001
DCO15
1071
        5
1071
        5
1000
unitlink
1004
0743373400
1071
        4
1000
Link
1004
0743373400
  0
VERTEX
  5
5F7
  8
SHIJIAHE
 10
726244.49382058915
 20
3419011.7972378931
 30
0.06
  0
VERTEX
  5
5F8
  8
SHIJIAHE
 10
726334.82042932126
 20
3419073.7094621388
 30
0.06
  0
VERTEX
  5
5F9
  8
SHIJIAHE
 10
726271.0477043651
 20
3419153.3120446522
 30
0.06
  0
VERTEX
  5
5FA
  8
SHIJIAHE
 10
726190.22344867175
 20
3419093.2373610372
 30
0.06
  0
VERTEX
  5
5FB
  8
SHIJIAHE
 10
726244.49382058915
 20
3419011.7972378931
 30
0.06
  0
SEQEND
  5
5FC
  8
SHIJIAHE
  0
POLYLINE
  5
DD
  8
SHIJIAHE
 66
     1
 10
0.0
 20
0.0
 30
0.06
 70
     1
1001
ADE
1011
-26.36786707688589
1021
0.0
1031
-0.0
1021
3.0218310942873341
1031
0.0
1001
IRD
1002
{
1000
TPMLINK_Unit_topology-_-ade
1070
   515
1071
        5
1004
01006C040000E0000000E0000000000000003607C2F89DEA78403607C2F89DEA7840AE02000000000000
1002
}
1001
DCO15
1071
        5
1071
        5
1000
unitlink
1004
0743373500
1071
        4
1000
Link
1004
0743373500
  0
VERTEX
  5
5FD
  8
SHIJIAHE
 10
726052.1835566574
 20
3418870.105124583
 30
0.06
  0
VERTEX
  5
5FE
  8
SHIJIAHE
 10
726115.86327326694
 20
3418935.3700545412
 30
0.06
  0
VERTEX
  5
5FF
  8
SHIJIAHE
 10
726038.75935155165
 20
3418994.2922455659
 30
0.06
  0
VERTEX
  5
600
  8
SHIJIAHE
 10
725972.90944012266
 20
3418918.4936945341
 30
0.06
  0
VERTEX
  5
601
  8
SHIJIAHE
 10
726038.5724623946
 20
3418856.1552020479
 30
0.06
  0
VERTEX
  5
602
  8
SHIJIAHE
 10
726052.1835566574
 20
3418870.105124583
 30
0.06
  0
SEQEND
  5
603
  8
SHIJIAHE
  0
POLYLINE
  5
DE
  8
SHIJIAHE
 66
     1
 10
0.0
 20
0.0
 30
0.06
 70
     1
1001
ADE
1011
-18.683008830295869
1021
0.0
1031
-0.0
1021
6.6409363159909844
1031
0.0
1001
IRD
1002
{
1000
TPMLINK_Unit_topology-_-ade
1070
   515
1071
        5
1004
01006D040000E4000000E400000000000000A18DC7C6D1ED7940A18DC7C6D1ED7940B002000000000000
1002
}
1001
DCO15
1071
        5
1071
        5
1000
unitlink
1004
0743363900
1071
        4
1000
Link
1004
0743363900
  0
VERTEX
  5
604
  8
SHIJIAHE
 10
726490.43889938295
 20
3418722.1105692852
 30
0.06
  0
VERTEX
  5
605
  8
SHIJIAHE
 10
726535.74946697068
 20
3418701.47047474
 30
0.06
  0
VERTEX
  5
606
  8
SHIJIAHE
 10
726555.62225097441
 20
3418734.8121659281
 30
0.06
  0
VERTEX
  5
607
  8
SHIJIAHE
 10
726577.86674788943
 20
3418793.5489910119
 30
0.06
  0
VERTEX
  5
608
  8
SHIJIAHE
 10
726588.16733585135
 20
3418820.747800481
 30
0.06
  0
VERTEX
  5
609
  8
SHIJIAHE
 10
726565.41913045186
 20
3418865.0277096811
 30
0.06
  0
VERTEX
  5
60A
  8
SHIJIAHE
 10
726532.40116638702
 20
3418855.2274929811
 30
0.06
  0
VERTEX
  5
60B
  8
SHIJIAHE
 10
726501.18136374664
 20
3418832.0648097652
 30
0.06
  0
VERTEX
  5
60C
  8
SHIJIAHE
 10
726503.86310449266
 20
3418795.5316006378
 30
0.06
  0
VERTEX
  5
60D
  8
SHIJIAHE
 10
726490.43889938295
 20
3418722.1105692852
 30
0.06
  0
SEQEND
  5
60E
  8
SHIJIAHE
  0
POLYLINE
  5
DF
  8
SHIJIAHE
 66
     1
 10
0.0
 20
0.0
 30
0.13
 70
     1
1001
ADE
1011
-23.717129116994329
1021
0.0
1031
-0.0
1021
-2.2808070108294469
1031
0.0
1001
IRD
1002
{
1000
TPMLINK_Unit_topology-_-ade
1070
   515
1071
        5
1004
010074040000B8000000B80000000000000034F0EEDE6326734034F0EEDE6326734000000000A5020000
1002
}
1001
DCO15
1071
        5
1071
        5
1000
unitlink
1004
07413500
1071
        4
1000
Link
1004
07413500
  0
VERTEX
  5
60F
  8
SHIJIAHE
 10
725613.72669584304
 20
3421795.1877306341
 30
0.13
  0
VERTEX
  5
610
  8
SHIJIAHE
 10
725663.03662245732
 20
3421825.8537047608
 30
0.13
  0
VERTEX
  5
611
  8
SHIJIAHE
 10
725674.67816753325
 20
3421823.06515626
 30
0.13
  0
VERTEX
  5
612
  8
SHIJIAHE
 10
725685.83916946885
 20
3421796.5820048852
 30
0.13
  0
VERTEX
  5
613
  8
SHIJIAHE
 10
725684.9090859741
 20
3421770.09079412
 30
0.13
  0
VERTEX
  5
614
  8
SHIJIAHE
 10
725690.95462869119
 20
3421752.9001179538
 30
0.13
  0
VERTEX
  5
615
  8
SHIJIAHE
 10
725637.89336531633
 20
3421718.9056162802
 30
0.13
  0
VERTEX
  5
616
  8
SHIJIAHE
 10
725619.16768428695
 20
3421730.6078487178
 30
0.13
  0
VERTEX
  5
617
  8
SHIJIAHE
 10
725603.05798808415
 20
3421740.675274794
 30
0.13
  0
VERTEX
  5
618
  8
SHIJIAHE
 10
725599.83744898811
 20
3421773.886766213
 30
0.13
  0
VERTEX
  5
619
  8
SHIJIAHE
 10
725613.72669584304
 20
3421795.1877306341
 30
0.13
  0
SEQEND
  5
61A
  8
SHIJIAHE
  0
POLYLINE
  5
E0
  8
SHIJIAHE
 66
     1
 10
0.0
 20
0.0
 30
0.1333333333333333
 70
     1
1001
ADE
1011
-17.30489823280368
1021
0.0
1031
-0.0
1021
5.2708402308635396
1031
0.0
1001
IRD
1002
{
1000
TPMLINK_Unit_topology-_-ade
1070
   515
1071
        5
1004
010075040000BB000000BB00000000000000132D1E07EC117A40132D1E07EC117A40A602000000000000
1002
}
1001
DCO15
1071
        5
1071
        5
1000
unitlink
1004
07413600
1071
        4
1000
Link
1004
07413600
  0
VERTEX
  5
61B
  8
SHIJIAHE
 10
725707.55661907059
 20
3421760.9836848518
 30
0.1333333333333333
  0
VERTEX
  5
61C
  8
SHIJIAHE
 10
725747.47270238749
 20
3421781.34170079
 30
0.1333333333333333
  0
VERTEX
  5
61D
  8
SHIJIAHE
 10
725795.88354828942
 20
3421823.7502043019
 30
0.1333333333333333
  0
VERTEX
  5
61E
  8
SHIJIAHE
 10
725808.72939097625
 20
3421835.003322369
 30
0.1333333333333333
  0
VERTEX
  5
61F
  8
SHIJIAHE
 10
725769.54668399715
 20
3421901.7812060132
 30
0.1333333333333333
  0
VERTEX
  5
620
  8
SHIJIAHE
 10
725668.49311229226
 20
3421837.322214928
 30
0.1333333333333333
  0
VERTEX
  5
621
  8
SHIJIAHE
 10
725682.78539532796
 20
3421834.6464978689
 30
0.1333333333333333
  0
VERTEX
  5
622
  8
SHIJIAHE
 10
725691.15614677954
 20
3421821.2759719612
 30
0.1333333333333333
  0
VERTEX
  5
623
  8
SHIJIAHE
 10
725695.34152250737
 20
3421802.473418049
 30
0.1333333333333333
  0
VERTEX
  5
624
  8
SHIJIAHE
 10
725705.37092285976
 20
3421782.8326877072
 30
0.1333333333333333
  0
VERTEX
  5
625
  8
SHIJIAHE
 10
725707.55661907059
 20
3421760.9836848518
 30
0.1333333333333333
  0
SEQEND
  5
626
  8
SHIJIAHE
  0
POLYLINE
  5
E1
  8
SHIJIAHE
 66
     1
 10
0.0
 20
0.0
 30
0.06
 70
     1
1001
ADE
1011
-34.823876181617372
1021
0.0
1031
-0.0
1021
8.002973012160508
1031
0.0
1001
IRD
1002
{
1000
TPMLINK_Unit_topology-_-ade
1070
   515
1071
        5
1004
010077040000D1000000D1000000000000008BC340BFD84779408BC340BFD8477940A402000000000000
1002
}
1001
DCO15
1071
        5
1071
        5
1000
unitlink
1004
074131313200
1071
        4
1000
Link
1004
074131313200
  0
VERTEX
  5
627
  8
SHIJIAHE
 10
725665.0363019706
 20
3420233.3829662809
 30
0.06
  0
VERTEX
  5
628
  8
SHIJIAHE
 10
725682.14983827237
 20
3420140.7402927978
 30
0.06
  0
VERTEX
  5
629
  8
SHIJIAHE
 10
725789.90001114062
 20
3420172.7441254561
 30
0.06
  0
VERTEX
  5
62A
  8
SHIJIAHE
 10
725771.11232454714
 20
3420259.3906137231
 30
0.06
  0
VERTEX
  5
62B
  8
SHIJIAHE
 10
725665.0363019706
 20
3420233.3829662809
 30
0.06
  0
SEQEND
  5
62C
  8
SHIJIAHE
  0
POLYLINE
  5
E2
  8
SHIJIAHE
 66
     1
 10
0.0
 20
0.0
 30
0.06
 70
     1
1001
ADE
1011
-27.228194307652299
1021
0.0
1031
-0.0
1021
1.325769448187202
1031
0.0
1001
IRD
1002
{
1000
TPMLINK_Unit_topology-_-ade
1070
   515
1071
        5
1004
010079040000E5000000E5000000000000007495ED93483C7A407495ED93483C7A40A302000000000000
1002
}
1001
DCO15
1071
        5
1071
        5
1000
unitlink
1004
0742373600
1071
        4
1000
Link
1004
0742373600
  0
VERTEX
  5
62D
  8
SHIJIAHE
 10
723082.72148437065
 20
3418429.7723617801
 30
0.06
  0
VERTEX
  5
62E
  8
SHIJIAHE
 10
723070.97142955265
 20
3418385.1878233119
 30
0.06
  0
VERTEX
  5
62F
  8
SHIJIAHE
 10
723080.3652728498
 20
3418325.3468619701
 30
0.06
  0
VERTEX
  5
630
  8
SHIJIAHE
 10
723089.77461753786
 20
3418296.0106869829
 30
0.06
  0
VERTEX
  5
631
  8
SHIJIAHE
 10
723125.00928059558
 20
3418301.8779219808
 30
0.06
  0
VERTEX
  5
632
  8
SHIJIAHE
 10
723162.60015517846
 20
3418312.4357212218
 30
0.06
  0
VERTEX
  5
633
  8
SHIJIAHE
 10
723182.56594752904
 20
3418375.7986354372
 30
0.06
  0
VERTEX
  5
634
  8
SHIJIAHE
 10
723179.03163025156
 20
3418406.3114811811
 30
0.06
  0
VERTEX
  5
635
  8
SHIJIAHE
 10
723125.00928059558
 20
3418443.8601732859
 30
0.06
  0
VERTEX
  5
636
  8
SHIJIAHE
 10
723082.72148437065
 20
3418429.7723617801
 30
0.06
  0
SEQEND
  5
637
  8
SHIJIAHE
  0
POLYLINE
  5
E3
  8
SHIJIAHE
 66
     1
 10
0.0
 20
0.0
 30
0.06
 70
     1
1001
ADE
1011
-21.710764553397901
1021
0.0
1031
-0.0
1021
3.6414702637121081
1031
0.0
1001
IRD
1002
{
1000
TPMLINK_Unit_topology-_-ade
1070
   515
1071
        5
1004
01007B040000EE000000EE00000000000000BF336074C2007240BF336074C2007240000000009E020000
1002
}
1001
DCO15
1071
        5
1071
        5
1000
unitlink
1004
074331343600
1071
        4
1000
Link
1004
074331343600
  0
VERTEX
  5
638
  8
SHIJIAHE
 10
720826.40711102274
 20
3415595.2864035778
 30
0.06
  0
VERTEX
  5
639
  8
SHIJIAHE
 10
720831.33985041815
 20
3415670.430387212
 30
0.06
  0
VERTEX
  5
63A
  8
SHIJIAHE
 10
720901.94178027264
 20
3415668.8640561658
 30
0.06
  0
VERTEX
  5
63B
  8
SHIJIAHE
 10
720900.6666503587
 20
3415601.252428832
 30
0.06
  0
VERTEX
  5
63C
  8
SHIJIAHE
 10
720826.40711102274
 20
3415595.2864035778
 30
0.06
  0
SEQEND
  5
63D
  8
SHIJIAHE
  0
POLYLINE
  5
E4
  8
SHIJIAHE
 66
     1
 10
0.0
 20
0.0
 30
0.03
 70
     1
1001
ADE
1011
-34.26072736654897
1021
0.0
1031
-0.0
1021
10.111315375659609
1031
0.0
1001
IRD
1002
{
1000
TPMLINK_Unit_topology-_-ade
1070
   515
1071
        5
1004
01007D040000FB000000FB00000000000000316BC5E76D347740316BC5E76D3477409902000000000000
1002
}
1001
DCO15
1071
        5
1071
        5
1000
unitlink
1004
074332363400
1071
        4
1000
Link
1004
074332363400
  0
VERTEX
  5
63E
  8
SHIJIAHE
 10
720949.54103763786
 20
3415328.401551452
 30
0.03
  0
VERTEX
  5
63F
  8
SHIJIAHE
 10
720953.34964934736
 20
3415246.1641832758
 30
0.03
  0
VERTEX
  5
640
  8
SHIJIAHE
 10
720988.98617477703
 20
3415245.4757957491
 30
0.03
  0
VERTEX
  5
641
  8
SHIJIAHE
 10
721025.64615974575
 20
3415253.077988463
 30
0.03
  0
VERTEX
  5
642
  8
SHIJIAHE
 10
721054.47080696013
 20
3415257.487659303
 30
0.03
  0
VERTEX
  5
643
  8
SHIJIAHE
 10
721063.46382844448
 20
3415293.6030630139
 30
0.03
  0
VERTEX
  5
644
  8
SHIJIAHE
 10
721062.23903260764
 20
3415323.423212653
 30
0.03
  0
VERTEX
  5
645
  8
SHIJIAHE
 10
721036.82032449928
 20
3415340.014349774
 30
0.03
  0
VERTEX
  5
646
  8
SHIJIAHE
 10
721011.78751096514
 20
3415340.9222231801
 30
0.03
  0
VERTEX
  5
647
  8
SHIJIAHE
 10
720975.16108205169
 20
3415338.4879252519
 30
0.03
  0
VERTEX
  5
648
  8
SHIJIAHE
 10
720949.54103763786
 20
3415328.401551452
 30
0.03
  0
SEQEND
  5
649
  8
SHIJIAHE
  0
POLYLINE
  5
E5
  8
SHIJIAHE
 66
     1
 10
0.0
 20
0.0
 30
0.06
 70
     1
1001
ADE
1011
-23.707349544507451
1021
0.0
1031
-0.0
1021
8.5699259079992771
1031
0.0
1001
IRD
1002
{
1000
TPMLINK_Unit_topology-_-ade
1070
   515
1071
        5
1004
010080040000F5000000F500000000000000B360164DB36B7A40B360164DB36B7A409602000000000000
1002
}
1001
DCO15
1071
        5
1071
        5
1000
unitlink
1004
074331323100
1071
        4
1000
Link
1004
074331323100
  0
VERTEX
  5
64A
  8
SHIJIAHE
 10
721699.38453789067
 20
3415371.1015315321
 30
0.06
  0
VERTEX
  5
64B
  8
SHIJIAHE
 10
721583.66649839282
 20
3415369.894359197
 30
0.06
  0
VERTEX
  5
64C
  8
SHIJIAHE
 10
721583.07926751336
 20
3415275.79477693
 30
0.06
  0
VERTEX
  5
64D
  8
SHIJIAHE
 10
721696.2470471859
 20
3415271.4948490299
 30
0.06
  0
VERTEX
  5
64E
  8
SHIJIAHE
 10
721699.38453789067
 20
3415371.1015315321
 30
0.06
  0
SEQEND
  5
64F
  8
SHIJIAHE
  0
POLYLINE
  5
E6
  8
SHIJIAHE
 66
     1
 10
0.0
 20
0.0
 30
0.03
 70
     1
1001
ADE
1011
-9.6878101099282503
1021
0.0
1031
-0.0
1021
10.48543903371319
1031
0.0
1001
IRD
1002
{
1000
TPMLINK_Unit_topology-_-ade
1070
   515
1071
        5
1004
0100810400000C0100000C01000000000000682D72E518907A40682D72E518907A400000000097020000
1002
}
1001
DCO15
1071
        5
1071
        5
1000
unitlink
1004
074331323000
1071
        4
1000
Link
1004
074331323000
  0
VERTEX
  5
650
  8
SHIJIAHE
 10
721593.22997273167
 20
3415124.3994036349
 30
0.03
  0
VERTEX
  5
651
  8
SHIJIAHE
 10
721583.42860720342
 20
3415170.60487996
 30
0.03
  0
VERTEX
  5
652
  8
SHIJIAHE
 10
721588.78379606467
 20
3415229.642882573
 30
0.03
  0
VERTEX
  5
653
  8
SHIJIAHE
 10
721697.97518377751
 20
3415232.5660354141
 30
0.03
  0
VERTEX
  5
654
  8
SHIJIAHE
 10
721704.25016518694
 20
3415204.1525907279
 30
0.03
  0
VERTEX
  5
655
  8
SHIJIAHE
 10
721703.41126392793
 20
3415182.8524838421
 30
0.03
  0
VERTEX
  5
656
  8
SHIJIAHE
 10
721708.00844282273
 20
3415147.3356779818
 30
0.03
  0
VERTEX
  5
657
  8
SHIJIAHE
 10
721690.44185048353
 20
3415128.5297288122
 30
0.03
  0
VERTEX
  5
658
  8
SHIJIAHE
 10
721593.22997273167
 20
3415124.3994036349
 30
0.03
  0
SEQEND
  5
659
  8
SHIJIAHE
  0
POLYLINE
  5
E7
  8
SHIJIAHE
 66
     1
 10
0.0
 20
0.0
 30
0.06
 70
     1
1001
ADE
1011
-30.425597419263809
1021
0.0
1031
-0.0
1021
5.492135288193821
1031
0.0
1001
IRD
1002
{
1000
TPMLINK_Unit_topology-_-ade
1070
   515
1071
        5
1004
01008204000014010000140100000000000039A265943D79774039A265943D7977409202000000000000
1002
}
1001
DCO15
1071
        5
1071
        5
1000
unitlink
1004
074331323500
1071
        4
1000
Link
1004
074331323500
  0
VERTEX
  5
65A
  8
SHIJIAHE
 10
721470.36449451733
 20
3415079.3748685662
 30
0.06
  0
VERTEX
  5
65B
  8
SHIJIAHE
 10
721565.21067072067
 20
3415088.5633455869
 30
0.06
  0
VERTEX
  5
65C
  8
SHIJIAHE
 10
721558.36523645732
 20
3415123.2022079318
 30
0.06
  0
VERTEX
  5
65D
  8
SHIJIAHE
 10
721561.63695136458
 20
3415176.696902601
 30
0.06
  0
VERTEX
  5
65E
  8
SHIJIAHE
 10
721467.03974313894
 20
3415176.1025474202
 30
0.06
  0
VERTEX
  5
65F
  8
SHIJIAHE
 10
721470.36449451733
 20
3415079.3748685662
 30
0.06
  0
SEQEND
  5
660
  8
SHIJIAHE
  0
POLYLINE
  5
E8
  8
SHIJIAHE
 66
     1
 10
0.0
 20
0.0
 30
0.1136363636363636
 70
     1
1001
ADE
1011
-12.33184848888777
1021
0.0
1031
-0.0
1021
11.57788011245429
1031
0.0
1001
IRD
1002
{
1000
TPMLINK_Unit_topology-_-ade
1070
   515
1071
        5
1004
010083040000100100001001000000000000B16BBC67872D7440B16BBC67872D74409002000000000000
1002
}
1001
DCO15
1071
        5
1071
        5
1000
unitlink
1004
074332363700
1071
        4
1000
Link
1004
074332363700
  0
VERTEX
  5
661
  8
SHIJIAHE
 10
721400.75246814662
 20
3415087.3062900999
 30
0.1136363636363636
  0
VERTEX
  5
662
  8
SHIJIAHE
 10
721460.53257177758
 20
3415072.9000351368
 30
0.1136363636363636
  0
VERTEX
  5
663
  8
SHIJIAHE
 10
721466.72366305825
 20
3415087.9946776298
 30
0.1136363636363636
  0
VERTEX
  5
664
  8
SHIJIAHE
 10
721463.6365064308
 20
3415107.5488741142
 30
0.1136363636363636
  0
VERTEX
  5
665
  8
SHIJIAHE
 10
721464.08951310825
 20
3415176.2080476899
 30
0.1136363636363636
  0
VERTEX
  5
666
  8
SHIJIAHE
 10
721398.80621723062
 20
3415178.54257931
 30
0.1136363636363636
  0
VERTEX
  5
667
  8
SHIJIAHE
 10
721400.75246814662
 20
3415087.3062900999
 30
0.1136363636363636
  0
SEQEND
  5
668
  8
SHIJIAHE
  0
POLYLINE
  5
E9
  8
SHIJIAHE
 66
     1
 10
0.0
 20
0.0
 30
0.06
 70
     1
1001
ADE
1011
-15.48609845538158
1021
0.0
1031
-0.0
1021
9.7272150884382391
1031
0.0
1001
IRD
1002
{
1000
TPMLINK_Unit_topology-_-ade
1070
   515
1071
        5
1004
010085040000FC000000FC000000000000003864D4A36A3476403864D4A36A3476409502000000000000
1002
}
1001
DCO15
1071
        5
1071
        5
1000
unitlink
1004
074331323700
1071
        4
1000
Link
1004
074331323700
  0
VERTEX
  5
669
  8
SHIJIAHE
 10
721458.63665493205
 20
3415283.7361750938
 30
0.06
  0
VERTEX
  5
66A
  8
SHIJIAHE
 10
721548.55009174347
 20
3415286.5396083649
 30
0.06
  0
VERTEX
  5
66B
  8
SHIJIAHE
 10
721542.29188836005
 20
3415375.02234746
 30
0.06
  0
VERTEX
  5
66C
  8
SHIJIAHE
 10
721456.13669165655
 20
3415374.1572083738
 30
0.06
  0
VERTEX
  5
66D
  8
SHIJIAHE
 10
721458.63665493205
 20
3415283.7361750938
 30
0.06
  0
SEQEND
  5
66E
  8
SHIJIAHE
  0
POLYLINE
  5
EA
  8
SHIJIAHE
 66
     1
 10
0.0
 20
0.0
 30
0.06
 70
     1
1001
ADE
1011
-23.19561977521516
1021
0.0
1031
-0.0
1021
3.62151700258255
1031
0.0
1001
IRD
1002
{
1000
TPMLINK_Unit_topology-_-ade
1070
   515
1071
        5
1004
010086040000EF000000EF00000000000000C6A49799EFCA7640C6A49799EFCA7640000000009D020000
1002
}
1001
DCO15
1071
        5
1071
        5
1000
unitlink
1004
074331323900
1071
        4
1000
Link
1004
074331323900
  0
VERTEX
  5
66F
  8
SHIJIAHE
 10
721456.0528390595
 20
3415484.3961515729
 30
0.06
  0
VERTEX
  5
670
  8
SHIJIAHE
 10
721456.89174031839
 20
3415577.6676734802
 30
0.06
  0
VERTEX
  5
671
  8
SHIJIAHE
 10
721545.61393734079
 20
3415572.1505966131
 30
0.06
  0
VERTEX
  5
672
  8
SHIJIAHE
 10
721546.46961662185
 20
3415480.1560834572
 30
0.06
  0
VERTEX
  5
673
  8
SHIJIAHE
 10
721456.0528390595
 20
3415484.3961515729
 30
0.06
  0
SEQEND
  5
674
  8
SHIJIAHE
  0
POLYLINE
  5
EB
  8
SHIJIAHE
 66
     1
 10
0.0
 20
0.0
 30
0.06
 70
     1
1001
ADE
1011
-23.322476802277372
1021
0.0
1031
-0.0
1021
-5.337497510481624
1031
0.0
1001
IRD
1002
{
1000
TPMLINK_Unit_topology-_-ade
1070
   515
1071
        5
1004
010088040000EC000000EC00000000000000C8094511F5047640C8094511F5047640000000009F020000
1002
}
1001
DCO15
1071
        5
1071
        5
1000
unitlink
1004
074331343500
1071
        4
1000
Link
1004
074331343500
  0
VERTEX
  5
675
  8
SHIJIAHE
 10
721004.70718434826
 20
3415660.1943639489
 30
0.06
  0
VERTEX
  5
676
  8
SHIJIAHE
 10
721006.28431871545
 20
3415727.3470662651
 30
0.06
  0
VERTEX
  5
677
  8
SHIJIAHE
 10
721110.77785938245
 20
3415742.880680515
 30
0.06
  0
VERTEX
  5
678
  8
SHIJIAHE
 10
721112.18925716751
 20
3415671.4697021712
 30
0.06
  0
VERTEX
  5
679
  8
SHIJIAHE
 10
721004.70718434826
 20
3415660.1943639489
 30
0.06
  0
SEQEND
  5
67A
  8
SHIJIAHE
  0
POLYLINE
  5
EC
  8
SHIJIAHE
 66
     1
 10
0.0
 20
0.0
 30
0.06
 70
     1
1001
ADE
1011
-17.499480238300752
1021
0.0
1031
-0.0
1021
-9.7970515037886816
1031
0.0
1001
IRD
1002
{
1000
TPMLINK_Unit_topology-_-ade
1070
   515
1071
        5
1004
01008A040000F1000000F100000000000000EEC2D869B4757540EEC2D869B4757540000000009C020000
1002
}
1001
DCO15
1071
        5
1071
        5
1000
unitlink
1004
074331333400
1071
        4
1000
Link
1004
074331333400
  0
VERTEX
  5
67B
  8
SHIJIAHE
 10
721319.96627702191
 20
3415470.9975363282
 30
0.06
  0
VERTEX
  5
67C
  8
SHIJIAHE
 10
721393.55469535664
 20
3415493.4150258699
 30
0.06
  0
VERTEX
  5
67D
  8
SHIJIAHE
 10
721392.66546002042
 20
3415386.6351457811
 30
0.06
  0
VERTEX
  5
67E
  8
SHIJIAHE
 10
721317.44957324874
 20
3415386.6052158861
 30
0.06
  0
VERTEX
  5
67F
  8
SHIJIAHE
 10
721319.96627702191
 20
3415470.9975363282
 30
0.06
  0
SEQEND
  5
680
  8
SHIJIAHE
  0
POLYLINE
  5
ED
  8
SHIJIAHE
 66
     1
 10
0.0
 20
0.0
 30
0.6885245901639344
 70
     1
1001
ADE
1011
-16.803192192921411
1021
0.0
1031
-0.0
1021
4.3797409455291909
1031
0.0
1001
IRD
1002
{
1000
TPMLINK_Unit_topology-_-ade
1070
   515
1071
        5
1004
01008B040000F2000000F200000000000000F8115DF679DA7540F8115DF679DA75409B02000000000000
1002
}
1001
DCO15
1071
        5
1071
        5
1000
unitlink
1004
074331343300
1071
        4
1000
Link
1004
074331343300
  0
VERTEX
  5
681
  8
SHIJIAHE
 10
721221.34504515701
 20
3415439.2020137799
 30
0.6885245901639344
  0
VERTEX
  5
682
  8
SHIJIAHE
 10
721221.98261011392
 20
3415354.9992493242
 30
0.6885245901639344
  0
VERTEX
  5
683
  8
SHIJIAHE
 10
721310.06724218302
 20
3415355.9370526238
 30
0.6885245901639344
  0
VERTEX
  5
684
  8
SHIJIAHE
 10
721316.4596697652
 20
3415437.925005028
 30
0.6885245901639344
  0
VERTEX
  5
685
  8
SHIJIAHE
 10
721221.34504515701
 20
3415439.2020137799
 30
0.6885245901639344
  0
SEQEND
  5
686
  8
SHIJIAHE
  0
POLYLINE
  5
EE
  8
SHIJIAHE
 66
     1
 10
0.0
 20
0.0
 30
0.02
 70
     1
1001
ADE
1011
-9.5131402631523052
1021
0.0
1031
-0.0
1021
1.28199706505984
1031
0.0
1001
IRD
1002
{
1000
TPMLINK_Unit_topology-_-ade
1070
   515
1071
        5
1004
01008F040000050100000501000000000000ECF2D5BA62547440ECF2D5BA62547440000000008E020000
1002
}
1001
DCO15
1071
        5
1071
        5
1000
unitlink
1004
074331333800
1071
        4
1000
Link
1004
074331333800
  0
VERTEX
  5
687
  8
SHIJIAHE
 10
721249.07882195583
 20
3415163.227957793
 30
0.02
  0
VERTEX
  5
688
  8
SHIJIAHE
 10
721319.34549009067
 20
3415169.3840321819
 30
0.02
  0
VERTEX
  5
689
  8
SHIJIAHE
 10
721318.47303278383
 20
3415079.2950555198
 30
0.02
  0
VERTEX
  5
68A
  8
SHIJIAHE
 10
721248.13955133024
 20
3415069.5877936929
 30
0.02
  0
VERTEX
  5
68B
  8
SHIJIAHE
 10
721249.07882195583
 20
3415163.227957793
 30
0.02
  0
SEQEND
  5
68C
  8
SHIJIAHE
  0
POLYLINE
  5
EF
  8
SHIJIAHE
 66
     1
 10
0.0
 20
0.0
 30
0.0133333333333333
 70
     1
1001
ADE
1011
-16.543132804450579
1021
0.0
1031
-0.0
1021
-3.2872998681850718
1031
0.0
1001
IRD
1002
{
1000
TPMLINK_Unit_topology-_-ade
1070
   515
1071
        5
1004
010090040000060100000601000000000000AA6287DE90A47640AA6287DE90A476408D02000000000000
1002
}
1001
DCO15
1071
        5
1071
        5
1000
unitlink
1004
074331333900
1071
        4
1000
Link
1004
074331333900
  0
VERTEX
  5
68D
  8
SHIJIAHE
 10
721152.89070252341
 20
3415158.6691306392
 30
0.0133333333333333
  0
VERTEX
  5
68E
  8
SHIJIAHE
 10
721156.78320435807
 20
3415070.395900792
 30
0.0133333333333333
  0
VERTEX
  5
68F
  8
SHIJIAHE
 10
721245.27050903055
 20
3415071.3736106162
 30
0.0133333333333333
  0
VERTEX
  5
690
  8
SHIJIAHE
 10
721246.57919499266
 20
3415163.008965062
 30
0.0133333333333333
  0
VERTEX
  5
691
  8
SHIJIAHE
 10
721152.89070252341
 20
3415158.6691306392
 30
0.0133333333333333
  0
SEQEND
  5
692
  8
SHIJIAHE
  0
POLYLINE
  5
F0
  8
SHIJIAHE
 66
     1
 10
0.0
 20
0.0
 30
0.0277777777777778
 70
     1
1001
ADE
1011
-17.13036368240137
1021
0.0
1031
-0.0
1021
-5.237731202505528
1031
0.0
1001
IRD
1002
{
1000
TPMLINK_Unit_topology-_-ade
1070
   515
1071
        5
1004
010091040000240100002401000000000000FD9105F6ED117640FD9105F6ED1176408C02000000000000
1002
}
1001
DCO15
1071
        5
1071
        5
1000
unitlink
1004
074331343000
1071
        4
1000
Link
1004
074331343000
  0
VERTEX
  5
693
  8
SHIJIAHE
 10
721158.71267725155
 20
3414976.2464353722
 30
0.0277777777777778
  0
VERTEX
  5
694
  8
SHIJIAHE
 10
721245.18661890551
 20
3414980.725942628
 30
0.0277777777777778
  0
VERTEX
  5
695
  8
SHIJIAHE
 10
721247.43487427384
 20
3415068.211018635
 30
0.0277777777777778
  0
VERTEX
  5
696
  8
SHIJIAHE
 10
721158.71267725155
 20
3415066.5249680202
 30
0.0277777777777778
  0
VERTEX
  5
697
  8
SHIJIAHE
 10
721158.71267725155
 20
3414976.2464353722
 30
0.0277777777777778
  0
SEQEND
  5
698
  8
SHIJIAHE
  0
POLYLINE
  5
F1
  8
SHIJIAHE
 66
     1
 10
0.0
 20
0.0
 30
0.1
 70
     1
1001
ADE
1011
-26.56800283503253
1021
0.0
1031
-0.0
1021
0.364147026091814
1031
0.0
1001
IRD
1002
{
1000
TPMLINK_Unit_topology-_-ade
1070
   515
1071
        5
1004
0100930400002601000026010000000000004287261DF76A79404287261DF76A79408902000000000000
1002
}
1001
DCO15
1071
        5
1071
        5
1000
unitlink
1004
074331353400
1071
        4
1000
Link
1004
074331353400
  0
VERTEX
  5
699
  8
SHIJIAHE
 10
720934.50792709738
 20
3414961.4909983301
 30
0.1
  0
VERTEX
  5
69A
  8
SHIJIAHE
 10
721035.05863185599
 20
3414964.0350391981
 30
0.1
  0
VERTEX
  5
69B
  8
SHIJIAHE
 10
721038.8840215914
 20
3415062.5642455691
 30
0.1
  0
VERTEX
  5
69C
  8
SHIJIAHE
 10
720930.04497240845
 20
3415060.0202047001
 30
0.1
  0
VERTEX
  5
69D
  8
SHIJIAHE
 10
720934.50792709738
 20
3414961.4909983301
 30
0.1
  0
SEQEND
  5
69E
  8
SHIJIAHE
  0
POLYLINE
  5
F2
  8
SHIJIAHE
 66
     1
 10
0.0
 20
0.0
 30
0.0446428571428572
 70
     1
1001
ADE
1011
-16.746783194597811
1021
0.0
1031
-0.0
1021
5.7151486203074437
1031
0.0
1001
IRD
1002
{
1000
TPMLINK_Unit_topology-_-ade
1070
   515
1071
        5
1004
01009404000016010000160100000000000002D9BFC44A1A744002D9BFC44A1A74400000000088020000
1002
}
1001
DCO15
1071
        5
1071
        5
1000
unitlink
1004
074331343100
1071
        4
1000
Link
1004
074331343100
  0
VERTEX
  5
69F
  8
SHIJIAHE
 10
720840.36114541464
 20
3415067.5777200512
 30
0.0446428571428572
  0
VERTEX
  5
6A0
  8
SHIJIAHE
 10
720905.53227765486
 20
3415059.2819340159
 30
0.0446428571428572
  0
VERTEX
  5
6A1
  8
SHIJIAHE
 10
720904.7940445469
 20
3414973.6924178712
 30
0.0446428571428572
  0
VERTEX
  5
6A2
  8
SHIJIAHE
 10
720849.10750554444
 20
3414972.3620691248
 30
0.0446428571428572
  0
VERTEX
  5
6A3
  8
SHIJIAHE
 10
720860.69311694754
 20
3415008.3526708018
 30
0.0446428571428572
  0
VERTEX
  5
6A4
  8
SHIJIAHE
 10
720837.79325178347
 20
3415014.5117501882
 30
0.0446428571428572
  0
VERTEX
  5
6A5
  8
SHIJIAHE
 10
720840.36114541464
 20
3415067.5777200512
 30
0.0446428571428572
  0
SEQEND
  5
6A6
  8
SHIJIAHE
  0
POLYLINE
  5
F3
  8
SHIJIAHE
 66
     1
 10
0.0
 20
0.0
 30
0.06
 70
     1
1001
ADE
1011
-33.312768947216682
1021
0.0
1031
-0.0
1021
-2.3046017303131521
1031
0.0
1001
IRD
1002
{
1000
TPMLINK_Unit_topology-_-ade
1070
   515
1071
        5
1004
010096040000340100003401000000000000F065313856AD7840F065313856AD78400000000081020000
1002
}
1001
DCO15
1071
        5
1071
        5
1000
unitlink
1004
074132343600
1071
        4
1000
Link
1004
074132343600
  0
VERTEX
  5
6A7
  8
SHIJIAHE
 10
721913.75736530498
 20
3414860.4676342462
 30
0.06
  0
VERTEX
  5
6A8
  8
SHIJIAHE
 10
721912.31445514015
 20
3414949.9480364248
 30
0.06
  0
VERTEX
  5
6A9
  8
SHIJIAHE
 10
722014.91207896546
 20
3414957.1611405369
 30
0.06
  0
VERTEX
  5
6AA
  8
SHIJIAHE
 10
722012.02625863999
 20
3414853.244553504
 30
0.06
  0
VERTEX
  5
6AB
  8
SHIJIAHE
 10
721913.75736530498
 20
3414860.4676342462
 30
0.06
  0
SEQEND
  5
6AC
  8
SHIJIAHE
  0
POLYLINE
  5
F4
  8
SHIJIAHE
 66
     1
 10
0.0
 20
0.0
 30
2.299999999999998
 70
     1
1001
ADE
1011
-34.529175769421272
1021
0.0
1031
-0.0
1021
-0.6784108984284103
1031
0.0
1001
IRD
1002
{
1000
TPMLINK_Unit_topology-_-ade
1070
   515
1071
        5
1004
010097040000440100004401000000000000A4CDF5B596FC7840A4CDF5B596FC78408202000000000000
1002
}
1001
DCO15
1071
        5
1071
        5
1000
unitlink
1004
074132343700
1071
        4
1000
Link
1004
074132343700
  0
VERTEX
  5
6AD
  8
SHIJIAHE
 10
721590.44482055656
 20
3414741.7756569092
 30
2.299999999999998
  0
VERTEX
  5
6AE
  8
SHIJIAHE
 10
721694.33435231808
 20
3414743.2222683839
 30
2.299999999999998
  0
VERTEX
  5
6AF
  8
SHIJIAHE
 10
721688.19359511137
 20
3414842.6793014221
 30
2.299999999999998
  0
VERTEX
  5
6B0
  8
SHIJIAHE
 10
721591.85417466995
 20
3414841.6616850742
 30
2.299999999999998
  0
VERTEX
  5
6B1
  8
SHIJIAHE
 10
721590.44482055656
 20
3414741.7756569092
 30
2.299999999999998
  0
SEQEND
  5
6B2
  8
SHIJIAHE
  0
POLYLINE
  5
F5
  8
SHIJIAHE
 66
     1
 10
0.0
 20
0.0
 30
2.5
 70
     1
1001
ADE
1011
-33.715441551059492
1021
0.0
1031
-0.0
1021
0.5886212205514312
1031
0.0
1001
IRD
1002
{
1000
TPMLINK_Unit_topology-_-ade
1070
   515
1071
        5
1004
010098040000580100005801000000000000F30DE7021E817740F30DE7021E8177408302000000000000
1002
}
1001
DCO15
1071
        5
1071
        5
1000
unitlink
1004
074132343800
1071
        4
1000
Link
1004
074132343800
  0
VERTEX
  5
6B3
  8
SHIJIAHE
 10
721597.17280864343
 20
3414640.8121526092
 30
2.5
  0
VERTEX
  5
6B4
  8
SHIJIAHE
 10
721695.49203605566
 20
3414642.4483200712
 30
2.5
  0
VERTEX
  5
6B5
  8
SHIJIAHE
 10
721695.13969752565
 20
3414730.6816433929
 30
2.5
  0
VERTEX
  5
6B6
  8
SHIJIAHE
 10
721596.45135356113
 20
3414731.619446693
 30
2.5
  0
VERTEX
  5
6B7
  8
SHIJIAHE
 10
721597.17280864343
 20
3414640.8121526092
 30
2.5
  0
SEQEND
  5
6B8
  8
SHIJIAHE
  0
POLYLINE
  5
F6
  8
SHIJIAHE
 66
     1
 10
0.0
 20
0.0
 30
0.1
 70
     1
1001
ADE
1011
-14.4241443403298
1021
0.0
1031
-0.0
1021
1.331476780120282
1031
0.0
1001
IRD
1002
{
1000
TPMLINK_Unit_topology-_-ade
1070
   515
1071
        5
1004
0100990400005A0100005A01000000000000AAF6F70270D47840AAF6F70270D478400000000081030000
1002
}
1001
DCO15
1071
        5
1071
        5
1000
unitlink
1004
074132353200
1071
        4
1000
Link
1004
074132353200
  0
VERTEX
  5
6B9
  8
SHIJIAHE
 10
721600.09218502056
 20
3414632.1324837641
 30
0.1
  0
VERTEX
  5
6BA
  8
SHIJIAHE
 10
721748.86293407541
 20
3414640.9817553349
 30
0.1
  0
VERTEX
  5
6BB
  8
SHIJIAHE
 10
721756.22848711908
 20
3414587.9858922092
 30
0.1
  0
VERTEX
  5
6BC
  8
SHIJIAHE
 10
721601.95454581454
 20
3414591.7570586731
 30
0.1
  0
VERTEX
  5
6BD
  8
SHIJIAHE
 10
721600.09218502056
 20
3414632.1324837641
 30
0.1
  0
SEQEND
  5
6BE
  8
SHIJIAHE
  0
POLYLINE
  5
F7
  8
SHIJIAHE
 66
     1
 10
0.0
 20
0.0
 30
0.6
 70
     1
1001
ADE
1011
-28.413585599511858
1021
0.0
1031
-0.0
1021
-0.7582239448092878
1031
0.0
1001
IRD
1002
{
1000
TPMLINK_Unit_topology-_-ade
1070
   515
1071
        5
1004
01009A04000078010000780100000000000088CE2153B7D9744088CE2153B7D974400000000084020000
1002
}
1001
DCO15
1071
        5
1071
        5
1000
unitlink
1004
074132343900
1071
        4
1000
Link
1004
074132343900
  0
VERTEX
  5
6BF
  8
SHIJIAHE
 10
721774.8688730672
 20
3414495.7319866498
 30
0.6
  0
VERTEX
  5
6C0
  8
SHIJIAHE
 10
721773.14073647559
 20
3414592.7646983899
 30
0.6
  0
VERTEX
  5
6C1
  8
SHIJIAHE
 10
721847.95395064342
 20
3414590.1907276288
 30
0.6
  0
VERTEX
  5
6C2
  8
SHIJIAHE
 10
721847.08149333659
 20
3414500.889904805
 30
0.6
  0
VERTEX
  5
6C3
  8
SHIJIAHE
 10
721774.8688730672
 20
3414495.7319866498
 30
0.6
  0
SEQEND
  5
6C4
  8
SHIJIAHE
  0
POLYLINE
  5
F8
  8
SHIJIAHE
 66
     1
 10
0.0
 20
0.0
 30
0.1
 70
     1
1001
ADE
1011
-26.794506171834659
1021
0.0
1031
-0.0
1021
1.8506650258786961
1031
0.0
1001
IRD
1002
{
1000
TPMLINK_Unit_topology-_-ade
1070
   515
1071
        5
1004
01009E040000350100003501000000000000FA9CE762300E7E40FA9CE762300E7E407102000000000000
1002
}
1001
DCO15
1071
        5
1071
        5
1000
unitlink
1004
074132323800
1071
        4
1000
Link
1004
074132323800
  0
VERTEX
  5
6C5
  8
SHIJIAHE
 10
721408.85625429824
 20
3414834.1792119299
 30
0.1
  0
VERTEX
  5
6C6
  8
SHIJIAHE
 10
721519.62477637455
 20
3414842.5994883762
 30
0.1
  0
VERTEX
  5
6C7
  8
SHIJIAHE
 10
721519.62477637455
 20
3414965.2621647939
 30
0.1
  0
VERTEX
  5
6C8
  8
SHIJIAHE
 10
721399.22566785652
 20
3414960.4534287192
 30
0.1
  0
VERTEX
  5
6C9
  8
SHIJIAHE
 10
721408.85625429824
 20
3414834.1792119299
 30
0.1
  0
SEQEND
  5
6CA
  8
SHIJIAHE
  0
POLYLINE
  5
F9
  8
SHIJIAHE
 66
     1
 10
0.0
 20
0.0
 30
0.3
 70
     1
1001
ADE
1011
-48.79888616502285
1021
0.0
1031
-0.0
1021
-6.8090505609288812
1031
0.0
1001
IRD
1002
{
1000
TPMLINK_Unit_topology-_-ade
1070
   515
1071
        5
1004
0100A004000061010000610100000000000001FB3362138F7C4001FB3362138F7C400000000073020000
1002
}
1001
DCO15
1071
        5
1071
        5
1000
unitlink
1004
074132333000
1071
        4
1000
Link
1004
074132333000
  0
VERTEX
  5
6CB
  8
SHIJIAHE
 10
721410.24883038551
 20
3414580.174190246
 30
0.3
  0
VERTEX
  5
6CC
  8
SHIJIAHE
 10
721407.69857056066
 20
3414691.0345123559
 30
0.3
  0
VERTEX
  5
6CD
  8
SHIJIAHE
 10
721523.80250463623
 20
3414691.8825259809
 30
0.3
  0
VERTEX
  5
6CE
  8
SHIJIAHE
 10
721532.34251944348
 20
3414584.4441882521
 30
0.3
  0
VERTEX
  5
6CF
  8
SHIJIAHE
 10
721410.24883038551
 20
3414580.174190246
 30
0.3
  0
SEQEND
  5
6D0
  8
SHIJIAHE
  0
POLYLINE
  5
FA
  8
SHIJIAHE
 66
     1
 10
0.0
 20
0.0
 30
0.0227272727272727
 70
     1
1001
ADE
1011
-18.25449136854149
1021
0.0
1031
-0.0
1021
-1.7409220845438531
1031
0.0
1001
IRD
1002
{
1000
TPMLINK_Unit_topology-_-ade
1070
   515
1071
        5
1004
0100A70400002A0100002A01000000000000F68411B096517440F68411B096517440000000006E020000
1002
}
1001
DCO15
1071
        5
1071
        5
1000
unitlink
1004
074132323500
1071
        4
1000
Link
1004
074132323500
  0
VERTEX
  5
6D1
  8
SHIJIAHE
 10
721291.44363425684
 20
3414956.4128932208
 30
0.0227272727272727
  0
VERTEX
  5
6D2
  8
SHIJIAHE
 10
721322.28164449346
 20
3414961.680554315
 30
0.0227272727272727
  0
VERTEX
  5
6D3
  8
SHIJIAHE
 10
721370.43457669031
 20
3414949.6587141319
 30
0.0227272727272727
  0
VERTEX
  5
6D4
  8
SHIJIAHE
 10
721374.19285432633
 20
3414869.6361580039
 30
0.0227272727272727
  0
VERTEX
  5
6D5
  8
SHIJIAHE
 10
721298.03739814425
 20
3414868.7482378581
 30
0.0227272727272727
  0
VERTEX
  5
6D6
  8
SHIJIAHE
 10
721291.44363425684
 20
3414956.4128932208
 30
0.0227272727272727
  0
SEQEND
  5
6D7
  8
SHIJIAHE
  0
POLYLINE
  5
FB
  8
SHIJIAHE
 66
     1
 10
0.0
 20
0.0
 30
0.1
 70
     1
1001
ADE
1011
-20.98930946923792
1021
0.0
1031
-0.0
1021
1.5613427292555571
1031
0.0
1001
IRD
1002
{
1000
TPMLINK_Unit_topology-_-ade
1070
   515
1071
        5
1004
0100AC0400006201000062010000000000003F8809C5A9A275403F8809C5A9A275400000000067020000
1002
}
1001
DCO15
1071
        5
1071
        5
1000
unitlink
1004
074132313400
1071
        4
1000
Link
1004
074132313400
  0
VERTEX
  5
6D8
  8
SHIJIAHE
 10
721300.18498536584
 20
3414580.0045875199
 30
0.1
  0
VERTEX
  5
6D9
  8
SHIJIAHE
 10
721301.47689330205
 20
3414659.4085925319
 30
0.1
  0
VERTEX
  5
6DA
  8
SHIJIAHE
 10
721390.97087948013
 20
3414668.6669059689
 30
0.1
  0
VERTEX
  5
6DB
  8
SHIJIAHE
 10
721391.52455431235
 20
3414583.286899073
 30
0.1
  0
VERTEX
  5
6DC
  8
SHIJIAHE
 10
721300.18498536584
 20
3414580.0045875199
 30
0.1
  0
SEQEND
  5
6DD
  8
SHIJIAHE
  0
POLYLINE
  5
FC
  8
SHIJIAHE
 66
     1
 10
0.0
 20
0.0
 30
0.0675675675675676
 70
     1
1001
ADE
1011
-44.176540236803689
1021
0.0
1031
-0.0
1021
10.9742939453572
1031
0.0
1001
IRD
1002
{
1000
TPMLINK_Unit_topology-_-ade
1070
   515
1071
        5
1004
0100B1040000B8010000B80100000000000017B2D027E29E7C4017B2D027E29E7C407802000000000000
1002
}
1001
DCO15
1071
        5
1071
        5
1000
unitlink
1004
074132333500
1071
        4
1000
Link
1004
074132333500
  0
VERTEX
  5
6DE
  8
SHIJIAHE
 10
721267.71950668842
 20
3414144.843902688
 30
0.0675675675675676
  0
VERTEX
  5
6DF
  8
SHIJIAHE
 10
721382.54831085366
 20
3414147.0786680002
 30
0.0675675675675676
  0
VERTEX
  5
6E0
  8
SHIJIAHE
 10
721384.7965662257
 20
3414259.6948771421
 30
0.0675675675675676
  0
VERTEX
  5
6E1
  8
SHIJIAHE
 10
721268.79330029711
 20
3414259.2758586458
 30
0.0675675675675676
  0
VERTEX
  5
6E2
  8
SHIJIAHE
 10
721267.71950668842
 20
3414144.843902688
 30
0.0675675675675676
  0
SEQEND
  5
6E3
  8
SHIJIAHE
  0
POLYLINE
  5
FD
  8
SHIJIAHE
 66
     1
 10
0.0
 20
0.0
 30
0.1
 70
     1
1001
ADE
1011
-40.183370249345899
1021
0.0
1031
-0.0
1021
3.6564352107234281
1031
0.0
1001
IRD
1002
{
1000
TPMLINK_Unit_topology-_-ade
1070
   515
1071
        5
1004
0100B2040000BE010000BE0100000000000022CF26A569227D4022CF26A569227D407902000000000000
1002
}
1001
DCO15
1071
        5
1071
        5
1000
unitlink
1004
074132333600
1071
        4
1000
Link
1004
074132333600
  0
VERTEX
  5
6E4
  8
SHIJIAHE
 10
721267.45105828706
 20
3414018.1805972941
 30
0.1
  0
VERTEX
  5
6E5
  8
SHIJIAHE
 10
721382.06174812454
 20
3414011.3964883089
 30
0.1
  0
VERTEX
  5
6E6
  8
SHIJIAHE
 10
721381.6087414436
 20
3414132.0837918171
 30
0.1
  0
VERTEX
  5
6E7
  8
SHIJIAHE
 10
721265.32024909183
 20
3414132.522763575
 30
0.1
  0
VERTEX
  5
6E8
  8
SHIJIAHE
 10
721267.45105828706
 20
3414018.1805972941
 30
0.1
  0
SEQEND
  5
6E9
  8
SHIJIAHE
  0
POLYLINE
  5
FE
  8
SHIJIAHE
 66
     1
 10
0.0
 20
0.0
 30
0.1
 70
     1
1001
ADE
1011
-26.571954802260741
1021
0.0
1031
-0.0
1021
-6.0159084107726812
1031
0.0
1001
IRD
1002
{
1000
TPMLINK_Unit_topology-_-ade
1070
   515
1071
        5
1004
0100BA040000BD010000BD0100000000000064E0E1FA7B8D764064E0E1FA7B8D7640000000007A020000
1002
}
1001
DCO15
1071
        5
1071
        5
1000
unitlink
1004
074132333700
1071
        4
1000
Link
1004
074132333700
  0
VERTEX
  5
6EA
  8
SHIJIAHE
 10
721143.0163496444
 20
3414073.327202417
 30
0.1
  0
VERTEX
  5
6EB
  8
SHIJIAHE
 10
721253.29040505365
 20
3414079.8661058992
 30
0.1
  0
VERTEX
  5
6EC
  8
SHIJIAHE
 10
721260.63918007177
 20
3414007.0766071482
 30
0.1
  0
VERTEX
  5
6ED
  8
SHIJIAHE
 10
721145.63771364535
 20
3414011.2439750531
 30
0.1
  0
VERTEX
  5
6EE
  8
SHIJIAHE
 10
721143.0163496444
 20
3414073.327202417
 30
0.1
  0
SEQEND
  5
6EF
  8
SHIJIAHE
  0
POLYLINE
  5
FF
  8
SHIJIAHE
 66
     1
 10
0.0
 20
0.0
 30
0.01
 70
     1
1001
ADE
1011
-22.54966580867767
1021
0.0
1031
-0.0
1021
-3.3371830238029361
1031
0.0
1001
IRD
1002
{
1000
TPMLINK_Unit_topology-_-ade
1070
   515
1071
        5
1004
0100BF040000A0010000A001000000000000A4A0DFC2F5677140A4A0DFC2F56771400000000049020000
1002
}
1001
DCO15
1071
        5
1071
        5
1000
unitlink
1004
074131383400
1071
        4
1000
Link
1004
074131383400
  0
VERTEX
  5
6F0
  8
SHIJIAHE
 10
721077.00369474653
 20
3414314.3468609918
 30
0.01
  0
VERTEX
  5
6F1
  8
SHIJIAHE
 10
721081.24853510794
 20
3414366.9835654069
 30
0.01
  0
VERTEX
  5
6F2
  8
SHIJIAHE
 10
721169.04794074979
 20
3414368.0710181701
 30
0.01
  0
VERTEX
  5
6F3
  8
SHIJIAHE
 10
721161.36360522732
 20
3414315.1050849371
 30
0.01
  0
VERTEX
  5
6F4
  8
SHIJIAHE
 10
721077.00369474653
 20
3414314.3468609918
 30
0.01
  0
SEQEND
  5
6F5
  8
SHIJIAHE
  0
POLYLINE
  5
100
  8
SHIJIAHE
 66
     1
 10
0.0
 20
0.0
 30
0.3
 70
     1
1001
ADE
1011
-29.520935261272829
1021
0.0
1031
-0.0
1021
9.9417126523330808
1031
0.0
1001
IRD
1002
{
1000
TPMLINK_Unit_topology-_-ade
1070
   515
1071
        5
1004
0100D3040000B1010000B10100000000000037C910EC49D0764037C910EC49D076403902000000000000
1002
}
1001
DCO15
1071
        5
1071
        5
1000
unitlink
1004
074131363800
1071
        4
1000
Link
1004
074131363800
  0
VERTEX
  5
6F6
  8
SHIJIAHE
 10
720835.21557422716
 20
3414221.8634929219
 30
0.3
  0
VERTEX
  5
6F7
  8
SHIJIAHE
 10
720926.72292342782
 20
3414202.2594132829
 30
0.3
  0
VERTEX
  5
6F8
  8
SHIJIAHE
 10
720937.94742225471
 20
3414303.4124735682
 30
0.3
  0
VERTEX
  5
6F9
  8
SHIJIAHE
 10
720849.32589338347
 20
3414301.6466099061
 30
0.3
  0
VERTEX
  5
6FA
  8
SHIJIAHE
 10
720835.21557422716
 20
3414221.8634929219
 30
0.3
  0
SEQEND
  5
6FB
  8
SHIJIAHE
  0
POLYLINE
  5
101
  8
SHIJIAHE
 66
     1
 10
0.0
 20
0.0
 30
0.0133333333333333
 70
     1
1001
ADE
1011
-40.846102241426713
1021
0.0
1031
-0.0
1021
7.0073076812550408
1031
0.0
1001
IRD
1002
{
1000
TPMLINK_Unit_topology-_-ade
1070
   515
1071
        5
1004
0100E8040000AA010000AA0100000000000020F04789BBAB7E4020F04789BBAB7E403602000000000000
1002
}
1001
DCO15
1071
        5
1071
        5
1000
unitlink
1004
074132353300
1071
        4
1000
Link
1004
074132353300
  0
VERTEX
  5
6FC
  8
SHIJIAHE
 10
720528.30485032802
 20
3414268.0378915351
 30
0.0133333333333333
  0
VERTEX
  5
6FD
  8
SHIJIAHE
 10
720520.84571688622
 20
3414209.5423538121
 30
0.0133333333333333
  0
VERTEX
  5
6FE
  8
SHIJIAHE
 10
720695.57207085926
 20
3414149.3832697282
 30
0.0133333333333333
  0
VERTEX
  5
6FF
  8
SHIJIAHE
 10
720709.51460976165
 20
3414201.471259445
 30
0.0133333333333333
  0
VERTEX
  5
700
  8
SHIJIAHE
 10
720528.30485032802
 20
3414268.0378915351
 30
0.0133333333333333
  0
SEQEND
  5
701
  8
SHIJIAHE
  0
POLYLINE
  5
102
  8
SHIJIAHE
 66
     1
 10
0.0
 20
0.0
 30
0.03
 70
     1
1001
ADE
1011
-19.323178071645081
1021
0.0
1031
-0.0
1021
4.6703320839442313
1031
0.0
1001
IRD
1002
{
1000
TPMLINK_Unit_topology-_-ade
1070
   515
1071
        5
1004
0100ED040000E8000000E80000000000000086597439435C744086597439435C74403102000000000000
1002
}
1001
DCO15
1071
        5
1071
        5
1000
unitlink
1004
074231323300
1071
        4
1000
Link
1004
074231323300
  0
VERTEX
  5
702
  8
SHIJIAHE
 10
721143.86386876192
 20
3416139.8016378041
 30
0.03
  0
VERTEX
  5
703
  8
SHIJIAHE
 10
721132.14005820081
 20
3416106.0303054638
 30
0.03
  0
VERTEX
  5
704
  8
SHIJIAHE
 10
721129.81802923966
 20
3416060.3576786071
 30
0.03
  0
VERTEX
  5
705
  8
SHIJIAHE
 10
721138.99247933156
 20
3416054.9304306339
 30
0.03
  0
VERTEX
  5
706
  8
SHIJIAHE
 10
721211.88470315945
 20
3416055.9852815019
 30
0.03
  0
VERTEX
  5
707
  8
SHIJIAHE
 10
721220.40963466093
 20
3416070.4713632572
 30
0.03
  0
VERTEX
  5
708
  8
SHIJIAHE
 10
721221.91976538301
 20
3416132.8364011631
 30
0.03
  0
VERTEX
  5
709
  8
SHIJIAHE
 10
721217.16204170883
 20
3416139.560068903
 30
0.03
  0
VERTEX
  5
70A
  8
SHIJIAHE
 10
721143.86386876192
 20
3416139.8016378041
 30
0.03
  0
SEQEND
  5
70B
  8
SHIJIAHE
  0
POLYLINE
  5
103
  8
SHIJIAHE
 66
     1
 10
0.0
 20
0.0
 30
0.03
 70
     1
1001
ADE
1011
-28.692483739810999
1021
0.0
1031
-0.0
1021
3.0397420017980021
1031
0.0
1001
IRD
1002
{
1000
TPMLINK_Unit_topology-_-ade
1070
   515
1071
        5
1004
0100EE040000E7000000E70000000000000068EBEAA31FB6744068EBEAA31FB674400000000030020000
1002
}
1001
DCO15
1071
        5
1071
        5
1000
unitlink
1004
074231333000
1071
        4
1000
Link
1004
074231333000
  0
VERTEX
  5
70C
  8
SHIJIAHE
 10
719723.22056945786
 20
3416267.631847844
 30
0.03
  0
VERTEX
  5
70D
  8
SHIJIAHE
 10
719715.3613945134
 20
3416345.1674127248
 30
0.03
  0
VERTEX
  5
70E
  8
SHIJIAHE
 10
719794.00185786944
 20
3416342.856403573
 30
0.03
  0
VERTEX
  5
70F
  8
SHIJIAHE
 10
719810.9542930834
 20
3416297.1596198268
 30
0.03
  0
VERTEX
  5
710
  8
SHIJIAHE
 10
719815.06249816716
 20
3416263.3158168159
 30
0.03
  0
VERTEX
  5
711
  8
SHIJIAHE
 10
719723.22056945786
 20
3416267.631847844
 30
0.03
  0
SEQEND
  5
712
  8
SHIJIAHE
  0
POLYLINE
  5
104
  8
SHIJIAHE
 66
     1
 10
0.0
 20
0.0
 30
1.5
 70
     1
1001
ADE
1011
-17.082338931038962
1021
0.0
1031
-0.0
1021
-5.1574960341677052
1031
0.0
1001
IRD
1002
{
1000
TPMLINK_Unit_topology-_-ade
1070
   515
1071
        5
1004
0100F00400006B0100006B01000000000000F506436BBFC46B40F506436BBFC46B40000000002B020000
1002
}
1001
DCO15
1071
        5
1071
        5
1000
unitlink
1004
074332323400
1071
        4
1000
Link
1004
074332323400
  0
VERTEX
  5
713
  8
SHIJIAHE
 10
720547.80065817782
 20
3414520.066052923
 30
1.5
  0
VERTEX
  5
714
  8
SHIJIAHE
 10
720504.85124137253
 20
3414521.6201461852
 30
1.5
  0
VERTEX
  5
715
  8
SHIJIAHE
 10
720504.85124137253
 20
3414540.3578405962
 30
1.5
  0
VERTEX
  5
716
  8
SHIJIAHE
 10
720509.02247121476
 20
3414591.495095097
 30
1.5
  0
VERTEX
  5
717
  8
SHIJIAHE
 10
720545.21882177889
 20
3414592.4159387308
 30
1.5
  0
VERTEX
  5
718
  8
SHIJIAHE
 10
720543.62750123057
 20
3414555.1901711081
 30
1.5
  0
VERTEX
  5
719
  8
SHIJIAHE
 10
720548.72622216865
 20
3414528.5692782318
 30
1.5
  0
VERTEX
  5
71A
  8
SHIJIAHE
 10
720547.80065817782
 20
3414520.066052923
 30
1.5
  0
SEQEND
  5
71B
  8
SHIJIAHE
  0
POLYLINE
  5
105
  8
SHIJIAHE
 66
     1
 10
0.0
 20
0.0
 30
0.7912621359223301
 70
     1
1001
ADE
1011
0.089308807742782
1021
0.0
1031
-0.0
1021
-0.2254643091000616
1031
0.0
1001
IRD
1002
{
1000
TPMLINK_Unit_topology-_-ade
1070
   515
1071
        5
1004
0100F10400007A0100007A01000000000000A65ECD9FD5B97040A65ECD9FD5B97040000000002A020000
1002
}
1001
DCO15
1071
        5
1071
        5
1000
unitlink
1004
074332323500
1071
        4
1000
Link
1004
074332323500
  0
VERTEX
  5
71C
  8
SHIJIAHE
 10
720506.23866397282
 20
3414486.0850153249
 30
0.7912621359223301
  0
VERTEX
  5
71D
  8
SHIJIAHE
 10
720506.16651651997
 20
3414519.4218691872
 30
0.7912621359223301
  0
VERTEX
  5
71E
  8
SHIJIAHE
 10
720549.87911766768
 20
3414517.4168473091
 30
0.7912621359223301
  0
VERTEX
  5
71F
  8
SHIJIAHE
 10
720553.71127735102
 20
3414488.34805624
 30
0.7912621359223301
  0
VERTEX
  5
720
  8
SHIJIAHE
 10
720556.61787304282
 20
3414460.0522856512
 30
0.7912621359223301
  0
VERTEX
  5
721
  8
SHIJIAHE
 10
720533.15401395794
 20
3414457.8459563572
 30
0.7912621359223301
  0
VERTEX
  5
722
  8
SHIJIAHE
 10
720506.45879988733
 20
3414459.2228990928
 30
0.7912621359223301
  0
VERTEX
  5
723
  8
SHIJIAHE
 10
720499.05428795144
 20
3414454.7780313161
 30
0.7912621359223301
  0
VERTEX
  5
724
  8
SHIJIAHE
 10
720484.74864099536
 20
3414475.6898458339
 30
0.7912621359223301
  0
VERTEX
  5
725
  8
SHIJIAHE
 10
720472.48897760001
 20
3414483.7099333429
 30
0.7912621359223301
  0
SEQEND
  5
726
  8
SHIJIAHE
  0
POLYLINE
  5
106
  8
SHIJIAHE
 66
     1
 10
0.0
 20
0.0
 30
0.582089552238806
 70
     1
1001
ADE
1011
-8.6698652381310222
1021
0.0
1031
-0.0
1021
-4.0140699027106148
1031
0.0
1001
IRD
1002
{
1000
TPMLINK_Unit_topology-_-ade
1070
   515
1071
        5
1004
0100F304000070010000700100000000000004E435561074654004E43556107465402802000000000000
1002
}
1001
DCO15
1071
        5
1071
        5
1000
unitlink
1004
074332333600
1071
        4
1000
Link
1004
074332333600
  0
VERTEX
  5
727
  8
SHIJIAHE
 10
720636.18390038982
 20
3414509.3887075041
 30
0.582089552238806
  0
VERTEX
  5
728
  8
SHIJIAHE
 10
720644.6114041023
 20
3414506.7797633749
 30
0.582089552238806
  0
VERTEX
  5
729
  8
SHIJIAHE
 10
720661.32026984554
 20
3414505.7651739921
 30
0.582089552238806
  0
VERTEX
  5
72A
  8
SHIJIAHE
 10
720669.86143931374
 20
3414506.3771485412
 30
0.582089552238806
  0
VERTEX
  5
72B
  8
SHIJIAHE
 10
720670.90066905704
 20
3414508.1567061101
 30
0.582089552238806
  0
VERTEX
  5
72C
  8
SHIJIAHE
 10
720670.83571719751
 20
3414529.752965847
 30
0.582089552238806
  0
VERTEX
  5
72D
  8
SHIJIAHE
 10
720671.75886530185
 20
3414536.4225197788
 30
0.582089552238806
  0
VERTEX
  5
72E
  8
SHIJIAHE
 10
720662.96030429017
 20
3414549.1509485859
 30
0.582089552238806
  0
VERTEX
  5
72F
  8
SHIJIAHE
 10
720640.7630064562
 20
3414563.1941540251
 30
0.582089552238806
  0
VERTEX
  5
730
  8
SHIJIAHE
 10
720633.3747324869
 20
3414566.5680663381
 30
0.582089552238806
  0
VERTEX
  5
731
  8
SHIJIAHE
 10
720633.97553718463
 20
3414557.3481866228
 30
0.582089552238806
  0
VERTEX
  5
732
  8
SHIJIAHE
 10
720636.18390038982
 20
3414509.3887075041
 30
0.582089552238806
  0
SEQEND
  5
733
  8
SHIJIAHE
  0
POLYLINE
  5
107
  8
SHIJIAHE
 66
     1
 10
0.0
 20
0.0
 30
0.3333333333333333
 70
     1
1001
ADE
1011
-8.7360250429483131
1021
0.0
1031
-0.0
1021
-6.6834062566049379
1031
0.0
1001
IRD
1002
{
1000
TPMLINK_Unit_topology-_-ade
1070
   515
1071
        5
1004
0100F4040000740100007401000000000000267EA2C9E6256940267EA2C9E62569402902000000000000
1002
}
1001
DCO15
1071
        5
1071
        5
1000
unitlink
1004
074332333500
1071
        4
1000
Link
1004
074332333500
  0
VERTEX
  5
734
  8
SHIJIAHE
 10
720600.83385109901
 20
3414505.104885662
 30
0.3333333333333333
  0
VERTEX
  5
735
  8
SHIJIAHE
 10
720634.18663072574
 20
3414510.282512438
 30
0.3333333333333333
  0
VERTEX
  5
736
  8
SHIJIAHE
 10
720633.00125929702
 20
3414563.2827292858
 30
0.3333333333333333
  0
VERTEX
  5
737
  8
SHIJIAHE
 10
720630.56556458422
 20
3414566.9062628001
 30
0.3333333333333333
  0
VERTEX
  5
738
  8
SHIJIAHE
 10
720604.0164921917
 20
3414577.4628237681
 30
0.3333333333333333
  0
VERTEX
  5
739
  8
SHIJIAHE
 10
720595.11808750033
 20
3414577.4628237681
 30
0.3333333333333333
  0
VERTEX
  5
73A
  8
SHIJIAHE
 10
720600.83385109901
 20
3414505.104885662
 30
0.3333333333333333
  0
SEQEND
  5
73B
  8
SHIJIAHE
  0
POLYLINE
  5
108
  8
SHIJIAHE
 66
     1
 10
0.0
 20
0.0
 30
0.5
 70
     1
1001
ADE
1011
-10.25512006622739
1021
0.0
1031
-0.0
1021
-7.1919096419587731
1031
0.0
1001
IRD
1002
{
1000
TPMLINK_Unit_topology-_-ade
1070
   515
1071
        5
1004
0100F50400007C0100007C010000000000003022C4B84FEE70403022C4B84FEE70408003000000000000
1002
}
1001
DCO15
1071
        5
1071
        5
1000
unitlink
1004
074332323700
1071
        4
1000
Link
1004
074332323700
  0
VERTEX
  5
73C
  8
SHIJIAHE
 10
720556.27687578276
 20
3414483.8226654958
 30
0.5
  0
VERTEX
  5
73D
  8
SHIJIAHE
 10
720562.99939319503
 20
3414482.20415386
 30
0.5
  0
VERTEX
  5
73E
  8
SHIJIAHE
 10
720597.37516460195
 20
3414490.3369735242
 30
0.5
  0
VERTEX
  5
73F
  8
SHIJIAHE
 10
720596.18979317695
 20
3414516.5874607512
 30
0.5
  0
VERTEX
  5
740
  8
SHIJIAHE
 10
720595.27281407826
 20
3414536.8943009698
 30
0.5
  0
VERTEX
  5
741
  8
SHIJIAHE
 10
720592.71486871701
 20
3414576.8427969231
 30
0.5
  0
VERTEX
  5
742
  8
SHIJIAHE
 10
720579.61083115276
 20
3414583.751667487
 30
0.5
  0
VERTEX
  5
743
  8
SHIJIAHE
 10
720568.92625033483
 20
3414583.969079501
 30
0.5
  0
VERTEX
  5
744
  8
SHIJIAHE
 10
720553.41899398714
 20
3414581.9399007298
 30
0.5
  0
VERTEX
  5
745
  8
SHIJIAHE
 10
720547.4434229508
 20
3414575.208180692
 30
0.5
  0
VERTEX
  5
746
  8
SHIJIAHE
 10
720547.91432392993
 20
3414555.3351124488
 30
0.5
  0
VERTEX
  5
747
  8
SHIJIAHE
 10
720551.37301042688
 20
3414526.6689362139
 30
0.5
  0
VERTEX
  5
748
  8
SHIJIAHE
 10
720556.27687578276
 20
3414483.8226654958
 30
0.5
  0
SEQEND
  5
749
  8
SHIJIAHE
  0
POLYLINE
  5
109
  8
SHIJIAHE
 66
     1
 10
0.0
 20
0.0
 30
0.2101910828025478
 70
     1
1001
ADE
1011
-7.5506536159664384
1021
0.0
1031
-0.0
1021
-2.411662860307842
1031
0.0
1001
IRD
1002
{
1000
TPMLINK_Unit_topology-_-ade
1070
   515
1071
        5
1004
0100F60400007D0100007D01000000000000981BAFA57FF96640981BAFA57FF966402202000000000000
1002
}
1001
DCO15
1071
        5
1071
        5
1000
unitlink
1004
074332323800
1071
        4
1000
Link
1004
074332323800
  0
VERTEX
  5
74A
  8
SHIJIAHE
 10
720564.18476462376
 20
3414481.3667150051
 30
0.2101910828025478
  0
VERTEX
  5
74B
  8
SHIJIAHE
 10
720567.04264642298
 20
3414426.5547313988
 30
0.2101910828025478
  0
VERTEX
  5
74C
  8
SHIJIAHE
 10
720603.30202174175
 20
3414433.2622945458
 30
0.2101910828025478
  0
VERTEX
  5
74D
  8
SHIJIAHE
 10
720605.26681547984
 20
3414440.2436357811
 30
0.2101910828025478
  0
VERTEX
  5
74E
  8
SHIJIAHE
 10
720601.98674659815
 20
3414472.0904692118
 30
0.2101910828025478
  0
VERTEX
  5
74F
  8
SHIJIAHE
 10
720598.17082487815
 20
3414489.499534667
 30
0.2101910828025478
  0
VERTEX
  5
750
  8
SHIJIAHE
 10
720564.18476462376
 20
3414481.3667150051
 30
0.2101910828025478
  0
SEQEND
  5
751
  8
SHIJIAHE
  0
POLYLINE
  5
10A
  8
SHIJIAHE
 66
     1
 10
0.0
 20
0.0
 30
0.2
 70
     1
1001
ADE
1011
-10.782008605077859
1021
0.0
1031
-0.0
1021
1.1447435533627861
1031
0.0
1001
IRD
1002
{
1000
TPMLINK_Unit_topology-_-ade
1070
   515
1071
        5
1004
0100F70400008A0100008A010000000000008F0C6816F1A865408F0C6816F1A865401F02000000000000
1002
}
1001
DCO15
1071
        5
1071
        5
1000
unitlink
1004
074332333100
1071
        4
1000
Link
1004
074332333100
  0
VERTEX
  5
752
  8
SHIJIAHE
 10
720566.26322411373
 20
3414424.6946508628
 30
0.2
  0
VERTEX
  5
753
  8
SHIJIAHE
 10
720566.08460650221
 20
3414397.445678845
 30
0.2
  0
VERTEX
  5
754
  8
SHIJIAHE
 10
720570.46885698661
 20
3414371.7024863078
 30
0.2
  0
VERTEX
  5
755
  8
SHIJIAHE
 10
720603.62678103894
 20
3414381.3974515311
 30
0.2
  0
VERTEX
  5
756
  8
SHIJIAHE
 10
720600.2005704717
 20
3414394.7723163432
 30
0.2
  0
VERTEX
  5
757
  8
SHIJIAHE
 10
720600.95002938143
 20
3414431.0613827058
 30
0.2
  0
VERTEX
  5
758
  8
SHIJIAHE
 10
720566.26322411373
 20
3414424.6946508628
 30
0.2
  0
SEQEND
  5
759
  8
SHIJIAHE
  0
POLYLINE
  5
10B
  8
SHIJIAHE
 66
     1
 10
0.0
 20
0.0
 30
0.0813953488372093
 70
     1
1001
ADE
1011
-10.538439132273201
1021
0.0
1031
-0.0
1021
1.888263576198369
1031
0.0
1001
IRD
1002
{
1000
TPMLINK_Unit_topology-_-ade
1070
   515
1071
        5
1004
0100F80400009201000092010000000000005BFE2719B1EB64405BFE2719B1EB64402102000000000000
1002
}
1001
DCO15
1071
        5
1071
        5
1000
unitlink
1004
074332333000
1071
        4
1000
Link
1004
074332333000
  0
VERTEX
  5
75A
  8
SHIJIAHE
 10
720605.44543309137
 20
3414382.0899490449
 30
0.0813953488372093
  0
VERTEX
  5
75B
  8
SHIJIAHE
 10
720623.82680920523
 20
3414382.4361978061
 30
0.0813953488372093
  0
VERTEX
  5
75C
  8
SHIJIAHE
 10
720639.39901741594
 20
3414387.2192620412
 30
0.0813953488372093
  0
VERTEX
  5
75D
  8
SHIJIAHE
 10
720639.38277944946
 20
3414426.425894652
 30
0.0813953488372093
  0
VERTEX
  5
75E
  8
SHIJIAHE
 10
720636.94708473585
 20
3414435.243159533
 30
0.0813953488372093
  0
VERTEX
  5
75F
  8
SHIJIAHE
 10
720602.63626518846
 20
3414431.2572726682
 30
0.0813953488372093
  0
VERTEX
  5
760
  8
SHIJIAHE
 10
720602.53883739933
 20
3414408.6142143612
 30
0.0813953488372093
  0
VERTEX
  5
761
  8
SHIJIAHE
 10
720601.49960765254
 20
3414395.0460944292
 30
0.0813953488372093
  0
VERTEX
  5
762
  8
SHIJIAHE
 10
720605.44543309137
 20
3414382.0899490449
 30
0.0813953488372093
  0
SEQEND
  5
763
  8
SHIJIAHE
  0
POLYLINE
  5
10C
  8
SHIJIAHE
 66
     1
 10
0.0
 20
0.0
 30
0.0775862068965517
 70
     1
1001
ADE
1011
-8.8307209505001083
1021
0.0
1031
-0.0
1021
-5.1483884528279287
1031
0.0
1001
IRD
1002
{
1000
TPMLINK_Unit_topology-_-ade
1070
   515
1071
        5
1004
0100F9040000840100008401000000000000BCCD7700391D6A40BCCD7700391D6A402302000000000000
1002
}
1001
DCO15
1071
        5
1071
        5
1000
unitlink
1004
074332323900
1071
        4
1000
Link
1004
074332323900
  0
VERTEX
  5
764
  8
SHIJIAHE
 10
720636.3949939349
 20
3414436.6039976738
 30
0.0775862068965517
  0
VERTEX
  5
765
  8
SHIJIAHE
 10
720639.99982211005
 20
3414449.8419734412
 30
0.0775862068965517
  0
VERTEX
  5
766
  8
SHIJIAHE
 10
720638.97683032986
 20
3414494.4275402441
 30
0.0775862068965517
  0
VERTEX
  5
767
  8
SHIJIAHE
 10
720634.83614931616
 20
3414508.5754255368
 30
0.0775862068965517
  0
VERTEX
  5
768
  8
SHIJIAHE
 10
720601.09365853295
 20
3414503.2125959401
 30
0.0775862068965517
  0
VERTEX
  5
769
  8
SHIJIAHE
 10
720599.8433352483
 20
3414489.0486060511
 30
0.0775862068965517
  0
VERTEX
  5
76A
  8
SHIJIAHE
 10
720603.69173289812
 20
3414471.8489003112
 30
0.0775862068965517
  0
VERTEX
  5
76B
  8
SHIJIAHE
 10
720605.16938769072
 20
3414456.64616415
 30
0.0775862068965517
  0
VERTEX
  5
76C
  8
SHIJIAHE
 10
720606.61456655315
 20
3414439.9537530988
 30
0.0775862068965517
  0
VERTEX
  5
76D
  8
SHIJIAHE
 10
720604.9907700792
 20
3414433.8742690948
 30
0.0775862068965517
  0
VERTEX
  5
76E
  8
SHIJIAHE
 10
720636.3949939349
 20
3414436.6039976738
 30
0.0775862068965517
  0
SEQEND
  5
76F
  8
SHIJIAHE
  0
POLYLINE
  5
10D
  8
SHIJIAHE
 66
     1
 10
0.0
 20
0.0
 30
0.2
 70
     1
1001
ADE
1011
-9.1500931436894462
1021
0.0
1031
-0.0
1021
-3.0069374484010041
1031
0.0
1001
IRD
1002
{
1000
TPMLINK_Unit_topology-_-ade
1070
   515
1071
        5
1004
0100FA04000073010000730100000000000084843099A0D86A4084843099A0D86A400000000026020000
1002
}
1001
DCO15
1071
        5
1071
        5
1000
unitlink
1004
074332333700
1071
        4
1000
Link
1004
074332333700
  0
VERTEX
  5
770
  8
SHIJIAHE
 10
720638.50592935074
 20
3414505.5638665748
 30
0.2
  0
VERTEX
  5
771
  8
SHIJIAHE
 10
720670.4784819741
 20
3414504.47680652
 30
0.2
  0
VERTEX
  5
772
  8
SHIJIAHE
 10
720670.80324126745
 20
3414490.9811572582
 30
0.2
  0
VERTEX
  5
773
  8
SHIJIAHE
 10
720672.03732659295
 20
3414481.415028784
 30
0.2
  0
VERTEX
  5
774
  8
SHIJIAHE
 10
720674.63540095452
 20
3414451.7342631649
 30
0.2
  0
VERTEX
  5
775
  8
SHIJIAHE
 10
720671.72880526271
 20
3414431.1606451091
 30
0.2
  0
VERTEX
  5
776
  8
SHIJIAHE
 10
720659.22557239234
 20
3414430.8385532401
 30
0.2
  0
VERTEX
  5
777
  8
SHIJIAHE
 10
720643.39355674793
 20
3414429.7353885951
 30
0.2
  0
VERTEX
  5
778
  8
SHIJIAHE
 10
720639.67847893585
 20
3414429.4765243661
 30
0.2
  0
VERTEX
  5
779
  8
SHIJIAHE
 10
720638.27859784651
 20
3414437.1354492572
 30
0.2
  0
VERTEX
  5
77A
  8
SHIJIAHE
 10
720641.52619079885
 20
3414449.7292412878
 30
0.2
  0
VERTEX
  5
77B
  8
SHIJIAHE
 10
720641.26638336095
 20
3414494.2745466079
 30
0.2
  0
VERTEX
  5
77C
  8
SHIJIAHE
 10
720638.50592935074
 20
3414505.5638665748
 30
0.2
  0
SEQEND
  5
77D
  8
SHIJIAHE
  0
POLYLINE
  5
10E
  8
SHIJIAHE
 66
     1
 10
0.0
 20
0.0
 30
0.0340909090909091
 70
     1
1001
ADE
1011
-2.8010489234002289
1021
0.0
1031
-0.0
1021
11.98181748297065
1031
0.0
1001
IRD
1002
{
1000
TPMLINK_Unit_topology-_-ade
1070
   515
1071
        5
1004
0100FB0400008701000087010000000000009E7035F73AA46F409E7035F73AA46F400000000027020000
1002
}
1001
DCO15
1071
        5
1071
        5
1000
unitlink
1004
074332333800
1071
        4
1000
Link
1004
074332333800
  0
VERTEX
  5
77E
  8
SHIJIAHE
 10
720673.0116044766
 20
3414430.041375868
 30
0.0340909090909091
  0
VERTEX
  5
77F
  8
SHIJIAHE
 10
720674.53797316563
 20
3414439.9698576932
 30
0.0340909090909091
  0
VERTEX
  5
780
  8
SHIJIAHE
 10
720676.1882280201
 20
3414450.7041746709
 30
0.0340909090909091
  0
VERTEX
  5
781
  8
SHIJIAHE
 10
720671.84247101482
 20
3414500.6278086998
 30
0.0340909090909091
  0
VERTEX
  5
782
  8
SHIJIAHE
 10
720672.55694146454
 20
3414516.8612388368
 30
0.0340909090909091
  0
VERTEX
  5
783
  8
SHIJIAHE
 10
720672.11851641547
 20
3414529.3503510128
 30
0.0340909090909091
  0
VERTEX
  5
784
  8
SHIJIAHE
 10
720673.10903226573
 20
3414534.9305926231
 30
0.0340909090909091
  0
VERTEX
  5
785
  8
SHIJIAHE
 10
720684.70293910825
 20
3414522.1193885808
 30
0.0340909090909091
  0
VERTEX
  5
786
  8
SHIJIAHE
 10
720693.55262990657
 20
3414475.496590713
 30
0.0340909090909091
  0
VERTEX
  5
787
  8
SHIJIAHE
 10
720692.74073166784
 20
3414456.8635761612
 30
0.0340909090909091
  0
VERTEX
  5
788
  8
SHIJIAHE
 10
720689.75294614921
 20
3414436.8616711688
 30
0.0340909090909091
  0
VERTEX
  5
789
  8
SHIJIAHE
 10
720679.55550427735
 20
3414415.8371244972
 30
0.0340909090909091
  0
VERTEX
  5
78A
  8
SHIJIAHE
 10
720672.44327571231
 20
3414416.5618311991
 30
0.0340909090909091
  0
VERTEX
  5
78B
  8
SHIJIAHE
 10
720672.15099234495
 20
3414426.0796458931
 30
0.0340909090909091
  0
VERTEX
  5
78C
  8
SHIJIAHE
 10
720673.0116044766
 20
3414430.041375868
 30
0.0340909090909091
  0
SEQEND
  5
78D
  8
SHIJIAHE
  0
POLYLINE
  5
10F
  8
SHIJIAHE
 66
     1
 10
0.0
 20
0.0
 30
0.9
 70
     1
1001
ADE
1011
-15.59893630014267
1021
0.0
1031
-0.0
1021
-1.4827083507552741
1031
0.0
1001
IRD
1002
{
1000
TPMLINK_Unit_topology-_-ade
1070
   515
1071
        5
1004
0100FC04000088010000880100000000000010564852E2E45E4010564852E2E45E400000000025020000
1002
}
1001
DCO15
1071
        5
1071
        5
1000
unitlink
1004
074332333900
1071
        4
1000
Link
1004
074332333900
  0
VERTEX
  5
78E
  8
SHIJIAHE
 10
720647.25819236052
 20
3414428.3342889678
 30
0.9
  0
VERTEX
  5
78F
  8
SHIJIAHE
 10
720666.88989176229
 20
3414429.3166691642
 30
0.9
  0
VERTEX
  5
790
  8
SHIJIAHE
 10
720670.94938295323
 20
3414425.9588614432
 30
0.9
  0
VERTEX
  5
791
  8
SHIJIAHE
 10
720670.81947923452
 20
3414416.0142750242
 30
0.9
  0
VERTEX
  5
792
  8
SHIJIAHE
 10
720680.02640525636
 20
3414413.663004389
 30
0.9
  0
VERTEX
  5
793
  8
SHIJIAHE
 10
720683.89104086906
 20
3414409.902581831
 30
0.9
  0
VERTEX
  5
794
  8
SHIJIAHE
 10
720684.10213441076
 20
3414404.427020079
 30
0.9
  0
VERTEX
  5
795
  8
SHIJIAHE
 10
720674.08331015345
 20
3414404.1693465859
 30
0.9
  0
VERTEX
  5
796
  8
SHIJIAHE
 10
720673.09279430262
 20
3414405.3208250129
 30
0.9
  0
VERTEX
  5
797
  8
SHIJIAHE
 10
720642.19194735587
 20
3414406.8185521979
 30
0.9
  0
VERTEX
  5
798
  8
SHIJIAHE
 10
720642.19194735587
 20
3414427.5451638931
 30
0.9
  0
VERTEX
  5
799
  8
SHIJIAHE
 10
720647.25819236052
 20
3414428.3342889678
 30
0.9
  0
SEQEND
  5
79A
  8
SHIJIAHE
  0
POLYLINE
  5
110
  8
SHIJIAHE
 66
     1
 10
0.0
 20
0.0
 30
0.4900662251655631
 70
     1
1001
ADE
1011
-20.50043051503599
1021
0.0
1031
-0.0
1021
-7.5812373380176723
1031
0.0
1001
IRD
1002
{
1000
TPMLINK_Unit_topology-_-ade
1070
   515
1071
        5
1004
0100FF0400008B0100008B0100000000000054A5FDD88438724054A5FDD884387240000000001D020000
1002
}
1001
DCO15
1071
        5
1071
        5
1000
unitlink
1004
074332323600
1071
        4
1000
Link
1004
074332323600
  0
VERTEX
  5
79B
  8
SHIJIAHE
 10
720555.28635993216
 20
3414409.5563330748
 30
0.4900662251655631
  0
VERTEX
  5
79C
  8
SHIJIAHE
 10
720561.44054858026
 20
3414413.3328602239
 30
0.4900662251655631
  0
VERTEX
  5
79D
  8
SHIJIAHE
 10
720563.89248126012
 20
3414383.2494797711
 30
0.4900662251655631
  0
VERTEX
  5
79E
  8
SHIJIAHE
 10
720568.99120219424
 20
3414352.5138632841
 30
0.4900662251655631
  0
VERTEX
  5
79F
  8
SHIJIAHE
 10
720572.19008125376
 20
3414334.5008755769
 30
0.4900662251655631
  0
VERTEX
  5
7A0
  8
SHIJIAHE
 10
720571.18332743645
 20
3414323.8718439369
 30
0.4900662251655631
  0
VERTEX
  5
7A1
  8
SHIJIAHE
 10
720561.09955132031
 20
3414315.9564362862
 30
0.4900662251655631
  0
VERTEX
  5
7A2
  8
SHIJIAHE
 10
720549.29455093667
 20
3414309.909161469
 30
0.4900662251655631
  0
VERTEX
  5
7A3
  8
SHIJIAHE
 10
720522.51814703655
 20
3414308.1296039
 30
0.4900662251655631
  0
VERTEX
  5
7A4
  8
SHIJIAHE
 10
720508.81330477796
 20
3414312.091333874
 30
0.4900662251655631
  0
VERTEX
  5
7A5
  8
SHIJIAHE
 10
720500.79175018158
 20
3414355.4690561709
 30
0.4900662251655631
  0
VERTEX
  5
7A6
  8
SHIJIAHE
 10
720500.9216539003
 20
3414368.3285739948
 30
0.4900662251655631
  0
VERTEX
  5
7A7
  8
SHIJIAHE
 10
720503.71458384022
 20
3414376.3647660948
 30
0.4900662251655631
  0
VERTEX
  5
7A8
  8
SHIJIAHE
 10
720514.91877952975
 20
3414383.1447999151
 30
0.4900662251655631
  0
SEQEND
  5
7A9
  8
SHIJIAHE
  0
POLYLINE
  5
111
  8
SHIJIAHE
 66
     1
 10
0.0
 20
0.0
 30
0.4691358024691358
 70
     1
1001
ADE
1011
-12.357091184705491
1021
0.0
1031
-0.0
1021
-2.8746699197217822
1031
0.0
1001
IRD
1002
{
1000
TPMLINK_Unit_topology-_-ade
1070
   515
1071
        5
1004
010001050000690100006901000000000000F7B1837AC67C6A40F7B1837AC67C6A40000000002D020000
1002
}
1001
DCO15
1071
        5
1071
        5
1000
unitlink
1004
074332323200
1071
        4
1000
Link
1004
074332323200
  0
VERTEX
  5
7AA
  8
SHIJIAHE
 10
720452.37013925612
 20
3414541.4126914628
 30
0.4691358024691358
  0
VERTEX
  5
7AB
  8
SHIJIAHE
 10
720502.24635357095
 20
3414540.6778866109
 30
0.4691358024691358
  0
VERTEX
  5
7AC
  8
SHIJIAHE
 10
720504.21796074871
 20
3414487.5186696812
 30
0.4691358024691358
  0
VERTEX
  5
7AD
  8
SHIJIAHE
 10
720450.47029737767
 20
3414486.3832958448
 30
0.4691358024691358
  0
VERTEX
  5
7AE
  8
SHIJIAHE
 10
720452.37013925612
 20
3414541.4126914628
 30
0.4691358024691358
  0
SEQEND
  5
7AF
  8
SHIJIAHE
  0
POLYLINE
  5
112
  8
SHIJIAHE
 66
     1
 10
0.0
 20
0.0
 30
0.375
 70
     1
1001
ADE
1011
-13.62365243781823
1021
0.0
1031
-0.0
1021
-3.9053638977929932
1031
0.0
1001
IRD
1002
{
1000
TPMLINK_Unit_topology-_-ade
1070
   515
1071
        5
1004
0100020500006801000068010000000000004FFC8F590AE068404FFC8F590AE068402C02000000000000
1002
}
1001
DCO15
1071
        5
1071
        5
1000
unitlink
1004
074332323300
1071
        4
1000
Link
1004
074332323300
  0
VERTEX
  5
7B0
  8
SHIJIAHE
 10
720453.16579952859
 20
3414543.4418702298
 30
0.375
  0
VERTEX
  5
7B1
  8
SHIJIAHE
 10
720502.48049851891
 20
3414543.1036737692
 30
0.375
  0
VERTEX
  5
7B2
  8
SHIJIAHE
 10
720507.14079440758
 20
3414591.3852447541
 30
0.375
  0
VERTEX
  5
7B3
  8
SHIJIAHE
 10
720470.31309032056
 20
3414589.2352815368
 30
0.375
  0
VERTEX
  5
7B4
  8
SHIJIAHE
 10
720454.26998113096
 20
3414591.5140815009
 30
0.375
  0
VERTEX
  5
7B5
  8
SHIJIAHE
 10
720453.16579952859
 20
3414543.4418702298
 30
0.375
  0
SEQEND
  5
7B6
  8
SHIJIAHE
  0
POLYLINE
  5
113
  8
SHIJIAHE
 66
     1
 10
0.0
 20
0.0
 30
0.0555555555555556
 70
     1
1001
ADE
1011
-23.561286875978109
1021
0.0
1031
-0.0
1021
29.859610978048298
1031
0.0
1001
IRD
1002
{
1000
TPMLINK_Unit_topology-_-ade
1070
   515
1071
        5
1004
0100030500006E0100006E010000000000006628D367FCA67A406628D367FCA67A40EE01000000000000
1002
}
1001
DCO15
1071
        5
1071
        5
1000
unitlink
1004
074332343600
1071
        4
1000
Link
1004
074332343600
  0
VERTEX
  5
7B7
  8
SHIJIAHE
 10
720333.50823717564
 20
3414511.6191936899
 30
0.0555555555555556
  0
VERTEX
  5
7B8
  8
SHIJIAHE
 10
720336.64216437575
 20
3414529.7851750348
 30
0.0555555555555556
  0
VERTEX
  5
7B9
  8
SHIJIAHE
 10
720341.26318032423
 20
3414556.571148084
 30
0.0555555555555556
  0
VERTEX
  5
7BA
  8
SHIJIAHE
 10
720353.75697923813
 20
3414584.7984660561
 30
0.0555555555555556
  0
VERTEX
  5
7BB
  8
SHIJIAHE
 10
720369.31294948235
 20
3414602.602094051
 30
0.0555555555555556
  0
VERTEX
  5
7BC
  8
SHIJIAHE
 10
720389.31812207412
 20
3414619.2381390249
 30
0.0555555555555556
  0
VERTEX
  5
7BD
  8
SHIJIAHE
 10
720401.22055024654
 20
3414625.8732314999
 30
0.0555555555555556
  0
VERTEX
  5
7BE
  8
SHIJIAHE
 10
720314.83181819716
 20
3414650.5340266158
 30
0.0555555555555556
  0
VERTEX
  5
7BF
  8
SHIJIAHE
 10
720287.06765795138
 20
3414592.729978303
 30
0.0555555555555556
  0
VERTEX
  5
7C0
  8
SHIJIAHE
 10
720324.78845009964
 20
3414578.4210470752
 30
0.0555555555555556
  0
VERTEX
  5
7C1
  8
SHIJIAHE
 10
720306.24469433737
 20
3414516.4747285978
 30
0.0555555555555556
  0
VERTEX
  5
7C2
  8
SHIJIAHE
 10
720333.50823717564
 20
3414511.6191936899
 30
0.0555555555555556
  0
SEQEND
  5
7C3
  8
SHIJIAHE
  0
POLYLINE
  5
114
  8
SHIJIAHE
 66
     1
 10
0.0
 20
0.0
 30
0.06
 70
     1
1001
ADE
1011
-34.440723266452551
1021
0.0
1031
-0.0
1021
-17.497640718240291
1031
0.0
1001
IRD
1002
{
1000
TPMLINK_Unit_topology-_-ade
1070
   515
1071
        5
1004
010005050000F0000000F0000000000000001290B3B7B4447D401290B3B7B4447D400000000018020000
1002
}
1001
DCO15
1071
        5
1071
        5
1000
unitlink
1004
074331343900
1071
        4
1000
Link
1004
074331343900
  0
VERTEX
  5
7C4
  8
SHIJIAHE
 10
720302.54243836924
 20
3415472.5883336202
 30
0.06
  0
VERTEX
  5
7C5
  8
SHIJIAHE
 10
720281.92022312072
 20
3415543.633747363
 30
0.06
  0
VERTEX
  5
7C6
  8
SHIJIAHE
 10
720426.82782068127
 20
3415591.6012787782
 30
0.06
  0
VERTEX
  5
7C7
  8
SHIJIAHE
 10
720450.14553808037
 20
3415503.8473493932
 30
0.06
  0
VERTEX
  5
7C8
  8
SHIJIAHE
 10
720302.54243836924
 20
3415472.5883336202
 30
0.06
  0
SEQEND
  5
7C9
  8
SHIJIAHE
  0
POLYLINE
  5
115
  8
SHIJIAHE
 66
     1
 10
0.0
 20
0.0
 30
0.4
 70
     1
1001
ADE
1011
-30.31628021597863
1021
0.0
1031
-0.0
1021
4.557599929161368
1031
0.0
1001
IRD
1002
{
1000
TPMLINK_Unit_topology-_-ade
1070
   515
1071
        5
1004
010009050000190100001901000000000000640DBBEE55B27940640DBBEE55B27940000000000F020000
1002
}
1001
DCO15
1071
        5
1071
        5
1000
unitlink
1004
074331363200
1071
        4
1000
Link
1004
074331363200
  0
VERTEX
  5
7CA
  8
SHIJIAHE
 10
720518.19884841167
 20
3415057.3233407401
 30
0.4
  0
VERTEX
  5
7CB
  8
SHIJIAHE
 10
720514.07440536085
 20
3415147.2352856402
 30
0.4
  0
VERTEX
  5
7CC
  8
SHIJIAHE
 10
720630.66299236938
 20
3415151.164806427
 30
0.4
  0
VERTEX
  5
7CD
  8
SHIJIAHE
 10
720629.34771722555
 20
3415106.3457230218
 30
0.4
  0
VERTEX
  5
7CE
  8
SHIJIAHE
 10
720617.55895480525
 20
3415102.4162022341
 30
0.4
  0
VERTEX
  5
7CF
  8
SHIJIAHE
 10
720623.128576722
 20
3415060.5442594169
 30
0.4
  0
VERTEX
  5
7D0
  8
SHIJIAHE
 10
720518.19884841167
 20
3415057.3233407401
 30
0.4
  0
SEQEND
  5
7D1
  8
SHIJIAHE
  0
POLYLINE
  5
116
  8
SHIJIAHE
 66
     1
 10
0.0
 20
0.0
 30
0.3653846153846154
 70
     1
1001
ADE
1011
-23.1959326636279
1021
0.0
1031
-0.0
1021
0.6562621793709696
1031
0.0
1001
IRD
1002
{
1000
TPMLINK_Unit_topology-_-ade
1070
   515
1071
        5
1004
01001405000011010000110100000000000082627CE026B8744082627CE026B874400E02000000000000
1002
}
1001
DCO15
1071
        5
1071
        5
1000
unitlink
1004
074332353500
1071
        4
1000
Link
1004
074332353500
  0
VERTEX
  5
7D2
  8
SHIJIAHE
 10
720673.28764987714
 20
3415087.0685247309
 30
0.3653846153846154
  0
VERTEX
  5
7D3
  8
SHIJIAHE
 10
720673.9696443975
 20
3415022.1106472891
 30
0.3653846153846154
  0
VERTEX
  5
7D4
  8
SHIJIAHE
 10
720768.08488817525
 20
3415018.4951660759
 30
0.3653846153846154
  0
VERTEX
  5
7D5
  8
SHIJIAHE
 10
720773.52460636932
 20
3415090.3619140801
 30
0.3653846153846154
  0
VERTEX
  5
7D6
  8
SHIJIAHE
 10
720673.28764987714
 20
3415087.0685247309
 30
0.3653846153846154
  0
SEQEND
  5
7D7
  8
SHIJIAHE
  0
POLYLINE
  5
117
  8
SHIJIAHE
 66
     1
 10
0.0
 20
0.0
 30
0.0192307692307692
 70
     1
1001
ADE
1011
-14.735953023773609
1021
0.0
1031
-0.0
1021
8.1569765522144735
1031
0.0
1001
IRD
1002
{
1000
TPMLINK_Unit_topology-_-ade
1070
   515
1071
        5
1004
01001C050000A5010000A501000000000000F776B9D648F17140F776B9D648F171400002000000000000
1002
}
1001
DCO15
1071
        5
1071
        5
1000
unitlink
1004
07433235366100
1071
        4
1000
Link
1004
07433235363200
  0
VERTEX
  5
7D8
  8
SHIJIAHE
 10
720725.03804358479
 20
3414304.0470894738
 30
0.0192307692307692
  0
VERTEX
  5
7D9
  8
SHIJIAHE
 10
720669.87767727685
 20
3414310.3117763042
 30
0.0192307692307692
  0
VERTEX
  5
7DA
  8
SHIJIAHE
 10
720679.14955515787
 20
3414215.5201396048
 30
0.0192307692307692
  0
VERTEX
  5
7DB
  8
SHIJIAHE
 10
720714.69446002692
 20
3414205.261513615
 30
0.0192307692307692
  0
VERTEX
  5
7DC
  8
SHIJIAHE
 10
720725.03804358479
 20
3414304.0470894738
 30
0.0192307692307692
  0
SEQEND
  5
7DD
  8
SHIJIAHE
  0
POLYLINE
  5
118
  8
SHIJIAHE
 66
     1
 10
0.0
 20
0.0
 30
0.5
 70
     1
1001
ADE
1011
-17.846026326413259
1021
0.0
1031
-0.0
1021
10.6844802936539
1031
0.0
1001
IRD
1002
{
1000
TPMLINK_Unit_topology-_-ade
1070
   515
1071
        5
1004
010021050000490100004901000000000000CDADEC5211887640CDADEC5211887640FC01000000000000
1002
}
1001
DCO15
1071
        5
1071
        5
1000
unitlink
1004
074332353800
1071
        4
1000
Link
1004
074332353800
  0
VERTEX
  5
7DE
  8
SHIJIAHE
 10
720682.9654768781
 20
3414728.29039317
 30
0.5
  0
VERTEX
  5
7DF
  8
SHIJIAHE
 10
720673.61341527232
 20
3414635.744213569
 30
0.5
  0
VERTEX
  5
7E0
  8
SHIJIAHE
 10
720750.41381134698
 20
3414621.6637151712
 30
0.5
  0
VERTEX
  5
7E1
  8
SHIJIAHE
 10
720762.04436528322
 20
3414731.3180567268
 30
0.5
  0
VERTEX
  5
7E2
  8
SHIJIAHE
 10
720682.9654768781
 20
3414728.29039317
 30
0.5
  0
SEQEND
  5
7E3
  8
SHIJIAHE
  0
POLYLINE
  5
119
  8
SHIJIAHE
 66
     1
 10
0.0
 20
0.0
 30
0.0476190476190476
 70
     1
1001
ADE
1011
-13.79087979963515
1021
0.0
1031
-0.0
1021
3.36183387087658
1031
0.0
1001
IRD
1002
{
1000
TPMLINK_Unit_topology-_-ade
1070
   515
1071
        5
1004
0100240500005E0100005E0100000000000054014C694E566C4054014C694E566C40F901000000000000
1002
}
1001
DCO15
1071
        5
1071
        5
1000
unitlink
1004
074332343300
1071
        4
1000
Link
1004
074332343300
  0
VERTEX
  5
7E4
  8
SHIJIAHE
 10
720511.02166798338
 20
3414607.3126876168
 30
0.0476190476190476
  0
VERTEX
  5
7E5
  8
SHIJIAHE
 10
720549.52188244089
 20
3414600.669542843
 30
0.0476190476190476
  0
VERTEX
  5
7E6
  8
SHIJIAHE
 10
720570.9072820358
 20
3414669.516679591
 30
0.0476190476190476
  0
VERTEX
  5
7E7
  8
SHIJIAHE
 10
720537.26221904543
 20
3414677.2549367142
 30
0.0476190476190476
  0
VERTEX
  5
7E8
  8
SHIJIAHE
 10
720519.17312629544
 20
3414645.7060382608
 30
0.0476190476190476
  0
VERTEX
  5
7E9
  8
SHIJIAHE
 10
720512.30446720135
 20
3414628.6190646738
 30
0.0476190476190476
  0
VERTEX
  5
7EA
  8
SHIJIAHE
 10
720506.22492584737
 20
3414608.1403570962
 30
0.0476190476190476
  0
VERTEX
  5
7EB
  8
SHIJIAHE
 10
720511.02166798338
 20
3414607.3126876168
 30
0.0476190476190476
  0
SEQEND
  5
7EC
  8
SHIJIAHE
  0
POLYLINE
  5
11A
  8
SHIJIAHE
 66
     1
 10
0.0
 20
0.0
 30
1.1000000000000001
 70
     1
1001
ADE
1011
-38.96299645293039
1021
0.0
1031
-0.0
1021
15.428200467024
1031
0.0
1001
IRD
1002
{
1000
TPMLINK_Unit_topology-_-ade
1070
   515
1071
        5
1004
010025050000390100003901000000000000A379ABF961EE7A40A379ABF961EE7A400A02000000000000
1002
}
1001
DCO15
1071
        5
1071
        5
1000
unitlink
1004
074331353800
1071
        4
1000
Link
1004
074331353800
  0
VERTEX
  5
7ED
  8
SHIJIAHE
 10
720641.00657592702
 20
3414820.835439092
 30
1.1000000000000001
  0
VERTEX
  5
7EE
  8
SHIJIAHE
 10
720674.58668705809
 20
3414825.7392877778
 30
1.1000000000000001
  0
VERTEX
  5
7EF
  8
SHIJIAHE
 10
720680.88701738801
 20
3414874.8019315442
 30
1.1000000000000001
  0
VERTEX
  5
7F0
  8
SHIJIAHE
 10
720745.87135237816
 20
3414877.0726792119
 30
1.1000000000000001
  0
VERTEX
  5
7F1
  8
SHIJIAHE
 10
720773.16737114626
 20
3414933.599802014
 30
1.1000000000000001
  0
VERTEX
  5
7F2
  8
SHIJIAHE
 10
720657.1633508692
 20
3414922.7533583641
 30
1.1000000000000001
  0
VERTEX
  5
7F3
  8
SHIJIAHE
 10
720641.00657592702
 20
3414820.835439092
 30
1.1000000000000001
  0
SEQEND
  5
7F4
  8
SHIJIAHE
  0
POLYLINE
  5
11B
  8
SHIJIAHE
 66
     1
 10
0.0
 20
0.0
 30
0.2
 70
     1
1001
ADE
1011
-27.385327573865649
1021
0.0
1031
-0.0
1021
8.9179185894317925
1031
0.0
1001
IRD
1002
{
1000
TPMLINK_Unit_topology-_-ade
1070
   515
1071
        5
1004
010027050000360100003601000000000000D6AD28D086077A40D6AD28D086077A400302000000000000
1002
}
1001
DCO15
1071
        5
1071
        5
1000
unitlink
1004
074332343900
1071
        4
1000
Link
1004
074332343900
  0
VERTEX
  5
7F5
  8
SHIJIAHE
 10
720434.75194748503
 20
3414823.6215337482
 30
0.2
  0
VERTEX
  5
7F6
  8
SHIJIAHE
 10
720534.90771415445
 20
3414819.3216073108
 30
0.2
  0
VERTEX
  5
7F7
  8
SHIJIAHE
 10
720543.5354984178
 20
3414862.2303282288
 30
0.2
  0
VERTEX
  5
7F8
  8
SHIJIAHE
 10
720548.80741199106
 20
3414920.4987152908
 30
0.2
  0
VERTEX
  5
7F9
  8
SHIJIAHE
 10
720433.014485255
 20
3414921.7548735738
 30
0.2
  0
VERTEX
  5
7FA
  8
SHIJIAHE
 10
720434.75194748503
 20
3414823.6215337482
 30
0.2
  0
SEQEND
  5
7FB
  8
SHIJIAHE
  0
POLYLINE
  5
11C
  8
SHIJIAHE
 66
     1
 10
0.0
 20
0.0
 30
0.0294117647058824
 70
     1
1001
ADE
1011
-25.95809982100036
1021
0.0
1031
-0.0
1021
6.95718434313312
1031
0.0
1001
IRD
1002
{
1000
TPMLINK_Unit_topology-_-ade
1070
   515
1071
        5
1004
0100280500004B0100004B0100000000000006154F77B0EA734006154F77B0EA7340F801000000000000
1002
}
1001
DCO15
1071
        5
1071
        5
1000
unitlink
1004
074332343800
1071
        4
1000
Link
1004
074332343800
  0
VERTEX
  5
7FC
  8
SHIJIAHE
 10
720447.40132203687
 20
3414724.4494476481
 30
0.0294117647058824
  0
VERTEX
  5
7FD
  8
SHIJIAHE
 10
720527.50320222229
 20
3414726.4705741168
 30
0.0294117647058824
  0
VERTEX
  5
7FE
  8
SHIJIAHE
 10
720524.82393803436
 20
3414805.8259580508
 30
0.0294117647058824
  0
VERTEX
  5
7FF
  8
SHIJIAHE
 10
720443.15040155768
 20
3414801.6947225239
 30
0.0294117647058824
  0
VERTEX
  5
800
  8
SHIJIAHE
 10
720447.40132203687
 20
3414724.4494476481
 30
0.0294117647058824
  0
SEQEND
  5
801
  8
SHIJIAHE
  0
POLYLINE
  5
11D
  8
SHIJIAHE
 66
     1
 10
0.0
 20
0.0
 30
0.1515151515151515
 70
     1
1001
ADE
1011
-9.2312829701695591
1021
0.0
1031
-0.0
1021
-2.9431144404225038
1031
0.0
1001
IRD
1002
{
1000
TPMLINK_Unit_topology-_-ade
1070
   515
1071
        5
1004
01002B05000076010000760100000000000033AB31E6CC6B784033AB31E6CC6B784000000000EA010000
1002
}
1001
DCO15
1071
        5
1071
        5
1000
unitlink
1004
074332313700
1071
        4
1000
Link
1004
074332313700
  0
VERTEX
  5
802
  8
SHIJIAHE
 10
720309.167527996
 20
3414499.0737154372
 30
0.1515151515151515
  0
VERTEX
  5
803
  8
SHIJIAHE
 10
720371.05041171238
 20
3414468.4910925892
 30
0.1515151515151515
  0
VERTEX
  5
804
  8
SHIJIAHE
 10
720348.08992953598
 20
3414361.435808022
 30
0.1515151515151515
  0
VERTEX
  5
805
  8
SHIJIAHE
 10
720262.30476168566
 20
3414385.1015080111
 30
0.1515151515151515
  0
VERTEX
  5
806
  8
SHIJIAHE
 10
720309.167527996
 20
3414499.0737154372
 30
0.1515151515151515
  0
SEQEND
  5
807
  8
SHIJIAHE
  0
POLYLINE
  5
11E
  8
SHIJIAHE
 66
     1
 10
0.0
 20
0.0
 30
0.0480769230769231
 70
     1
1001
ADE
1011
-14.75219098676461
1021
0.0
1031
-0.0
1021
5.8016797690652311
1031
0.0
1001
IRD
1002
{
1000
TPMLINK_Unit_topology-_-ade
1070
   515
1071
        5
1004
01002C0500004D0100004D010000000000007E55BEC1C4E76C407E55BEC1C4E76C4000000000F7010000
1002
}
1001
DCO15
1071
        5
1071
        5
1000
unitlink
1004
074332343400
1071
        4
1000
Link
1004
074332343400
  0
VERTEX
  5
808
  8
SHIJIAHE
 10
720415.62362499139
 20
3414697.6352996519
 30
0.0480769230769231
  0
VERTEX
  5
809
  8
SHIJIAHE
 10
720452.04537995916
 20
3414696.66097175
 30
0.0480769230769231
  0
VERTEX
  5
80A
  8
SHIJIAHE
 10
720465.37674903125
 20
3414688.214112516
 30
0.0480769230769231
  0
VERTEX
  5
80B
  8
SHIJIAHE
 10
720456.91676938906
 20
3414645.3356326129
 30
0.0480769230769231
  0
VERTEX
  5
80C
  8
SHIJIAHE
 10
720448.14826841652
 20
3414621.9517630101
 30
0.0480769230769231
  0
VERTEX
  5
80D
  8
SHIJIAHE
 10
720407.61830836162
 20
3414628.8686858709
 30
0.0480769230769231
  0
VERTEX
  5
80E
  8
SHIJIAHE
 10
720415.62362499139
 20
3414697.6352996519
 30
0.0480769230769231
  0
SEQEND
  5
80F
  8
SHIJIAHE
  0
POLYLINE
  5
11F
  8
SHIJIAHE
 66
     1
 10
0.0
 20
0.0
 30
0.0434782608695652
 70
     1
1001
ADE
1011
-16.457177288946689
1021
0.0
1031
-0.0
1021
0.7810727800242603
1031
0.0
1001
IRD
1002
{
1000
TPMLINK_Unit_topology-_-ade
1070
   515
1071
        5
1004
01002D050000460100004601000000000000FDD1C8C811BA7440FDD1C8C811BA7440F601000000000000
1002
}
1001
DCO15
1071
        5
1071
        5
1000
unitlink
1004
074332343500
1071
        4
1000
Link
1004
074332343500
  0
VERTEX
  5
810
  8
SHIJIAHE
 10
720344.29024577886
 20
3414738.766431171
 30
0.0434782608695652
  0
VERTEX
  5
811
  8
SHIJIAHE
 10
720315.80885558215
 20
3414653.4603999811
 30
0.0434782608695652
  0
VERTEX
  5
812
  8
SHIJIAHE
 10
720403.59129310015
 20
3414628.4499664442
 30
0.0434782608695652
  0
VERTEX
  5
813
  8
SHIJIAHE
 10
720410.10271697131
 20
3414699.58395545
 30
0.0434782608695652
  0
VERTEX
  5
814
  8
SHIJIAHE
 10
720354.48768765095
 20
3414723.2979692179
 30
0.0434782608695652
  0
VERTEX
  5
815
  8
SHIJIAHE
 10
720344.29024577886
 20
3414738.766431171
 30
0.0434782608695652
  0
SEQEND
  5
816
  8
SHIJIAHE
  0
POLYLINE
  5
120
  8
SHIJIAHE
 66
     1
 10
0.0
 20
0.0
 30
0.06
 70
     1
1001
ADE
1011
-12.70684437640011
1021
0.0
1031
-0.0
1021
3.0496789352036999
1031
0.0
1001
IRD
1002
{
1000
TPMLINK_Unit_topology-_-ade
1070
   515
1071
        5
1004
01003B050000FA000000FA00000000000000E4D3ACF4B2D07540E4D3ACF4B2D0754000000000E5010000
1002
}
1001
DCO15
1071
        5
1071
        5
1000
unitlink
1004
074132363100
1071
        4
1000
Link
1004
074132363100
  0
VERTEX
  5
817
  8
SHIJIAHE
 10
719845.18529658765
 20
3415331.2658938691
 30
0.06
  0
VERTEX
  5
818
  8
SHIJIAHE
 10
719935.1812836976
 20
3415360.1390513279
 30
0.06
  0
VERTEX
  5
819
  8
SHIJIAHE
 10
719955.06875110825
 20
3415278.1928897691
 30
0.06
  0
VERTEX
  5
81A
  8
SHIJIAHE
 10
719870.63363249972
 20
3415253.168341219
 30
0.06
  0
VERTEX
  5
81B
  8
SHIJIAHE
 10
719845.18529658765
 20
3415331.2658938691
 30
0.06
  0
SEQEND
  5
81C
  8
SHIJIAHE
  0
POLYLINE
  5
121
  8
SHIJIAHE
 66
     1
 10
0.0
 20
0.0
 30
0.06
 70
     1
1001
ADE
1011
-20.381189379724681
1021
0.0
1031
-0.0
1021
5.4765361128374916
1031
0.0
1001
IRD
1002
{
1000
TPMLINK_Unit_topology-_-ade
1070
   515
1071
        5
1004
01003C050000F4000000F40000000000000077C16E1D13D6744077C16E1D13D67440E301000000000000
1002
}
1001
DCO15
1071
        5
1071
        5
1000
unitlink
1004
074132363000
1071
        4
1000
Link
1004
074132363000
  0
VERTEX
  5
81D
  8
SHIJIAHE
 10
719825.93880156067
 20
3415392.6030983501
 30
0.06
  0
VERTEX
  5
81E
  8
SHIJIAHE
 10
719885.91302819573
 20
3415407.7398146382
 30
0.06
  0
VERTEX
  5
81F
  8
SHIJIAHE
 10
719908.5202973336
 20
3415416.3905940382
 30
0.06
  0
VERTEX
  5
820
  8
SHIJIAHE
 10
719888.18241689738
 20
3415488.5004672031
 30
0.06
  0
VERTEX
  5
821
  8
SHIJIAHE
 10
719854.38411644497
 20
3415486.2067650179
 30
0.06
  0
VERTEX
  5
822
  8
SHIJIAHE
 10
719826.4931560494
 20
3415478.0112897982
 30
0.06
  0
VERTEX
  5
823
  8
SHIJIAHE
 10
719800.57708353549
 20
3415464.2404860482
 30
0.06
  0
VERTEX
  5
824
  8
SHIJIAHE
 10
719820.62046314776
 20
3415392.2079286859
 30
0.06
  0
VERTEX
  5
825
  8
SHIJIAHE
 10
719825.93880156067
 20
3415392.6030983501
 30
0.06
  0
SEQEND
  5
826
  8
SHIJIAHE
  0
POLYLINE
  5
122
  8
SHIJIAHE
 66
     1
 10
0.0
 20
0.0
 30
0.04
 70
     1
1001
ADE
1011
-28.62256941141095
1021
0.0
1031
-0.0
1021
-4.8666003281250578
1031
0.0
1001
IRD
1002
{
1000
TPMLINK_Unit_topology-_-ade
1070
   515
1071
        5
1004
01003D050000F3000000F30000000000000084733020F857764084733020F857764000000000E2010000
1002
}
1001
DCO15
1071
        5
1071
        5
1000
unitlink
1004
074132363900
1071
        4
1000
Link
1004
074132363900
  0
VERTEX
  5
827
  8
SHIJIAHE
 10
719990.09702559188
 20
3415394.4758589342
 30
0.04
  0
VERTEX
  5
828
  8
SHIJIAHE
 10
720022.59605770186
 20
3415402.3792522289
 30
0.04
  0
VERTEX
  5
829
  8
SHIJIAHE
 10
720052.18472873047
 20
3415416.1156934001
 30
0.04
  0
VERTEX
  5
82A
  8
SHIJIAHE
 10
720076.76688574627
 20
3415421.1154487231
 30
0.04
  0
VERTEX
  5
82B
  8
SHIJIAHE
 10
720084.68376084056
 20
3415392.8092738269
 30
0.04
  0
VERTEX
  5
82C
  8
SHIJIAHE
 10
720089.93723981187
 20
3415374.025865877
 30
0.04
  0
VERTEX
  5
82D
  8
SHIJIAHE
 10
720095.17354094388
 20
3415355.3038759651
 30
0.04
  0
VERTEX
  5
82E
  8
SHIJIAHE
 10
720099.52078100585
 20
3415339.7606551801
 30
0.04
  0
VERTEX
  5
82F
  8
SHIJIAHE
 10
720097.83235645667
 20
3415335.9649766218
 30
0.04
  0
VERTEX
  5
830
  8
SHIJIAHE
 10
720086.15626496077
 20
3415333.0871105841
 30
0.04
  0
VERTEX
  5
831
  8
SHIJIAHE
 10
720069.87210175011
 20
3415327.1853375491
 30
0.04
  0
VERTEX
  5
832
  8
SHIJIAHE
 10
720060.22286886722
 20
3415321.85913772
 30
0.04
  0
VERTEX
  5
833
  8
SHIJIAHE
 10
720048.70268957689
 20
3415322.297260609
 30
0.04
  0
VERTEX
  5
834
  8
SHIJIAHE
 10
720032.88626296818
 20
3415316.687569499
 30
0.04
  0
VERTEX
  5
835
  8
SHIJIAHE
 10
720010.86799547449
 20
3415312.0056680371
 30
0.04
  0
VERTEX
  5
836
  8
SHIJIAHE
 10
720006.17330586922
 20
3415316.0776337129
 30
0.04
  0
VERTEX
  5
837
  8
SHIJIAHE
 10
719998.42966655281
 20
3415345.8098556609
 30
0.04
  0
VERTEX
  5
838
  8
SHIJIAHE
 10
719991.67028479627
 20
3415371.7629547669
 30
0.04
  0
VERTEX
  5
839
  8
SHIJIAHE
 10
719990.09702559188
 20
3415394.4758589342
 30
0.04
  0
SEQEND
  5
83A
  8
SHIJIAHE
  0
POLYLINE
  5
123
  8
SHIJIAHE
 66
     1
 10
0.0
 20
0.0
 30
0.0568181818181818
 70
     1
1001
ADE
1011
-28.956360435113311
1021
0.0
1031
-0.0
1021
11.374013829044991
1031
0.0
1001
IRD
1002
{
1000
TPMLINK_Unit_topology-_-ade
1070
   515
1071
        5
1004
01003E0500000E0100000E01000000000000FE006444C0D87440FE006444C0D8744000000000DD010000
1002
}
1001
DCO15
1071
        5
1071
        5
1000
unitlink
1004
074132353500
1071
        4
1000
Link
1004
074132353500
  0
VERTEX
  5
83B
  8
SHIJIAHE
 10
719672.48654865858
 20
3415096.4577972218
 30
0.0568181818181818
  0
VERTEX
  5
83C
  8
SHIJIAHE
 10
719669.76674693078
 20
3415115.3056720998
 30
0.0568181818181818
  0
VERTEX
  5
83D
  8
SHIJIAHE
 10
719669.9573062883
 20
3415132.5986402538
 30
0.0568181818181818
  0
VERTEX
  5
83E
  8
SHIJIAHE
 10
719671.04869169381
 20
3415173.2753437851
 30
0.0568181818181818
  0
VERTEX
  5
83F
  8
SHIJIAHE
 10
719691.43854286545
 20
3415177.1926778522
 30
0.0568181818181818
  0
VERTEX
  5
840
  8
SHIJIAHE
 10
719736.91293481027
 20
3415176.797508189
 30
0.0568181818181818
  0
VERTEX
  5
841
  8
SHIJIAHE
 10
719756.52322497591
 20
3415177.1926778522
 30
0.0568181818181818
  0
VERTEX
  5
842
  8
SHIJIAHE
 10
719758.01305267215
 20
3415158.7657445748
 30
0.0568181818181818
  0
VERTEX
  5
843
  8
SHIJIAHE
 10
719760.45567715575
 20
3415141.429823196
 30
0.0568181818181818
  0
VERTEX
  5
844
  8
SHIJIAHE
 10
719764.76924804971
 20
3415115.5891633821
 30
0.0568181818181818
  0
VERTEX
  5
845
  8
SHIJIAHE
 10
719766.10316354409
 20
3415101.595002864
 30
0.0568181818181818
  0
VERTEX
  5
846
  8
SHIJIAHE
 10
719754.9814265446
 20
3415099.3013006789
 30
0.0568181818181818
  0
VERTEX
  5
847
  8
SHIJIAHE
 10
719742.88956918207
 20
3415096.999007849
 30
0.0568181818181818
  0
VERTEX
  5
848
  8
SHIJIAHE
 10
719724.66516524565
 20
3415096.2344404552
 30
0.0568181818181818
  0
VERTEX
  5
849
  8
SHIJIAHE
 10
719699.33809437987
 20
3415094.6967150201
 30
0.0568181818181818
  0
VERTEX
  5
84A
  8
SHIJIAHE
 10
719682.2743701638
 20
3415094.1211418118
 30
0.0568181818181818
  0
VERTEX
  5
84B
  8
SHIJIAHE
 10
719672.48654865858
 20
3415096.4577972218
 30
0.0568181818181818
  0
SEQEND
  5
84C
  8
SHIJIAHE
  0
POLYLINE
  5
124
  8
SHIJIAHE
 66
     1
 10
0.0
 20
0.0
 30
0.5
 70
     1
1001
ADE
1011
-21.36919982731342
1021
0.0
1031
-0.0
1021
2.8175883740186678
1031
0.0
1001
IRD
1002
{
1000
TPMLINK_Unit_topology-_-ade
1070
   515
1071
        5
1004
01003F0500000D0100000D0100000000000021F15F1E2EC8744021F15F1E2EC87440E101000000000000
1002
}
1001
DCO15
1071
        5
1071
        5
1000
unitlink
1004
074132363300
1071
        4
1000
Link
1004
074132363300
  0
VERTEX
  5
84D
  8
SHIJIAHE
 10
720000.21399507672
 20
3415118.1491755568
 30
0.5
  0
VERTEX
  5
84E
  8
SHIJIAHE
 10
719998.70684380073
 20
3415139.0588052068
 30
0.5
  0
VERTEX
  5
84F
  8
SHIJIAHE
 10
719990.99785164371
 20
3415156.8929839879
 30
0.5
  0
VERTEX
  5
850
  8
SHIJIAHE
 10
719979.86914521863
 20
3415182.6384168472
 30
0.5
  0
VERTEX
  5
851
  8
SHIJIAHE
 10
719974.12780911685
 20
3415195.9205699991
 30
0.5
  0
VERTEX
  5
852
  8
SHIJIAHE
 10
719953.68286487833
 20
3415186.075404665
 30
0.5
  0
VERTEX
  5
853
  8
SHIJIAHE
 10
719930.55588840309
 20
3415179.9932280858
 30
0.5
  0
VERTEX
  5
854
  8
SHIJIAHE
 10
719915.33864929725
 20
3415175.9912377959
 30
0.5
  0
VERTEX
  5
855
  8
SHIJIAHE
 10
719894.28144932562
 20
3415170.453392907
 30
0.5
  0
VERTEX
  5
856
  8
SHIJIAHE
 10
719902.95942883182
 20
3415152.434439294
 30
0.5
  0
VERTEX
  5
857
  8
SHIJIAHE
 10
719909.89288478973
 20
3415138.0378137692
 30
0.5
  0
VERTEX
  5
858
  8
SHIJIAHE
 10
719912.69527960545
 20
3415120.4085151609
 30
0.5
  0
VERTEX
  5
859
  8
SHIJIAHE
 10
719915.68308271375
 20
3415101.6128505119
 30
0.5
  0
VERTEX
  5
85A
  8
SHIJIAHE
 10
719920.61215469625
 20
3415093.9149663369
 30
0.5
  0
VERTEX
  5
85B
  8
SHIJIAHE
 10
719936.01281543809
 20
3415099.5074761561
 30
0.5
  0
VERTEX
  5
85C
  8
SHIJIAHE
 10
719955.19928279112
 20
3415106.4747426161
 30
0.5
  0
VERTEX
  5
85D
  8
SHIJIAHE
 10
719981.17538298306
 20
3415111.0876654619
 30
0.5
  0
VERTEX
  5
85E
  8
SHIJIAHE
 10
720000.21399507672
 20
3415118.1491755568
 30
0.5
  0
SEQEND
  5
85F
  8
SHIJIAHE
  0
POLYLINE
  5
125
  8
SHIJIAHE
 66
     1
 10
0.0
 20
0.0
 30
1.399999999999999
 70
     1
1001
ADE
1011
-33.036063026636839
1021
0.0
1031
-0.0
1021
0.757140800356865
1031
0.0
1001
IRD
1002
{
1000
TPMLINK_Unit_topology-_-ade
1070
   515
1071
        5
1004
0100400500000B0100000B0100000000000021437F060370774021437F0603707740E001000000000000
1002
}
1001
DCO15
1071
        5
1071
        5
1000
unitlink
1004
074132363700
1071
        4
1000
Link
1004
074132363700
  0
VERTEX
  5
860
  8
SHIJIAHE
 10
720124.42983521125
 20
3415128.1575670922
 30
1.399999999999999
  0
VERTEX
  5
861
  8
SHIJIAHE
 10
720127.69820472947
 20
3415155.3810304892
 30
1.399999999999999
  0
VERTEX
  5
862
  8
SHIJIAHE
 10
720119.81597679108
 20
3415188.4636039431
 30
1.399999999999999
  0
VERTEX
  5
863
  8
SHIJIAHE
 10
720111.77465312066
 20
3415222.2139195972
 30
1.399999999999999
  0
VERTEX
  5
864
  8
SHIJIAHE
 10
720089.84618705139
 20
3415222.0702067339
 30
1.399999999999999
  0
VERTEX
  5
865
  8
SHIJIAHE
 10
720065.87035525974
 20
3415217.6889778432
 30
1.399999999999999
  0
VERTEX
  5
866
  8
SHIJIAHE
 10
720045.86652086745
 20
3415214.0335727669
 30
1.399999999999999
  0
VERTEX
  5
867
  8
SHIJIAHE
 10
720021.63206732413
 20
3415209.605084572
 30
1.399999999999999
  0
VERTEX
  5
868
  8
SHIJIAHE
 10
720017.95333883155
 20
3415196.736394966
 30
1.399999999999999
  0
VERTEX
  5
869
  8
SHIJIAHE
 10
720016.41154040035
 20
3415177.8455668632
 30
1.399999999999999
  0
VERTEX
  5
86A
  8
SHIJIAHE
 10
720021.57396660745
 20
3415160.5182361309
 30
1.399999999999999
  0
VERTEX
  5
86B
  8
SHIJIAHE
 10
720025.33318300918
 20
3415140.355992585
 30
1.399999999999999
  0
VERTEX
  5
86C
  8
SHIJIAHE
 10
720027.08120590728
 20
3415130.9806176079
 30
1.399999999999999
  0
VERTEX
  5
86D
  8
SHIJIAHE
 10
720032.59176214412
 20
3415119.0168306911
 30
1.399999999999999
  0
VERTEX
  5
86E
  8
SHIJIAHE
 10
720043.28040969744
 20
3415115.5548008019
 30
1.399999999999999
  0
VERTEX
  5
86F
  8
SHIJIAHE
 10
720058.00545090064
 20
3415116.4224559348
 30
1.399999999999999
  0
VERTEX
  5
870
  8
SHIJIAHE
 10
720075.07700018585
 20
3415117.428376202
 30
1.399999999999999
  0
VERTEX
  5
871
  8
SHIJIAHE
 10
720094.44523042161
 20
3415118.5696255988
 30
1.399999999999999
  0
VERTEX
  5
872
  8
SHIJIAHE
 10
720110.27068537474
 20
3415123.6300069941
 30
1.399999999999999
  0
VERTEX
  5
873
  8
SHIJIAHE
 10
720124.42983521125
 20
3415128.1575670922
 30
1.399999999999999
  0
SEQEND
  5
874
  8
SHIJIAHE
  0
POLYLINE
  5
126
  8
SHIJIAHE
 66
     1
 10
0.0
 20
0.0
 30
0.8
 70
     1
1001
ADE
1011
-27.08454855973832
1021
0.0
1031
-0.0
1021
1.79974010400474
1031
0.0
1001
IRD
1002
{
1000
TPMLINK_Unit_topology-_-ade
1070
   515
1071
        5
1004
0100410500001E0100001E010000000000007CCFBB05C81F75407CCFBB05C81F7540DF01000000000000
1002
}
1001
DCO15
1071
        5
1071
        5
1000
unitlink
1004
074132363600
1071
        4
1000
Link
1004
074132363600
  0
VERTEX
  5
875
  8
SHIJIAHE
 10
720042.1024064013
 20
3415040.953640617
 30
0.8
  0
VERTEX
  5
876
  8
SHIJIAHE
 10
720120.28371339303
 20
3415015.2933843448
 30
0.8
  0
VERTEX
  5
877
  8
SHIJIAHE
 10
720127.2651152797
 20
3415028.1535797399
 30
0.8
  0
VERTEX
  5
878
  8
SHIJIAHE
 10
720125.65402253717
 20
3415063.5384460208
 30
0.8
  0
VERTEX
  5
879
  8
SHIJIAHE
 10
720124.10997398628
 20
3415097.4508025618
 30
0.8
  0
VERTEX
  5
87A
  8
SHIJIAHE
 10
720116.5244969913
 20
3415106.9727465599
 30
0.8
  0
VERTEX
  5
87B
  8
SHIJIAHE
 10
720110.9289813377
 20
3415116.9293039832
 30
0.8
  0
VERTEX
  5
87C
  8
SHIJIAHE
 10
720062.02452096716
 20
3415110.5979987029
 30
0.8
  0
VERTEX
  5
87D
  8
SHIJIAHE
 10
720030.40726040816
 20
3415106.5047416221
 30
0.8
  0
VERTEX
  5
87E
  8
SHIJIAHE
 10
720030.56490353146
 20
3415091.8446209189
 30
0.8
  0
VERTEX
  5
87F
  8
SHIJIAHE
 10
720036.38562569767
 20
3415072.0345938131
 30
0.8
  0
VERTEX
  5
880
  8
SHIJIAHE
 10
720042.1024064013
 20
3415040.953640617
 30
0.8
  0
VERTEX
  5
881
  8
SHIJIAHE
 10
720042.1024064013
 20
3415040.953640617
 30
0.8
  0
SEQEND
  5
882
  8
SHIJIAHE
  0
POLYLINE
  5
127
  8
SHIJIAHE
 66
     1
 10
0.0
 20
0.0
 30
0.171875
 70
     1
1001
ADE
1011
-33.596559821045972
1021
0.0
1031
-0.0
1021
-4.3417539708316308
1031
0.0
1001
IRD
1002
{
1000
TPMLINK_Unit_topology-_-ade
1070
   515
1071
        5
1004
010042050000120100001201000000000000FE4BE59164687340FE4BE59164687340DE01000000000000
1002
}
1001
DCO15
1071
        5
1071
        5
1000
unitlink
1004
074132363400
1071
        4
1000
Link
1004
074132363400
  0
VERTEX
  5
883
  8
SHIJIAHE
 10
719999.79822920635
 20
3415083.44297022
 30
0.171875
  0
VERTEX
  5
884
  8
SHIJIAHE
 10
719999.55569911748
 20
3415100.5813067681
 30
0.171875
  0
VERTEX
  5
885
  8
SHIJIAHE
 10
719999.40631398093
 20
3415111.1375752948
 30
0.171875
  0
VERTEX
  5
886
  8
SHIJIAHE
 10
719956.88772678724
 20
3415103.5364886071
 30
0.171875
  0
VERTEX
  5
887
  8
SHIJIAHE
 10
719932.16698114586
 20
3415093.8290598858
 30
0.171875
  0
VERTEX
  5
888
  8
SHIJIAHE
 10
719918.64955142594
 20
3415088.5209883819
 30
0.171875
  0
VERTEX
  5
889
  8
SHIJIAHE
 10
719924.14616458467
 20
3415055.0079356511
 30
0.171875
  0
VERTEX
  5
88A
  8
SHIJIAHE
 10
719930.05350464582
 20
3415035.3783120881
 30
0.171875
  0
VERTEX
  5
88B
  8
SHIJIAHE
 10
719934.76551783108
 20
3415024.8977253269
 30
0.171875
  0
VERTEX
  5
88C
  8
SHIJIAHE
 10
720014.43665251858
 20
3415033.161925707
 30
0.171875
  0
VERTEX
  5
88D
  8
SHIJIAHE
 10
720009.4821092448
 20
3415053.7279295619
 30
0.171875
  0
VERTEX
  5
88E
  8
SHIJIAHE
 10
720005.81863607059
 20
3415068.9347809842
 30
0.171875
  0
SEQEND
  5
88F
  8
SHIJIAHE
  0
POLYLINE
  5
128
  8
SHIJIAHE
 66
     1
 10
0.0
 20
0.0
 30
1.1999999999999991
 70
     1
1001
ADE
1011
-21.374807079671879
1021
0.0
1031
-0.0
1021
-3.2777180452831081
1031
0.0
1001
IRD
1002
{
1000
TPMLINK_Unit_topology-_-ade
1070
   515
1071
        5
1004
0100430500002E0100002E010000000000009494822BFFB675409494822BFFB6754000000000CD010000
1002
}
1001
DCO15
1071
        5
1071
        5
1000
unitlink
1004
074132363500
1071
        4
1000
Link
1004
074132363500
  0
VERTEX
  5
890
  8
SHIJIAHE
 10
720112.14136482414
 20
3414910.7287559202
 30
1.1999999999999991
  0
VERTEX
  5
891
  8
SHIJIAHE
 10
720111.00205664919
 20
3414905.669149186
 30
1.1999999999999991
  0
VERTEX
  5
892
  8
SHIJIAHE
 10
720061.3608209939
 20
3414901.1084987381
 30
1.1999999999999991
  0
VERTEX
  5
893
  8
SHIJIAHE
 10
720061.3608209939
 20
3414901.1084987381
 30
1.1999999999999991
  0
VERTEX
  5
894
  8
SHIJIAHE
 10
720060.98846837424
 20
3414929.1822344339
 30
1.1999999999999991
  0
VERTEX
  5
895
  8
SHIJIAHE
 10
720060.2963969683
 20
3414951.7189125852
 30
1.1999999999999991
  0
VERTEX
  5
896
  8
SHIJIAHE
 10
720062.28218469047
 20
3414974.0867474731
 30
1.1999999999999991
  0
VERTEX
  5
897
  8
SHIJIAHE
 10
720065.604830842
 20
3415023.5027826
 30
1.1999999999999991
  0
VERTEX
  5
898
  8
SHIJIAHE
 10
720131.19921018369
 20
3415011.7206329349
 30
1.1999999999999991
  0
VERTEX
  5
899
  8
SHIJIAHE
 10
720116.10250699136
 20
3414950.6025080769
 30
1.1999999999999991
  0
VERTEX
  5
89A
  8
SHIJIAHE
 10
720115.07170512411
 20
3414924.880093581
 30
1.1999999999999991
  0
VERTEX
  5
89B
  8
SHIJIAHE
 10
720112.14136482414
 20
3414910.7287559202
 30
1.1999999999999991
  0
SEQEND
  5
89C
  8
SHIJIAHE
  0
POLYLINE
  5
129
  8
SHIJIAHE
 66
     1
 10
0.0
 20
0.0
 30
0.0277777777777778
 70
     1
1001
ADE
1011
-14.854283122112969
1021
0.0
1031
-0.0
1021
-0.7889415938407183
1031
0.0
1001
IRD
1002
{
1000
TPMLINK_Unit_topology-_-ade
1070
   515
1071
        5
1004
0100490500006A0100006A0100000000000062A0481E1E9F714062A0481E1E9F7140D701000000000000
1002
}
1001
DCO15
1071
        5
1071
        5
1000
unitlink
1004
074332313100
1071
        4
1000
Link
1004
074332313100
  0
VERTEX
  5
89D
  8
SHIJIAHE
 10
719915.99989086017
 20
3414523.4308874719
 30
0.0277777777777778
  0
VERTEX
  5
89E
  8
SHIJIAHE
 10
719916.34080883127
 20
3414502.6205403451
 30
0.0277777777777778
  0
VERTEX
  5
89F
  8
SHIJIAHE
 10
719922.78578194603
 20
3414484.6278417651
 30
0.0277777777777778
  0
VERTEX
  5
8A0
  8
SHIJIAHE
 10
719924.13321965176
 20
3414468.7765560788
 30
0.0277777777777778
  0
VERTEX
  5
8A1
  8
SHIJIAHE
 10
719928.43527979031
 20
3414460.718081235
 30
0.0277777777777778
  0
VERTEX
  5
8A2
  8
SHIJIAHE
 10
719993.51814430952
 20
3414474.6855676039
 30
0.0277777777777778
  0
VERTEX
  5
8A3
  8
SHIJIAHE
 10
719995.12532903999
 20
3414495.1014439352
 30
0.0277777777777778
  0
VERTEX
  5
8A4
  8
SHIJIAHE
 10
719994.9142845833
 20
3414525.0329219289
 30
0.0277777777777778
  0
VERTEX
  5
8A5
  8
SHIJIAHE
 10
719991.06678174075
 20
3414540.248224088
 30
0.0277777777777778
  0
VERTEX
  5
8A6
  8
SHIJIAHE
 10
719986.42380362737
 20
3414546.6000089529
 30
0.0277777777777778
  0
VERTEX
  5
8A7
  8
SHIJIAHE
 10
719972.25135645282
 20
3414543.1624777252
 30
0.0277777777777778
  0
VERTEX
  5
8A8
  8
SHIJIAHE
 10
719961.41875157121
 20
3414540.5350262281
 30
0.0277777777777778
  0
VERTEX
  5
8A9
  8
SHIJIAHE
 10
719951.03327116359
 20
3414538.8393998118
 30
0.0277777777777778
  0
VERTEX
  5
8AA
  8
SHIJIAHE
 10
719938.92283478752
 20
3414536.8621416572
 30
0.0277777777777778
  0
VERTEX
  5
8AB
  8
SHIJIAHE
 10
719932.80227668595
 20
3414533.445615449
 30
0.0277777777777778
  0
VERTEX
  5
8AC
  8
SHIJIAHE
 10
719917.70448072627
 20
3414527.9632764189
 30
0.0277777777777778
  0
VERTEX
  5
8AD
  8
SHIJIAHE
 10
719915.99989086017
 20
3414523.4308874719
 30
0.0277777777777778
  0
SEQEND
  5
8AE
  8
SHIJIAHE
  0
POLYLINE
  5
12A
  8
SHIJIAHE
 66
     1
 10
0.0
 20
0.0
 30
0.0171428571428572
 70
     1
1001
ADE
1011
-21.745696438360032
1021
0.0
1031
-0.0
1021
14.54309171577915
1031
0.0
1001
IRD
1002
{
1000
TPMLINK_Unit_topology-_-ade
1070
   515
1071
        5
1004
01004D050000A8010000A801000000000000C2C985B4C9CE7940C2C985B4C9CE794000000000DB010000
1002
}
1001
DCO15
1071
        5
1071
        5
1000
unitlink
1004
074332313500
1071
        4
1000
Link
1004
074332313500
  0
VERTEX
  5
8AF
  8
SHIJIAHE
 10
720223.92999168485
 20
3414280.3885742142
 30
0.0171428571428572
  0
VERTEX
  5
8B0
  8
SHIJIAHE
 10
720253.2814057658
 20
3414272.0724857869
 30
0.0171428571428572
  0
VERTEX
  5
8B1
  8
SHIJIAHE
 10
720275.55471335363
 20
3414269.375593605
 30
0.0171428571428572
  0
VERTEX
  5
8B2
  8
SHIJIAHE
 10
720294.82469594129
 20
3414264.0220613661
 30
0.0171428571428572
  0
VERTEX
  5
8B3
  8
SHIJIAHE
 10
720303.2648390301
 20
3414261.677244606
 30
0.0171428571428572
  0
VERTEX
  5
8B4
  8
SHIJIAHE
 10
720304.02948122099
 20
3414253.2183917938
 30
0.0171428571428572
  0
VERTEX
  5
8B5
  8
SHIJIAHE
 10
720302.13008108363
 20
3414236.4413073021
 30
0.0171428571428572
  0
VERTEX
  5
8B6
  8
SHIJIAHE
 10
720301.52941608056
 20
3414213.0548243588
 30
0.0171428571428572
  0
VERTEX
  5
8B7
  8
SHIJIAHE
 10
720301.14920385089
 20
3414198.25152006
 30
0.0171428571428572
  0
VERTEX
  5
8B8
  8
SHIJIAHE
 10
720298.86700905114
 20
3414179.3315964611
 30
0.0171428571428572
  0
VERTEX
  5
8B9
  8
SHIJIAHE
 10
720297.74684999906
 20
3414164.4383112839
 30
0.0171428571428572
  0
VERTEX
  5
8BA
  8
SHIJIAHE
 10
720298.03906540212
 20
3414148.4501683819
 30
0.0171428571428572
  0
VERTEX
  5
8BB
  8
SHIJIAHE
 10
720293.63960012805
 20
3414142.9597789301
 30
0.0171428571428572
  0
VERTEX
  5
8BC
  8
SHIJIAHE
 10
720256.67435131234
 20
3414156.4925423791
 30
0.0171428571428572
  0
VERTEX
  5
8BD
  8
SHIJIAHE
 10
720219.3255947578
 20
3414170.1657057921
 30
0.0171428571428572
  0
VERTEX
  5
8BE
  8
SHIJIAHE
 10
720193.96167841565
 20
3414184.0008426262
 30
0.0171428571428572
  0
VERTEX
  5
8BF
  8
SHIJIAHE
 10
720191.80253124982
 20
3414191.4635860631
 30
0.0171428571428572
  0
VERTEX
  5
8C0
  8
SHIJIAHE
 10
720201.44563963637
 20
3414213.9323206218
 30
0.0171428571428572
  0
VERTEX
  5
8C1
  8
SHIJIAHE
 10
720204.14051504433
 20
3414227.7065968039
 30
0.0171428571428572
  0
VERTEX
  5
8C2
  8
SHIJIAHE
 10
720213.88102856639
 20
3414256.1165445852
 30
0.0171428571428572
  0
VERTEX
  5
8C3
  8
SHIJIAHE
 10
720217.3876258441
 20
3414266.3441619808
 30
0.0171428571428572
  0
VERTEX
  5
8C4
  8
SHIJIAHE
 10
720223.92999168485
 20
3414280.3885742142
 30
0.0171428571428572
  0
SEQEND
  5
8C5
  8
SHIJIAHE
  0
POLYLINE
  5
12B
  8
SHIJIAHE
 66
     1
 10
0.0
 20
0.0
 30
0.06
 70
     1
1001
ADE
1011
-21.818750290432948
1021
0.0
1031
-0.0
1021
-5.7560534598305821
1031
0.0
1001
IRD
1002
{
1000
TPMLINK_Unit_topology-_-ade
1070
   515
1071
        5
1004
01004E0500009301000093010000000000009149A66DC93F75409149A66DC93F754000000000DC010000
1002
}
1001
DCO15
1071
        5
1071
        5
1000
unitlink
1004
074332313600
1071
        4
1000
Link
1004
074332313600
  0
VERTEX
  5
8C6
  8
SHIJIAHE
 10
720266.51226997003
 20
3414380.9786273488
 30
0.06
  0
VERTEX
  5
8C7
  8
SHIJIAHE
 10
720332.35814138141
 20
3414363.307945746
 30
0.06
  0
VERTEX
  5
8C8
  8
SHIJIAHE
 10
720330.39380448684
 20
3414337.780049908
 30
0.06
  0
VERTEX
  5
8C9
  8
SHIJIAHE
 10
720309.76015000802
 20
3414298.5100795841
 30
0.06
  0
VERTEX
  5
8CA
  8
SHIJIAHE
 10
720302.21125202999
 20
3414274.4554114151
 30
0.06
  0
VERTEX
  5
8CB
  8
SHIJIAHE
 10
720283.33088998485
 20
3414273.4893604838
 30
0.06
  0
VERTEX
  5
8CC
  8
SHIJIAHE
 10
720254.75871698558
 20
3414277.361614631
 30
0.06
  0
VERTEX
  5
8CD
  8
SHIJIAHE
 10
720233.67796613905
 20
3414280.2185910628
 30
0.06
  0
VERTEX
  5
8CE
  8
SHIJIAHE
 10
720232.97243507218
 20
3414295.7407335839
 30
0.06
  0
VERTEX
  5
8CF
  8
SHIJIAHE
 10
720241.34927670297
 20
3414322.460092234
 30
0.06
  0
VERTEX
  5
8D0
  8
SHIJIAHE
 10
720249.90910253325
 20
3414349.763110057
 30
0.06
  0
VERTEX
  5
8D1
  8
SHIJIAHE
 10
720260.32704388339
 20
3414372.1312109111
 30
0.06
  0
VERTEX
  5
8D2
  8
SHIJIAHE
 10
720266.51226997003
 20
3414380.9786273488
 30
0.06
  0
SEQEND
  5
8D3
  8
SHIJIAHE
  0
POLYLINE
  5
12C
  8
SHIJIAHE
 66
     1
 10
0.0
 20
0.0
 30
0.03
 70
     1
1001
ADE
1011
-16.91773340571671
1021
0.0
1031
-0.0
1021
-2.2581440508365631
1031
0.0
1001
IRD
1002
{
1000
TPMLINK_Unit_topology-_-ade
1070
   515
1071
        5
1004
01004F0500002D0100002D010000000000001CA5D15129FB7A401CA5D15129FB7A4000000000CF010000
1002
}
1001
DCO15
1071
        5
1071
        5
1000
unitlink
1004
074132353600
1071
        4
1000
Link
1004
074132353600
  0
VERTEX
  5
8D4
  8
SHIJIAHE
 10
719764.69724747562
 20
3414928.3833366758
 30
0.03
  0
VERTEX
  5
8D5
  8
SHIJIAHE
 10
719792.24666655436
 20
3414941.851696732
 30
0.03
  0
VERTEX
  5
8D6
  8
SHIJIAHE
 10
719801.63002791628
 20
3414908.4826875082
 30
0.03
  0
VERTEX
  5
8D7
  8
SHIJIAHE
 10
719808.04253265262
 20
3414863.223201415
 30
0.03
  0
VERTEX
  5
8D8
  8
SHIJIAHE
 10
719818.78956590593
 20
3414816.8125046301
 30
0.03
  0
VERTEX
  5
8D9
  8
SHIJIAHE
 10
719822.92928415164
 20
3414796.5656872122
 30
0.03
  0
VERTEX
  5
8DA
  8
SHIJIAHE
 10
719834.16334307962
 20
3414761.0472146678
 30
0.03
  0
VERTEX
  5
8DB
  8
SHIJIAHE
 10
719799.90920386103
 20
3414754.7034802269
 30
0.03
  0
VERTEX
  5
8DC
  8
SHIJIAHE
 10
719797.08445493877
 20
3414764.6055022641
 30
0.03
  0
VERTEX
  5
8DD
  8
SHIJIAHE
 10
719789.46066644869
 20
3414791.3303276268
 30
0.03
  0
VERTEX
  5
8DE
  8
SHIJIAHE
 10
719777.86702016986
 20
3414831.9712993079
 30
0.03
  0
VERTEX
  5
8DF
  8
SHIJIAHE
 10
719771.95393005037
 20
3414867.5140776308
 30
0.03
  0
VERTEX
  5
8E0
  8
SHIJIAHE
 10
719764.8595893681
 20
3414907.2348717218
 30
0.03
  0
VERTEX
  5
8E1
  8
SHIJIAHE
 10
719761.37265519984
 20
3414926.7580099972
 30
0.03
  0
VERTEX
  5
8E2
  8
SHIJIAHE
 10
719764.69724747562
 20
3414928.3833366758
 30
0.03
  0
SEQEND
  5
8E3
  8
SHIJIAHE
  0
POLYLINE
  5
12D
  8
SHIJIAHE
 66
     1
 10
0.0
 20
0.0
 30
0.0625
 70
     1
1001
ADE
1011
-17.118952514487319
1021
0.0
1031
-0.0
1021
-4.8058847845532
1031
0.0
1001
IRD
1002
{
1000
TPMLINK_Unit_topology-_-ade
1070
   515
1071
        5
1004
0100500500005901000059010000000000003896FD828B0075403896FD828B007540CE01000000000000
1002
}
1001
DCO15
1071
        5
1071
        5
1000
unitlink
1004
074132353700
1071
        4
1000
Link
1004
074132353700
  0
VERTEX
  5
8E4
  8
SHIJIAHE
 10
719861.37184418726
 20
3414632.9649621369
 30
0.0625
  0
VERTEX
  5
8E5
  8
SHIJIAHE
 10
719847.89746714733
 20
3414686.4680828368
 30
0.0625
  0
VERTEX
  5
8E6
  8
SHIJIAHE
 10
719844.94284471124
 20
3414712.7205168731
 30
0.0625
  0
VERTEX
  5
8E7
  8
SHIJIAHE
 10
719806.50028467551
 20
3414703.8650500099
 30
0.0625
  0
VERTEX
  5
8E8
  8
SHIJIAHE
 10
719779.55153059587
 20
3414702.8748478061
 30
0.0625
  0
VERTEX
  5
8E9
  8
SHIJIAHE
 10
719764.11281666532
 20
3414696.96583628
 30
0.0625
  0
VERTEX
  5
8EA
  8
SHIJIAHE
 10
719767.39212288347
 20
3414653.9685194511
 30
0.0625
  0
VERTEX
  5
8EB
  8
SHIJIAHE
 10
719770.03966950392
 20
3414619.2546521579
 30
0.0625
  0
VERTEX
  5
8EC
  8
SHIJIAHE
 10
719796.64613182843
 20
3414619.834719907
 30
0.0625
  0
VERTEX
  5
8ED
  8
SHIJIAHE
 10
719823.55147105723
 20
3414620.4213036988
 30
0.0625
  0
VERTEX
  5
8EE
  8
SHIJIAHE
 10
719847.57278336212
 20
3414630.3324733521
 30
0.0625
  0
VERTEX
  5
8EF
  8
SHIJIAHE
 10
719861.37184418726
 20
3414632.9649621369
 30
0.0625
  0
SEQEND
  5
8F0
  8
SHIJIAHE
  0
POLYLINE
  5
12E
  8
SHIJIAHE
 66
     1
 10
0.0
 20
0.0
 30
0.045
 70
     1
1001
ADE
1011
-25.526779463631101
1021
0.0
1031
-0.0
1021
-0.6440339549444616
1031
0.0
1001
IRD
1002
{
1000
TPMLINK_Unit_topology-_-ade
1070
   515
1071
        5
1004
010051050000660100006601000000000000B179614BC8287D40B179614BC8287D40CC01000000000000
1002
}
1001
DCO15
1071
        5
1071
        5
1000
unitlink
1004
074132353800
1071
        4
1000
Link
1004
074132353800
  0
VERTEX
  5
8F1
  8
SHIJIAHE
 10
719871.27469960204
 20
3414560.7446046602
 30
0.045
  0
VERTEX
  5
8F2
  8
SHIJIAHE
 10
719866.48561378557
 20
3414603.5487113041
 30
0.045
  0
VERTEX
  5
8F3
  8
SHIJIAHE
 10
719861.42054675543
 20
3414617.105626029
 30
0.045
  0
VERTEX
  5
8F4
  8
SHIJIAHE
 10
719838.53033997479
 20
3414616.3086340101
 30
0.045
  0
VERTEX
  5
8F5
  8
SHIJIAHE
 10
719832.94577889144
 20
3414602.478004857
 30
0.045
  0
VERTEX
  5
8F6
  8
SHIJIAHE
 10
719807.39316508186
 20
3414602.2123408518
 30
0.045
  0
VERTEX
  5
8F7
  8
SHIJIAHE
 10
719768.82073153579
 20
3414605.9396873582
 30
0.045
  0
VERTEX
  5
8F8
  8
SHIJIAHE
 10
719735.45947271958
 20
3414607.074797201
 30
0.045
  0
VERTEX
  5
8F9
  8
SHIJIAHE
 10
719719.35515702912
 20
3414608.2018566211
 30
0.045
  0
VERTEX
  5
8FA
  8
SHIJIAHE
 10
719707.92628782988
 20
3414612.6134892032
 30
0.045
  0
VERTEX
  5
8FB
  8
SHIJIAHE
 10
719689.12709673122
 20
3414604.6999219959
 30
0.045
  0
VERTEX
  5
8FC
  8
SHIJIAHE
 10
719687.47120943293
 20
3414591.8192429231
 30
0.045
  0
VERTEX
  5
8FD
  8
SHIJIAHE
 10
719685.89352695667
 20
3414579.5468970481
 30
0.045
  0
VERTEX
  5
8FE
  8
SHIJIAHE
 10
719694.46814497944
 20
3414561.6301513468
 30
0.045
  0
VERTEX
  5
8FF
  8
SHIJIAHE
 10
719709.20878877502
 20
3414553.3462646189
 30
0.045
  0
VERTEX
  5
900
  8
SHIJIAHE
 10
719751.40144651767
 20
3414555.5601313328
 30
0.045
  0
VERTEX
  5
901
  8
SHIJIAHE
 10
719782.18146925035
 20
3414553.9017439019
 30
0.045
  0
VERTEX
  5
902
  8
SHIJIAHE
 10
719831.28989159327
 20
3414556.485930142
 30
0.045
  0
VERTEX
  5
903
  8
SHIJIAHE
 10
719857.95376678288
 20
3414557.8890381241
 30
0.045
  0
VERTEX
  5
904
  8
SHIJIAHE
 10
719871.27469960204
 20
3414560.7446046602
 30
0.045
  0
SEQEND
  5
905
  8
SHIJIAHE
  0
POLYLINE
  5
12F
  8
SHIJIAHE
 66
     1
 10
0.0
 20
0.0
 30
0.06
 70
     1
1001
ADE
1011
-14.685841993778009
1021
0.0
1031
-0.0
1021
0.7455553961917758
1031
0.0
1001
IRD
1002
{
1000
TPMLINK_Unit_topology-_-ade
1070
   515
1071
        5
1004
01005205000080010000800100000000000048821D0D269F7D4048821D0D269F7D40CB01000000000000
1002
}
1001
DCO15
1071
        5
1071
        5
1000
unitlink
1004
074132373200
1071
        4
1000
Link
1004
074132373200
  0
VERTEX
  5
906
  8
SHIJIAHE
 10
719613.96280071512
 20
3414473.5907098819
 30
0.06
  0
VERTEX
  5
907
  8
SHIJIAHE
 10
719617.58302490809
 20
3414512.2327471012
 30
0.06
  0
VERTEX
  5
908
  8
SHIJIAHE
 10
719599.93646124017
 20
3414517.8841450461
 30
0.06
  0
VERTEX
  5
909
  8
SHIJIAHE
 10
719583.19901217136
 20
3414519.687440115
 30
0.06
  0
VERTEX
  5
90A
  8
SHIJIAHE
 10
719557.41911971557
 20
3414516.2982114339
 30
0.06
  0
VERTEX
  5
90B
  8
SHIJIAHE
 10
719543.12599379127
 20
3414514.4191239858
 30
0.06
  0
VERTEX
  5
90C
  8
SHIJIAHE
 10
719535.42179334525
 20
3414515.9842448821
 30
0.06
  0
VERTEX
  5
90D
  8
SHIJIAHE
 10
719517.04469116405
 20
3414513.7381764692
 30
0.06
  0
VERTEX
  5
90E
  8
SHIJIAHE
 10
719504.60814037104
 20
3414512.2181683821
 30
0.06
  0
VERTEX
  5
90F
  8
SHIJIAHE
 10
719488.00172667962
 20
3414512.8123776619
 30
0.06
  0
VERTEX
  5
910
  8
SHIJIAHE
 10
719473.12996284186
 20
3414513.3445178471
 30
0.06
  0
VERTEX
  5
911
  8
SHIJIAHE
 10
719456.68597570434
 20
3414512.0878394628
 30
0.06
  0
VERTEX
  5
912
  8
SHIJIAHE
 10
719439.76995055377
 20
3414512.3293521949
 30
0.06
  0
VERTEX
  5
913
  8
SHIJIAHE
 10
719433.68212960311
 20
3414514.0360421711
 30
0.06
  0
VERTEX
  5
914
  8
SHIJIAHE
 10
719415.93816079933
 20
3414514.1165464162
 30
0.06
  0
VERTEX
  5
915
  8
SHIJIAHE
 10
719409.74073623738
 20
3414514.1446640822
 30
0.06
  0
VERTEX
  5
916
  8
SHIJIAHE
 10
719412.99977255613
 20
3414502.2502208198
 30
0.06
  0
VERTEX
  5
917
  8
SHIJIAHE
 10
719421.44155094004
 20
3414491.0681813001
 30
0.06
  0
VERTEX
  5
918
  8
SHIJIAHE
 10
719434.52630744141
 20
3414481.6008821819
 30
0.06
  0
VERTEX
  5
919
  8
SHIJIAHE
 10
719446.83182285703
 20
3414477.0845940821
 30
0.06
  0
VERTEX
  5
91A
  8
SHIJIAHE
 10
719465.67971652374
 20
3414474.4440548699
 30
0.06
  0
VERTEX
  5
91B
  8
SHIJIAHE
 10
719489.61514181807
 20
3414471.0907661631
 30
0.06
  0
VERTEX
  5
91C
  8
SHIJIAHE
 10
719529.33397239097
 20
3414465.918655409
 30
0.06
  0
VERTEX
  5
91D
  8
SHIJIAHE
 10
719546.50974456966
 20
3414465.0250583012
 30
0.06
  0
VERTEX
  5
91E
  8
SHIJIAHE
 10
719568.55098055699
 20
3414463.8783276291
 30
0.06
  0
VERTEX
  5
91F
  8
SHIJIAHE
 10
719582.90712287894
 20
3414463.1314262878
 30
0.06
  0
VERTEX
  5
920
  8
SHIJIAHE
 10
719600.1962082684
 20
3414469.2354302709
 30
0.06
  0
VERTEX
  5
921
  8
SHIJIAHE
 10
719613.96280071512
 20
3414473.5907098819
 30
0.06
  0
SEQEND
  5
922
  8
SHIJIAHE
  0
POLYLINE
  5
130
  8
SHIJIAHE
 66
     1
 10
0.0
 20
0.0
 30
0.06
 70
     1
1001
ADE
1011
-15.365660084527921
1021
0.0
1031
-0.0
1021
-2.101160773076117
1031
0.0
1001
IRD
1002
{
1000
TPMLINK_Unit_topology-_-ade
1070
   515
1071
        5
1004
010053050000950100009501000000000000C2715830530E7640C2715830530E764000000000CA010000
1002
}
1001
DCO15
1071
        5
1071
        5
1000
unitlink
1004
074132373300
1071
        4
1000
Link
1004
074132373300
  0
VERTEX
  5
923
  8
SHIJIAHE
 10
719513.63551143184
 20
3414374.0472119218
 30
0.06
  0
VERTEX
  5
924
  8
SHIJIAHE
 10
719519.57722467941
 20
3414461.4184681601
 30
0.06
  0
VERTEX
  5
925
  8
SHIJIAHE
 10
719541.3310382145
 20
3414463.3988725669
 30
0.06
  0
VERTEX
  5
926
  8
SHIJIAHE
 10
719576.08843730006
 20
3414461.7887876821
 30
0.06
  0
VERTEX
  5
927
  8
SHIJIAHE
 10
719592.46873420849
 20
3414460.2350557698
 30
0.06
  0
VERTEX
  5
928
  8
SHIJIAHE
 10
719604.74178124603
 20
3414462.376468665
 30
0.06
  0
VERTEX
  5
929
  8
SHIJIAHE
 10
719606.12168733031
 20
3414457.6991720768
 30
0.06
  0
VERTEX
  5
92A
  8
SHIJIAHE
 10
719605.34244624549
 20
3414442.8944415669
 30
0.06
  0
VERTEX
  5
92B
  8
SHIJIAHE
 10
719604.39002627193
 20
3414424.7995011038
 30
0.06
  0
VERTEX
  5
92C
  8
SHIJIAHE
 10
719603.46120816015
 20
3414407.1529702628
 30
0.06
  0
VERTEX
  5
92D
  8
SHIJIAHE
 10
719604.12488205743
 20
3414387.5799753731
 30
0.06
  0
VERTEX
  5
92E
  8
SHIJIAHE
 10
719602.35535543435
 20
3414376.3657341572
 30
0.06
  0
VERTEX
  5
92F
  8
SHIJIAHE
 10
719593.65383002162
 20
3414373.0731105669
 30
0.06
  0
VERTEX
  5
930
  8
SHIJIAHE
 10
719581.25090946641
 20
3414373.8459513108
 30
0.06
  0
VERTEX
  5
931
  8
SHIJIAHE
 10
719565.25489093573
 20
3414374.8426822699
 30
0.06
  0
VERTEX
  5
932
  8
SHIJIAHE
 10
719544.87002453685
 20
3414376.1128875641
 30
0.06
  0
VERTEX
  5
933
  8
SHIJIAHE
 10
719527.5969141461
 20
3414369.5953272181
 30
0.06
  0
VERTEX
  5
934
  8
SHIJIAHE
 10
719514.54462602735
 20
3414370.5533277229
 30
0.06
  0
VERTEX
  5
935
  8
SHIJIAHE
 10
719513.63551143184
 20
3414374.0472119218
 30
0.06
  0
SEQEND
  5
936
  8
SHIJIAHE
  0
POLYLINE
  5
131
  8
SHIJIAHE
 66
     1
 10
0.0
 20
0.0
 30
0.06
 70
     1
1001
ADE
1011
-9.3510869098827225
1021
0.0
1031
-0.0
1021
-0.1086807292886078
1031
0.0
1001
IRD
1002
{
1000
TPMLINK_Unit_topology-_-ade
1070
   515
1071
        5
1004
010054050000820100008201000000000000E35317E771537740E35317E771537740C901000000000000
1002
}
1001
DCO15
1071
        5
1071
        5
1000
unitlink
1004
074132373100
1071
        4
1000
Link
1004
074132373100
  0
VERTEX
  5
937
  8
SHIJIAHE
 10
719618.99539936706
 20
3414457.5542644369
 30
0.06
  0
VERTEX
  5
938
  8
SHIJIAHE
 10
719617.32327787962
 20
3414427.276618191
 30
0.06
  0
VERTEX
  5
939
  8
SHIJIAHE
 10
719616.49960801529
 20
3414412.3621607479
 30
0.06
  0
VERTEX
  5
93A
  8
SHIJIAHE
 10
719615.56101125607
 20
3414395.3666847269
 30
0.06
  0
VERTEX
  5
93B
  8
SHIJIAHE
 10
719614.41450520791
 20
3414374.6065277681
 30
0.06
  0
VERTEX
  5
93C
  8
SHIJIAHE
 10
719624.19033991185
 20
3414369.2974615148
 30
0.06
  0
VERTEX
  5
93D
  8
SHIJIAHE
 10
719643.18434128165
 20
3414370.8753447011
 30
0.06
  0
VERTEX
  5
93E
  8
SHIJIAHE
 10
719655.60349602276
 20
3414371.3342188932
 30
0.06
  0
VERTEX
  5
93F
  8
SHIJIAHE
 10
719669.48372779437
 20
3414370.609680695
 30
0.06
  0
VERTEX
  5
940
  8
SHIJIAHE
 10
719678.07190044515
 20
3414370.1613842081
 30
0.06
  0
VERTEX
  5
941
  8
SHIJIAHE
 10
719685.62051186338
 20
3414372.0185049688
 30
0.06
  0
VERTEX
  5
942
  8
SHIJIAHE
 10
719692.27652943518
 20
3414370.8672942761
 30
0.06
  0
VERTEX
  5
943
  8
SHIJIAHE
 10
719701.61118822906
 20
3414371.3744710148
 30
0.06
  0
VERTEX
  5
944
  8
SHIJIAHE
 10
719712.12566002121
 20
3414371.945750121
 30
0.06
  0
VERTEX
  5
945
  8
SHIJIAHE
 10
719717.11483891716
 20
3414377.7745584319
 30
0.06
  0
VERTEX
  5
946
  8
SHIJIAHE
 10
719718.64085270453
 20
3414408.6479360829
 30
0.06
  0
VERTEX
  5
947
  8
SHIJIAHE
 10
719719.48827120324
 20
3414425.7923888681
 30
0.06
  0
VERTEX
  5
948
  8
SHIJIAHE
 10
719718.64085270453
 20
3414444.2388624442
 30
0.06
  0
VERTEX
  5
949
  8
SHIJIAHE
 10
719719.42009378574
 20
3414458.3190547568
 30
0.06
  0
VERTEX
  5
94A
  8
SHIJIAHE
 10
719708.49448445055
 20
3414459.7117781821
 30
0.06
  0
VERTEX
  5
94B
  8
SHIJIAHE
 10
719691.18883875781
 20
3414457.9326343848
 30
0.06
  0
VERTEX
  5
94C
  8
SHIJIAHE
 10
719677.67439138144
 20
3414456.5432528122
 30
0.06
  0
VERTEX
  5
94D
  8
SHIJIAHE
 10
719661.69131697342
 20
3414457.5542644369
 30
0.06
  0
VERTEX
  5
94E
  8
SHIJIAHE
 10
719645.73310898605
 20
3414455.0183807458
 30
0.06
  0
VERTEX
  5
94F
  8
SHIJIAHE
 10
719632.04768748954
 20
3414454.3421450942
 30
0.06
  0
VERTEX
  5
950
  8
SHIJIAHE
 10
719621.13831234351
 20
3414458.9872399839
 30
0.06
  0
VERTEX
  5
951
  8
SHIJIAHE
 10
719618.99539936706
 20
3414457.5542644369
 30
0.06
  0
SEQEND
  5
952
  8
SHIJIAHE
  0
ENDSEC
  0
EOF
