  0
SECTION
  2
HEADER
  9
$ACADVER
  1
AC1009
  9
$INSBASE
 10
0.0
 20
0.0
 30
0.0
  9
$EXTMIN
 10
719409.74073623738
 20
3413692.6531089768
 30
0.0066225165562914
  9
$EXTMAX
 10
730659.53900161386
 20
3423794.593125009
 30
11.699999999999999
  9
$LIMMIN
 10
0.0
 20
0.0
  9
$LIMMAX
 10
12.0
 20
9.0
  9
$ORTHOMODE
 70
     0
  9
$REGENMODE
 70
     1
  9
$FILLMODE
 70
     1
  9
$QTEXTMODE
 70
     0
  9
$MIRRTEXT
 70
     0
  9
$DRAGMODE
 70
     2
  9
$LTSCALE
 40
1.0
  9
$OSMODE
 70
    37
  9
$ATTMODE
 70
     1
  9
$TEXTSIZE
 40
0.2
  9
$TRACEWID
 40
0.05
  9
$TEXTSTYLE
  7
STANDARD
  9
$CLAYER
  8
QUJIALING
  9
$CELTYPE
  6
BYLAYER
  9
$CECOLOR
 62
   256
  9
$DIMSCALE
 40
1.0
  9
$DIMASZ
 40
0.18
  9
$DIMEXO
 40
0.0625
  9
$DIMDLI
 40
0.38
  9
$DIMRND
 40
0.0
  9
$DIMDLE
 40
0.0
  9
$DIMEXE
 40
0.18
  9
$DIMTP
 40
0.0
  9
$DIMTM
 40
0.0
  9
$DIMTXT
 40
0.18
  9
$DIMCEN
 40
0.09
  9
$DIMTSZ
 40
0.0
  9
$DIMTOL
 70
     0
  9
$DIMLIM
 70
     0
  9
$DIMTIH
 70
     1
  9
$DIMTOH
 70
     1
  9
$DIMSE1
 70
     0
  9
$DIMSE2
 70
     0
  9
$DIMTAD
 70
     0
  9
$DIMZIN
 70
     0
  9
$DIMBLK
  1

  9
$DIMASO
 70
     1
  9
$DIMSHO
 70
     1
  9
$DIMPOST
  1

  9
$DIMAPOST
  1

  9
$DIMALT
 70
     0
  9
$DIMALTD
 70
     2
  9
$DIMALTF
 40
25.399999999999999
  9
$DIMLFAC
 40
1.0
  9
$DIMTOFL
 70
     0
  9
$DIMTVP
 40
0.0
  9
$DIMTIX
 70
     0
  9
$DIMSOXD
 70
     0
  9
$DIMSAH
 70
     0
  9
$DIMBLK1
  1

  9
$DIMBLK2
  1

  9
$DIMSTYLE
  2
STANDARD
  9
$DIMCLRD
 70
     0
  9
$DIMCLRE
 70
     0
  9
$DIMCLRT
 70
     0
  9
$DIMTFAC
 40
1.0
  9
$DIMGAP
 40
0.09
  9
$LUNITS
 70
     2
  9
$LUPREC
 70
     4
  9
$SKETCHINC
 40
0.1
  9
$FILLETRAD
 40
0.0
  9
$AUNITS
 70
     0
  9
$AUPREC
 70
     0
  9
$MENU
  1
.
  9
$ELEVATION
 40
0.0
  9
$PELEVATION
 40
0.0
  9
$THICKNESS
 40
0.0
  9
$LIMCHECK
 70
     0
  9
$BLIPMODE
 70
     0
  9
$CHAMFERA
 40
0.0
  9
$CHAMFERB
 40
0.0
  9
$SKPOLY
 70
     0
  9
$TDCREATE
 40
2457105.2334777541
  9
$TDUPDATE
 40
2457620.4974837271
  9
$TDINDWG
 40
0.0646497222
  9
$TDUSRTIMER
 40
0.0646444444
  9
$USRTIMER
 70
     1
  9
$ANGBASE
 50
0.0
  9
$ANGDIR
 70
     0
  9
$PDMODE
 70
     0
  9
$PDSIZE
 40
0.0
  9
$PLINEWID
 40
0.0
  9
$COORDS
 70
     1
  9
$SPLFRAME
 70
     0
  9
$SPLINETYPE
 70
     6
  9
$SPLINESEGS
 70
     8
  9
$ATTDIA
 70
     1
  9
$ATTREQ
 70
     1
  9
$HANDLING
 70
     1
  9
$HANDSEED
  5
534
  9
$SURFTAB1
 70
     6
  9
$SURFTAB2
 70
     6
  9
$SURFTYPE
 70
     6
  9
$SURFU
 70
     6
  9
$SURFV
 70
     6
  9
$UCSNAME
  2

  9
$UCSORG
 10
0.0
 20
0.0
 30
0.0
  9
$UCSXDIR
 10
1.0
 20
0.0
 30
0.0
  9
$UCSYDIR
 10
0.0
 20
1.0
 30
0.0
  9
$PUCSNAME
  2

  9
$PUCSORG
 10
0.0
 20
0.0
 30
0.0
  9
$PUCSXDIR
 10
1.0
 20
0.0
 30
0.0
  9
$PUCSYDIR
 10
0.0
 20
1.0
 30
0.0
  9
$USERI1
 70
     0
  9
$USERI2
 70
     0
  9
$USERI3
 70
     0
  9
$USERI4
 70
     0
  9
$USERI5
 70
     0
  9
$USERR1
 40
0.0
  9
$USERR2
 40
0.0
  9
$USERR3
 40
0.0
  9
$USERR4
 40
0.0
  9
$USERR5
 40
0.0
  9
$WORLDVIEW
 70
     1
  9
$SHADEDGE
 70
     3
  9
$SHADEDIF
 70
    70
  9
$TILEMODE
 70
     1
  9
$MAXACTVP
 70
    64
  9
$PLIMCHECK
 70
     0
  9
$PEXTMIN
 10
0.0
 20
0.0
 30
0.0
  9
$PEXTMAX
 10
0.0
 20
0.0
 30
0.0
  9
$PLIMMIN
 10
0.0
 20
0.0
  9
$PLIMMAX
 10
12.0
 20
9.0
  9
$UNITMODE
 70
     0
  9
$VISRETAIN
 70
     1
  9
$PLINEGEN
 70
     0
  9
$PSLTSCALE
 70
     1
  0
ENDSEC
  0
SECTION
  2
TABLES
  0
TABLE
  2
VPORT
 70
     1
  0
VPORT
  2
*ACTIVE
 70
     0
 10
0.0
 20
0.0
 11
1.0
 21
1.0
 12
729058.5768868638
 22
3412334.4906319859
 13
0.0
 23
0.0
 14
0.5
 24
0.5
 15
0.5
 25
0.5
 16
0.0
 26
0.0
 36
1.0
 17
5.1181586671325601
 27
7.0859848490330393
 37
-0.8446473595225725
 40
48271.136315282427
 41
1.1002570694087399
 42
50.0
 43
0.0
 44
0.0
 50
0.0
 51
0.0
 71
     0
 72
  1000
 73
     1
 74
     3
 75
     0
 76
     0
 77
     0
 78
     0
  0
ENDTAB
  0
TABLE
  2
LTYPE
 70
     1
  0
LTYPE
  2
CONTINUOUS
 70
     0
  3
Solid line
 72
    65
 73
     0
 40
0.0
  0
ENDTAB
  0
TABLE
  2
LAYER
 70
     2
  0
LAYER
  2
0
 70
     0
 62
    -7
  6
CONTINUOUS
  0
LAYER
  2
QUJIALING
 70
     0
 62
     1
  6
CONTINUOUS
  0
ENDTAB
  0
TABLE
  2
STYLE
 70
     1
  0
STYLE
  2
STANDARD
 70
     0
 40
0.0
 41
1.0
 50
0.0
 71
     0
 42
0.2
  3
txt
  4

  0
ENDTAB
  0
TABLE
  2
VIEW
 70
     0
  0
ENDTAB
  0
TABLE
  2
UCS
 70
     0
  0
ENDTAB
  0
TABLE
  2
APPID
 70
     6
  0
APPID
  2
ACAD
 70
     0
  0
APPID
  2
ACAD_NAV_VCDISPLAY
 70
     0
  0
APPID
  2
ADE
 70
     0
  0
APPID
  2
DCO15
 70
     0
  0
APPID
  2
IRD
 70
     0
  0
APPID
  2
ADE_PROJECTION
 70
     0
  0
ENDTAB
  0
TABLE
  2
DIMSTYLE
 70
     1
  0
DIMSTYLE
  2
STANDARD
 70
     0
  3

  4

  5

  6

  7

 40
1.0
 41
0.18
 42
0.0625
 43
0.38
 44
0.18
 45
0.0
 46
0.0
 47
0.0
 48
0.0
140
0.18
141
0.09
142
0.0
143
25.399999999999999
144
1.0
145
0.0
146
1.0
147
0.09
 71
     0
 72
     0
 73
     1
 74
     1
 75
     0
 76
     0
 77
     0
 78
     0
170
     0
171
     2
172
     0
173
     0
174
     0
175
     0
176
     0
177
     0
178
     0
  0
ENDTAB
  0
ENDSEC
  0
SECTION
  2
BLOCKS
  0
BLOCK
  8
0
  2
$MODEL_SPACE
 70
     0
 10
0.0
 20
0.0
 30
0.0
  3
$MODEL_SPACE
  1

  0
ENDBLK
  5
17
  8
0
  0
BLOCK
 67
     1
  8
0
  2
$PAPER_SPACE
 70
     0
 10
0.0
 20
0.0
 30
0.0
  3
$PAPER_SPACE
  1

  0
ENDBLK
  5
1C
 67
     1
  8
0
  0
ENDSEC
  0
SECTION
  2
ENTITIES
  0
POLYLINE
  5
60
  8
QUJIALING
 66
     1
 10
0.0
 20
0.0
 30
0.9719626168224298
 70
     1
1001
DCO15
1071
        4
1071
        4
1000
unitlink
1004
0741313500
1071
        3
1000
Link
1004
0741313500
1001
ADE
1011
-3.4803086196770869
1021
0.0
1031
0.0
1021
-0.4866047338582577
1031
0.0
1001
IRD
1002
{
1000
TPMLINK_Unit_topology-_-ade
1070
   515
1071
        2
1004
0100910300007C0000007C00000000000000882218A6290F6540882218A6290F6540000000008C030000
1002
}
  0
VERTEX
  5
F8
  8
QUJIALING
 10
727146.44681336905
 20
3422227.4098281711
 30
0.9719626168224298
  0
VERTEX
  5
F9
  8
QUJIALING
 10
727146.4933100458
 20
3422182.8215373061
 30
0.9719626168224298
  0
VERTEX
  5
FA
  8
QUJIALING
 10
727102.87380269554
 20
3422183.2925676489
 30
0.9719626168224298
  0
VERTEX
  5
FB
  8
QUJIALING
 10
727112.58676437603
 20
3422228.6450316021
 30
0.9719626168224298
  0
VERTEX
  5
FC
  8
QUJIALING
 10
727146.44681336905
 20
3422227.4098281711
 30
0.9719626168224298
  0
SEQEND
  5
FD
  8
QUJIALING
  0
POLYLINE
  5
63
  8
QUJIALING
 66
     1
 10
0.0
 20
0.0
 30
11.699999999999999
 70
     1
1001
DCO15
1071
        4
1071
        4
1000
unitlink
1004
0741383200
1071
        3
1000
Link
1004
0741383200
1001
ADE
1011
-11.136724677868189
1021
0.0
1031
0.0
1021
-6.0064884172752491
1031
0.0
1001
IRD
1002
{
1000
TPMLINK_Unit_topology-_-ade
1070
   515
1071
        2
1004
010092030000AC000000AC000000000000004C36EF9E87FB6A404C36EF9E87FB6A408B03000000000000
1002
}
  0
VERTEX
  5
FE
  8
QUJIALING
 10
726990.30306243454
 20
3421950.9445037711
 30
11.699999999999999
  0
VERTEX
  5
FF
  8
QUJIALING
 10
727015.67932920635
 20
3421948.57911012
 30
11.699999999999999
  0
VERTEX
  5
100
  8
QUJIALING
 10
727040.86959747062
 20
3421947.2904934431
 30
11.699999999999999
  0
VERTEX
  5
101
  8
QUJIALING
 10
727040.86959747062
 20
3421956.779157524
 30
11.699999999999999
  0
VERTEX
  5
102
  8
QUJIALING
 10
727036.19881104864
 20
3421971.440810529
 30
11.699999999999999
  0
VERTEX
  5
103
  8
QUJIALING
 10
727042.60418412823
 20
3421989.03691096
 30
11.699999999999999
  0
VERTEX
  5
104
  8
QUJIALING
 10
727042.60418412823
 20
3421999.5654648859
 30
11.699999999999999
  0
VERTEX
  5
105
  8
QUJIALING
 10
726989.49579204631
 20
3422008.1597707798
 30
11.699999999999999
  0
VERTEX
  5
106
  8
QUJIALING
 10
726990.30306243454
 20
3421950.9445037711
 30
11.699999999999999
  0
SEQEND
  5
107
  8
QUJIALING
  0
POLYLINE
  5
64
  8
QUJIALING
 66
     1
 10
0.0
 20
0.0
 30
0.5
 70
     1
1001
DCO15
1071
        4
1071
        4
1000
unitlink
1004
0741313600
1071
        3
1000
Link
1004
0741313600
1001
ADE
1011
-9.1695677412208152
1021
0.0
1031
0.0
1021
5.2087103300727904
1031
0.0
1001
IRD
1002
{
1000
TPMLINK_Unit_topology-_-ade
1070
   515
1071
        2
1004
010096030000880000008800000000000000A6E3004EFA286640A6E3004EFA2866400000000087030000
1002
}
  0
VERTEX
  5
108
  8
QUJIALING
 10
727105.66949124914
 20
3422176.6854303898
 30
0.5
  0
VERTEX
  5
109
  8
QUJIALING
 10
727138.40375791315
 20
3422176.6854303898
 30
0.5
  0
VERTEX
  5
10A
  8
QUJIALING
 10
727159.49012980785
 20
3422140.773509331
 30
0.5
  0
VERTEX
  5
10B
  8
QUJIALING
 10
727128.37416466302
 20
3422122.1163508152
 30
0.5
  0
VERTEX
  5
10C
  8
QUJIALING
 10
727102.02104500856
 20
3422145.5284254928
 30
0.5
  0
VERTEX
  5
10D
  8
QUJIALING
 10
727105.66949124914
 20
3422176.6854303898
 30
0.5
  0
SEQEND
  5
10E
  8
QUJIALING
  0
POLYLINE
  5
65
  8
QUJIALING
 66
     1
 10
0.0
 20
0.0
 30
11.699999999999999
 70
     1
1001
ADE
1011
-20.314131360733882
1021
0.0
1031
0.0
1021
2.4873356078751381
1031
0.0
1001
IRD
1002
{
1000
TPMLINK_Unit_topology-_-ade
1070
   515
1071
        5
1004
01009F030000A7000000A7000000000000007B74A710DAB375407B74A710DAB37540000000007D030000
1002
}
1001
DCO15
1071
        5
1071
        5
1000
unitlink
1004
0742333500
1071
        4
1000
Link
1004
0742333500
  0
VERTEX
  5
10F
  8
QUJIALING
 10
729396.7549315691
 20
3422009.7754118219
 30
11.699999999999999
  0
VERTEX
  5
110
  8
QUJIALING
 10
729322.94612526905
 20
3422080.150177937
 30
11.699999999999999
  0
VERTEX
  5
111
  8
QUJIALING
 10
729380.71369035542
 20
3422130.4766450152
 30
11.699999999999999
  0
VERTEX
  5
112
  8
QUJIALING
 10
729447.59993720811
 20
3422064.2910757139
 30
11.699999999999999
  0
VERTEX
  5
113
  8
QUJIALING
 10
729396.7549315691
 20
3422009.7754118219
 30
11.699999999999999
  0
SEQEND
  5
114
  8
QUJIALING
  0
POLYLINE
  5
66
  8
QUJIALING
 66
     1
 10
0.0
 20
0.0
 30
0.25
 70
     1
1001
ADE
1011
-5.1852154824882719
1021
0.0
1031
0.0
1021
-1.50710569275543
1031
0.0
1001
IRD
1002
{
1000
TPMLINK_Unit_topology-_-ade
1070
   515
1071
        5
1004
0100B203000048000000480000000000000070979D61956A644070979D61956A64405A03000000000000
1002
}
1001
DCO15
1071
        5
1071
        5
1000
unitlink
1004
07433200
1071
        4
1000
Link
1004
07433200
  0
VERTEX
  5
115
  8
QUJIALING
 10
727293.30247344065
 20
3422458.6527298898
 30
0.25
  0
VERTEX
  5
116
  8
QUJIALING
 10
727309.88896243263
 20
3422447.7403175491
 30
0.25
  0
VERTEX
  5
117
  8
QUJIALING
 10
727332.13345934812
 20
3422444.508502665
 30
0.25
  0
VERTEX
  5
118
  8
QUJIALING
 10
727340.55071497324
 20
3422465.0438251561
 30
0.25
  0
VERTEX
  5
119
  8
QUJIALING
 10
727349.15398729965
 20
3422486.0465921941
 30
0.25
  0
VERTEX
  5
11A
  8
QUJIALING
 10
727325.12683035433
 20
3422487.9163703802
 30
0.25
  0
VERTEX
  5
11B
  8
QUJIALING
 10
727313.98132980615
 20
3422492.7358848411
 30
0.25
  0
VERTEX
  5
11C
  8
QUJIALING
 10
727293.30247344065
 20
3422458.6527298898
 30
0.25
  0
SEQEND
  5
11D
  8
QUJIALING
  0
POLYLINE
  5
67
  8
QUJIALING
 66
     1
 10
0.0
 20
0.0
 30
0.25
 70
     1
1001
ADE
1011
-13.439706498640589
1021
0.0
1031
0.0
1021
-2.6918358374387021
1031
0.0
1001
IRD
1002
{
1000
TPMLINK_Unit_topology-_-ade
1070
   515
1071
        5
1004
0100B40300006500000065000000000000008C02BC788C916B408C02BC788C916B405F03000000000000
1002
}
1001
DCO15
1071
        5
1071
        5
1000
unitlink
1004
0741353000
1071
        4
1000
Link
1004
0741353000
  0
VERTEX
  5
11E
  8
QUJIALING
 10
727441.61978806905
 20
3422328.6628490188
 30
0.25
  0
VERTEX
  5
11F
  8
QUJIALING
 10
727476.42041216418
 20
3422327.3491686578
 30
0.25
  0
VERTEX
  5
120
  8
QUJIALING
 10
727452.12973156199
 20
3422400.7863187888
 30
0.25
  0
VERTEX
  5
121
  8
QUJIALING
 10
727423.90169749421
 20
3422400.1254489128
 30
0.25
  0
VERTEX
  5
122
  8
QUJIALING
 10
727421.26646092546
 20
3422383.7407116191
 30
0.25
  0
VERTEX
  5
123
  8
QUJIALING
 10
727425.87037422485
 20
3422359.4819515338
 30
0.25
  0
VERTEX
  5
124
  8
QUJIALING
 10
727431.02348550083
 20
3422332.3293789299
 30
0.25
  0
VERTEX
  5
125
  8
QUJIALING
 10
727441.61978806905
 20
3422328.6628490188
 30
0.25
  0
SEQEND
  5
126
  8
QUJIALING
  0
POLYLINE
  5
68
  8
QUJIALING
 66
     1
 10
0.0
 20
0.0
 30
0.06
 70
     1
1001
ADE
1011
-11.11748175066896
1021
0.0
1031
0.0
1021
-13.55186215415597
1031
0.0
1001
IRD
1002
{
1000
TPMLINK_Unit_topology-_-ade
1070
   515
1071
        5
1004
0100B50300003D0000003D00000000000000FD480C1495396D40FD480C1495396D405C03000000000000
1002
}
1001
DCO15
1071
        5
1071
        5
1000
unitlink
1004
0741323900
1071
        4
1000
Link
1004
0741323900
  0
VERTEX
  5
127
  8
QUJIALING
 10
727376.09540586546
 20
3422497.652111969
 30
0.06
  0
VERTEX
  5
128
  8
QUJIALING
 10
727347.1698091774
 20
3422427.2452919991
 30
0.06
  0
VERTEX
  5
129
  8
QUJIALING
 10
727357.4627331869
 20
3422421.9180360469
 30
0.06
  0
VERTEX
  5
12A
  8
QUJIALING
 10
727391.47278631094
 20
3422422.1678770981
 30
0.06
  0
VERTEX
  5
12B
  8
QUJIALING
 10
727412.34362735797
 20
3422422.3211962609
 30
0.06
  0
VERTEX
  5
12C
  8
QUJIALING
 10
727411.77960928157
 20
3422444.041058118
 30
0.06
  0
VERTEX
  5
12D
  8
QUJIALING
 10
727401.34717274818
 20
3422472.9984418349
 30
0.06
  0
VERTEX
  5
12E
  8
QUJIALING
 10
727388.97706226632
 20
3422495.451898844
 30
0.06
  0
VERTEX
  5
12F
  8
QUJIALING
 10
727376.09540586546
 20
3422497.652111969
 30
0.06
  0
VERTEX
  5
130
  8
QUJIALING
 10
727376.09540586546
 20
3422497.652111969
 30
0.06
  0
SEQEND
  5
131
  8
QUJIALING
  0
POLYLINE
  5
69
  8
QUJIALING
 66
     1
 10
0.0
 20
0.0
 30
0.06
 70
     1
1001
ADE
1011
-11.819811079767531
1021
0.0
1031
0.0
1021
-3.2640524362213901
1031
0.0
1001
IRD
1002
{
1000
TPMLINK_Unit_topology-_-ade
1070
   515
1071
        5
1004
0100B60300004F0000004F000000000000004F80FB2B91526A404F80FB2B91526A405D03000000000000
1002
}
1001
DCO15
1071
        5
1071
        5
1000
unitlink
1004
0741333000
1071
        4
1000
Link
1004
0741333000
  0
VERTEX
  5
132
  8
QUJIALING
 10
727347.6348509267
 20
3422420.499583629
 30
0.06
  0
VERTEX
  5
133
  8
QUJIALING
 10
727338.31851458561
 20
3422358.2246868918
 30
0.06
  0
VERTEX
  5
134
  8
QUJIALING
 10
727371.41398561001
 20
3422354.5737837958
 30
0.06
  0
VERTEX
  5
135
  8
QUJIALING
 10
727383.47406825796
 20
3422358.0393209499
 30
0.06
  0
VERTEX
  5
136
  8
QUJIALING
 10
727390.23267498612
 20
3422416.6471958151
 30
0.06
  0
VERTEX
  5
137
  8
QUJIALING
 10
727347.6348509267
 20
3422420.499583629
 30
0.06
  0
SEQEND
  5
138
  8
QUJIALING
  0
POLYLINE
  5
6A
  8
QUJIALING
 66
     1
 10
0.0
 20
0.0
 30
3.6000000000000001
 70
     1
1001
ADE
1011
-10.052652441081589
1021
0.0
1031
0.0
1021
-2.3291633441112922
1031
0.0
1001
IRD
1002
{
1000
TPMLINK_Unit_topology-_-ade
1070
   515
1071
        5
1004
0100B70300005E0000005E00000000000000A671DEAC72087040A671DEAC720870405E03000000000000
1002
}
1001
DCO15
1071
        5
1071
        5
1000
unitlink
1004
0741333100
1071
        4
1000
Link
1004
0741333100
  0
VERTEX
  5
139
  8
QUJIALING
 10
727337.4969408327
 20
3422353.3809942631
 30
3.6000000000000001
  0
VERTEX
  5
13A
  8
QUJIALING
 10
727337.4969408327
 20
3422325.55192497
 30
3.6000000000000001
  0
VERTEX
  5
13B
  8
QUJIALING
 10
727331.09486611176
 20
3422309.3847911721
 30
3.6000000000000001
  0
VERTEX
  5
13C
  8
QUJIALING
 10
727324.32075799268
 20
3422281.926453759
 30
3.6000000000000001
  0
VERTEX
  5
13D
  8
QUJIALING
 10
727355.19953001663
 20
3422278.5415104921
 30
3.6000000000000001
  0
VERTEX
  5
13E
  8
QUJIALING
 10
727378.91665913153
 20
3422275.914149764
 30
3.6000000000000001
  0
VERTEX
  5
13F
  8
QUJIALING
 10
727384.94670045783
 20
3422287.5680258712
 30
3.6000000000000001
  0
VERTEX
  5
140
  8
QUJIALING
 10
727387.20990362752
 20
3422351.1243654182
 30
3.6000000000000001
  0
VERTEX
  5
141
  8
QUJIALING
 10
727381.55189570051
 20
3422354.509308686
 30
3.6000000000000001
  0
VERTEX
  5
142
  8
QUJIALING
 10
727373.27415259986
 20
3422351.1243654182
 30
3.6000000000000001
  0
VERTEX
  5
143
  8
QUJIALING
 10
727337.4969408327
 20
3422353.3809942631
 30
3.6000000000000001
  0
SEQEND
  5
144
  8
QUJIALING
  0
POLYLINE
  5
6B
  8
QUJIALING
 66
     1
 10
0.0
 20
0.0
 30
0.06
 70
     1
1001
ADE
1011
-12.67238761484623
1021
0.0
1031
0.0
1021
-4.4487825804390004
1031
0.0
1001
IRD
1002
{
1000
TPMLINK_Unit_topology-_-ade
1070
   515
1071
        5
1004
0100B80300007E0000007E0000000000000008353221B478714008353221B47871406103000000000000
1002
}
1001
DCO15
1071
        5
1071
        5
1000
unitlink
1004
0741333200
1071
        4
1000
Link
1004
0741333200
  0
VERTEX
  5
145
  8
QUJIALING
 10
727309.74944990536
 20
3422205.370320187
 30
0.06
  0
VERTEX
  5
146
  8
QUJIALING
 10
727364.39185522497
 20
3422192.4511200478
 30
0.06
  0
VERTEX
  5
147
  8
QUJIALING
 10
727372.35957049555
 20
3422195.4733908218
 30
0.06
  0
VERTEX
  5
148
  8
QUJIALING
 10
727374.51426392421
 20
3422204.6127376459
 30
0.06
  0
VERTEX
  5
149
  8
QUJIALING
 10
727385.72177003708
 20
3422239.1391589772
 30
0.06
  0
VERTEX
  5
14A
  8
QUJIALING
 10
727385.17922133207
 20
3422272.3035436119
 30
0.06
  0
VERTEX
  5
14B
  8
QUJIALING
 10
727323.77820928767
 20
3422277.6549777309
 30
0.06
  0
VERTEX
  5
14C
  8
QUJIALING
 10
727323.29766614735
 20
3422258.9007801521
 30
0.06
  0
VERTEX
  5
14D
  8
QUJIALING
 10
727319.43781964504
 20
3422230.0562278749
 30
0.06
  0
VERTEX
  5
14E
  8
QUJIALING
 10
727309.74944990536
 20
3422205.370320187
 30
0.06
  0
SEQEND
  5
14F
  8
QUJIALING
  0
POLYLINE
  5
6C
  8
QUJIALING
 66
     1
 10
0.0
 20
0.0
 30
0.06
 70
     1
1001
ADE
1011
-9.8666357396868989
1021
0.0
1031
0.0
1021
1.986639322713015
1031
0.0
1001
IRD
1002
{
1000
TPMLINK_Unit_topology-_-ade
1070
   515
1071
        5
1004
0100B90300008F0000008F00000000000000F8070BC42CD96B40F8070BC42CD96B400000000063030000
1002
}
1001
DCO15
1071
        5
1071
        5
1000
unitlink
1004
0741343100
1071
        4
1000
Link
1004
0741343100
  0
VERTEX
  5
150
  8
QUJIALING
 10
727351.60320717096
 20
3422135.293935155
 30
0.06
  0
VERTEX
  5
151
  8
QUJIALING
 10
727370.88693829626
 20
3422191.9997942792
 30
0.06
  0
VERTEX
  5
152
  8
QUJIALING
 10
727386.07830204058
 20
3422199.7851637942
 30
0.06
  0
VERTEX
  5
153
  8
QUJIALING
 10
727416.08899613854
 20
3422188.9614047268
 30
0.06
  0
VERTEX
  5
154
  8
QUJIALING
 10
727417.59263112373
 20
3422182.5058343508
 30
0.06
  0
VERTEX
  5
155
  8
QUJIALING
 10
727405.71856517345
 20
3422164.565635033
 30
0.06
  0
VERTEX
  5
156
  8
QUJIALING
 10
727397.84385824949
 20
3422142.1605343549
 30
0.06
  0
VERTEX
  5
157
  8
QUJIALING
 10
727390.093162462
 20
3422122.6165166781
 30
0.06
  0
VERTEX
  5
158
  8
QUJIALING
 10
727378.52912434191
 20
3422124.6555420281
 30
0.06
  0
VERTEX
  5
159
  8
QUJIALING
 10
727364.57787192275
 20
3422127.887356909
 30
0.06
  0
VERTEX
  5
15A
  8
QUJIALING
 10
727351.60320717096
 20
3422135.293935155
 30
0.06
  0
SEQEND
  5
15B
  8
QUJIALING
  0
POLYLINE
  5
6D
  8
QUJIALING
 66
     1
 10
0.0
 20
0.0
 30
0.06
 70
     1
1001
ADE
1011
-11.850813863798971
1021
0.0
1031
0.0
1021
-1.1766707533970471
1031
0.0
1001
IRD
1002
{
1000
TPMLINK_Unit_topology-_-ade
1070
   515
1071
        5
1004
0100BB030000A4000000A4000000000000009DB96B46A15F6A409DB96B46A15F6A40000000006B030000
1002
}
1001
DCO15
1071
        5
1071
        5
1000
unitlink
1004
0741343700
1071
        4
1000
Link
1004
0741343700
  0
VERTEX
  5
15C
  8
QUJIALING
 10
727359.71043496591
 20
3422015.0397958751
 30
0.06
  0
VERTEX
  5
15D
  8
QUJIALING
 10
727380.7923275159
 20
3422059.9950662251
 30
0.06
  0
VERTEX
  5
15E
  8
QUJIALING
 10
727411.57809118903
 20
3422055.6752338642
 30
0.06
  0
VERTEX
  5
15F
  8
QUJIALING
 10
727432.95451017842
 20
3422043.8118136511
 30
0.06
  0
VERTEX
  5
160
  8
QUJIALING
 10
727419.01875914645
 20
3422009.0194324912
 30
0.06
  0
VERTEX
  5
161
  8
QUJIALING
 10
727406.88116954267
 20
3421996.7933397829
 30
0.06
  0
VERTEX
  5
162
  8
QUJIALING
 10
727382.94702094421
 20
3422006.9562289752
 30
0.06
  0
VERTEX
  5
163
  8
QUJIALING
 10
727365.78698046505
 20
3422010.5426569609
 30
0.06
  0
VERTEX
  5
164
  8
QUJIALING
 10
727359.71043496591
 20
3422015.0397958751
 30
0.06
  0
SEQEND
  5
165
  8
QUJIALING
  0
POLYLINE
  5
6E
  8
QUJIALING
 66
     1
 10
0.0
 20
0.0
 30
0.06
 70
     1
1001
ADE
1011
-11.73455342650413
1021
0.0
1031
0.0
1021
1.2572646420449001
1031
0.0
1001
IRD
1002
{
1000
TPMLINK_Unit_topology-_-ade
1070
   515
1071
        5
1004
0100BC030000A1000000A10000000000000018D7E364416A6B4018D7E364416A6B406603000000000000
1002
}
1001
DCO15
1071
        5
1071
        5
1000
unitlink
1004
0741343200
1071
        4
1000
Link
1004
0741343200
  0
VERTEX
  5
166
  8
QUJIALING
 10
727301.85924159375
 20
3422039.0325961309
 30
0.06
  0
VERTEX
  5
167
  8
QUJIALING
 10
727311.5476113297
 20
3422026.8226222019
 30
0.06
  0
VERTEX
  5
168
  8
QUJIALING
 10
727333.23405814904
 20
3422018.5214518062
 30
0.06
  0
VERTEX
  5
169
  8
QUJIALING
 10
727342.47288753092
 20
3422037.8801035429
 30
0.06
  0
VERTEX
  5
16A
  8
QUJIALING
 10
727355.49405645579
 20
3422057.1259238361
 30
0.06
  0
VERTEX
  5
16B
  8
QUJIALING
 10
727366.51554587099
 20
3422068.8926313859
 30
0.06
  0
VERTEX
  5
16C
  8
QUJIALING
 10
727372.23555936303
 20
3422081.0461895969
 30
0.06
  0
VERTEX
  5
16D
  8
QUJIALING
 10
727353.5253797248
 20
3422093.4979451881
 30
0.06
  0
VERTEX
  5
16E
  8
QUJIALING
 10
727334.21064581734
 20
3422094.76326922
 30
0.06
  0
VERTEX
  5
16F
  8
QUJIALING
 10
727301.85924159375
 20
3422039.0325961309
 30
0.06
  0
SEQEND
  5
170
  8
QUJIALING
  0
POLYLINE
  5
6F
  8
QUJIALING
 66
     1
 10
0.0
 20
0.0
 30
0.125
 70
     1
1001
ADE
1011
-7.43291726137977
1021
0.0
1031
0.0
1021
-8.446239392273128
1031
0.0
1001
IRD
1002
{
1000
TPMLINK_Unit_topology-_-ade
1070
   515
1071
        5
1004
0100BF03000092000000920000000000000091C9233D5FEA6A4091C9233D5FEA6A406A03000000000000
1002
}
1001
DCO15
1071
        5
1071
        5
1000
unitlink
1004
07433700
1071
        4
1000
Link
1004
07433700
  0
VERTEX
  5
171
  8
QUJIALING
 10
727174.12777498015
 20
3422119.5217114049
 30
0.125
  0
VERTEX
  5
172
  8
QUJIALING
 10
727190.68326118577
 20
3422116.6203314629
 30
0.125
  0
VERTEX
  5
173
  8
QUJIALING
 10
727217.00462408725
 20
3422127.6778128031
 30
0.125
  0
VERTEX
  5
174
  8
QUJIALING
 10
727220.89547337592
 20
3422142.3217221298
 30
0.125
  0
VERTEX
  5
175
  8
QUJIALING
 10
727223.29818907019
 20
3422164.1384874289
 30
0.125
  0
VERTEX
  5
176
  8
QUJIALING
 10
727209.88948535547
 20
3422180.047720789
 30
0.125
  0
VERTEX
  5
177
  8
QUJIALING
 10
727203.11537723232
 20
3422175.6231163731
 30
0.125
  0
VERTEX
  5
178
  8
QUJIALING
 10
727197.81390131265
 20
3422169.151427222
 30
0.125
  0
VERTEX
  5
179
  8
QUJIALING
 10
727184.97874908498
 20
3422168.4099634569
 30
0.125
  0
VERTEX
  5
17A
  8
QUJIALING
 10
727160.81207961589
 20
3422171.7949067252
 30
0.125
  0
VERTEX
  5
17B
  8
QUJIALING
 10
727162.42422433954
 20
3422163.4050830561
 30
0.125
  0
VERTEX
  5
17C
  8
QUJIALING
 10
727169.80288673192
 20
3422150.4536453611
 30
0.125
  0
VERTEX
  5
17D
  8
QUJIALING
 10
727165.07496229943
 20
3422142.3539596861
 30
0.125
  0
VERTEX
  5
17E
  8
QUJIALING
 10
727169.07432132575
 20
3422124.06720665
 30
0.125
  0
VERTEX
  5
17F
  8
QUJIALING
 10
727174.12777498015
 20
3422119.5217114049
 30
0.125
  0
SEQEND
  5
180
  8
QUJIALING
  0
POLYLINE
  5
70
  8
QUJIALING
 66
     1
 10
0.0
 20
0.0
 30
0.25
 70
     1
1001
ADE
1011
-12.27710212941747
1021
0.0
1031
0.0
1021
-4.634148521348834
1031
0.0
1001
IRD
1002
{
1000
TPMLINK_Unit_topology-_-ade
1070
   515
1071
        5
1004
0100C0030000870000008700000000000000D80896331A9D6640D80896331A9D66400000000069030000
1002
}
1001
DCO15
1071
        5
1071
        5
1000
unitlink
1004
07433600
1071
        4
1000
Link
1004
07433600
  0
VERTEX
  5
181
  8
QUJIALING
 10
727155.10756751522
 20
3422181.1196194901
 30
0.25
  0
VERTEX
  5
182
  8
QUJIALING
 10
727155.92914126825
 20
3422225.1077631931
 30
0.25
  0
VERTEX
  5
183
  8
QUJIALING
 10
727197.81390131265
 20
3422214.2840041248
 30
0.25
  0
VERTEX
  5
184
  8
QUJIALING
 10
727202.41781461251
 20
3422206.2729717242
 30
0.25
  0
VERTEX
  5
185
  8
QUJIALING
 10
727205.08405396342
 20
3422196.19067642
 30
0.25
  0
VERTEX
  5
186
  8
QUJIALING
 10
727208.80438794184
 20
3422190.8473016908
 30
0.25
  0
VERTEX
  5
187
  8
QUJIALING
 10
727198.60447228292
 20
3422172.8103897059
 30
0.25
  0
VERTEX
  5
188
  8
QUJIALING
 10
727178.4061590581
 20
3422171.6256595631
 30
0.25
  0
VERTEX
  5
189
  8
QUJIALING
 10
727166.99602819665
 20
3422171.7971818619
 30
0.25
  0
VERTEX
  5
18A
  8
QUJIALING
 10
727155.10756751522
 20
3422181.1196194901
 30
0.25
  0
SEQEND
  5
18B
  8
QUJIALING
  0
POLYLINE
  5
71
  8
QUJIALING
 66
     1
 10
0.0
 20
0.0
 30
0.06
 70
     1
1001
ADE
1011
-8.9520536384079605
1021
0.0
1031
0.0
1021
4.1318555134348571
1031
0.0
1001
IRD
1002
{
1000
TPMLINK_Unit_topology-_-ade
1070
   515
1071
        5
1004
0100C30300006800000068000000000000000D84C89084546A400D84C89084546A405703000000000000
1002
}
1001
DCO15
1071
        5
1071
        5
1000
unitlink
1004
07433500
1071
        4
1000
Link
1004
07433500
  0
VERTEX
  5
18C
  8
QUJIALING
 10
727167.01263624791
 20
3422323.0696332399
 30
0.06
  0
VERTEX
  5
18D
  8
QUJIALING
 10
727166.56309588975
 20
3422283.9010039992
 30
0.06
  0
VERTEX
  5
18E
  8
QUJIALING
 10
727180.51434831345
 20
3422269.9743802692
 30
0.06
  0
VERTEX
  5
18F
  8
QUJIALING
 10
727198.37195141253
 20
3422266.4927243362
 30
0.06
  0
VERTEX
  5
190
  8
QUJIALING
 10
727213.55720070656
 20
3422263.532091097
 30
0.06
  0
VERTEX
  5
191
  8
QUJIALING
 10
727225.82491589733
 20
3422320.0231842981
 30
0.06
  0
VERTEX
  5
192
  8
QUJIALING
 10
727209.26942969125
 20
3422325.245668198
 30
0.06
  0
VERTEX
  5
193
  8
QUJIALING
 10
727171.80256624508
 20
3422325.6808751891
 30
0.06
  0
VERTEX
  5
194
  8
QUJIALING
 10
727167.01263624791
 20
3422323.0696332399
 30
0.06
  0
SEQEND
  5
195
  8
QUJIALING
  0
POLYLINE
  5
72
  8
QUJIALING
 66
     1
 10
0.0
 20
0.0
 30
0.06
 70
     1
1001
ADE
1011
-15.547895753988991
1021
0.0
1031
0.0
1021
0.5037117963656783
1031
0.0
1001
IRD
1002
{
1000
TPMLINK_Unit_topology-_-ade
1070
   515
1071
        5
1004
0100C4030000540000005400000000000000AC039A8BF06D6540AC039A8BF06D65400000000055030000
1002
}
1001
DCO15
1071
        5
1071
        5
1000
unitlink
1004
0741323700
1071
        4
1000
Link
1004
0741323700
  0
VERTEX
  5
196
  8
QUJIALING
 10
727158.0993360877
 20
3422383.144316853
 30
0.06
  0
VERTEX
  5
197
  8
QUJIALING
 10
727183.55262106273
 20
3422401.0925755608
 30
0.06
  0
VERTEX
  5
198
  8
QUJIALING
 10
727194.99264804646
 20
3422400.8185563451
 30
0.06
  0
VERTEX
  5
199
  8
QUJIALING
 10
727209.28493108193
 20
3422396.603496036
 30
0.06
  0
VERTEX
  5
19A
  8
QUJIALING
 10
727218.9038825999
 20
3422393.7666881839
 30
0.06
  0
VERTEX
  5
19B
  8
QUJIALING
 10
727225.90242285666
 20
3422386.4083692911
 30
0.06
  0
VERTEX
  5
19C
  8
QUJIALING
 10
727223.03466541297
 20
3422378.7922469368
 30
0.06
  0
VERTEX
  5
19D
  8
QUJIALING
 10
727213.23778593575
 20
3422369.6851376691
 30
0.06
  0
VERTEX
  5
19E
  8
QUJIALING
 10
727198.60813334736
 20
3422356.0855169981
 30
0.06
  0
VERTEX
  5
19F
  8
QUJIALING
 10
727188.26504410035
 20
3422355.6779200519
 30
0.06
  0
VERTEX
  5
1A0
  8
QUJIALING
 10
727171.72505928564
 20
3422364.2531096651
 30
0.06
  0
VERTEX
  5
1A1
  8
QUJIALING
 10
727158.0993360877
 20
3422383.144316853
 30
0.06
  0
SEQEND
  5
1A2
  8
QUJIALING
  0
POLYLINE
  5
73
  8
QUJIALING
 66
     1
 10
0.0
 20
0.0
 30
0.06
 70
     1
1001
ADE
1011
-15.950931936735291
1021
0.0
1031
0.0
1021
-1.1807004488073281
1031
0.0
1001
IRD
1002
{
1000
TPMLINK_Unit_topology-_-ade
1070
   515
1071
        5
1004
0100C50300005C0000005C00000000000000C64EF770F6046640C64EF770F60466400000000056030000
1002
}
1001
DCO15
1071
        5
1071
        5
1000
unitlink
1004
0741323800
1071
        4
1000
Link
1004
0741323800
  0
VERTEX
  5
1A3
  8
QUJIALING
 10
727118.33826668945
 20
3422355.4280790011
 30
0.06
  0
VERTEX
  5
1A4
  8
QUJIALING
 10
727155.92914126825
 20
3422381.097232115
 30
0.06
  0
VERTEX
  5
1A5
  8
QUJIALING
 10
727170.01990621164
 20
3422363.70507123
 30
0.06
  0
VERTEX
  5
1A6
  8
QUJIALING
 10
727186.88542025152
 20
3422354.0499235289
 30
0.06
  0
VERTEX
  5
1A7
  8
QUJIALING
 10
727166.439084757
 20
3422331.6851197961
 30
0.06
  0
VERTEX
  5
1A8
  8
QUJIALING
 10
727150.9531945698
 20
3422329.2028280669
 30
0.06
  0
VERTEX
  5
1A9
  8
QUJIALING
 10
727138.24205347523
 20
3422335.2715477808
 30
0.06
  0
VERTEX
  5
1AA
  8
QUJIALING
 10
727126.35248613346
 20
3422343.8306186148
 30
0.06
  0
VERTEX
  5
1AB
  8
QUJIALING
 10
727118.33826668945
 20
3422355.4280790011
 30
0.06
  0
SEQEND
  5
1AC
  8
QUJIALING
  0
POLYLINE
  5
74
  8
QUJIALING
 66
     1
 10
0.0
 20
0.0
 30
0.06
 70
     1
1001
ADE
1011
-21.25801877817139
1021
0.0
1031
0.0
1021
-7.567766018677502
1031
0.0
1001
IRD
1002
{
1000
TPMLINK_Unit_topology-_-ade
1070
   515
1071
        5
1004
0100C603000059000000590000000000000056B59FFF59B26C4056B59FFF59B26C405403000000000000
1002
}
1001
DCO15
1071
        5
1071
        5
1000
unitlink
1004
0741323600
1071
        4
1000
Link
1004
0741323600
  0
VERTEX
  5
1AD
  8
QUJIALING
 10
727109.06843452516
 20
3422361.8917087652
 30
0.06
  0
VERTEX
  5
1AE
  8
QUJIALING
 10
727138.33506182581
 20
3422377.0433595828
 30
0.06
  0
VERTEX
  5
1AF
  8
QUJIALING
 10
727171.58554676175
 20
3422400.1415676912
 30
0.06
  0
VERTEX
  5
1B0
  8
QUJIALING
 10
727179.0064337881
 20
3422405.296656203
 30
0.06
  0
VERTEX
  5
1B1
  8
QUJIALING
 10
727167.01263624791
 20
3422424.5212186058
 30
0.06
  0
VERTEX
  5
1B2
  8
QUJIALING
 10
727160.09901560086
 20
3422428.4219627539
 30
0.06
  0
VERTEX
  5
1B3
  8
QUJIALING
 10
727154.99905777315
 20
3422426.8906788961
 30
0.06
  0
VERTEX
  5
1B4
  8
QUJIALING
 10
727139.48216480005
 20
3422424.8597129332
 30
0.06
  0
VERTEX
  5
1B5
  8
QUJIALING
 10
727124.27529966063
 20
3422419.9434858081
 30
0.06
  0
VERTEX
  5
1B6
  8
QUJIALING
 10
727115.06747306546
 20
3422409.216439405
 30
0.06
  0
VERTEX
  5
1B7
  8
QUJIALING
 10
727112.49424206105
 20
3422401.020041063
 30
0.06
  0
VERTEX
  5
1B8
  8
QUJIALING
 10
727093.83056659985
 20
3422380.4041246842
 30
0.06
  0
VERTEX
  5
1B9
  8
QUJIALING
 10
727099.64358844236
 20
3422372.9733682731
 30
0.06
  0
VERTEX
  5
1BA
  8
QUJIALING
 10
727101.3952456899
 20
3422363.9952092241
 30
0.06
  0
VERTEX
  5
1BB
  8
QUJIALING
 10
727104.68154070526
 20
3422359.6109017539
 30
0.06
  0
VERTEX
  5
1BC
  8
QUJIALING
 10
727109.06843452516
 20
3422361.8917087652
 30
0.06
  0
SEQEND
  5
1BD
  8
QUJIALING
  0
POLYLINE
  5
75
  8
QUJIALING
 66
     1
 10
0.0
 20
0.0
 30
0.06
 70
     1
1001
ADE
1011
-13.238188406336119
1021
0.0
1031
0.0
1021
-3.8000017879530761
1031
0.0
1001
IRD
1002
{
1000
TPMLINK_Unit_topology-_-ade
1070
   515
1071
        5
1004
0100C70300004E0000004E00000000000000DA6F11B9F97E6B40DA6F11B9F97E6B405303000000000000
1002
}
1001
DCO15
1071
        5
1071
        5
1000
unitlink
1004
0741323500
1071
        4
1000
Link
1004
0741323500
  0
VERTEX
  5
1BE
  8
QUJIALING
 10
727160.14551977825
 20
3422430.0499592801
 30
0.06
  0
VERTEX
  5
1BF
  8
QUJIALING
 10
727163.74184262368
 20
3422439.8421165892
 30
0.06
  0
VERTEX
  5
1C0
  8
QUJIALING
 10
727160.14551977825
 20
3422446.692597012
 30
0.06
  0
VERTEX
  5
1C1
  8
QUJIALING
 10
727155.23019558401
 20
3422456.0555862659
 30
0.06
  0
VERTEX
  5
1C2
  8
QUJIALING
 10
727149.77254578914
 20
3422466.4516281891
 30
0.06
  0
VERTEX
  5
1C3
  8
QUJIALING
 10
727153.94496314577
 20
3422480.6145641869
 30
0.06
  0
VERTEX
  5
1C4
  8
QUJIALING
 10
727152.7978601678
 20
3422484.176814009
 30
0.06
  0
VERTEX
  5
1C5
  8
QUJIALING
 10
727131.56095370662
 20
3422469.3958950709
 30
0.06
  0
VERTEX
  5
1C6
  8
QUJIALING
 10
727099.13204251963
 20
3422455.9770128308
 30
0.06
  0
VERTEX
  5
1C7
  8
QUJIALING
 10
727110.68057924905
 20
3422433.2172990511
 30
0.06
  0
VERTEX
  5
1C8
  8
QUJIALING
 10
727115.02096888795
 20
3422410.5542979329
 30
0.06
  0
VERTEX
  5
1C9
  8
QUJIALING
 10
727123.90326626634
 20
3422421.1523941169
 30
0.06
  0
VERTEX
  5
1CA
  8
QUJIALING
 10
727139.11013140529
 20
3422426.3023435171
 30
0.06
  0
VERTEX
  5
1CB
  8
QUJIALING
 10
727154.00696871046
 20
3422427.736914712
 30
0.06
  0
VERTEX
  5
1CC
  8
QUJIALING
 10
727160.14551977825
 20
3422430.0499592801
 30
0.06
  0
SEQEND
  5
1CD
  8
QUJIALING
  0
POLYLINE
  5
76
  8
QUJIALING
 66
     1
 10
0.0
 20
0.0
 30
0.06
 70
     1
1001
ADE
1011
-7.9057097042677924
1021
0.0
1031
0.0
1021
6.730799580924212
1031
0.0
1001
IRD
1002
{
1000
TPMLINK_Unit_topology-_-ade
1070
   515
1071
        5
1004
0100C80300005500000055000000000000001FF497A2D9A969401FF497A2D9A969400000000052030000
1002
}
1001
DCO15
1071
        5
1071
        5
1000
unitlink
1004
0741323400
1071
        4
1000
Link
1004
0741323400
  0
VERTEX
  5
1CE
  8
QUJIALING
 10
727081.02924663934
 20
3422379.621286266
 30
0.06
  0
VERTEX
  5
1CF
  8
QUJIALING
 10
727055.65063914296
 20
3422436.4732920988
 30
0.06
  0
VERTEX
  5
1D0
  8
QUJIALING
 10
727096.48130455986
 20
3422454.9051141301
 30
0.06
  0
VERTEX
  5
1D1
  8
QUJIALING
 10
727106.57271048066
 20
3422436.916558479
 30
0.06
  0
VERTEX
  5
1D2
  8
QUJIALING
 10
727111.17662377656
 20
3422421.6198386638
 30
0.06
  0
VERTEX
  5
1D3
  8
QUJIALING
 10
727110.8355931642
 20
3422402.9784725248
 30
0.06
  0
VERTEX
  5
1D4
  8
QUJIALING
 10
727099.07003695494
 20
3422389.27751168
 30
0.06
  0
VERTEX
  5
1D5
  8
QUJIALING
 10
727087.76610394754
 20
3422376.1141099008
 30
0.06
  0
VERTEX
  5
1D6
  8
QUJIALING
 10
727081.02924663934
 20
3422379.621286266
 30
0.06
  0
SEQEND
  5
1D7
  8
QUJIALING
  0
POLYLINE
  5
77
  8
QUJIALING
 66
     1
 10
0.0
 20
0.0
 30
0.06
 70
     1
1001
ADE
1011
-13.873745463904919
1021
0.0
1031
0.0
1021
0.0725344996899367
1031
0.0
1001
IRD
1002
{
1000
TPMLINK_Unit_topology-_-ade
1070
   515
1071
        5
1004
0100C90300003B0000003B0000000000000081A0ABA8149C6C4081A0ABA8149C6C400000000050030000
1002
}
1001
DCO15
1071
        5
1071
        5
1000
unitlink
1004
0741323300
1071
        4
1000
Link
1004
0741323300
  0
VERTEX
  5
1D8
  8
QUJIALING
 10
727030.84841261432
 20
3422513.5855234931
 30
0.06
  0
VERTEX
  5
1D9
  8
QUJIALING
 10
727066.06757428136
 20
3422524.7558362749
 30
0.06
  0
VERTEX
  5
1DA
  8
QUJIALING
 10
727083.53764259443
 20
3422484.5636646668
 30
0.06
  0
VERTEX
  5
1DB
  8
QUJIALING
 10
727093.25701511279
 20
3422456.202675716
 30
0.06
  0
VERTEX
  5
1DC
  8
QUJIALING
 10
727053.77497076243
 20
3422441.8569637719
 30
0.06
  0
VERTEX
  5
1DD
  8
QUJIALING
 10
727048.78352267295
 20
3422450.343500108
 30
0.06
  0
VERTEX
  5
1DE
  8
QUJIALING
 10
727042.62947021436
 20
3422475.222833124
 30
0.06
  0
VERTEX
  5
1DF
  8
QUJIALING
 10
727036.76994419855
 20
3422484.5959022208
 30
0.06
  0
VERTEX
  5
1E0
  8
QUJIALING
 10
727030.84841261432
 20
3422513.5855234931
 30
0.06
  0
SEQEND
  5
1E1
  8
QUJIALING
  0
POLYLINE
  5
78
  8
QUJIALING
 66
     1
 10
0.0
 20
0.0
 30
0.125
 70
     1
1001
ADE
1011
-14.19927468721289
1021
0.0
1031
0.0
1021
1.83754063071683
1031
0.0
1001
IRD
1002
{
1000
TPMLINK_Unit_topology-_-ade
1070
   515
1071
        5
1004
0100CA030000380000003800000000000000AE25ADB40D0D6E40AE25ADB40D0D6E400000000051030000
1002
}
1001
DCO15
1071
        5
1071
        5
1000
unitlink
1004
0741323200
1071
        4
1000
Link
1004
0741323200
  0
VERTEX
  5
1E2
  8
QUJIALING
 10
727068.76481641841
 20
3422525.908328868
 30
0.125
  0
VERTEX
  5
1E3
  8
QUJIALING
 10
727100.65117889631
 20
3422529.7445979011
 30
0.125
  0
VERTEX
  5
1E4
  8
QUJIALING
 10
727105.6116241999
 20
3422522.9102362571
 30
0.125
  0
VERTEX
  5
1E5
  8
QUJIALING
 10
727110.09152636677
 20
3422511.594854475
 30
0.125
  0
VERTEX
  5
1E6
  8
QUJIALING
 10
727121.42304361251
 20
3422504.0512666232
 30
0.125
  0
VERTEX
  5
1E7
  8
QUJIALING
 10
727148.56598026701
 20
3422492.0347180208
 30
0.125
  0
VERTEX
  5
1E8
  8
QUJIALING
 10
727152.56533929333
 20
3422487.3199756141
 30
0.125
  0
VERTEX
  5
1E9
  8
QUJIALING
 10
727143.37301408884
 20
3422480.0101100318
 30
0.125
  0
VERTEX
  5
1EA
  8
QUJIALING
 10
727131.09591195732
 20
3422472.7083038399
 30
0.125
  0
VERTEX
  5
1EB
  8
QUJIALING
 10
727095.69073358923
 20
3422457.45188097
 30
0.125
  0
VERTEX
  5
1EC
  8
QUJIALING
 10
727090.32725210534
 20
3422474.376597309
 30
0.125
  0
VERTEX
  5
1ED
  8
QUJIALING
 10
727072.77967683575
 20
3422515.9630431691
 30
0.125
  0
VERTEX
  5
1EE
  8
QUJIALING
 10
727068.76481641841
 20
3422525.908328868
 30
0.125
  0
SEQEND
  5
1EF
  8
QUJIALING
  0
POLYLINE
  5
79
  8
QUJIALING
 66
     1
 10
0.0
 20
0.0
 30
3.2000000000000002
 70
     1
1001
ADE
1011
-15.63315340876578
1021
0.0
1031
0.0
1021
-1.168611365836113
1031
0.0
1001
IRD
1002
{
1000
TPMLINK_Unit_topology-_-ade
1070
   515
1071
        5
1004
0100CB03000031000000310000000000000092F6846E632A6D4092F6846E632A6D40000000004E030000
1002
}
1001
DCO15
1071
        5
1071
        5
1000
unitlink
1004
0741323100
1071
        4
1000
Link
1004
0741323100
  0
VERTEX
  5
1F0
  8
QUJIALING
 10
727209.65696448064
 20
3422571.5567066469
 30
3.2000000000000002
  0
VERTEX
  5
1F1
  8
QUJIALING
 10
727216.55508373305
 20
3422539.73823993
 30
3.2000000000000002
  0
VERTEX
  5
1F2
  8
QUJIALING
 10
727203.48741063091
 20
3422532.3800180168
 30
3.2000000000000002
  0
VERTEX
  5
1F3
  8
QUJIALING
 10
727182.32801112533
 20
3422523.8290065732
 30
3.2000000000000002
  0
VERTEX
  5
1F4
  8
QUJIALING
 10
727153.32490748155
 20
3422520.266756752
 30
3.2000000000000002
  0
VERTEX
  5
1F5
  8
QUJIALING
 10
727136.67641292512
 20
3422524.3045105068
 30
3.2000000000000002
  0
VERTEX
  5
1F6
  8
QUJIALING
 10
727128.83270878706
 20
3422536.409712384
 30
3.2000000000000002
  0
VERTEX
  5
1F7
  8
QUJIALING
 10
727126.69351674989
 20
3422552.560727404
 30
3.2000000000000002
  0
VERTEX
  5
1F8
  8
QUJIALING
 10
727156.65770667011
 20
3422563.9567030719
 30
3.2000000000000002
  0
VERTEX
  5
1F9
  8
QUJIALING
 10
727189.2261303775
 20
3422571.3149249861
 30
3.2000000000000002
  0
VERTEX
  5
1FA
  8
QUJIALING
 10
727209.65696448064
 20
3422571.5567066469
 30
3.2000000000000002
  0
SEQEND
  5
1FB
  8
QUJIALING
  0
POLYLINE
  5
7A
  8
QUJIALING
 66
     1
 10
0.0
 20
0.0
 30
0.06
 70
     1
1001
ADE
1011
-25.037419385043901
1021
0.0
1031
0.0
1021
-7.7571616545319539
1031
0.0
1001
IRD
1002
{
1000
TPMLINK_Unit_topology-_-ade
1070
   515
1071
        5
1004
0100DB030000B1000000B1000000000000008AEAB879AE0E71408AEAB879AE0E71403F03000000000000
1002
}
1001
DCO15
1071
        5
1071
        5
1000
unitlink
1004
0741343400
1071
        4
1000
Link
1004
0741343400
  0
VERTEX
  5
1FC
  8
QUJIALING
 10
727322.55359935015
 20
3421891.731148262
 30
0.06
  0
VERTEX
  5
1FD
  8
QUJIALING
 10
727296.13922810182
 20
3421832.7847790699
 30
0.06
  0
VERTEX
  5
1FE
  8
QUJIALING
 10
727299.61153981474
 20
3421824.0725798518
 30
0.06
  0
VERTEX
  5
1FF
  8
QUJIALING
 10
727347.43333283439
 20
3421806.8738442971
 30
0.06
  0
VERTEX
  5
200
  8
QUJIALING
 10
727364.23684130609
 20
3421811.4435177092
 30
0.06
  0
VERTEX
  5
201
  8
QUJIALING
 10
727388.28484361735
 20
3421863.7797778971
 30
0.06
  0
VERTEX
  5
202
  8
QUJIALING
 10
727361.41558803979
 20
3421883.655640753
 30
0.06
  0
VERTEX
  5
203
  8
QUJIALING
 10
727322.55359935015
 20
3421891.731148262
 30
0.06
  0
SEQEND
  5
204
  8
QUJIALING
  0
POLYLINE
  5
7B
  8
QUJIALING
 66
     1
 10
0.0
 20
0.0
 30
8.2000000000000011
 70
     1
1001
ADE
1011
-12.28485282696783
1021
0.0
1031
0.0
1021
-6.8062338703311971
1031
0.0
1001
IRD
1002
{
1000
TPMLINK_Unit_topology-_-ade
1070
   515
1071
        5
1004
0100DC030000B4000000B40000000000000039352A2A67576D4039352A2A67576D403C03000000000000
1002
}
1001
DCO15
1071
        5
1071
        5
1000
unitlink
1004
0741333900
1071
        4
1000
Link
1004
0741333900
  0
VERTEX
  5
205
  8
QUJIALING
 10
727044.64597972482
 20
3421864.4717812319
 30
8.2000000000000011
  0
VERTEX
  5
206
  8
QUJIALING
 10
727045.06318869442
 20
3421856.0280561768
 30
8.2000000000000011
  0
VERTEX
  5
207
  8
QUJIALING
 10
727046.19273962826
 20
3421833.1675277241
 30
8.2000000000000011
  0
VERTEX
  5
208
  8
QUJIALING
 10
727044.8461692112
 20
3421809.2916609151
 30
8.2000000000000011
  0
VERTEX
  5
209
  8
QUJIALING
 10
727041.35835610703
 20
3421786.7656694092
 30
8.2000000000000011
  0
VERTEX
  5
20A
  8
QUJIALING
 10
727045.04768730304
 20
3421781.2933444581
 30
8.2000000000000011
  0
VERTEX
  5
20B
  8
QUJIALING
 10
727060.56458027312
 20
3421780.51964314
 30
8.2000000000000011
  0
VERTEX
  5
20C
  8
QUJIALING
 10
727085.02577618533
 20
3421787.8859244408
 30
8.2000000000000011
  0
VERTEX
  5
20D
  8
QUJIALING
 10
727075.33740644902
 20
3421832.4462847458
 30
8.2000000000000011
  0
VERTEX
  5
20E
  8
QUJIALING
 10
727074.68634800264
 20
3421847.24332246
 30
8.2000000000000011
  0
VERTEX
  5
20F
  8
QUJIALING
 10
727074.02627891151
 20
3421862.2451510732
 30
8.2000000000000011
  0
VERTEX
  5
210
  8
QUJIALING
 10
727073.83741180424
 20
3421866.5376592572
 30
8.2000000000000011
  0
VERTEX
  5
211
  8
QUJIALING
 10
727062.34319889802
 20
3421866.063365032
 30
8.2000000000000011
  0
SEQEND
  5
212
  8
QUJIALING
  0
POLYLINE
  5
7C
  8
QUJIALING
 66
     1
 10
0.0
 20
0.0
 30
0.06
 70
     1
1001
ADE
1011
-20.86487306619529
1021
0.0
1031
0.0
1021
0.9872751184739173
1031
0.0
1001
IRD
1002
{
1000
TPMLINK_Unit_topology-_-ade
1070
   515
1071
        5
1004
0100DD030000B7000000B700000000000000877824E4F58A7040877824E4F58A7040000000003D030000
1002
}
1001
DCO15
1071
        5
1071
        5
1000
unitlink
1004
0741343000
1071
        4
1000
Link
1004
0741343000
  0
VERTEX
  5
213
  8
QUJIALING
 10
727164.57891776785
 20
3421805.350619826
 30
0.06
  0
VERTEX
  5
214
  8
QUJIALING
 10
727230.24281249545
 20
3421805.350619826
 30
0.06
  0
VERTEX
  5
215
  8
QUJIALING
 10
727222.12008330983
 20
3421740.3838872509
 30
0.06
  0
VERTEX
  5
216
  8
QUJIALING
 10
727213.9818527326
 20
3421735.5321352342
 30
0.06
  0
VERTEX
  5
217
  8
QUJIALING
 10
727163.13728835061
 20
3421736.1446487792
 30
0.06
  0
VERTEX
  5
218
  8
QUJIALING
 10
727156.05315240088
 20
3421741.6895082248
 30
0.06
  0
VERTEX
  5
219
  8
QUJIALING
 10
727164.57891776785
 20
3421805.350619826
 30
0.06
  0
SEQEND
  5
21A
  8
QUJIALING
  0
POLYLINE
  5
7D
  8
QUJIALING
 66
     1
 10
0.0
 20
0.0
 30
10.300000000000001
 70
     1
1001
ADE
1011
-12.22284726065118
1021
0.0
1031
0.0
1021
-2.667657671030609
1031
0.0
1001
IRD
1002
{
1000
TPMLINK_Unit_topology-_-ade
1070
   515
1071
        5
1004
0100DE030000B6000000B600000000000000801CC5261B2B7040801CC5261B2B70403A03000000000000
1002
}
1001
DCO15
1071
        5
1071
        5
1000
unitlink
1004
0741333700
1071
        4
1000
Link
1004
0741333700
  0
VERTEX
  5
21B
  8
QUJIALING
 10
727155.09206612036
 20
3421814.5463823709
 30
10.300000000000001
  0
VERTEX
  5
21C
  8
QUJIALING
 10
727219.12831473362
 20
3421816.722417328
 30
10.300000000000001
  0
VERTEX
  5
21D
  8
QUJIALING
 10
727235.31176754425
 20
3421873.960196109
 30
10.300000000000001
  0
VERTEX
  5
21E
  8
QUJIALING
 10
727172.28310938214
 20
3421883.792650362
 30
10.300000000000001
  0
VERTEX
  5
21F
  8
QUJIALING
 10
727155.09206612036
 20
3421814.5463823709
 30
10.300000000000001
  0
SEQEND
  5
220
  8
QUJIALING
  0
POLYLINE
  5
7E
  8
QUJIALING
 66
     1
 10
0.0
 20
0.0
 30
0.1818181818181818
 70
     1
1001
ADE
1011
-14.398886511218731
1021
0.0
1031
0.0
1021
-5.004880402237176
1031
0.0
1001
IRD
1002
{
1000
TPMLINK_Unit_topology-_-ade
1070
   515
1071
        5
1004
0100DF030000B0000000B000000000000000937A1B93591F7040937A1B93591F7040000000003B030000
1002
}
1001
DCO15
1071
        5
1071
        5
1000
unitlink
1004
0741333800
1071
        4
1000
Link
1004
0741333800
  0
VERTEX
  5
221
  8
QUJIALING
 10
727110.57206950721
 20
3421896.9213946071
 30
0.1818181818181818
  0
VERTEX
  5
222
  8
QUJIALING
 10
727168.73329071328
 20
3421883.9860756909
 30
0.1818181818181818
  0
VERTEX
  5
223
  8
QUJIALING
 10
727152.17780450382
 20
3421815.320083688
 30
0.1818181818181818
  0
VERTEX
  5
224
  8
QUJIALING
 10
727111.48665161058
 20
3421814.1998286531
 30
0.1818181818181818
  0
VERTEX
  5
225
  8
QUJIALING
 10
727105.30159636936
 20
3421825.9745955919
 30
0.1818181818181818
  0
VERTEX
  5
226
  8
QUJIALING
 10
727101.10071925074
 20
3421845.5911477678
 30
0.1818181818181818
  0
VERTEX
  5
227
  8
QUJIALING
 10
727098.26015205705
 20
3421858.8555525569
 30
0.1818181818181818
  0
VERTEX
  5
228
  8
QUJIALING
 10
727103.06939598185
 20
3421878.3848005212
 30
0.1818181818181818
  0
VERTEX
  5
229
  8
QUJIALING
 10
727110.57206950721
 20
3421896.9213946071
 30
0.1818181818181818
  0
SEQEND
  5
22A
  8
QUJIALING
  0
POLYLINE
  5
7F
  8
QUJIALING
 66
     1
 10
0.0
 20
0.0
 30
0.06
 70
     1
1001
ADE
1011
-23.848890943452719
1021
0.0
1031
0.0
1021
0.5037117945030332
1031
0.0
1001
IRD
1002
{
1000
TPMLINK_Unit_topology-_-ade
1070
   515
1071
        5
1004
0100E1030000AE000000AE000000000000004F91EBB552AC6E404F91EBB552AC6E403E03000000000000
1002
}
1001
DCO15
1071
        5
1071
        5
1000
unitlink
1004
0741343300
1071
        4
1000
Link
1004
0741343300
  0
VERTEX
  5
22B
  8
QUJIALING
 10
727252.03776905686
 20
3421930.6741146198
 30
0.06
  0
VERTEX
  5
22C
  8
QUJIALING
 10
727284.07914545015
 20
3421917.5856673168
 30
0.06
  0
VERTEX
  5
22D
  8
QUJIALING
 10
727293.17846230802
 20
3421920.1243747692
 30
0.06
  0
VERTEX
  5
22E
  8
QUJIALING
 10
727325.77788880095
 20
3421991.683687327
 30
0.06
  0
VERTEX
  5
22F
  8
QUJIALING
 10
727274.43727989122
 20
3421997.1398935001
 30
0.06
  0
VERTEX
  5
230
  8
QUJIALING
 10
727256.81219766301
 20
3421958.317817972
 30
0.06
  0
VERTEX
  5
231
  8
QUJIALING
 10
727253.41055133066
 20
3421950.8251453652
 30
0.06
  0
VERTEX
  5
232
  8
QUJIALING
 10
727252.03776905686
 20
3421930.6741146198
 30
0.06
  0
SEQEND
  5
233
  8
QUJIALING
  0
POLYLINE
  5
80
  8
QUJIALING
 66
     1
 10
0.0
 20
0.0
 30
0.06
 70
     1
1001
ADE
1011
-26.329113597050309
1021
0.0
1031
0.0
1021
-4.247297862544654
1031
0.0
1001
IRD
1002
{
1000
TPMLINK_Unit_topology-_-ade
1070
   515
1071
        5
1004
0100E2030000A3000000A300000000000000EB22F998E4F87040EB22F998E4F870403803000000000000
1002
}
1001
DCO15
1071
        5
1071
        5
1000
unitlink
1004
0741333500
1071
        4
1000
Link
1004
0741333500
  0
VERTEX
  5
234
  8
QUJIALING
 10
727209.11441577598
 20
3422027.241710416
 30
0.06
  0
VERTEX
  5
235
  8
QUJIALING
 10
727187.53647869825
 20
3421966.336909763
 30
0.06
  0
VERTEX
  5
236
  8
QUJIALING
 10
727258.14531733841
 20
3421964.8781604008
 30
0.06
  0
VERTEX
  5
237
  8
QUJIALING
 10
727281.76943810668
 20
3422023.9131828691
 30
0.06
  0
VERTEX
  5
238
  8
QUJIALING
 10
727209.11441577598
 20
3422027.241710416
 30
0.06
  0
SEQEND
  5
239
  8
QUJIALING
  0
POLYLINE
  5
81
  8
QUJIALING
 66
     1
 10
0.0
 20
0.0
 30
10.751351351351349
 70
     1
1001
ADE
1011
-14.331036515650339
1021
0.0
1031
0.0
1021
-2.9457065835595122
1031
0.0
1001
IRD
1002
{
1000
TPMLINK_Unit_topology-_-ade
1070
   515
1071
        5
1004
0100EC0300006F0000006F00000000000000E2B46E9180DC6740E2B46E9180DC6740F902000000000000
1002
}
1001
DCO15
1071
        5
1071
        5
1000
unitlink
1004
074133313800
1071
        4
1000
Link
1004
074133313800
  0
VERTEX
  5
23A
  8
QUJIALING
 10
727027.68612873182
 20
3422274.1169060771
 30
10.751351351351349
  0
VERTEX
  5
23B
  8
QUJIALING
 10
727068.78031780955
 20
3422274.8261322859
 30
10.751351351351349
  0
VERTEX
  5
23C
  8
QUJIALING
 10
727074.08179372933
 20
3422322.1750410921
 30
10.751351351351349
  0
VERTEX
  5
23D
  8
QUJIALING
 10
727028.58520944417
 20
3422329.654153835
 30
10.751351351351349
  0
VERTEX
  5
23E
  8
QUJIALING
 10
727031.65448497573
 20
3422295.6274146042
 30
10.751351351351349
  0
VERTEX
  5
23F
  8
QUJIALING
 10
727027.68612873182
 20
3422274.1169060771
 30
10.751351351351349
  0
SEQEND
  5
240
  8
QUJIALING
  0
POLYLINE
  5
82
  8
QUJIALING
 66
     1
 10
0.0
 20
0.0
 30
8.6999999999999975
 70
     1
1001
ADE
1011
-12.71114109281916
1021
0.0
1031
0.0
1021
-4.1747633628547192
1031
0.0
1001
IRD
1002
{
1000
TPMLINK_Unit_topology-_-ade
1070
   515
1071
        5
1004
0100ED030000420000004200000000000000D4F0484C8AD26640D4F0484C8AD266400003000000000000
1002
}
1001
DCO15
1071
        5
1071
        5
1000
unitlink
1004
074133393400
1071
        4
1000
Link
1004
074133393400
  0
VERTEX
  5
241
  8
QUJIALING
 10
726967.21520018205
 20
3422484.7248524399
 30
8.6999999999999975
  0
VERTEX
  5
242
  8
QUJIALING
 10
727004.26352605585
 20
3422496.1369468858
 30
8.6999999999999975
  0
VERTEX
  5
243
  8
QUJIALING
 10
727009.58050336689
 20
3422541.0438609058
 30
8.6999999999999975
  0
VERTEX
  5
244
  8
QUJIALING
 10
726967.50972662133
 20
3422527.850641551
 30
8.6999999999999975
  0
VERTEX
  5
245
  8
QUJIALING
 10
726953.80649646767
 20
3422517.3411986441
 30
8.6999999999999975
  0
VERTEX
  5
246
  8
QUJIALING
 10
726959.91404474864
 20
3422489.4879511842
 30
8.6999999999999975
  0
VERTEX
  5
247
  8
QUJIALING
 10
726967.21520018205
 20
3422484.7248524399
 30
8.6999999999999975
  0
SEQEND
  5
248
  8
QUJIALING
  0
POLYLINE
  5
83
  8
QUJIALING
 66
     1
 10
0.0
 20
0.0
 30
0.5
 70
     1
1001
ADE
1011
-19.37882452190388
1021
0.0
1031
0.0
1021
-0.9026515395380554
1031
0.0
1001
IRD
1002
{
1000
TPMLINK_Unit_topology-_-ade
1070
   515
1071
        5
1004
0100EE0300005300000053000000000000004845EDD62D0968404845EDD62D096840E902000000000000
1002
}
1001
DCO15
1071
        5
1071
        5
1000
unitlink
1004
074133353000
1071
        4
1000
Link
1004
074133353000
  0
VERTEX
  5
249
  8
QUJIALING
 10
726815.31706409901
 20
3422386.6259727869
 30
0.5
  0
VERTEX
  5
24A
  8
QUJIALING
 10
726867.27772867295
 20
3422403.2202541879
 30
0.5
  0
VERTEX
  5
24B
  8
QUJIALING
 10
726859.40302174911
 20
3422429.8404151718
 30
0.5
  0
VERTEX
  5
24C
  8
QUJIALING
 10
726854.72160149366
 20
3422436.5135890418
 30
0.5
  0
VERTEX
  5
24D
  8
QUJIALING
 10
726837.36004292616
 20
3422440.9623716241
 30
0.5
  0
VERTEX
  5
24E
  8
QUJIALING
 10
726825.39296862495
 20
3422435.8930161078
 30
0.5
  0
VERTEX
  5
24F
  8
QUJIALING
 10
726810.26361044496
 20
3422427.2372326101
 30
0.5
  0
VERTEX
  5
250
  8
QUJIALING
 10
726797.64964779268
 20
3422420.0205530599
 30
0.5
  0
VERTEX
  5
251
  8
QUJIALING
 10
726807.67487804964
 20
3422392.4448514511
 30
0.5
  0
VERTEX
  5
252
  8
QUJIALING
 10
726815.31706409901
 20
3422386.6259727869
 30
0.5
  0
SEQEND
  5
253
  8
QUJIALING
  0
POLYLINE
  5
84
  8
QUJIALING
 66
     1
 10
0.0
 20
0.0
 30
0.25
 70
     1
1001
ADE
1011
-13.80398919805884
1021
0.0
1031
0.0
1021
-0.8260873449034987
1031
0.0
1001
IRD
1002
{
1000
TPMLINK_Unit_topology-_-ade
1070
   515
1071
        5
1004
0100010400002400000024000000000000008D008B6002E264408D008B6002E264400D03000000000000
1002
}
1001
DCO15
1071
        5
1071
        5
1000
unitlink
1004
074133363800
1071
        4
1000
Link
1004
074133363800
  0
VERTEX
  5
254
  8
QUJIALING
 10
726807.95390309766
 20
3422660.0165573792
 30
0.25
  0
VERTEX
  5
255
  8
QUJIALING
 10
726804.1250593774
 20
3422647.3713764562
 30
0.25
  0
VERTEX
  5
256
  8
QUJIALING
 10
726811.02317863354
 20
3422631.284836547
 30
0.25
  0
VERTEX
  5
257
  8
QUJIALING
 10
726821.37810820725
 20
3422627.835418168
 30
0.25
  0
VERTEX
  5
258
  8
QUJIALING
 10
726847.46695023414
 20
3422632.8161204061
 30
0.25
  0
VERTEX
  5
259
  8
QUJIALING
 10
726865.12303524103
 20
3422642.0118829492
 30
0.25
  0
VERTEX
  5
25A
  8
QUJIALING
 10
726862.81332789734
 20
3422659.2509154482
 30
0.25
  0
VERTEX
  5
25B
  8
QUJIALING
 10
726855.52767385542
 20
3422669.9779618531
 30
0.25
  0
VERTEX
  5
25C
  8
QUJIALING
 10
726807.95390309766
 20
3422660.0165573792
 30
0.25
  0
SEQEND
  5
25D
  8
QUJIALING
  0
POLYLINE
  5
85
  8
QUJIALING
 66
     1
 10
0.0
 20
0.0
 30
0.5
 70
     1
1001
ADE
1011
-14.06751285667997
1021
0.0
1031
0.0
1021
-3.4574777670204631
1031
0.0
1001
IRD
1002
{
1000
TPMLINK_Unit_topology-_-ade
1070
   515
1071
        5
1004
010004040000490000004900000000000000E0F9F49F31FD6740E0F9F49F31FD67400000000021030000
1002
}
1001
DCO15
1071
        5
1071
        5
1000
unitlink
1004
074133363400
1071
        4
1000
Link
1004
074133363400
  0
VERTEX
  5
25E
  8
QUJIALING
 10
726559.79212530714
 20
3422456.1946163261
 30
0.5
  0
VERTEX
  5
25F
  8
QUJIALING
 10
726561.6832950823
 20
3422498.1759722359
 30
0.5
  0
VERTEX
  5
260
  8
QUJIALING
 10
726619.45698149514
 20
3422485.450197428
 30
0.5
  0
VERTEX
  5
261
  8
QUJIALING
 10
726621.90620136645
 20
3422458.902570942
 30
0.5
  0
VERTEX
  5
262
  8
QUJIALING
 10
726567.38780718273
 20
3422451.318686143
 30
0.5
  0
VERTEX
  5
263
  8
QUJIALING
 10
726559.79212530714
 20
3422456.1946163261
 30
0.5
  0
SEQEND
  5
264
  8
QUJIALING
  0
POLYLINE
  5
86
  8
QUJIALING
 66
     1
 10
0.0
 20
0.0
 30
1.7
 70
     1
1001
ADE
1011
-14.563557388260961
1021
0.0
1031
0.0
1021
0.9751860368996856
1031
0.0
1001
IRD
1002
{
1000
TPMLINK_Unit_topology-_-ade
1070
   515
1071
        5
1004
010005040000350000003500000000000000F3154E69F2F16540F3154E69F2F165402003000000000000
1002
}
1001
DCO15
1071
        5
1071
        5
1000
unitlink
1004
074133363200
1071
        4
1000
Link
1004
074133363200
  0
VERTEX
  5
265
  8
QUJIALING
 10
726585.88096733764
 20
3422538.3681438491
 30
1.7
  0
VERTEX
  5
266
  8
QUJIALING
 10
726571.89871213224
 20
3422517.4217925281
 30
1.7
  0
VERTEX
  5
267
  8
QUJIALING
 10
726577.54121866846
 20
3422501.2143617892
 30
1.7
  0
VERTEX
  5
268
  8
QUJIALING
 10
726620.60408447334
 20
3422492.1878464092
 30
1.7
  0
VERTEX
  5
269
  8
QUJIALING
 10
726625.33200890594
 20
3422494.1220997018
 30
1.7
  0
VERTEX
  5
26A
  8
QUJIALING
 10
726633.29972417653
 20
3422527.4476721128
 30
1.7
  0
VERTEX
  5
26B
  8
QUJIALING
 10
726625.33200890594
 20
3422533.6775796041
 30
1.7
  0
VERTEX
  5
26C
  8
QUJIALING
 10
726585.88096733764
 20
3422538.3681438491
 30
1.7
  0
SEQEND
  5
26D
  8
QUJIALING
  0
POLYLINE
  5
87
  8
QUJIALING
 66
     1
 10
0.0
 20
0.0
 30
0.06
 70
     1
1001
ADE
1011
-12.35460908699315
1021
0.0
1031
0.0
1021
0.5560978236608209
1031
0.0
1001
IRD
1002
{
1000
TPMLINK_Unit_topology-_-ade
1070
   515
1071
        5
1004
0100060400002B0000002B000000000000003E55DE542E3D66403E55DE542E3D66401F03000000000000
1002
}
1001
DCO15
1071
        5
1071
        5
1000
unitlink
1004
074133363300
1071
        4
1000
Link
1004
074133363300
  0
VERTEX
  5
26E
  8
QUJIALING
 10
726575.40202662733
 20
3422596.4199208892
 30
0.06
  0
VERTEX
  5
26F
  8
QUJIALING
 10
726569.71301591781
 20
3422568.9212865322
 30
0.06
  0
VERTEX
  5
270
  8
QUJIALING
 10
726578.02176180482
 20
3422561.0633825171
 30
0.06
  0
VERTEX
  5
271
  8
QUJIALING
 10
726626.9596550205
 20
3422564.5530978399
 30
0.06
  0
VERTEX
  5
272
  8
QUJIALING
 10
726627.84323434159
 20
3422601.2152571841
 30
0.06
  0
VERTEX
  5
273
  8
QUJIALING
 10
726575.40202662733
 20
3422596.4199208892
 30
0.06
  0
SEQEND
  5
274
  8
QUJIALING
  0
POLYLINE
  5
88
  8
QUJIALING
 66
     1
 10
0.0
 20
0.0
 30
0.06
 70
     1
1001
ADE
1011
-18.834190769004628
1021
0.0
1031
0.0
1021
-1.825451548676936
1031
0.0
1001
IRD
1002
{
1000
TPMLINK_Unit_topology-_-ade
1070
   515
1071
        5
1004
0100070400002A0000002A00000000000000EFEE1C62CE996540EFEE1C62CE9965400A03000000000000
1002
}
1001
DCO15
1071
        5
1071
        5
1000
unitlink
1004
074133363600
1071
        4
1000
Link
1004
074133363600
  0
VERTEX
  5
275
  8
QUJIALING
 10
726674.26990212139
 20
3422603.117272926
 30
0.06
  0
VERTEX
  5
276
  8
QUJIALING
 10
726676.68811920681
 20
3422570.557342445
 30
0.06
  0
VERTEX
  5
277
  8
QUJIALING
 10
726696.46789486345
 20
3422569.1711275829
 30
0.06
  0
VERTEX
  5
278
  8
QUJIALING
 10
726726.63360287633
 20
3422574.0228795991
 30
0.06
  0
VERTEX
  5
279
  8
QUJIALING
 10
726728.7107893452
 20
3422578.1815241869
 30
0.06
  0
VERTEX
  5
27A
  8
QUJIALING
 10
726724.55641640339
 20
3422611.0799489929
 30
0.06
  0
VERTEX
  5
27B
  8
QUJIALING
 10
726697.84751871263
 20
3422612.1196101401
 30
0.06
  0
VERTEX
  5
27C
  8
QUJIALING
 10
726674.26990212139
 20
3422603.117272926
 30
0.06
  0
SEQEND
  5
27D
  8
QUJIALING
  0
POLYLINE
  5
89
  8
QUJIALING
 66
     1
 10
0.0
 20
0.0
 30
0.125
 70
     1
1001
ADE
1011
-12.05233195226174
1021
0.0
1031
0.0
1021
-0.4634148525074127
1031
0.0
1001
IRD
1002
{
1000
TPMLINK_Unit_topology-_-ade
1070
   515
1071
        5
1004
0100080400003A0000003A0000000000000079F56B6490E6644079F56B6490E664400903000000000000
1002
}
1001
DCO15
1071
        5
1071
        5
1000
unitlink
1004
074133363500
1071
        4
1000
Link
1004
074133363500
  0
VERTEX
  5
27E
  8
QUJIALING
 10
726682.42363408953
 20
3422515.1168073518
 30
0.125
  0
VERTEX
  5
27F
  8
QUJIALING
 10
726722.60324106365
 20
3422521.9834065521
 30
0.125
  0
VERTEX
  5
280
  8
QUJIALING
 10
726720.94459216658
 20
3422559.9189493181
 30
0.125
  0
VERTEX
  5
281
  8
QUJIALING
 10
726674.16139237955
 20
3422555.7925422862
 30
0.125
  0
VERTEX
  5
282
  8
QUJIALING
 10
726682.42363408953
 20
3422515.1168073518
 30
0.125
  0
SEQEND
  5
283
  8
QUJIALING
  0
POLYLINE
  5
8A
  8
QUJIALING
 66
     1
 10
0.0
 20
0.0
 30
0.125
 70
     1
1001
ADE
1011
-20.678856365382671
1021
0.0
1031
0.0
1021
-1.603818357922135
1031
0.0
1001
IRD
1002
{
1000
TPMLINK_Unit_topology-_-ade
1070
   515
1071
        5
1004
010009040000320000003200000000000000BA58FC1BF6D96540BA58FC1BF6D965400803000000000000
1002
}
1001
DCO15
1071
        5
1071
        5
1000
unitlink
1004
074133363700
1071
        4
1000
Link
1004
074133363700
  0
VERTEX
  5
284
  8
QUJIALING
 10
726781.04348731798
 20
3422549.9333666782
 30
0.125
  0
VERTEX
  5
285
  8
QUJIALING
 10
726797.31994847581
 20
3422554.108130041
 30
0.125
  0
VERTEX
  5
286
  8
QUJIALING
 10
726822.02916665375
 20
3422575.8684796202
 30
0.125
  0
VERTEX
  5
287
  8
QUJIALING
 10
726827.88869266945
 20
3422582.6061286
 30
0.125
  0
VERTEX
  5
288
  8
QUJIALING
 10
726815.68909749785
 20
3422601.0298912418
 30
0.125
  0
VERTEX
  5
289
  8
QUJIALING
 10
726767.09223489475
 20
3422590.4317950602
 30
0.125
  0
VERTEX
  5
28A
  8
QUJIALING
 10
726768.76638518646
 20
3422568.1153476592
 30
0.125
  0
VERTEX
  5
28B
  8
QUJIALING
 10
726781.04348731798
 20
3422549.9333666782
 30
0.125
  0
SEQEND
  5
28C
  8
QUJIALING
  0
POLYLINE
  5
8B
  8
QUJIALING
 66
     1
 10
0.0
 20
0.0
 30
3.7999999999999989
 70
     1
1001
ADE
1011
-16.074943067622371
1021
0.0
1031
0.0
1021
-3.9007441457360961
1031
0.0
1001
IRD
1002
{
1000
TPMLINK_Unit_topology-_-ade
1070
   515
1071
        5
1004
01000B0400002E0000002E0000000000000057AB13B97DD7654057AB13B97DD765400603000000000000
1002
}
1001
DCO15
1071
        5
1071
        5
1000
unitlink
1004
074133363900
1071
        4
1000
Link
1004
074133363900
  0
VERTEX
  5
28D
  8
QUJIALING
 10
726922.89672165737
 20
3422574.9255311368
 30
3.7999999999999989
  0
VERTEX
  5
28E
  8
QUJIALING
 10
726911.6117085889
 20
3422610.9832363292
 30
3.7999999999999989
  0
VERTEX
  5
28F
  8
QUJIALING
 10
726876.51655805483
 20
3422603.7217270811
 30
3.7999999999999989
  0
VERTEX
  5
290
  8
QUJIALING
 10
726862.96834181261
 20
3422594.9611715279
 30
3.7999999999999989
  0
VERTEX
  5
291
  8
QUJIALING
 10
726874.25335488096
 20
3422562.1594593851
 30
3.7999999999999989
  0
VERTEX
  5
292
  8
QUJIALING
 10
726922.89672165737
 20
3422574.9255311368
 30
3.7999999999999989
  0
SEQEND
  5
293
  8
QUJIALING
  0
POLYLINE
  5
8C
  8
QUJIALING
 66
     1
 10
0.0
 20
0.0
 30
0.25
 70
     1
1001
ADE
1011
-10.27045687136706
1021
0.0
1031
0.0
1021
-0.82608734536916
1031
0.0
1001
IRD
1002
{
1000
TPMLINK_Unit_topology-_-ade
1070
   515
1071
        5
1004
01000F040000390000003900000000000000DE2C13C9E6006740DE2C13C9E60067400203000000000000
1002
}
1001
DCO15
1071
        5
1071
        5
1000
unitlink
1004
074133353800
1071
        4
1000
Link
1004
074133353800
  0
VERTEX
  5
294
  8
QUJIALING
 10
726879.78735167545
 20
3422515.4391829008
 30
0.25
  0
VERTEX
  5
295
  8
QUJIALING
 10
726923.81130376086
 20
3422532.3800180168
 30
0.25
  0
VERTEX
  5
296
  8
QUJIALING
 10
726929.19028663984
 20
3422549.2321998579
 30
0.25
  0
VERTEX
  5
297
  8
QUJIALING
 10
726927.9036711381
 20
3422564.069534515
 30
0.25
  0
VERTEX
  5
298
  8
QUJIALING
 10
726920.63351848733
 20
3422569.0905336952
 30
0.25
  0
VERTEX
  5
299
  8
QUJIALING
 10
726909.02297619346
 20
3422567.3416463411
 30
0.25
  0
VERTEX
  5
29A
  8
QUJIALING
 10
726895.66077665251
 20
3422562.5704882098
 30
0.25
  0
VERTEX
  5
29B
  8
QUJIALING
 10
726877.19861928374
 20
3422558.2828934062
 30
0.25
  0
VERTEX
  5
29C
  8
QUJIALING
 10
726871.40109883249
 20
3422554.0597737092
 30
0.25
  0
VERTEX
  5
29D
  8
QUJIALING
 10
726868.11480381736
 20
3422547.7170347772
 30
0.25
  0
VERTEX
  5
29E
  8
QUJIALING
 10
726865.7136580206
 20
3422543.0826848922
 30
0.25
  0
VERTEX
  5
29F
  8
QUJIALING
 10
726879.78735167545
 20
3422515.4391829008
 30
0.25
  0
SEQEND
  5
2A0
  8
QUJIALING
  0
POLYLINE
  5
8D
  8
QUJIALING
 66
     1
 10
0.0
 20
0.0
 30
0.25
 70
     1
1001
ADE
1011
-13.803989200037901
1021
0.0
1031
0.0
1021
-2.8731720810756061
1031
0.0
1001
IRD
1002
{
1000
TPMLINK_Unit_topology-_-ade
1070
   515
1071
        5
1004
0100100400004000000040000000000000002E0D1FB9B5F764402E0D1FB9B5F764400103000000000000
1002
}
1001
DCO15
1071
        5
1071
        5
1000
unitlink
1004
074133353900
1071
        4
1000
Link
1004
074133353900
  0
VERTEX
  5
2A1
  8
QUJIALING
 10
726827.78018292785
 20
3422494.9683355209
 30
0.25
  0
VERTEX
  5
2A2
  8
QUJIALING
 10
726873.38527695462
 20
3422512.2396055749
 30
0.25
  0
VERTEX
  5
2A3
  8
QUJIALING
 10
726861.91424718546
 20
3422543.2843709718
 30
0.25
  0
VERTEX
  5
2A4
  8
QUJIALING
 10
726847.06391405314
 20
3422542.381719436
 30
0.25
  0
VERTEX
  5
2A5
  8
QUJIALING
 10
726822.06016943627
 20
3422530.26039878
 30
0.25
  0
VERTEX
  5
2A6
  8
QUJIALING
 10
726817.09972412884
 20
3422528.9950747499
 30
0.25
  0
VERTEX
  5
2A7
  8
QUJIALING
 10
726815.95262115449
 20
3422522.644276428
 30
0.25
  0
VERTEX
  5
2A8
  8
QUJIALING
 10
726819.54894400015
 20
3422502.431329486
 30
0.25
  0
VERTEX
  5
2A9
  8
QUJIALING
 10
726827.78018292785
 20
3422494.9683355209
 30
0.25
  0
SEQEND
  5
2AA
  8
QUJIALING
  0
POLYLINE
  5
8E
  8
QUJIALING
 66
     1
 10
0.0
 20
0.0
 30
0.125
 70
     1
1001
ADE
1011
-20.942380022141151
1021
0.0
1031
0.0
1021
-3.7677642311900841
1031
0.0
1001
IRD
1002
{
1000
TPMLINK_Unit_topology-_-ade
1070
   515
1071
        5
1004
010011040000450000004500000000000000FAF47DA848046740FAF47DA848046740E702000000000000
1002
}
1001
DCO15
1071
        5
1071
        5
1000
unitlink
1004
074133363000
1071
        4
1000
Link
1004
074133363000
  0
VERTEX
  5
2AB
  8
QUJIALING
 10
726784.48479624849
 20
3422474.2154095331
 30
0.125
  0
VERTEX
  5
2AC
  8
QUJIALING
 10
726821.45561516297
 20
3422486.4173240741
 30
0.125
  0
VERTEX
  5
2AD
  8
QUJIALING
 10
726808.58946015325
 20
3422532.5895621241
 30
0.125
  0
VERTEX
  5
2AE
  8
QUJIALING
 10
726767.63478360302
 20
3422521.378952398
 30
0.125
  0
VERTEX
  5
2AF
  8
QUJIALING
 10
726768.33234622353
 20
3422494.1623966461
 30
0.125
  0
VERTEX
  5
2B0
  8
QUJIALING
 10
726773.10677482933
 20
3422480.2599510821
 30
0.125
  0
VERTEX
  5
2B1
  8
QUJIALING
 10
726784.48479624849
 20
3422474.2154095331
 30
0.125
  0
SEQEND
  5
2B2
  8
QUJIALING
  0
POLYLINE
  5
8F
  8
QUJIALING
 66
     1
 10
0.0
 20
0.0
 30
0.5
 70
     1
1001
ADE
1011
-16.873264735331759
1021
0.0
1031
0.0
1021
-1.7730655223131171
1031
0.0
1001
IRD
1002
{
1000
TPMLINK_Unit_topology-_-ade
1070
   515
1071
        5
1004
0100120400004C0000004C0000000000000043E1D1A1DEC2674043E1D1A1DEC26740E602000000000000
1002
}
1001
DCO15
1071
        5
1071
        5
1000
unitlink
1004
074133363100
1071
        4
1000
Link
1004
074133363100
  0
VERTEX
  5
2B3
  8
QUJIALING
 10
726728.07523229346
 20
3422448.2077620919
 30
0.5
  0
VERTEX
  5
2B4
  8
QUJIALING
 10
726782.84164874267
 20
3422465.221131708
 30
0.5
  0
VERTEX
  5
2B5
  8
QUJIALING
 10
726771.04508974752
 20
3422480.6629205188
 30
0.5
  0
VERTEX
  5
2B6
  8
QUJIALING
 10
726761.09319635492
 20
3422506.3159548561
 30
0.5
  0
VERTEX
  5
2B7
  8
QUJIALING
 10
726754.00906040554
 20
3422508.6692963662
 30
0.5
  0
VERTEX
  5
2B8
  8
QUJIALING
 10
726731.47003704694
 20
3422502.6489329832
 30
0.5
  0
VERTEX
  5
2B9
  8
QUJIALING
 10
726733.53172212839
 20
3422480.0101100318
 30
0.5
  0
VERTEX
  5
2BA
  8
QUJIALING
 10
726728.07523229346
 20
3422448.2077620919
 30
0.5
  0
SEQEND
  5
2BB
  8
QUJIALING
  0
POLYLINE
  5
90
  8
QUJIALING
 66
     1
 10
0.0
 20
0.0
 30
5.9000000000000004
 70
     1
1001
ADE
1011
-17.81884961924516
1021
0.0
1031
0.0
1021
-2.163945873733609
1031
0.0
1001
IRD
1002
{
1000
TPMLINK_Unit_topology-_-ade
1070
   515
1071
        5
1004
0100140400005000000050000000000000007F12DC9A95CE65407F12DC9A95CE654000000000E3020000
1002
}
1001
DCO15
1071
        5
1071
        5
1000
unitlink
1004
074133353600
1071
        4
1000
Link
1004
074133353600
  0
VERTEX
  5
2BC
  8
QUJIALING
 10
726676.59511085588
 20
3422415.9218508289
 30
5.9000000000000004
  0
VERTEX
  5
2BD
  8
QUJIALING
 10
726713.33340889949
 20
3422431.8069060212
 30
5.9000000000000004
  0
VERTEX
  5
2BE
  8
QUJIALING
 10
726737.22105332452
 20
3422393.5892846501
 30
5.9000000000000004
  0
VERTEX
  5
2BF
  8
QUJIALING
 10
726696.52990042779
 20
3422376.5920338142
 30
5.9000000000000004
  0
VERTEX
  5
2C0
  8
QUJIALING
 10
726681.64856451377
 20
3422394.653123965
 30
5.9000000000000004
  0
VERTEX
  5
2C1
  8
QUJIALING
 10
726676.59511085588
 20
3422415.9218508289
 30
5.9000000000000004
  0
SEQEND
  5
2C2
  8
QUJIALING
  0
POLYLINE
  5
91
  8
QUJIALING
 66
     1
 10
0.0
 20
0.0
 30
4.099999999999997
 70
     1
1001
ADE
1011
-9.3792634262936154
1021
0.0
1031
0.0
1021
-0.2820786074735224
1031
0.0
1001
IRD
1002
{
1000
TPMLINK_Unit_topology-_-ade
1070
   515
1071
        5
1004
0100150400004D0000004D000000000000001A28ED2B3DD864401A28ED2B3DD8644000000000E4020000
1002
}
1001
DCO15
1071
        5
1071
        5
1000
unitlink
1004
074133353500
1071
        4
1000
Link
1004
074133353500
  0
VERTEX
  5
2C3
  8
QUJIALING
 10
726721.61115200457
 20
3422431.3475208641
 30
4.099999999999997
  0
VERTEX
  5
2C4
  8
QUJIALING
 10
726750.08720833436
 20
3422450.5852817711
 30
4.099999999999997
  0
VERTEX
  5
2C5
  8
QUJIALING
 10
726764.31748580188
 20
3422451.4153988091
 30
4.099999999999997
  0
VERTEX
  5
2C6
  8
QUJIALING
 10
726772.05268020194
 20
3422445.0565410969
 30
4.099999999999997
  0
VERTEX
  5
2C7
  8
QUJIALING
 10
726774.06786110625
 20
3422418.0092325108
 30
4.099999999999997
  0
VERTEX
  5
2C8
  8
QUJIALING
 10
726738.58517578256
 20
3422398.1911956179
 30
4.099999999999997
  0
VERTEX
  5
2C9
  8
QUJIALING
 10
726730.41594241944
 20
3422406.6374350088
 30
4.099999999999997
  0
VERTEX
  5
2CA
  8
QUJIALING
 10
726719.16377517732
 20
3422429.6941300412
 30
4.099999999999997
  0
VERTEX
  5
2CB
  8
QUJIALING
 10
726721.61115200457
 20
3422431.3475208641
 30
4.099999999999997
  0
SEQEND
  5
2CC
  8
QUJIALING
  0
POLYLINE
  5
92
  8
QUJIALING
 66
     1
 10
0.0
 20
0.0
 30
4.9000000000000004
 70
     1
1001
ADE
1011
-22.469267092528732
1021
0.0
1031
0.0
1021
-1.926193906925616
1031
0.0
1001
IRD
1002
{
1000
TPMLINK_Unit_topology-_-ade
1070
   515
1071
        5
1004
0100160400004B0000004B00000000000000CA75DE3CCB566640CA75DE3CCB56664000000000E8020000
1002
}
1001
DCO15
1071
        5
1071
        5
1000
unitlink
1004
074133353400
1071
        4
1000
Link
1004
074133353400
  0
VERTEX
  5
2CD
  8
QUJIALING
 10
726773.66482492536
 20
3422451.3912206409
 30
4.9000000000000004
  0
VERTEX
  5
2CE
  8
QUJIALING
 10
726824.10635312286
 20
3422472.20056235
 30
4.9000000000000004
  0
VERTEX
  5
2CF
  8
QUJIALING
 10
726833.57770337886
 20
3422443.1061690259
 30
4.9000000000000004
  0
VERTEX
  5
2D0
  8
QUJIALING
 10
726780.1754093878
 20
3422417.7835696279
 30
4.9000000000000004
  0
VERTEX
  5
2D1
  8
QUJIALING
 10
726775.77301418036
 20
3422430.6302352669
 30
4.9000000000000004
  0
VERTEX
  5
2D2
  8
QUJIALING
 10
726773.66482492536
 20
3422451.3912206409
 30
4.9000000000000004
  0
SEQEND
  5
2D3
  8
QUJIALING
  0
POLYLINE
  5
93
  8
QUJIALING
 66
     1
 10
0.0
 20
0.0
 30
4.799999999999998
 70
     1
1001
ADE
1011
-20.41533270850778
1021
0.0
1031
0.0
1021
-8.0674481214955431
1031
0.0
1001
IRD
1002
{
1000
TPMLINK_Unit_topology-_-ade
1070
   515
1071
        5
1004
010017040000440000004400000000000000B0168DC703926640B0168DC703926640EA02000000000000
1002
}
1001
DCO15
1071
        5
1071
        5
1000
unitlink
1004
074133353300
1071
        4
1000
Link
1004
074133353300
  0
VERTEX
  5
2D4
  8
QUJIALING
 10
726828.19872049987
 20
3422474.3282409748
 30
4.799999999999998
  0
VERTEX
  5
2D5
  8
QUJIALING
 10
726835.06583696988
 20
3422448.0385149298
 30
4.799999999999998
  0
VERTEX
  5
2D6
  8
QUJIALING
 10
726846.11832916737
 20
3422441.373400447
 30
4.799999999999998
  0
VERTEX
  5
2D7
  8
QUJIALING
 10
726890.29729516781
 20
3422466.3736242969
 30
4.799999999999998
  0
VERTEX
  5
2D8
  8
QUJIALING
 10
726882.32957989746
 20
3422496.5479757129
 30
4.799999999999998
  0
VERTEX
  5
2D9
  8
QUJIALING
 10
726828.19872049987
 20
3422474.3282409748
 30
4.799999999999998
  0
SEQEND
  5
2DA
  8
QUJIALING
  0
POLYLINE
  5
94
  8
QUJIALING
 66
     1
 10
0.0
 20
0.0
 30
3.8999999999999999
 70
     1
1001
ADE
1011
-12.083334734779781
1021
0.0
1031
0.0
1021
-5.049207040574399
1031
0.0
1001
IRD
1002
{
1000
TPMLINK_Unit_topology-_-ade
1070
   515
1071
        5
1004
0100180400003E0000003E00000000000000B2D840F5FF896940B2D840F5FF896940FF02000000000000
1002
}
1001
DCO15
1071
        5
1071
        5
1000
unitlink
1004
074133353200
1071
        4
1000
Link
1004
074133353200
  0
VERTEX
  5
2DB
  8
QUJIALING
 10
726884.980317857
 20
3422496.5076787691
 30
3.8999999999999999
  0
VERTEX
  5
2DC
  8
QUJIALING
 10
726893.49058183283
 20
3422463.7220854028
 30
3.8999999999999999
  0
VERTEX
  5
2DD
  8
QUJIALING
 10
726947.8384607099
 20
3422471.588048805
 30
3.8999999999999999
  0
VERTEX
  5
2DE
  8
QUJIALING
 10
726954.41105073714
 20
3422479.9859318668
 30
3.8999999999999999
  0
VERTEX
  5
2DF
  8
QUJIALING
 10
726944.3351462112
 20
3422519.8234903719
 30
3.8999999999999999
  0
VERTEX
  5
2E0
  8
QUJIALING
 10
726884.980317857
 20
3422496.5076787691
 30
3.8999999999999999
  0
SEQEND
  5
2E1
  8
QUJIALING
  0
POLYLINE
  5
95
  8
QUJIALING
 66
     1
 10
0.0
 20
0.0
 30
11.699999999999999
 70
     1
1001
ADE
1011
-15.408383228001179
1021
0.0
1031
0.0
1021
1.426511805038899
1031
0.0
1001
IRD
1002
{
1000
TPMLINK_Unit_topology-_-ade
1070
   515
1071
        5
1004
0100190400005100000051000000000000007096FC455BFD69407096FC455BFD6940EB02000000000000
1002
}
1001
DCO15
1071
        5
1071
        5
1000
unitlink
1004
074133343400
1071
        4
1000
Link
1004
074133343400
  0
VERTEX
  5
2E2
  8
QUJIALING
 10
726895.73828361195
 20
3422414.2374385851
 30
11.699999999999999
  0
VERTEX
  5
2E3
  8
QUJIALING
 10
726954.28703960404
 20
3422433.2575959931
 30
11.699999999999999
  0
VERTEX
  5
2E4
  8
QUJIALING
 10
726944.50566152111
 20
3422469.7182706231
 30
11.699999999999999
  0
VERTEX
  5
2E5
  8
QUJIALING
 10
726883.29066617403
 20
3422458.9992836048
 30
11.699999999999999
  0
VERTEX
  5
2E6
  8
QUJIALING
 10
726895.73828361195
 20
3422414.2374385851
 30
11.699999999999999
  0
SEQEND
  5
2E7
  8
QUJIALING
  0
POLYLINE
  5
96
  8
QUJIALING
 66
     1
 10
0.0
 20
0.0
 30
3.399999999999999
 70
     1
1001
ADE
1011
-13.51721345831174
1021
0.0
1031
0.0
1021
-2.6515388921834511
1031
0.0
1001
IRD
1002
{
1000
TPMLINK_Unit_topology-_-ade
1070
   515
1071
        5
1004
01001A040000470000004700000000000000BAB7F147ADF56440BAB7F147ADF56440FD02000000000000
1002
}
1001
DCO15
1071
        5
1071
        5
1000
unitlink
1004
074133343700
1071
        4
1000
Link
1004
074133343700
  0
VERTEX
  5
2E8
  8
QUJIALING
 10
726959.89854335785
 20
3422458.7091456121
 30
3.399999999999999
  0
VERTEX
  5
2E9
  8
QUJIALING
 10
726960.50309762743
 20
3422451.471814529
 30
3.399999999999999
  0
VERTEX
  5
2EA
  8
QUJIALING
 10
726969.10636995744
 20
3422421.104037785
 30
3.399999999999999
  0
VERTEX
  5
2EB
  8
QUJIALING
 10
727012.83579559985
 20
3422420.5479399618
 30
3.399999999999999
  0
VERTEX
  5
2EC
  8
QUJIALING
 10
727014.49444450065
 20
3422424.6098718839
 30
3.399999999999999
  0
VERTEX
  5
2ED
  8
QUJIALING
 10
727001.02373521775
 20
3422460.0470041418
 30
3.399999999999999
  0
VERTEX
  5
2EE
  8
QUJIALING
 10
726987.39801201969
 20
3422464.5844399971
 30
3.399999999999999
  0
VERTEX
  5
2EF
  8
QUJIALING
 10
726967.50972662133
 20
3422462.376167485
 30
3.399999999999999
  0
VERTEX
  5
2F0
  8
QUJIALING
 10
726959.89854335785
 20
3422458.7091456121
 30
3.399999999999999
  0
SEQEND
  5
2F1
  8
QUJIALING
  0
POLYLINE
  5
97
  8
QUJIALING
 66
     1
 10
0.0
 20
0.0
 30
0.25
 70
     1
1001
ADE
1011
-6.0377920215250924
1021
0.0
1031
0.0
1021
-2.147827097680417
1031
0.0
1001
IRD
1002
{
1000
TPMLINK_Unit_topology-_-ade
1070
   515
1071
        5
1004
01001B0400004600000046000000000000000F42AF4AE23463400F42AF4AE234634000000000FE020000
1002
}
1001
DCO15
1071
        5
1071
        5
1000
unitlink
1004
074133393500
1071
        4
1000
Link
1004
074133393500
  0
VERTEX
  5
2F2
  8
QUJIALING
 10
726999.86113084864
 20
3422468.4287684239
 30
0.25
  0
VERTEX
  5
2F3
  8
QUJIALING
 10
727025.08189494908
 20
3422474.1912313681
 30
0.25
  0
VERTEX
  5
2F4
  8
QUJIALING
 10
727039.87022251275
 20
3422451.5201708619
 30
0.25
  0
VERTEX
  5
2F5
  8
QUJIALING
 10
727045.6367401816
 20
3422432.0809252388
 30
0.25
  0
VERTEX
  5
2F6
  8
QUJIALING
 10
727037.49850960064
 20
3422425.0773164309
 30
0.25
  0
VERTEX
  5
2F7
  8
QUJIALING
 10
727017.06767550122
 20
3422422.4418963161
 30
0.25
  0
VERTEX
  5
2F8
  8
QUJIALING
 10
726999.86113084864
 20
3422468.4287684239
 30
0.25
  0
SEQEND
  5
2F9
  8
QUJIALING
  0
POLYLINE
  5
98
  8
QUJIALING
 66
     1
 10
0.0
 20
0.0
 30
0.5
 70
     1
1001
ADE
1011
-8.1924854479730111
1021
0.0
1031
0.0
1021
-1.2250270876102141
1031
0.0
1001
IRD
1002
{
1000
TPMLINK_Unit_topology-_-ade
1070
   515
1071
        5
1004
01001C040000580000005800000000000000CAA105E841EC6440CAA105E841EC644000000000FC020000
1002
}
1001
DCO15
1071
        5
1071
        5
1000
unitlink
1004
074133393600
1071
        4
1000
Link
1004
074133393600
  0
VERTEX
  5
2FA
  8
QUJIALING
 10
727040.59878791857
 20
3422364.148337611
 30
0.5
  0
VERTEX
  5
2FB
  8
QUJIALING
 10
727019.31537728012
 20
3422417.727153908
 30
0.5
  0
VERTEX
  5
2FC
  8
QUJIALING
 10
727044.16410798219
 20
3422425.9316116371
 30
0.5
  0
VERTEX
  5
2FD
  8
QUJIALING
 10
727067.04416195315
 20
3422380.3880059058
 30
0.5
  0
VERTEX
  5
2FE
  8
QUJIALING
 10
727056.50321567815
 20
3422368.0652005351
 30
0.5
  0
VERTEX
  5
2FF
  8
QUJIALING
 10
727040.59878791857
 20
3422364.148337611
 30
0.5
  0
SEQEND
  5
300
  8
QUJIALING
  0
POLYLINE
  5
99
  8
QUJIALING
 66
     1
 10
0.0
 20
0.0
 30
7.0
 70
     1
1001
ADE
1011
-13.99000590108335
1021
0.0
1031
0.0
1021
-3.4816559334285531
1031
0.0
1001
IRD
1002
{
1000
TPMLINK_Unit_topology-_-ade
1070
   515
1071
        5
1004
01001D0400005600000056000000000000002E679DE8137B65402E679DE8137B654000000000ED020000
1002
}
1001
DCO15
1071
        5
1071
        5
1000
unitlink
1004
074133343600
1071
        4
1000
Link
1004
074133343600
  0
VERTEX
  5
301
  8
QUJIALING
 10
727028.38369135559
 20
3422375.1171656768
 30
7.0
  0
VERTEX
  5
302
  8
QUJIALING
 10
726979.83333292988
 20
3422376.5759150358
 30
7.0
  0
VERTEX
  5
303
  8
QUJIALING
 10
726974.51635561523
 20
3422414.8499521292
 30
7.0
  0
VERTEX
  5
304
  8
QUJIALING
 10
727015.34702103573
 20
3422416.8809180879
 30
7.0
  0
VERTEX
  5
305
  8
QUJIALING
 10
727028.38369135559
 20
3422375.1171656768
 30
7.0
  0
SEQEND
  5
306
  8
QUJIALING
  0
POLYLINE
  5
9A
  8
QUJIALING
 66
     1
 10
0.0
 20
0.0
 30
0.25
 70
     1
1001
ADE
1011
-17.098034915048629
1021
0.0
1031
0.0
1021
-2.7522812518291162
1031
0.0
1001
IRD
1002
{
1000
TPMLINK_Unit_topology-_-ade
1070
   515
1071
        5
1004
01001E0400005200000052000000000000005C47FFD9F7D568405C47FFD9F7D56840EC02000000000000
1002
}
1001
DCO15
1071
        5
1071
        5
1000
unitlink
1004
074133343800
1071
        4
1000
Link
1004
074133343800
  0
VERTEX
  5
307
  8
QUJIALING
 10
726914.47946603235
 20
3422404.2679747231
 30
0.25
  0
VERTEX
  5
308
  8
QUJIALING
 10
726914.8049952538
 20
3422362.9474886889
 30
0.25
  0
VERTEX
  5
309
  8
QUJIALING
 10
726972.4546705375
 20
3422366.8482328369
 30
0.25
  0
VERTEX
  5
30A
  8
QUJIALING
 10
726968.87384908274
 20
3422411.4247119161
 30
0.25
  0
VERTEX
  5
30B
  8
QUJIALING
 10
726914.47946603235
 20
3422404.2679747231
 30
0.25
  0
SEQEND
  5
30C
  8
QUJIALING
  0
POLYLINE
  5
9B
  8
QUJIALING
 66
     1
 10
0.0
 20
0.0
 30
0.06
 70
     1
1001
ADE
1011
-21.8957156073302
1021
0.0
1031
0.0
1021
-6.2754728454165161
1031
0.0
1001
IRD
1002
{
1000
TPMLINK_Unit_topology-_-ade
1070
   515
1071
        5
1004
01001F0400005D0000005D000000000000003C70DAB9812D67403C70DAB9812D674000000000E1020000
1002
}
1001
DCO15
1071
        5
1071
        5
1000
unitlink
1004
074133343900
1071
        4
1000
Link
1004
074133343900
  0
VERTEX
  5
30D
  8
QUJIALING
 10
726704.69913379103
 20
3422353.8806763659
 30
0.06
  0
VERTEX
  5
30E
  8
QUJIALING
 10
726705.28818666935
 20
3422375.2138783401
 30
0.06
  0
VERTEX
  5
30F
  8
QUJIALING
 10
726750.39723616454
 20
3422391.808159742
 30
0.06
  0
VERTEX
  5
310
  8
QUJIALING
 10
726758.89199874946
 20
3422391.8001003521
 30
0.06
  0
VERTEX
  5
311
  8
QUJIALING
 10
726773.5408137925
 20
3422357.2253226889
 30
0.06
  0
VERTEX
  5
312
  8
QUJIALING
 10
726757.48137211788
 20
3422353.9935078081
 30
0.06
  0
VERTEX
  5
313
  8
QUJIALING
 10
726735.32988354936
 20
3422351.672403852
 30
0.06
  0
VERTEX
  5
314
  8
QUJIALING
 10
726718.04767652904
 20
3422349.8615188221
 30
0.06
  0
VERTEX
  5
315
  8
QUJIALING
 10
726704.69913379103
 20
3422353.8806763659
 30
0.06
  0
SEQEND
  5
316
  8
QUJIALING
  0
POLYLINE
  5
9C
  8
QUJIALING
 66
     1
 10
0.0
 20
0.0
 30
0.06
 70
     1
1001
ADE
1011
-12.540625786525201
1021
0.0
1031
0.0
1021
0.7777310116216541
1031
0.0
1001
IRD
1002
{
1000
TPMLINK_Unit_topology-_-ade
1070
   515
1071
        5
1004
010020040000610000006100000000000000F6EF8CB978556840F6EF8CB97855684000000000E2020000
1002
}
1001
DCO15
1071
        5
1071
        5
1000
unitlink
1004
074133353100
1071
        4
1000
Link
1004
074133353100
  0
VERTEX
  5
317
  8
QUJIALING
 10
726782.43861255795
 20
3422342.025315539
 30
0.06
  0
VERTEX
  5
318
  8
QUJIALING
 10
726762.25580072426
 20
3422394.1776200291
 30
0.06
  0
VERTEX
  5
319
  8
QUJIALING
 10
726791.92546420544
 20
3422415.5188813931
 30
0.06
  0
VERTEX
  5
31A
  8
QUJIALING
 10
726819.82796904817
 20
3422363.3585175141
 30
0.06
  0
VERTEX
  5
31B
  8
QUJIALING
 10
726782.43861255795
 20
3422342.025315539
 30
0.06
  0
SEQEND
  5
31C
  8
QUJIALING
  0
POLYLINE
  5
9D
  8
QUJIALING
 66
     1
 10
0.0
 20
0.0
 30
3.7000000000000002
 70
     1
1001
ADE
1011
-17.028278652462181
1021
0.0
1031
0.0
1021
4.6220594379119548
1031
0.0
1001
IRD
1002
{
1000
TPMLINK_Unit_topology-_-ade
1070
   515
1071
        5
1004
0100210400005F0000005F0000000000000085A104B8356E694085A104B8356E6940F002000000000000
1002
}
1001
DCO15
1071
        5
1071
        5
1000
unitlink
1004
074133343200
1071
        4
1000
Link
1004
074133343200
  0
VERTEX
  5
31D
  8
QUJIALING
 10
726837.6235665828
 20
3422349.1256370121
 30
3.7000000000000002
  0
VERTEX
  5
31E
  8
QUJIALING
 10
726838.81717373454
 20
3422310.545343149
 30
3.7000000000000002
  0
VERTEX
  5
31F
  8
QUJIALING
 10
726875.6174773426
 20
3422324.1657101079
 30
3.7000000000000002
  0
VERTEX
  5
320
  8
QUJIALING
 10
726901.42729432136
 20
3422321.8526655412
 30
3.7000000000000002
  0
VERTEX
  5
321
  8
QUJIALING
 10
726902.31087364245
 20
3422355.6537418859
 30
3.7000000000000002
  0
VERTEX
  5
322
  8
QUJIALING
 10
726851.86934544146
 20
3422355.0654065078
 30
3.7000000000000002
  0
VERTEX
  5
323
  8
QUJIALING
 10
726837.6235665828
 20
3422349.1256370121
 30
3.7000000000000002
  0
SEQEND
  5
324
  8
QUJIALING
  0
POLYLINE
  5
9E
  8
QUJIALING
 66
     1
 10
0.0
 20
0.0
 30
4.8999999999999986
 70
     1
1001
ADE
1011
-10.00614826404489
1021
0.0
1031
0.0
1021
-3.4292699065990742
1031
0.0
1001
IRD
1002
{
1000
TPMLINK_Unit_topology-_-ade
1070
   515
1071
        5
1004
010022040000710000007100000000000000548D03603F476440548D03603F476440F202000000000000
1002
}
1001
DCO15
1071
        5
1071
        5
1000
unitlink
1004
074133333900
1071
        4
1000
Link
1004
074133333900
  0
VERTEX
  5
325
  8
QUJIALING
 10
726866.36314656958
 20
3422272.601740995
 30
4.8999999999999986
  0
VERTEX
  5
326
  8
QUJIALING
 10
726904.37255872018
 20
3422272.7871069368
 30
4.8999999999999986
  0
VERTEX
  5
327
  8
QUJIALING
 10
726902.03184859105
 20
3422316.219152817
 30
4.8999999999999986
  0
VERTEX
  5
328
  8
QUJIALING
 10
726876.19102882943
 20
3422321.6753589911
 30
4.8999999999999986
  0
VERTEX
  5
329
  8
QUJIALING
 10
726865.91360621154
 20
3422314.204305633
 30
4.8999999999999986
  0
VERTEX
  5
32A
  8
QUJIALING
 10
726866.36314656958
 20
3422272.601740995
 30
4.8999999999999986
  0
SEQEND
  5
32B
  8
QUJIALING
  0
POLYLINE
  5
9F
  8
QUJIALING
 66
     1
 10
0.0
 20
0.0
 30
3.5
 70
     1
1001
ADE
1011
-21.895715603488501
1021
0.0
1031
0.0
1021
1.833510936703532
1031
0.0
1001
IRD
1002
{
1000
TPMLINK_Unit_topology-_-ade
1070
   515
1071
        5
1004
01002304000074000000740000000000000053AADC2A8240684053AADC2A8240684000000000F3020000
1002
}
1001
DCO15
1071
        5
1071
        5
1000
unitlink
1004
074133333600
1071
        4
1000
Link
1004
074133333600
  0
VERTEX
  5
32C
  8
QUJIALING
 10
726864.20845314115
 20
3422268.2899680221
 30
3.5
  0
VERTEX
  5
32D
  8
QUJIALING
 10
726904.18654202321
 20
3422268.6606999049
 30
3.5
  0
VERTEX
  5
32E
  8
QUJIALING
 10
726923.99732046213
 20
3422262.6886928538
 30
3.5
  0
VERTEX
  5
32F
  8
QUJIALING
 10
726927.15960434091
 20
3422247.2066070992
 30
3.5
  0
VERTEX
  5
330
  8
QUJIALING
 10
726926.97358764336
 20
3422238.0592008862
 30
3.5
  0
VERTEX
  5
331
  8
QUJIALING
 10
726923.05173557275
 20
3422231.9018278951
 30
3.5
  0
VERTEX
  5
332
  8
QUJIALING
 10
726887.94108364731
 20
3422232.095253225
 30
3.5
  0
VERTEX
  5
333
  8
QUJIALING
 10
726862.90096908854
 20
3422232.2331997491
 30
3.5
  0
VERTEX
  5
334
  8
QUJIALING
 10
726858.22491598874
 20
3422240.4850768959
 30
3.5
  0
VERTEX
  5
335
  8
QUJIALING
 10
726856.17873230216
 20
3422253.920077912
 30
3.5
  0
VERTEX
  5
336
  8
QUJIALING
 10
726856.64377404714
 20
3422261.818278871
 30
3.5
  0
VERTEX
  5
337
  8
QUJIALING
 10
726864.20845314115
 20
3422268.2899680221
 30
3.5
  0
SEQEND
  5
338
  8
QUJIALING
  0
POLYLINE
  5
A0
  8
QUJIALING
 66
     1
 10
0.0
 20
0.0
 30
6.9000000000000004
 70
     1
1001
ADE
1011
-10.84322341170626
1021
0.0
1031
0.0
1021
3.642843706533311
1031
0.0
1001
IRD
1002
{
1000
TPMLINK_Unit_topology-_-ade
1070
   515
1071
        5
1004
010024040000760000007600000000000000D4A3C8443A446640D4A3C8443A44664000000000F1020000
1002
}
1001
DCO15
1071
        5
1071
        5
1000
unitlink
1004
074133333800
1071
        4
1000
Link
1004
074133333800
  0
VERTEX
  5
339
  8
QUJIALING
 10
726827.05161752552
 20
3422250.736619364
 30
6.9000000000000004
  0
VERTEX
  5
33A
  8
QUJIALING
 10
726830.66344176244
 20
3422300.9385517789
 30
6.9000000000000004
  0
VERTEX
  5
33B
  8
QUJIALING
 10
726857.13981857896
 20
3422308.44990208
 30
6.9000000000000004
  0
VERTEX
  5
33C
  8
QUJIALING
 10
726862.96834181261
 20
3422303.09846796
 30
6.9000000000000004
  0
VERTEX
  5
33D
  8
QUJIALING
 10
726862.67381537333
 20
3422274.5198755129
 30
6.9000000000000004
  0
VERTEX
  5
33E
  8
QUJIALING
 10
726857.04681022873
 20
3422270.224221318
 30
6.9000000000000004
  0
VERTEX
  5
33F
  8
QUJIALING
 10
726854.22555696219
 20
3422261.3427749369
 30
6.9000000000000004
  0
VERTEX
  5
340
  8
QUJIALING
 10
726853.03194981092
 20
3422242.830359017
 30
6.9000000000000004
  0
VERTEX
  5
341
  8
QUJIALING
 10
726835.39136619505
 20
3422243.2736253971
 30
6.9000000000000004
  0
VERTEX
  5
342
  8
QUJIALING
 10
726827.05161752552
 20
3422250.736619364
 30
6.9000000000000004
  0
SEQEND
  5
343
  8
QUJIALING
  0
POLYLINE
  5
A1
  8
QUJIALING
 66
     1
 10
0.0
 20
0.0
 30
0.06
 70
     1
1001
ADE
1011
-15.97418402147013
1021
0.0
1031
0.0
1021
-0.6366917090490462
1031
0.0
1001
IRD
1002
{
1000
TPMLINK_Unit_topology-_-ade
1070
   515
1071
        5
1004
0100250400006D0000006D00000000000000A71F851E467A6840A71F851E467A6840E002000000000000
1002
}
1001
DCO15
1071
        5
1071
        5
1000
unitlink
1004
074133333500
1071
        4
1000
Link
1004
074133333500
  0
VERTEX
  5
344
  8
QUJIALING
 10
726771.04508974752
 20
3422299.3992085322
 30
0.06
  0
VERTEX
  5
345
  8
QUJIALING
 10
726770.17701182154
 20
3422255.9349250952
 30
0.06
  0
VERTEX
  5
346
  8
QUJIALING
 10
726785.08935051784
 20
3422250.5351346452
 30
0.06
  0
VERTEX
  5
347
  8
QUJIALING
 10
726819.0218966864
 20
3422252.9287731
 30
0.06
  0
VERTEX
  5
348
  8
QUJIALING
 10
726824.41638095665
 20
3422256.2895382009
 30
0.06
  0
VERTEX
  5
349
  8
QUJIALING
 10
726826.4315618613
 20
3422284.2878546589
 30
0.06
  0
VERTEX
  5
34A
  8
QUJIALING
 10
726822.38569865737
 20
3422299.47174303
 30
0.06
  0
VERTEX
  5
34B
  8
QUJIALING
 10
726774.76542372664
 20
3422302.163578867
 30
0.06
  0
VERTEX
  5
34C
  8
QUJIALING
 10
726771.04508974752
 20
3422299.3992085322
 30
0.06
  0
SEQEND
  5
34D
  8
QUJIALING
  0
POLYLINE
  5
A2
  8
QUJIALING
 66
     1
 10
0.0
 20
0.0
 30
1.0
 70
     1
1001
ADE
1011
-11.285013072309081
1021
0.0
1031
0.0
1021
1.1363738109357651
1031
0.0
1001
IRD
1002
{
1000
TPMLINK_Unit_topology-_-ade
1070
   515
1071
        5
1004
0100260400006C0000006C000000000000002AB80D58072766402AB80D5807276640DF02000000000000
1002
}
1001
DCO15
1071
        5
1071
        5
1000
unitlink
1004
074133343100
1071
        4
1000
Link
1004
074133343100
  0
VERTEX
  5
34E
  8
QUJIALING
 10
726723.87435517483
 20
3422301.1480958881
 30
1.0
  0
VERTEX
  5
34F
  8
QUJIALING
 10
726767.83630169183
 20
3422303.7593378359
 30
1.0
  0
VERTEX
  5
350
  8
QUJIALING
 10
726767.83630169183
 20
3422345.4747339161
 30
1.0
  0
VERTEX
  5
351
  8
QUJIALING
 10
726720.4020434618
 20
3422345.039526925
 30
1.0
  0
VERTEX
  5
352
  8
QUJIALING
 10
726723.87435517483
 20
3422301.1480958881
 30
1.0
  0
SEQEND
  5
353
  8
QUJIALING
  0
POLYLINE
  5
A3
  8
QUJIALING
 66
     1
 10
0.0
 20
0.0
 30
0.125
 70
     1
1001
ADE
1011
-19.097714424133301
1021
0.0
1031
0.0
1021
-2.5104995900765061
1031
0.0
1001
IRD
1002
{
1000
TPMLINK_Unit_topology-_-ade
1070
   515
1071
        5
1004
0100270400006200000062000000000000002D6429E524666A402D6429E524666A4000000000DE020000
1002
}
1001
DCO15
1071
        5
1071
        5
1000
unitlink
1004
074133343000
1071
        4
1000
Link
1004
074133343000
  0
VERTEX
  5
354
  8
QUJIALING
 10
726650.97131057864
 20
3422340.5182098462
 30
0.125
  0
VERTEX
  5
355
  8
QUJIALING
 10
726709.34955126443
 20
3422344.9025173169
 30
0.125
  0
VERTEX
  5
356
  8
QUJIALING
 10
726714.27899378526
 20
3422298.1016469458
 30
0.125
  0
VERTEX
  5
357
  8
QUJIALING
 10
726657.97793957253
 20
3422292.057105395
 30
0.125
  0
VERTEX
  5
358
  8
QUJIALING
 10
726650.97131057864
 20
3422340.5182098462
 30
0.125
  0
SEQEND
  5
359
  8
QUJIALING
  0
POLYLINE
  5
A4
  8
QUJIALING
 66
     1
 10
0.0
 20
0.0
 30
0.25
 70
     1
1001
ADE
1011
-13.757485024747441
1021
0.0
1031
0.0
1021
-3.9329817015677682
1031
0.0
1001
IRD
1002
{
1000
TPMLINK_Unit_topology-_-ade
1070
   515
1071
        5
1004
0100280400007800000078000000000000004ED34D5611AC68404ED34D5611AC6840DB02000000000000
1002
}
1001
DCO15
1071
        5
1071
        5
1000
unitlink
1004
074133333300
1071
        4
1000
Link
1004
074133333300
  0
VERTEX
  5
35A
  8
QUJIALING
 10
726663.55844053987
 20
3422246.803637662
 30
0.25
  0
VERTEX
  5
35B
  8
QUJIALING
 10
726703.0249834992
 20
3422241.5972725409
 30
0.25
  0
VERTEX
  5
35C
  8
QUJIALING
 10
726715.89113850915
 20
3422248.8910193439
 30
0.25
  0
VERTEX
  5
35D
  8
QUJIALING
 10
726711.90728087362
 20
3422293.2257167608
 30
0.25
  0
VERTEX
  5
35E
  8
QUJIALING
 10
726656.75332963455
 20
3422289.2282599499
 30
0.25
  0
VERTEX
  5
35F
  8
QUJIALING
 10
726663.55844053987
 20
3422246.803637662
 30
0.25
  0
SEQEND
  5
360
  8
QUJIALING
  0
POLYLINE
  5
A5
  8
QUJIALING
 66
     1
 10
0.0
 20
0.0
 30
3.299999999999998
 70
     1
1001
ADE
1011
-5.6812600138364351
1021
0.0
1031
0.0
1021
0.5802759905345738
1031
0.0
1001
IRD
1002
{
1000
TPMLINK_Unit_topology-_-ade
1070
   515
1071
        5
1004
010029040000750000007500000000000000B1768AD945EA6540B1768AD945EA654000000000DC020000
1002
}
1001
DCO15
1071
        5
1071
        5
1000
unitlink
1004
074133333400
1071
        4
1000
Link
1004
074133333400
  0
VERTEX
  5
361
  8
QUJIALING
 10
726601.70788813732
 20
3422255.4674805491
 30
3.299999999999998
  0
VERTEX
  5
362
  8
QUJIALING
 10
726596.79394700762
 20
3422273.536630088
 30
3.299999999999998
  0
VERTEX
  5
363
  8
QUJIALING
 10
726600.34376567963
 20
3422280.604714008
 30
3.299999999999998
  0
VERTEX
  5
364
  8
QUJIALING
 10
726650.4597646558
 20
3422281.3864747132
 30
3.299999999999998
  0
VERTEX
  5
365
  8
QUJIALING
 10
726654.98617099575
 20
3422274.9067261731
 30
3.299999999999998
  0
VERTEX
  5
366
  8
QUJIALING
 10
726655.77674196672
 20
3422259.4004622512
 30
3.299999999999998
  0
VERTEX
  5
367
  8
QUJIALING
 10
726654.0405861102
 20
3422247.4967450919
 30
3.299999999999998
  0
VERTEX
  5
368
  8
QUJIALING
 10
726647.84002947807
 20
3422242.8142402391
 30
3.299999999999998
  0
VERTEX
  5
369
  8
QUJIALING
 10
726619.6895023695
 20
3422244.1843363242
 30
3.299999999999998
  0
VERTEX
  5
36A
  8
QUJIALING
 10
726603.13283356535
 20
3422244.9901552359
 30
3.299999999999998
  0
VERTEX
  5
36B
  8
QUJIALING
 10
726601.70788813732
 20
3422255.4674805491
 30
3.299999999999998
  0
SEQEND
  5
36C
  8
QUJIALING
  0
POLYLINE
  5
A6
  8
QUJIALING
 66
     1
 10
0.0
 20
0.0
 30
3.2000000000000002
 70
     1
1001
ADE
1011
-4.634916080045512
1021
0.0
1031
0.0
1021
-6.6489957054145634
1031
0.0
1001
IRD
1002
{
1000
TPMLINK_Unit_topology-_-ade
1070
   515
1071
        5
1004
01002A0400007A0000007A0000000000000002F36D477544664002F36D477544664000000000DD020000
1002
}
1001
DCO15
1071
        5
1071
        5
1000
unitlink
1004
074134303200
1071
        4
1000
Link
1004
074134303200
  0
VERTEX
  5
36D
  8
QUJIALING
 10
726565.60514714941
 20
3422231.305433129
 30
3.2000000000000002
  0
VERTEX
  5
36E
  8
QUJIALING
 10
726560.41218097135
 20
3422279.1298458688
 30
3.2000000000000002
  0
VERTEX
  5
36F
  8
QUJIALING
 10
726567.60482666269
 20
3422291.089978748
 30
3.2000000000000002
  0
VERTEX
  5
370
  8
QUJIALING
 10
726590.9034182094
 20
3422287.0844625491
 30
3.2000000000000002
  0
VERTEX
  5
371
  8
QUJIALING
 10
726602.11092431867
 20
3422239.37288125
 30
3.2000000000000002
  0
VERTEX
  5
372
  8
QUJIALING
 10
726593.05811163795
 20
3422227.195144874
 30
3.2000000000000002
  0
VERTEX
  5
373
  8
QUJIALING
 10
726577.92875345808
 20
3422226.8082942162
 30
3.2000000000000002
  0
VERTEX
  5
374
  8
QUJIALING
 10
726565.60514714941
 20
3422231.305433129
 30
3.2000000000000002
  0
SEQEND
  5
375
  8
QUJIALING
  0
POLYLINE
  5
A7
  8
QUJIALING
 66
     1
 10
0.0
 20
0.0
 30
0.2282608695652174
 70
     1
1001
ADE
1011
-17.183292563888241
1021
0.0
1031
0.0
1021
-0.4311772980727258
1031
0.0
1001
IRD
1002
{
1000
TPMLINK_Unit_topology-_-ade
1070
   515
1071
        5
1004
01002B040000810000008100000000000000862C795F68616B40862C795F68616B40DA02000000000000
1002
}
1001
DCO15
1071
        5
1071
        5
1000
unitlink
1004
074133333200
1071
        4
1000
Link
1004
074133333200
  0
VERTEX
  5
376
  8
QUJIALING
 10
726633.43923670065
 20
3422193.8453942989
 30
0.2282608695652174
  0
VERTEX
  5
377
  8
QUJIALING
 10
726689.30625195068
 20
3422192.2496353299
 30
0.2282608695652174
  0
VERTEX
  5
378
  8
QUJIALING
 10
726689.30625195068
 20
3422236.4876200831
 30
0.2282608695652174
  0
VERTEX
  5
379
  8
QUJIALING
 10
726658.58249384165
 20
3422243.6604760559
 30
0.2282608695652174
  0
VERTEX
  5
37A
  8
QUJIALING
 10
726616.68223240215
 20
3422232.4982226612
 30
0.2282608695652174
  0
VERTEX
  5
37B
  8
QUJIALING
 10
726619.08494810015
 20
3422210.9796547452
 30
0.2282608695652174
  0
VERTEX
  5
37C
  8
QUJIALING
 10
726633.43923670065
 20
3422193.8453942989
 30
0.2282608695652174
  0
SEQEND
  5
37D
  8
QUJIALING
  0
POLYLINE
  5
A8
  8
QUJIALING
 66
     1
 10
0.0
 20
0.0
 30
3.399999999999999
 70
     1
1001
ADE
1011
-13.19943493045866
1021
0.0
1031
0.0
1021
-3.231814880855381
1031
0.0
1001
IRD
1002
{
1000
TPMLINK_Unit_topology-_-ade
1070
   515
1071
        5
1004
01002D04000089000000890000000000000084735B69EE8A6A4084735B69EE8A6A4000000000D8020000
1002
}
1001
DCO15
1071
        5
1071
        5
1000
unitlink
1004
074133333000
1071
        4
1000
Link
1004
074133333000
  0
VERTEX
  5
37E
  8
QUJIALING
 10
726820.16899966449
 20
3422176.2195111392
 30
3.399999999999999
  0
VERTEX
  5
37F
  8
QUJIALING
 10
726769.61896172573
 20
3422185.9874902838
 30
3.399999999999999
  0
VERTEX
  5
380
  8
QUJIALING
 10
726765.92963052914
 20
3422186.4952317751
 30
3.399999999999999
  0
VERTEX
  5
381
  8
QUJIALING
 10
726772.09918437514
 20
3422238.3412794932
 30
3.399999999999999
  0
VERTEX
  5
382
  8
QUJIALING
 10
726815.92161837232
 20
3422231.144245354
 30
3.399999999999999
  0
VERTEX
  5
383
  8
QUJIALING
 10
726824.01334477589
 20
3422224.68061559
 30
3.399999999999999
  0
VERTEX
  5
384
  8
QUJIALING
 10
726825.03643661737
 20
3422182.425240464
 30
3.399999999999999
  0
VERTEX
  5
385
  8
QUJIALING
 10
726820.16899966449
 20
3422176.2195111392
 30
3.399999999999999
  0
SEQEND
  5
386
  8
QUJIALING
  0
POLYLINE
  5
A9
  8
QUJIALING
 66
     1
 10
0.0
 20
0.0
 30
3.399999999999999
 70
     1
1001
ADE
1011
-12.06008264794945
1021
0.0
1031
0.0
1021
-0.7737013185396791
1031
0.0
1001
IRD
1002
{
1000
TPMLINK_Unit_topology-_-ade
1070
   515
1071
        5
1004
01002E0400008400000084000000000000005A1CCCF3373866405A1CCCF337386640D702000000000000
1002
}
1001
DCO15
1071
        5
1071
        5
1000
unitlink
1004
074133323900
1071
        4
1000
Link
1004
074133323900
  0
VERTEX
  5
387
  8
QUJIALING
 10
726828.63275946688
 20
3422184.633512977
 30
3.399999999999999
  0
VERTEX
  5
388
  8
QUJIALING
 10
726871.85063918692
 20
3422186.9949138761
 30
3.399999999999999
  0
VERTEX
  5
389
  8
QUJIALING
 10
726875.12143281091
 20
3422229.9917527651
 30
3.399999999999999
  0
VERTEX
  5
38A
  8
QUJIALING
 10
726827.53216066235
 20
3422228.3556968519
 30
3.399999999999999
  0
VERTEX
  5
38B
  8
QUJIALING
 10
726828.63275946688
 20
3422184.633512977
 30
3.399999999999999
  0
SEQEND
  5
38C
  8
QUJIALING
  0
POLYLINE
  5
AA
  8
QUJIALING
 66
     1
 10
0.0
 20
0.0
 30
4.4000000000000004
 70
     1
1001
ADE
1011
-14.989955879165789
1021
0.0
1031
0.0
1021
-2.0458034621551611
1031
0.0
1001
IRD
1002
{
1000
TPMLINK_Unit_topology-_-ade
1070
   515
1071
        5
1004
01002F0400008300000083000000000000009796DE76E59769409796DE76E5976940D602000000000000
1002
}
1001
DCO15
1071
        5
1071
        5
1000
unitlink
1004
074133323800
1071
        4
1000
Link
1004
074133323800
  0
VERTEX
  5
38D
  8
QUJIALING
 10
726878.3767250441
 20
3422187.3978833118
 30
4.4000000000000004
  0
VERTEX
  5
38E
  8
QUJIALING
 10
726928.94226437435
 20
3422185.3346797959
 30
4.4000000000000004
  0
VERTEX
  5
38F
  8
QUJIALING
 10
726937.10345519322
 20
3422185.001682308
 30
4.4000000000000004
  0
VERTEX
  5
390
  8
QUJIALING
 10
726933.29815540824
 20
3422229.2905859458
 30
4.4000000000000004
  0
VERTEX
  5
391
  8
QUJIALING
 10
726878.5782431328
 20
3422230.1690593171
 30
4.4000000000000004
  0
VERTEX
  5
392
  8
QUJIALING
 10
726874.40113039198
 20
3422187.5600977559
 30
4.4000000000000004
  0
VERTEX
  5
393
  8
QUJIALING
 10
726878.3767250441
 20
3422187.3978833118
 30
4.4000000000000004
  0
SEQEND
  5
394
  8
QUJIALING
  0
POLYLINE
  5
AB
  8
QUJIALING
 66
     1
 10
0.0
 20
0.0
 30
4.799999999999998
 70
     1
1001
ADE
1011
-16.710500122746431
1021
0.0
1031
0.0
1021
-4.0579022257588804
1031
0.0
1001
IRD
1002
{
1000
TPMLINK_Unit_topology-_-ade
1070
   515
1071
        5
1004
0100300400007D0000007D000000000000006F262612284B6A406F262612284B6A40D502000000000000
1002
}
1001
DCO15
1071
        5
1071
        5
1000
unitlink
1004
074133323600
1071
        4
1000
Link
1004
074133323600
  0
VERTEX
  5
395
  8
QUJIALING
 10
726944.25763925514
 20
3422226.9694819911
 30
4.799999999999998
  0
VERTEX
  5
396
  8
QUJIALING
 10
726945.76127423707
 20
3422187.357586368
 30
4.799999999999998
  0
VERTEX
  5
397
  8
QUJIALING
 10
727000.57419485971
 20
3422186.1003217259
 30
4.799999999999998
  0
VERTEX
  5
398
  8
QUJIALING
 10
727005.28661790094
 20
3422186.4388160529
 30
4.799999999999998
  0
VERTEX
  5
399
  8
QUJIALING
 10
727007.33280158788
 20
3422199.8738170699
 30
4.799999999999998
  0
VERTEX
  5
39A
  8
QUJIALING
 10
727007.65833081293
 20
3422224.970753585
 30
4.799999999999998
  0
VERTEX
  5
39B
  8
QUJIALING
 10
727007.51881828904
 20
3422233.0946174269
 30
4.799999999999998
  0
VERTEX
  5
39C
  8
QUJIALING
 10
726949.31109290954
 20
3422230.3302470921
 30
4.799999999999998
  0
VERTEX
  5
39D
  8
QUJIALING
 10
726944.25763925514
 20
3422226.9694819911
 30
4.799999999999998
  0
SEQEND
  5
39E
  8
QUJIALING
  0
POLYLINE
  5
AC
  8
QUJIALING
 66
     1
 10
0.0
 20
0.0
 30
3.2000000000000002
 70
     1
1001
ADE
1011
-19.46974782273173
1021
0.0
1031
0.0
1021
-1.220997391734272
1031
0.0
1001
IRD
1002
{
1000
TPMLINK_Unit_topology-_-ade
1070
   515
1071
        5
1004
0100310400007900000079000000000000001319334576D169401319334576D1694000000000F5020000
1002
}
1001
DCO15
1071
        5
1071
        5
1000
unitlink
1004
074133323700
1071
        4
1000
Link
1004
074133323700
  0
VERTEX
  5
39F
  8
QUJIALING
 10
726951.48128772911
 20
3422240.3883642298
 30
3.2000000000000002
  0
VERTEX
  5
3A0
  8
QUJIALING
 10
726951.21776407235
 20
3422257.6596342842
 30
3.2000000000000002
  0
VERTEX
  5
3A1
  8
QUJIALING
 10
726953.88400342327
 20
3422270.828675475
 30
3.2000000000000002
  0
VERTEX
  5
3A2
  8
QUJIALING
 10
726959.21648212941
 20
3422276.8087419132
 30
3.2000000000000002
  0
VERTEX
  5
3A3
  8
QUJIALING
 10
726966.53313895315
 20
3422278.9364205389
 30
3.2000000000000002
  0
VERTEX
  5
3A4
  8
QUJIALING
 10
726987.83205098263
 20
3422274.2861532411
 30
3.2000000000000002
  0
VERTEX
  5
3A5
  8
QUJIALING
 10
727017.11417967465
 20
3422273.0853043189
 30
3.2000000000000002
  0
VERTEX
  5
3A6
  8
QUJIALING
 10
727017.37770333129
 20
3422234.92409867
 30
3.2000000000000002
  0
VERTEX
  5
3A7
  8
QUJIALING
 10
726953.31045193598
 20
3422233.7796654692
 30
3.2000000000000002
  0
VERTEX
  5
3A8
  8
QUJIALING
 10
726951.48128772911
 20
3422240.3883642298
 30
3.2000000000000002
  0
SEQEND
  5
3A9
  8
QUJIALING
  0
POLYLINE
  5
AD
  8
QUJIALING
 66
     1
 10
0.0
 20
0.0
 30
2.1000000000000001
 70
     1
1001
ADE
1011
-12.370110478135761
1021
0.0
1031
0.0
1021
-1.1726410607807309
1031
0.0
1001
IRD
1002
{
1000
TPMLINK_Unit_topology-_-ade
1070
   515
1071
        5
1004
0100320400006B0000006B0000000000000043F6E4A6F506654043F6E4A6F506654000000000F4020000
1002
}
1001
DCO15
1071
        5
1071
        5
1000
unitlink
1004
074133333700
1071
        4
1000
Link
1004
074133333700
  0
VERTEX
  5
3AA
  8
QUJIALING
 10
726909.02297619346
 20
3422313.3097134838
 30
2.1000000000000001
  0
VERTEX
  5
3AB
  8
QUJIALING
 10
726924.5708719492
 20
3422318.137287335
 30
2.1000000000000001
  0
VERTEX
  5
3AC
  8
QUJIALING
 10
726939.126678642
 20
3422319.2817205349
 30
2.1000000000000001
  0
VERTEX
  5
3AD
  8
QUJIALING
 10
726948.8305497691
 20
3422308.7400400732
 30
2.1000000000000001
  0
VERTEX
  5
3AE
  8
QUJIALING
 10
726948.31900384673
 20
3422292.5970844431
 30
2.1000000000000001
  0
VERTEX
  5
3AF
  8
QUJIALING
 10
726947.93146905652
 20
3422267.4517915952
 30
2.1000000000000001
  0
VERTEX
  5
3B0
  8
QUJIALING
 10
726940.84733310703
 20
3422264.4536989862
 30
2.1000000000000001
  0
VERTEX
  5
3B1
  8
QUJIALING
 10
726923.26875505573
 20
3422268.0965426918
 30
2.1000000000000001
  0
VERTEX
  5
3B2
  8
QUJIALING
 10
726913.08693841635
 20
3422270.2065408151
 30
2.1000000000000001
  0
VERTEX
  5
3B3
  8
QUJIALING
 10
726907.81386765093
 20
3422278.7994109308
 30
2.1000000000000001
  0
VERTEX
  5
3B4
  8
QUJIALING
 10
726905.67467561364
 20
3422289.9374861601
 30
2.1000000000000001
  0
VERTEX
  5
3B5
  8
QUJIALING
 10
726905.45765613019
 20
3422306.4350548959
 30
2.1000000000000001
  0
VERTEX
  5
3B6
  8
QUJIALING
 10
726909.02297619346
 20
3422313.3097134838
 30
2.1000000000000001
  0
SEQEND
  5
3B7
  8
QUJIALING
  0
POLYLINE
  5
AE
  8
QUJIALING
 66
     1
 10
0.0
 20
0.0
 30
2.8999999999999999
 70
     1
1001
ADE
1011
-16.710500122862861
1021
0.0
1031
0.0
1021
-2.70392491854727
1031
0.0
1001
IRD
1002
{
1000
TPMLINK_Unit_topology-_-ade
1070
   515
1071
        5
1004
010033040000670000006700000000000000065F04D0D0D16340065F04D0D0D16340EF02000000000000
1002
}
1001
DCO15
1071
        5
1071
        5
1000
unitlink
1004
074133343300
1071
        4
1000
Link
1004
074133343300
  0
VERTEX
  5
3B8
  8
QUJIALING
 10
726911.08466127503
 20
3422324.004522332
 30
2.8999999999999999
  0
VERTEX
  5
3B9
  8
QUJIALING
 10
726949.79163604975
 20
3422322.2798131439
 30
2.8999999999999999
  0
VERTEX
  5
3BA
  8
QUJIALING
 10
726956.68975530192
 20
3422327.800494425
 30
2.8999999999999999
  0
VERTEX
  5
3BB
  8
QUJIALING
 10
726957.72834853455
 20
3422355.4039008352
 30
2.8999999999999999
  0
VERTEX
  5
3BC
  8
QUJIALING
 10
726913.50287836033
 20
3422357.4751637401
 30
2.8999999999999999
  0
VERTEX
  5
3BD
  8
QUJIALING
 10
726906.9457897247
 20
3422346.7803548919
 30
2.8999999999999999
  0
VERTEX
  5
3BE
  8
QUJIALING
 10
726907.15600352932
 20
3422324.1795758498
 30
2.8999999999999999
  0
VERTEX
  5
3BF
  8
QUJIALING
 10
726911.08466127503
 20
3422324.004522332
 30
2.8999999999999999
  0
SEQEND
  5
3C0
  8
QUJIALING
  0
POLYLINE
  5
AF
  8
QUJIALING
 66
     1
 10
0.0
 20
0.0
 30
8.0999999999999979
 70
     1
1001
ADE
1011
-18.066871885210261
1021
0.0
1031
0.0
1021
-2.4097572322934862
1031
0.0
1001
IRD
1002
{
1000
TPMLINK_Unit_topology-_-ade
1070
   515
1071
        5
1004
010034040000630000006300000000000000BBCEC1FE35F86640BBCEC1FE35F86640EE02000000000000
1002
}
1001
DCO15
1071
        5
1071
        5
1000
unitlink
1004
074133343500
1071
        4
1000
Link
1004
074133343500
  0
VERTEX
  5
3C1
  8
QUJIALING
 10
726976.39202399924
 20
3422332.2895739512
 30
8.0999999999999979
  0
VERTEX
  5
3C2
  8
QUJIALING
 10
727032.70857960347
 20
3422335.7389923269
 30
8.0999999999999979
  0
VERTEX
  5
3C3
  8
QUJIALING
 10
727028.554206662
 20
3422370.934342924
 30
8.0999999999999979
  0
VERTEX
  5
3C4
  8
QUJIALING
 10
726977.43061723199
 20
3422373.005605828
 30
8.0999999999999979
  0
VERTEX
  5
3C5
  8
QUJIALING
 10
726976.39202399924
 20
3422332.2895739512
 30
8.0999999999999979
  0
SEQEND
  5
3C6
  8
QUJIALING
  0
POLYLINE
  5
B0
  8
QUJIALING
 66
     1
 10
0.0
 20
0.0
 30
8.5999999999999979
 70
     1
1001
ADE
1011
-17.186156915966421
1021
0.0
1031
0.0
1021
0.9147406206466255
1031
0.0
1001
IRD
1002
{
1000
TPMLINK_Unit_topology-_-ade
1070
   515
1071
        5
1004
0100350400005A0000005A000000000000007F338997AE4966407F338997AE496640FB02000000000000
1002
}
1001
DCO15
1071
        5
1071
        5
1000
unitlink
1004
074133323100
1071
        4
1000
Link
1004
074133323100
  0
VERTEX
  5
3C7
  8
QUJIALING
 10
727048.84552823717
 20
3422361.4242642182
 30
8.5999999999999979
  0
VERTEX
  5
3C8
  8
QUJIALING
 10
727043.09451196354
 20
3422354.364239688
 30
8.5999999999999979
  0
VERTEX
  5
3C9
  8
QUJIALING
 10
727042.21093264222
 20
3422339.808983638
 30
8.5999999999999979
  0
VERTEX
  5
3CA
  8
QUJIALING
 10
727041.55010150443
 20
3422328.9230719991
 30
8.5999999999999979
  0
VERTEX
  5
3CB
  8
QUJIALING
 10
727073.1207074523
 20
3422324.4961450449
 30
8.5999999999999979
  0
VERTEX
  5
3CC
  8
QUJIALING
 10
727076.25198854879
 20
3422327.8730289242
 30
8.5999999999999979
  0
VERTEX
  5
3CD
  8
QUJIALING
 10
727096.62081708375
 20
3422330.0087669389
 30
8.5999999999999979
  0
VERTEX
  5
3CE
  8
QUJIALING
 10
727103.65844886377
 20
3422335.98077399
 30
8.5999999999999979
  0
VERTEX
  5
3CF
  8
QUJIALING
 10
727101.27123456064
 20
3422355.8310484379
 30
8.5999999999999979
  0
VERTEX
  5
3D0
  8
QUJIALING
 10
727092.82297614939
 20
3422365.760215356
 30
8.5999999999999979
  0
VERTEX
  5
3D1
  8
QUJIALING
 10
727074.15930068865
 20
3422366.4452634011
 30
8.5999999999999979
  0
VERTEX
  5
3D2
  8
QUJIALING
 10
727048.84552823717
 20
3422361.4242642182
 30
8.5999999999999979
  0
SEQEND
  5
3D3
  8
QUJIALING
  0
POLYLINE
  5
B1
  8
QUJIALING
 66
     1
 10
0.0
 20
0.0
 30
11.5
 70
     1
1001
ADE
1011
-11.843063166365029
1021
0.0
1031
0.0
1021
-0.3403849955648184
1031
0.0
1001
IRD
1002
{
1000
TPMLINK_Unit_topology-_-ade
1070
   515
1071
        5
1004
0100360400006600000066000000000000000837643720D868400837643720D86840FA02000000000000
1002
}
1001
DCO15
1071
        5
1071
        5
1000
unitlink
1004
074133313700
1071
        4
1000
Link
1004
074133313700
  0
VERTEX
  5
3D4
  8
QUJIALING
 10
726974.70237231615
 20
3422324.2866009399
 30
11.5
  0
VERTEX
  5
3D5
  8
QUJIALING
 10
726977.89565898094
 20
3422280.0486161849
 30
11.5
  0
VERTEX
  5
3D6
  8
QUJIALING
 10
726989.95574162912
 20
3422275.624011769
 30
11.5
  0
VERTEX
  5
3D7
  8
QUJIALING
 10
727023.67126831436
 20
3422275.624011769
 30
11.5
  0
VERTEX
  5
3D8
  8
QUJIALING
 10
727028.8332317099
 20
3422295.039079228
 30
11.5
  0
VERTEX
  5
3D9
  8
QUJIALING
 10
727026.38401183882
 20
3422322.8117328011
 30
11.5
  0
VERTEX
  5
3DA
  8
QUJIALING
 10
727025.64095208806
 20
3422331.2375753629
 30
11.5
  0
VERTEX
  5
3DB
  8
QUJIALING
 10
726974.70237231615
 20
3422324.2866009399
 30
11.5
  0
SEQEND
  5
3DC
  8
QUJIALING
  0
POLYLINE
  5
B2
  8
QUJIALING
 66
     1
 10
0.0
 20
0.0
 30
4.2000000000000002
 70
     1
1001
ADE
1011
-8.9676495579769782
1021
0.0
1031
0.0
1021
-1.5756104993633899
1031
0.0
1001
IRD
1002
{
1000
TPMLINK_Unit_topology-_-ade
1070
   515
1071
        5
1004
01003704000069000000690000000000000079B5D70B8655674079B5D70B8655674000000000F8020000
1002
}
1001
DCO15
1071
        5
1071
        5
1000
unitlink
1004
074133313900
1071
        4
1000
Link
1004
074133313900
  0
VERTEX
  5
3DD
  8
QUJIALING
 10
727115.68752872932
 20
3422320.97419217
 30
4.2000000000000002
  0
VERTEX
  5
3DE
  8
QUJIALING
 10
727116.04406073317
 20
3422300.0600784072
 30
4.2000000000000002
  0
VERTEX
  5
3DF
  8
QUJIALING
 10
727115.03647028306
 20
3422278.0095908358
 30
4.2000000000000002
  0
VERTEX
  5
3E0
  8
QUJIALING
 10
727113.14530050755
 20
3422272.545325275
 30
4.2000000000000002
  0
VERTEX
  5
3E1
  8
QUJIALING
 10
727089.97072009742
 20
3422272.6178597729
 30
4.2000000000000002
  0
VERTEX
  5
3E2
  8
QUJIALING
 10
727070.67167664191
 20
3422272.6782641639
 30
4.2000000000000002
  0
VERTEX
  5
3E3
  8
QUJIALING
 10
727074.91886887315
 20
3422294.6844661231
 30
4.2000000000000002
  0
VERTEX
  5
3E4
  8
QUJIALING
 10
727075.94196071848
 20
3422326.325626289
 30
4.2000000000000002
  0
VERTEX
  5
3E5
  8
QUJIALING
 10
727091.86188986921
 20
3422328.4855424692
 30
4.2000000000000002
  0
VERTEX
  5
3E6
  8
QUJIALING
 10
727106.41769656155
 20
3422325.9307162398
 30
4.2000000000000002
  0
VERTEX
  5
3E7
  8
QUJIALING
 10
727115.68752872932
 20
3422320.97419217
 30
4.2000000000000002
  0
SEQEND
  5
3E8
  8
QUJIALING
  0
POLYLINE
  5
B3
  8
QUJIALING
 66
     1
 10
0.0
 20
0.0
 30
6.599999999999997
 70
     1
1001
ADE
1011
-15.36962974979542
1021
0.0
1031
0.0
1021
-0.2699895221740007
1031
0.0
1001
IRD
1002
{
1000
TPMLINK_Unit_topology-_-ade
1070
   515
1071
        5
1004
010038040000720000007200000000000000814ABD39E8AB6640814ABD39E8AB6640F602000000000000
1002
}
1001
DCO15
1071
        5
1071
        5
1000
unitlink
1004
074133323200
1071
        4
1000
Link
1004
074133323200
  0
VERTEX
  5
3E9
  8
QUJIALING
 10
727038.27357918036
 20
3422271.763564568
 30
6.599999999999997
  0
VERTEX
  5
3EA
  8
QUJIALING
 10
727034.95628138271
 20
3422252.5983381611
 30
6.599999999999997
  0
VERTEX
  5
3EB
  8
QUJIALING
 10
727038.27357918036
 20
3422237.1243117931
 30
6.599999999999997
  0
VERTEX
  5
3EC
  8
QUJIALING
 10
727039.68373841734
 20
3422230.5464153988
 30
6.599999999999997
  0
VERTEX
  5
3ED
  8
QUJIALING
 10
727064.87396712985
 20
3422228.9198540631
 30
6.599999999999997
  0
VERTEX
  5
3EE
  8
QUJIALING
 10
727085.18079010025
 20
3422230.5397911998
 30
6.599999999999997
  0
VERTEX
  5
3EF
  8
QUJIALING
 10
727083.90967598942
 20
3422240.2674733992
 30
6.599999999999997
  0
VERTEX
  5
3F0
  8
QUJIALING
 10
727087.10296265385
 20
3422253.75083075
 30
6.599999999999997
  0
VERTEX
  5
3F1
  8
QUJIALING
 10
727089.97072009742
 20
3422271.9166929531
 30
6.599999999999997
  0
VERTEX
  5
3F2
  8
QUJIALING
 10
727038.27357918036
 20
3422271.763564568
 30
6.599999999999997
  0
SEQEND
  5
3F3
  8
QUJIALING
  0
POLYLINE
  5
B4
  8
QUJIALING
 66
     1
 10
0.0
 20
0.0
 30
11.1
 70
     1
1001
ADE
1011
-7.215897777932696
1021
0.0
1031
0.0
1021
1.156522283796221
1031
0.0
1001
IRD
1002
{
1000
TPMLINK_Unit_topology-_-ade
1070
   515
1071
        5
1004
010039040000730000007300000000000000665BB44018A66240665BB44018A66240F702000000000000
1002
}
1001
DCO15
1071
        5
1071
        5
1000
unitlink
1004
074133323000
1071
        4
1000
Link
1004
074133323000
  0
VERTEX
  5
3F4
  8
QUJIALING
 10
727091.61386760685
 20
3422270.2645182619
 30
11.1
  0
VERTEX
  5
3F5
  8
QUJIALING
 10
727089.42817139265
 20
3422255.1692831651
 30
11.1
  0
VERTEX
  5
3F6
  8
QUJIALING
 10
727085.50631932158
 20
3422243.0399031239
 30
11.1
  0
VERTEX
  5
3F7
  8
QUJIALING
 10
727086.6224195176
 20
3422231.3779676268
 30
11.1
  0
VERTEX
  5
3F8
  8
QUJIALING
 10
727087.92453641095
 20
3422230.1287623728
 30
11.1
  0
VERTEX
  5
3F9
  8
QUJIALING
 10
727114.27690209437
 20
3422230.362484646
 30
11.1
  0
VERTEX
  5
3FA
  8
QUJIALING
 10
727122.88017442066
 20
3422236.149125759
 30
11.1
  0
VERTEX
  5
3FB
  8
QUJIALING
 10
727124.70933862764
 20
3422243.7571887202
 30
11.1
  0
VERTEX
  5
3FC
  8
QUJIALING
 10
727126.25947778299
 20
3422272.1423558369
 30
11.1
  0
VERTEX
  5
3FD
  8
QUJIALING
 10
727091.61386760685
 20
3422270.2645182619
 30
11.1
  0
SEQEND
  5
3FE
  8
QUJIALING
  0
POLYLINE
  5
B5
  8
QUJIALING
 66
     1
 10
0.0
 20
0.0
 30
3.9999999999999991
 70
     1
1001
ADE
1011
-13.633473893511111
1021
0.0
1031
0.0
1021
-1.059809617698191
1031
0.0
1001
IRD
1002
{
1000
TPMLINK_Unit_topology-_-ade
1070
   515
1071
        5
1004
01003A040000820000008200000000000000C450FEB3FFDD6240C450FEB3FFDD6240D302000000000000
1002
}
1001
DCO15
1071
        5
1071
        5
1000
unitlink
1004
074133323300
1071
        4
1000
Link
1004
074133323300
  0
VERTEX
  5
3FF
  8
QUJIALING
 10
727064.88946852437
 20
3422193.5874938578
 30
3.9999999999999991
  0
VERTEX
  5
400
  8
QUJIALING
 10
727099.30255782988
 20
3422193.160346257
 30
3.9999999999999991
  0
VERTEX
  5
401
  8
QUJIALING
 10
727109.688490186
 20
3422229.0326855062
 30
3.9999999999999991
  0
VERTEX
  5
402
  8
QUJIALING
 10
727066.84264386073
 20
3422228.8231413988
 30
3.9999999999999991
  0
VERTEX
  5
403
  8
QUJIALING
 10
727064.98247687146
 20
3422224.769268868
 30
3.9999999999999991
  0
VERTEX
  5
404
  8
QUJIALING
 10
727062.05271386355
 20
3422201.2922694888
 30
3.9999999999999991
  0
VERTEX
  5
405
  8
QUJIALING
 10
727064.88946852437
 20
3422193.5874938578
 30
3.9999999999999991
  0
SEQEND
  5
406
  8
QUJIALING
  0
POLYLINE
  5
B6
  8
QUJIALING
 66
     1
 10
0.0
 20
0.0
 30
5.2000000000000002
 70
     1
1001
ADE
1011
-13.4629585891962
1021
0.0
1031
0.0
1021
0.8099685683846472
1031
0.0
1001
IRD
1002
{
1000
TPMLINK_Unit_topology-_-ade
1070
   515
1071
        5
1004
01003B0400007B0000007B0000000000000033A165041B91654033A165041B916540D402000000000000
1002
}
1001
DCO15
1071
        5
1071
        5
1000
unitlink
1004
074133323400
1071
        4
1000
Link
1004
074133323400
  0
VERTEX
  5
407
  8
QUJIALING
 10
727013.22333038994
 20
3422227.8076584181
 30
5.2000000000000002
  0
VERTEX
  5
408
  8
QUJIALING
 10
727011.58018288424
 20
3422192.1529226648
 30
5.2000000000000002
  0
VERTEX
  5
409
  8
QUJIALING
 10
727059.37097312126
 20
3422189.6464527692
 30
5.2000000000000002
  0
VERTEX
  5
40A
  8
QUJIALING
 10
727063.83537389699
 20
3422227.7593020862
 30
5.2000000000000002
  0
VERTEX
  5
40B
  8
QUJIALING
 10
727013.22333038994
 20
3422227.8076584181
 30
5.2000000000000002
  0
SEQEND
  5
40C
  8
QUJIALING
  0
POLYLINE
  5
B7
  8
QUJIALING
 66
     1
 10
0.0
 20
0.0
 30
6.7000000000000002
 70
     1
1001
ADE
1011
-13.687728766235519
1021
0.0
1031
0.0
1021
1.9463423788547489
1031
0.0
1001
IRD
1002
{
1000
TPMLINK_Unit_topology-_-ade
1070
   515
1071
        5
1004
01003C0400008E0000008E00000000000000E21E1247BE696740E21E1247BE696740D202000000000000
1002
}
1001
DCO15
1071
        5
1071
        5
1000
unitlink
1004
074133323500
1071
        4
1000
Link
1004
074133323500
  0
VERTEX
  5
40D
  8
QUJIALING
 10
727009.34798249626
 20
3422138.485453093
 30
6.7000000000000002
  0
VERTEX
  5
40E
  8
QUJIALING
 10
727049.26406580955
 20
3422143.8691247669
 30
6.7000000000000002
  0
VERTEX
  5
40F
  8
QUJIALING
 10
727057.2782852574
 20
3422150.800199077
 30
6.7000000000000002
  0
VERTEX
  5
410
  8
QUJIALING
 10
727058.45639101812
 20
3422188.0265156338
 30
6.7000000000000002
  0
VERTEX
  5
411
  8
QUJIALING
 10
727007.89085168764
 20
3422187.0755077619
 30
6.7000000000000002
  0
VERTEX
  5
412
  8
QUJIALING
 10
727009.34798249626
 20
3422138.485453093
 30
6.7000000000000002
  0
SEQEND
  5
413
  8
QUJIALING
  0
POLYLINE
  5
B8
  8
QUJIALING
 66
     1
 10
0.0
 20
0.0
 30
9.0999999999999996
 70
     1
1001
ADE
1011
-18.663675459218211
1021
0.0
1031
0.0
1021
1.6924716336652621
1031
0.0
1001
IRD
1002
{
1000
TPMLINK_Unit_topology-_-ade
1070
   515
1071
        5
1004
01003D0400008500000085000000000000007BA4C4DDA5AE6E407BA4C4DDA5AE6E40D102000000000000
1002
}
1001
DCO15
1071
        5
1071
        5
1000
unitlink
1004
074133313600
1071
        4
1000
Link
1004
074133313600
  0
VERTEX
  5
414
  8
QUJIALING
 10
726941.71541103348
 20
3422183.368188947
 30
9.0999999999999996
  0
VERTEX
  5
415
  8
QUJIALING
 10
726937.66954783339
 20
3422168.1198254619
 30
9.0999999999999996
  0
VERTEX
  5
416
  8
QUJIALING
 10
726940.36678996659
 20
3422148.3904418452
 30
9.0999999999999996
  0
VERTEX
  5
417
  8
QUJIALING
 10
726940.98684563104
 20
3422125.7757970621
 30
9.0999999999999996
  0
VERTEX
  5
418
  8
QUJIALING
 10
726947.1874022634
 20
3422119.150979524
 30
9.0999999999999996
  0
VERTEX
  5
419
  8
QUJIALING
 10
726966.42462921154
 20
3422119.150979524
 30
9.0999999999999996
  0
VERTEX
  5
41A
  8
QUJIALING
 10
726981.91051939875
 20
3422116.0561742499
 30
9.0999999999999996
  0
VERTEX
  5
41B
  8
QUJIALING
 10
726995.6292509475
 20
3422119.150979524
 30
9.0999999999999996
  0
VERTEX
  5
41C
  8
QUJIALING
 10
727005.10060120386
 20
3422124.6233044728
 30
9.0999999999999996
  0
VERTEX
  5
41D
  8
QUJIALING
 10
727006.65074035921
 20
3422141.3707142598
 30
9.0999999999999996
  0
VERTEX
  5
41E
  8
QUJIALING
 10
727005.86016938812
 20
3422174.1482482362
 30
9.0999999999999996
  0
VERTEX
  5
41F
  8
QUJIALING
 10
726996.94686923176
 20
3422183.8839898249
 30
9.0999999999999996
  0
VERTEX
  5
420
  8
QUJIALING
 10
726946.7843660824
 20
3422183.3278920031
 30
9.0999999999999996
  0
VERTEX
  5
421
  8
QUJIALING
 10
726941.71541103348
 20
3422183.368188947
 30
9.0999999999999996
  0
SEQEND
  5
422
  8
QUJIALING
  0
POLYLINE
  5
B9
  8
QUJIALING
 66
     1
 10
0.0
 20
0.0
 30
3.399999999999999
 70
     1
1001
ADE
1011
-16.974023775896061
1021
0.0
1031
0.0
1021
2.046466344967484
1031
0.0
1001
IRD
1002
{
1000
TPMLINK_Unit_topology-_-ade
1070
   515
1071
        5
1004
0100430400008C0000008C000000000000005914499F1D1E68405914499F1D1E6840D002000000000000
1002
}
1001
DCO15
1071
        5
1071
        5
1000
unitlink
1004
074133393700
1071
        4
1000
Link
1004
074133393700
  0
VERTEX
  5
423
  8
QUJIALING
 10
726778.05171874142
 20
3422158.0052926051
 30
3.399999999999999
  0
VERTEX
  5
424
  8
QUJIALING
 10
726786.51547854405
 20
3422122.689051176
 30
3.399999999999999
  0
VERTEX
  5
425
  8
QUJIALING
 10
726795.98682880017
 20
3422129.144621552
 30
3.399999999999999
  0
VERTEX
  5
426
  8
QUJIALING
 10
726819.05289946846
 20
3422128.9028398911
 30
3.399999999999999
  0
VERTEX
  5
427
  8
QUJIALING
 10
726837.96501198772
 20
3422128.7046005791
 30
3.399999999999999
  0
VERTEX
  5
428
  8
QUJIALING
 10
726840.64633793745
 20
3422149.7283003749
 30
3.399999999999999
  0
VERTEX
  5
429
  8
QUJIALING
 10
726840.61533515505
 20
3422161.53530487
 30
3.399999999999999
  0
VERTEX
  5
42A
  8
QUJIALING
 10
726828.52424972504
 20
3422168.7726359512
 30
3.399999999999999
  0
VERTEX
  5
42B
  8
QUJIALING
 10
726813.30188319448
 20
3422170.1024350929
 30
3.399999999999999
  0
VERTEX
  5
42C
  8
QUJIALING
 10
726800.46403499751
 20
3422171.2239269111
 30
3.399999999999999
  0
VERTEX
  5
42D
  8
QUJIALING
 10
726791.66194054845
 20
3422170.4651075858
 30
3.399999999999999
  0
VERTEX
  5
42E
  8
QUJIALING
 10
726785.49238670245
 20
3422166.2419878892
 30
3.399999999999999
  0
VERTEX
  5
42F
  8
QUJIALING
 10
726779.63962768705
 20
3422162.235717339
 30
3.399999999999999
  0
VERTEX
  5
430
  8
QUJIALING
 10
726778.05171874142
 20
3422158.0052926051
 30
3.399999999999999
  0
SEQEND
  5
431
  8
QUJIALING
  0
POLYLINE
  5
BA
  8
QUJIALING
 66
     1
 10
0.0
 20
0.0
 30
2.1000000000000001
 70
     1
1001
ADE
1011
-15.91217845701612
1021
0.0
1031
0.0
1021
-3.4615074601024358
1031
0.0
1001
IRD
1002
{
1000
TPMLINK_Unit_topology-_-ade
1070
   515
1071
        5
1004
010044040000970000009700000000000000C22A8D1235936640C22A8D1235936640C802000000000000
1002
}
1001
DCO15
1071
        5
1071
        5
1000
unitlink
1004
074133393800
1071
        4
1000
Link
1004
074133393800
  0
VERTEX
  5
432
  8
QUJIALING
 10
726770.84357165918
 20
3422076.0171310259
 30
2.1000000000000001
  0
VERTEX
  5
433
  8
QUJIALING
 10
726826.24554516375
 20
3422075.6222209772
 30
2.1000000000000001
  0
VERTEX
  5
434
  8
QUJIALING
 10
726828.2142218909
 20
3422089.8470420921
 30
2.1000000000000001
  0
VERTEX
  5
435
  8
QUJIALING
 10
726826.47806603473
 20
3422107.924251019
 30
2.1000000000000001
  0
VERTEX
  5
436
  8
QUJIALING
 10
726821.99816386774
 20
3422113.9607331799
 30
2.1000000000000001
  0
VERTEX
  5
437
  8
QUJIALING
 10
726809.70556034904
 20
3422116.4913812419
 30
2.1000000000000001
  0
VERTEX
  5
438
  8
QUJIALING
 10
726797.24244151625
 20
3422114.3475838392
 30
2.1000000000000001
  0
VERTEX
  5
439
  8
QUJIALING
 10
726788.03764357453
 20
3422112.764254482
 30
2.1000000000000001
  0
VERTEX
  5
43A
  8
QUJIALING
 10
726771.58152443345
 20
3422109.9336158629
 30
2.1000000000000001
  0
VERTEX
  5
43B
  8
QUJIALING
 10
726770.84357165918
 20
3422076.0171310259
 30
2.1000000000000001
  0
SEQEND
  5
43C
  8
QUJIALING
  0
POLYLINE
  5
BB
  8
QUJIALING
 66
     1
 10
0.0
 20
0.0
 30
0.25
 70
     1
1001
ADE
1011
-11.502032552030871
1021
0.0
1031
0.0
1021
0.0744635774753988
1031
0.0
1001
IRD
1002
{
1000
TPMLINK_Unit_topology-_-ade
1070
   515
1071
        5
1004
010045040000A5000000A500000000000000DFD4883BFBD46440DFD4883BFBD46440CA02000000000000
1002
}
1001
DCO15
1071
        5
1071
        5
1000
unitlink
1004
074133393900
1071
        4
1000
Link
1004
074133393900
  0
VERTEX
  5
43D
  8
QUJIALING
 10
726838.89468069014
 20
3422011.3244176689
 30
0.25
  0
VERTEX
  5
43E
  8
QUJIALING
 10
726871.85063918692
 20
3422006.3356560431
 30
0.25
  0
VERTEX
  5
43F
  8
QUJIALING
 10
726892.48025545815
 20
3422003.212814447
 30
0.25
  0
VERTEX
  5
440
  8
QUJIALING
 10
726901.05526092264
 20
3422013.073305022
 30
0.25
  0
VERTEX
  5
441
  8
QUJIALING
 10
726900.80723865703
 20
3422027.0402256972
 30
0.25
  0
VERTEX
  5
442
  8
QUJIALING
 10
726894.57567924261
 20
3422034.7691794918
 30
0.25
  0
VERTEX
  5
443
  8
QUJIALING
 10
726883.08914808196
 20
3422039.258259017
 30
0.25
  0
VERTEX
  5
444
  8
QUJIALING
 10
726868.33182330045
 20
3422044.0616547
 30
0.25
  0
VERTEX
  5
445
  8
QUJIALING
 10
726861.32519430656
 20
3422042.9494590559
 30
0.25
  0
VERTEX
  5
446
  8
QUJIALING
 10
726855.17114184785
 20
3422036.6873140112
 30
0.25
  0
VERTEX
  5
447
  8
QUJIALING
 10
726847.32225199265
 20
3422028.700562669
 30
0.25
  0
VERTEX
  5
448
  8
QUJIALING
 10
726839.57328304695
 20
3422020.8154872949
 30
0.25
  0
VERTEX
  5
449
  8
QUJIALING
 10
726838.89468069014
 20
3422011.3244176689
 30
0.25
  0
SEQEND
  5
44A
  8
QUJIALING
  0
POLYLINE
  5
BC
  8
QUJIALING
 66
     1
 10
0.0
 20
0.0
 30
0.06
 70
     1
1001
ADE
1011
-12.447617437690489
1021
0.0
1031
0.0
1021
-0.7495231525972486
1031
0.0
1001
IRD
1002
{
1000
TPMLINK_Unit_topology-_-ade
1070
   515
1071
        5
1004
0100460400009C0000009C00000000000000018270CEA8526340018270CEA8526340C702000000000000
1002
}
1001
DCO15
1071
        5
1071
        5
1000
unitlink
1004
074134303000
1071
        4
1000
Link
1004
074134303000
  0
VERTEX
  5
44B
  8
QUJIALING
 10
726760.56614904106
 20
3422048.0913490681
 30
0.06
  0
VERTEX
  5
44C
  8
QUJIALING
 10
726754.30358684435
 20
3422019.7625976722
 30
0.06
  0
VERTEX
  5
44D
  8
QUJIALING
 10
726764.2399788464
 20
3422015.0397958751
 30
0.06
  0
VERTEX
  5
44E
  8
QUJIALING
 10
726782.67113343265
 20
3422014.8786080992
 30
0.06
  0
VERTEX
  5
44F
  8
QUJIALING
 10
726799.75366695225
 20
3422013.5649277349
 30
0.06
  0
VERTEX
  5
450
  8
QUJIALING
 10
726805.73720410455
 20
3422023.1072439952
 30
0.06
  0
VERTEX
  5
451
  8
QUJIALING
 10
726807.7523850092
 20
3422038.6135079181
 30
0.06
  0
VERTEX
  5
452
  8
QUJIALING
 10
726799.72266416985
 20
3422045.5445822282
 30
0.06
  0
VERTEX
  5
453
  8
QUJIALING
 10
726784.45379346609
 20
3422051.4843517239
 30
0.06
  0
VERTEX
  5
454
  8
QUJIALING
 10
726770.95208140067
 20
3422053.0720513039
 30
0.06
  0
VERTEX
  5
455
  8
QUJIALING
 10
726760.56614904106
 20
3422048.0913490681
 30
0.06
  0
SEQEND
  5
456
  8
QUJIALING
  0
POLYLINE
  5
BD
  8
QUJIALING
 66
     1
 10
0.0
 20
0.0
 30
0.125
 70
     1
1001
ADE
1011
-14.439546255394809
1021
0.0
1031
0.0
1021
6.6409363155253232
1031
0.0
1001
IRD
1002
{
1000
TPMLINK_Unit_topology-_-ade
1070
   515
1071
        5
1004
01004804000090000000900000000000000052D0408761DE644052D0408761DE6440C902000000000000
1002
}
1001
DCO15
1071
        5
1071
        5
1000
unitlink
1004
074134303100
1071
        4
1000
Link
1004
074134303100
  0
VERTEX
  5
457
  8
QUJIALING
 10
726672.11520869285
 20
3422122.9711297839
 30
0.125
  0
VERTEX
  5
458
  8
QUJIALING
 10
726682.12910765025
 20
3422106.4896798241
 30
0.125
  0
VERTEX
  5
459
  8
QUJIALING
 10
726713.36441168189
 20
3422086.4782176008
 30
0.125
  0
VERTEX
  5
45A
  8
QUJIALING
 10
726727.50168080267
 20
3422107.0780152041
 30
0.125
  0
VERTEX
  5
45B
  8
QUJIALING
 10
726718.46436951309
 20
3422128.362860844
 30
0.125
  0
VERTEX
  5
45C
  8
QUJIALING
 10
726704.8231449239
 20
3422139.6701832372
 30
0.125
  0
VERTEX
  5
45D
  8
QUJIALING
 10
726691.75547182187
 20
3422145.4729431248
 30
0.125
  0
VERTEX
  5
45E
  8
QUJIALING
 10
726685.08987344452
 20
3422141.7011491992
 30
0.125
  0
VERTEX
  5
45F
  8
QUJIALING
 10
726672.11520869285
 20
3422122.9711297839
 30
0.125
  0
SEQEND
  5
460
  8
QUJIALING
  0
POLYLINE
  5
BE
  8
QUJIALING
 66
     1
 10
0.0
 20
0.0
 30
0.06
 70
     1
1001
ADE
1011
-22.990984447533261
1021
0.0
1031
0.0
1021
-2.532721918076275
1031
0.0
1001
IRD
1002
{
1000
TPMLINK_Unit_topology-_-ade
1070
   515
1071
        5
1004
01005B040000B3000000B3000000000000009942322F466E72409942322F466E72402703000000000000
1002
}
1001
DCO15
1071
        5
1071
        5
1000
unitlink
1004
074132393900
1071
        4
1000
Link
1004
074132393900
  0
VERTEX
  5
461
  8
QUJIALING
 10
727062.12635725318
 20
3421872.3999023931
 30
0.06
  0
VERTEX
  5
462
  8
QUJIALING
 10
727074.97021451965
 20
3421928.6592674358
 30
0.06
  0
VERTEX
  5
463
  8
QUJIALING
 10
727050.28715765453
 20
3421933.3659504568
 30
0.06
  0
VERTEX
  5
464
  8
QUJIALING
 10
727030.77090565872
 20
3421944.1171750259
 30
0.06
  0
VERTEX
  5
465
  8
QUJIALING
 10
726989.05666091666
 20
3421945.4550335552
 30
0.06
  0
VERTEX
  5
466
  8
QUJIALING
 10
726989.89794481918
 20
3421907.1487589101
 30
0.06
  0
VERTEX
  5
467
  8
QUJIALING
 10
726993.14040881419
 20
3421866.799547235
 30
0.06
  0
VERTEX
  5
468
  8
QUJIALING
 10
727044.61643510545
 20
3421871.9024487268
 30
0.06
  0
SEQEND
  5
469
  8
QUJIALING
  0
POLYLINE
  5
BF
  8
QUJIALING
 66
     1
 10
0.0
 20
0.0
 30
0.06
 70
     1
1001
ADE
1011
-13.00566753558814
1021
0.0
1031
0.0
1021
6.2540856557898223
1031
0.0
1001
IRD
1002
{
1000
TPMLINK_Unit_topology-_-ade
1070
   515
1071
        5
1004
010072040000C5000000C500000000000000AFC0A922F7D77440AFC0A922F7D7744000000000A8020000
1002
}
1001
DCO15
1071
        5
1071
        5
1000
unitlink
1004
0741313400
1071
        4
1000
Link
1004
0741313400
  0
VERTEX
  5
46A
  8
QUJIALING
 10
725789.24895269424
 20
3421537.0374501362
 30
0.06
  0
VERTEX
  5
46B
  8
QUJIALING
 10
725817.43048258498
 20
3421529.37297145
 30
0.06
  0
VERTEX
  5
46C
  8
QUJIALING
 10
725873.74703819293
 20
3421469.5642476659
 30
0.06
  0
VERTEX
  5
46D
  8
QUJIALING
 10
725798.85981547076
 20
3421434.924994891
 30
0.06
  0
VERTEX
  5
46E
  8
QUJIALING
 10
725748.55779979739
 20
3421511.4085939652
 30
0.06
  0
VERTEX
  5
46F
  8
QUJIALING
 10
725789.24895269424
 20
3421537.0374501362
 30
0.06
  0
SEQEND
  5
470
  8
QUJIALING
  0
POLYLINE
  5
C0
  8
QUJIALING
 66
     1
 10
0.0
 20
0.0
 30
0.06
 70
     1
1001
ADE
1011
-17.508821787545461
1021
0.0
1031
0.0
1021
-1.4265118059702211
1031
0.0
1001
IRD
1002
{
1000
TPMLINK_Unit_topology-_-ade
1070
   515
1071
        5
1004
010073040000C4000000C400000000000000BE22C6C47F387340BE22C6C47F38734000000000A7020000
1002
}
1001
DCO15
1071
        5
1071
        5
1000
unitlink
1004
07413900
1071
        4
1000
Link
1004
07413900
  0
VERTEX
  5
471
  8
QUJIALING
 10
725708.65721787489
 20
3421550.1903725462
 30
0.06
  0
VERTEX
  5
472
  8
QUJIALING
 10
725723.24402735021
 20
3421619.855728752
 30
0.06
  0
VERTEX
  5
473
  8
QUJIALING
 10
725782.58335431304
 20
3421622.9747121921
 30
0.06
  0
VERTEX
  5
474
  8
QUJIALING
 10
725786.7532286495
 20
3421543.9524056679
 30
0.06
  0
VERTEX
  5
475
  8
QUJIALING
 10
725747.17817594844
 20
3421532.516133056
 30
0.06
  0
VERTEX
  5
476
  8
QUJIALING
 10
725707.37060237315
 20
3421533.45102215
 30
0.06
  0
VERTEX
  5
477
  8
QUJIALING
 10
725708.65721787489
 20
3421550.1903725462
 30
0.06
  0
SEQEND
  5
478
  8
QUJIALING
  0
POLYLINE
  5
C1
  8
QUJIALING
 66
     1
 10
0.0
 20
0.0
 30
0.06
 70
     1
1001
ADE
1011
-10.02940034866333
1021
0.0
1031
0.0
1021
11.093748591374601
1031
0.0
1001
IRD
1002
{
1000
TPMLINK_Unit_topology-_-ade
1070
   515
1071
        5
1004
010078040000E6000000E600000000000000B5E9CC80463E7940B5E9CC80463E79406D03000000000000
1002
}
1001
DCO15
1071
        5
1071
        5
1000
unitlink
1004
0742373900
1071
        4
1000
Link
1004
0742373900
  0
VERTEX
  5
479
  8
QUJIALING
 10
723475.27474296372
 20
3418073.6253539021
 30
0.06
  0
VERTEX
  5
47A
  8
QUJIALING
 10
723471.86841857072
 20
3418059.1371927401
 30
0.06
  0
VERTEX
  5
47B
  8
QUJIALING
 10
723532.61837217235
 20
3417957.193984658
 30
0.06
  0
VERTEX
  5
47C
  8
QUJIALING
 10
723558.31967940938
 20
3417949.916356633
 30
0.06
  0
VERTEX
  5
47D
  8
QUJIALING
 10
723586.17568007496
 20
3417973.1999306818
 30
0.06
  0
VERTEX
  5
47E
  8
QUJIALING
 10
723580.48666936543
 20
3417999.8926261659
 30
0.06
  0
VERTEX
  5
47F
  8
QUJIALING
 10
723570.82930241164
 20
3418026.472490205
 30
0.06
  0
VERTEX
  5
480
  8
QUJIALING
 10
723574.19310438633
 20
3418044.6625305759
 30
0.06
  0
VERTEX
  5
481
  8
QUJIALING
 10
723565.5123251006
 20
3418081.026492537
 30
0.06
  0
VERTEX
  5
482
  8
QUJIALING
 10
723543.73286993452
 20
3418092.8173782541
 30
0.06
  0
VERTEX
  5
483
  8
QUJIALING
 10
723475.27474296372
 20
3418073.6253539021
 30
0.06
  0
SEQEND
  5
484
  8
QUJIALING
  0
POLYLINE
  5
C2
  8
QUJIALING
 66
     1
 10
0.0
 20
0.0
 30
0.06
 70
     1
1001
ADE
1011
-26.769339136662889
1021
0.0
1031
0.0
1021
-0.9527682466432452
1031
0.0
1001
IRD
1002
{
1000
TPMLINK_Unit_topology-_-ade
1070
   515
1071
        5
1004
010089040000EB000000EB000000000000005A3FA32B942C75405A3FA32B942C7540A002000000000000
1002
}
1001
DCO15
1071
        5
1071
        5
1000
unitlink
1004
074331343400
1071
        4
1000
Link
1004
074331343400
  0
VERTEX
  5
485
  8
QUJIALING
 10
721117.5561815463
 20
3415671.8969519478
 30
0.06
  0
VERTEX
  5
486
  8
QUJIALING
 10
721205.65759163699
 20
3415678.910523443
 30
0.06
  0
VERTEX
  5
487
  8
QUJIALING
 10
721215.87540895864
 20
3415752.8772646352
 30
0.06
  0
VERTEX
  5
488
  8
QUJIALING
 10
721114.98914369568
 20
3415746.5021975152
 30
0.06
  0
VERTEX
  5
489
  8
QUJIALING
 10
721117.5561815463
 20
3415671.8969519478
 30
0.06
  0
SEQEND
  5
48A
  8
QUJIALING
  0
POLYLINE
  5
C3
  8
QUJIALING
 66
     1
 10
0.0
 20
0.0
 30
0.3
 70
     1
1001
ADE
1011
-36.01403099519667
1021
0.0
1031
0.0
1021
5.3125559338368467
1031
0.0
1001
IRD
1002
{
1000
TPMLINK_Unit_topology-_-ade
1070
   515
1071
        5
1004
0100BB040000C1010000C101000000000000906D67AC34217640906D67AC342176407B02000000000000
1002
}
1001
DCO15
1071
        5
1071
        5
1000
unitlink
1004
074132333800
1071
        4
1000
Link
1004
074132333800
  0
VERTEX
  5
48B
  8
QUJIALING
 10
721148.67941820994
 20
3413939.205587409
 30
0.3
  0
VERTEX
  5
48C
  8
QUJIALING
 10
721254.04541618738
 20
3413933.5189078189
 30
0.3
  0
VERTEX
  5
48D
  8
QUJIALING
 10
721257.6191355437
 20
3414002.497333583
 30
0.3
  0
VERTEX
  5
48E
  8
QUJIALING
 10
721145.82715393254
 20
3414006.7573549598
 30
0.3
  0
VERTEX
  5
48F
  8
QUJIALING
 10
721148.67941820994
 20
3413939.205587409
 30
0.3
  0
SEQEND
  5
490
  8
QUJIALING
  0
POLYLINE
  5
C4
  8
QUJIALING
 66
     1
 10
0.0
 20
0.0
 30
0.015625
 70
     1
1001
ADE
1011
-19.34506300301291
1021
0.0
1031
0.0
1021
-1.546377783641218
1031
0.0
1001
IRD
1002
{
1000
TPMLINK_Unit_topology-_-ade
1070
   515
1071
        5
1004
0100C2040000560100005601000000000000CF00C442272E7240CF00C442272E72406602000000000000
1002
}
1001
DCO15
1071
        5
1071
        5
1000
unitlink
1004
074132313300
1071
        4
1000
Link
1004
074132313300
  0
VERTEX
  5
491
  8
QUJIALING
 10
721092.50658999023
 20
3414653.3428009711
 30
0.015625
  0
VERTEX
  5
492
  8
QUJIALING
 10
721091.75157885626
 20
3414569.8982604598
 30
0.015625
  0
VERTEX
  5
493
  8
QUJIALING
 10
721152.50480794546
 20
3414566.8653646782
 30
0.015625
  0
VERTEX
  5
494
  8
QUJIALING
 10
721155.54163049906
 20
3414650.3099051882
 30
0.015625
  0
VERTEX
  5
495
  8
QUJIALING
 10
721092.50658999023
 20
3414653.3428009711
 30
0.015625
  0
SEQEND
  5
496
  8
QUJIALING
  0
POLYLINE
  5
C5
  8
QUJIALING
 66
     1
 10
0.0
 20
0.0
 30
0.0119047619047619
 70
     1
1001
ADE
1011
-32.792650165036321
1021
0.0
1031
0.0
1021
3.0029658884741361
1031
0.0
1001
IRD
1002
{
1000
TPMLINK_Unit_topology-_-ade
1070
   515
1071
        5
1004
0100D4040000A3010000A3010000000000008515919C7FF672408515919C7FF672404F02000000000000
1002
}
1001
DCO15
1071
        5
1071
        5
1000
unitlink
1004
074131393000
1071
        4
1000
Link
1004
074131393000
  0
VERTEX
  5
497
  8
QUJIALING
 10
720857.88268621266
 20
3414309.997049937
 30
0.0119047619047619
  0
VERTEX
  5
498
  8
QUJIALING
 10
720952.22552166122
 20
3414312.890272886
 30
0.0119047619047619
  0
VERTEX
  5
499
  8
QUJIALING
 10
720954.57444518432
 20
3414370.3955731601
 30
0.0119047619047619
  0
VERTEX
  5
49A
  8
QUJIALING
 10
720862.88253771164
 20
3414369.557536168
 30
0.0119047619047619
  0
VERTEX
  5
49B
  8
QUJIALING
 10
720857.88268621266
 20
3414309.997049937
 30
0.0119047619047619
  0
SEQEND
  5
49C
  8
QUJIALING
  0
POLYLINE
  5
C6
  8
QUJIALING
 66
     1
 10
0.0
 20
0.0
 30
0.7000000000000001
 70
     1
1001
ADE
1011
-30.752465343219232
1021
0.0
1031
0.0
1021
0.0798130468465388
1031
0.0
1001
IRD
1002
{
1000
TPMLINK_Unit_topology-_-ade
1070
   515
1071
        5
1004
0100D8040000630100006301000000000000C483A2D7235D7140C483A2D7235D71405D02000000000000
1002
}
1001
DCO15
1071
        5
1071
        5
1000
unitlink
1004
074132303400
1071
        4
1000
Link
1004
074132303400
  0
VERTEX
  5
49D
  8
QUJIALING
 10
720868.30183983583
 20
3414574.1582818371
 30
0.7000000000000001
  0
VERTEX
  5
49E
  8
QUJIALING
 10
720898.75395549065
 20
3414572.9511095029
 30
0.7000000000000001
  0
VERTEX
  5
49F
  8
QUJIALING
 10
720925.56523969024
 20
3414575.1160383988
 30
0.7000000000000001
  0
VERTEX
  5
4A0
  8
QUJIALING
 10
720953.49734203925
 20
3414577.371469921
 30
0.7000000000000001
  0
VERTEX
  5
4A1
  8
QUJIALING
 10
720953.11475699767
 20
3414630.3765967311
 30
0.7000000000000001
  0
VERTEX
  5
4A2
  8
QUJIALING
 10
720868.99012991064
 20
3414629.4413190419
 30
0.7000000000000001
  0
VERTEX
  5
4A3
  8
QUJIALING
 10
720868.30183983583
 20
3414574.1582818371
 30
0.7000000000000001
  0
SEQEND
  5
4A4
  8
QUJIALING
  0
POLYLINE
  5
C7
  8
QUJIALING
 66
     1
 10
0.0
 20
0.0
 30
0.0121951219512195
 70
     1
1001
ADE
1011
-24.45397166558541
1021
0.0
1031
0.0
1021
-0.8779435153119266
1031
0.0
1001
IRD
1002
{
1000
TPMLINK_Unit_topology-_-ade
1070
   515
1071
        5
1004
0100D90400005C0100005C01000000000000288611FD52FA7340288611FD52FA73405C02000000000000
1002
}
1001
DCO15
1071
        5
1071
        5
1000
unitlink
1004
074132303300
1071
        4
1000
Link
1004
074132303300
  0
VERTEX
  5
4A5
  8
QUJIALING
 10
720869.14074109145
 20
3414631.8531380971
 30
0.0121951219512195
  0
VERTEX
  5
4A6
  8
QUJIALING
 10
720952.52752611425
 20
3414632.9705207539
 30
0.0121951219512195
  0
VERTEX
  5
4A7
  8
QUJIALING
 10
720960.93331671914
 20
3414710.9279142912
 30
0.0121951219512195
  0
VERTEX
  5
4A8
  8
QUJIALING
 10
720911.77370301262
 20
3414702.9565862352
 30
0.0121951219512195
  0
VERTEX
  5
4A9
  8
QUJIALING
 10
720873.48624960706
 20
3414701.4401383442
 30
0.0121951219512195
  0
VERTEX
  5
4AA
  8
QUJIALING
 10
720869.14074109145
 20
3414631.8531380971
 30
0.0121951219512195
  0
SEQEND
  5
4AB
  8
QUJIALING
  0
POLYLINE
  5
C8
  8
QUJIALING
 66
     1
 10
0.0
 20
0.0
 30
0.3
 70
     1
1001
ADE
1011
-29.440872337319892
1021
0.0
1031
0.0
1021
-3.611540371086448
1031
0.0
1001
IRD
1002
{
1000
TPMLINK_Unit_topology-_-ade
1070
   515
1071
        5
1004
0100E10400005401000054010000000000009C140744765774409C140744765774400000000054020000
1002
}
1001
DCO15
1071
        5
1071
        5
1000
unitlink
1004
074131393500
1071
        4
1000
Link
1004
074131393500
  0
VERTEX
  5
4AC
  8
QUJIALING
 10
720774.56301328936
 20
3414655.7571456381
 30
0.3
  0
VERTEX
  5
4AD
  8
QUJIALING
 10
720861.75841002574
 20
3414657.0640842812
 30
0.3
  0
VERTEX
  5
4AE
  8
QUJIALING
 10
720861.10406704224
 20
3414583.735847462
 30
0.3
  0
VERTEX
  5
4AF
  8
QUJIALING
 10
720769.20169964014
 20
3414585.4526799251
 30
0.3
  0
VERTEX
  5
4B0
  8
QUJIALING
 10
720772.04630951583
 20
3414655.8868418401
 30
0.3
  0
VERTEX
  5
4B1
  8
QUJIALING
 10
720774.56301328936
 20
3414655.7571456381
 30
0.3
  0
SEQEND
  5
4B2
  8
QUJIALING
  0
POLYLINE
  5
C9
  8
QUJIALING
 66
     1
 10
0.0
 20
0.0
 30
0.0227272727272727
 70
     1
1001
ADE
1011
-34.831180222332492
1021
0.0
1031
0.0
1021
1.5014829435385739
1031
0.0
1001
IRD
1002
{
1000
TPMLINK_Unit_topology-_-ade
1070
   515
1071
        5
1004
0100E3040000770100007701000000000000769E0B5239757440769E0B52397574400000000052020000
1002
}
1001
DCO15
1071
        5
1071
        5
1000
unitlink
1004
074131393300
1071
        4
1000
Link
1004
074131393300
  0
VERTEX
  5
4B3
  8
QUJIALING
 10
720760.93925686553
 20
3414498.1762612108
 30
0.0227272727272727
  0
VERTEX
  5
4B4
  8
QUJIALING
 10
720859.14103810105
 20
3414500.879928174
 30
0.0227272727272727
  0
VERTEX
  5
4B5
  8
QUJIALING
 10
720855.36598243925
 20
3414437.3786727511
 30
0.0227272727272727
  0
VERTEX
  5
4B6
  8
QUJIALING
 10
720752.73480256274
 20
3414435.8821781231
 30
0.0227272727272727
  0
VERTEX
  5
4B7
  8
QUJIALING
 10
720760.93925686553
 20
3414498.1762612108
 30
0.0227272727272727
  0
SEQEND
  5
4B8
  8
QUJIALING
  0
POLYLINE
  5
CA
  8
QUJIALING
 66
     1
 10
0.0
 20
0.0
 30
0.03125
 70
     1
1001
ADE
1011
-33.715441551059492
1021
0.0
1031
0.0
1021
2.583947392180562
1031
0.0
1001
IRD
1002
{
1000
TPMLINK_Unit_topology-_-ade
1070
   515
1071
        5
1004
0100E50400009901000099010000000000004D1C0D79BBB573404D1C0D79BBB573400000000050020000
1002
}
1001
DCO15
1071
        5
1071
        5
1000
unitlink
1004
074131393100
1071
        4
1000
Link
1004
074131393100
  0
VERTEX
  5
4B9
  8
QUJIALING
 10
720748.60740837455
 20
3414366.7541028969
 30
0.03125
  0
VERTEX
  5
4BA
  8
QUJIALING
 10
720845.81928612641
 20
3414364.9583093412
 30
0.03125
  0
VERTEX
  5
4BB
  8
QUJIALING
 10
720835.92025128379
 20
3414303.821515434
 30
0.03125
  0
VERTEX
  5
4BC
  8
QUJIALING
 10
720740.40295407549
 20
3414306.6748318598
 30
0.03125
  0
VERTEX
  5
4BD
  8
QUJIALING
 10
720748.60740837455
 20
3414366.7541028969
 30
0.03125
  0
SEQEND
  5
4BE
  8
QUJIALING
  0
POLYLINE
  5
CB
  8
QUJIALING
 66
     1
 10
0.0
 20
0.0
 30
1.0
 70
     1
1001
ADE
1011
-17.45753517374396
1021
0.0
1031
0.0
1021
5.6467730673030001
1031
0.0
1001
IRD
1002
{
1000
TPMLINK_Unit_topology-_-ade
1070
   515
1071
        5
1004
0100E9040000B2010000B201000000000000B9736F97BD108040B9736F97BD1080400000000035020000
1002
}
1001
DCO15
1071
        5
1071
        5
1000
unitlink
1004
074132343000
1071
        4
1000
Link
1004
074132343000
  0
VERTEX
  5
4BF
  8
QUJIALING
 10
720467.27348256484
 20
3414213.5330061559
 30
1.0
  0
VERTEX
  5
4C0
  8
QUJIALING
 10
720549.16702334955
 20
3414181.8372499142
 30
1.0
  0
VERTEX
  5
4C1
  8
QUJIALING
 10
720512.27214603499
 20
3414080.1055450388
 30
1.0
  0
VERTEX
  5
4C2
  8
QUJIALING
 10
720366.20265902951
 20
3414130.2281384771
 30
1.0
  0
VERTEX
  5
4C3
  8
QUJIALING
 10
720417.10718734935
 20
3414229.0167372492
 30
1.0
  0
VERTEX
  5
4C4
  8
QUJIALING
 10
720467.27348256484
 20
3414213.5330061559
 30
1.0
  0
SEQEND
  5
4C5
  8
QUJIALING
  0
POLYLINE
  5
CC
  8
QUJIALING
 66
     1
 10
0.0
 20
0.0
 30
0.1
 70
     1
1001
ADE
1011
-16.794803181663148
1021
0.0
1031
0.0
1021
1.4665647363290191
1031
0.0
1001
IRD
1002
{
1000
TPMLINK_Unit_topology-_-ade
1070
   515
1071
        5
1004
0100EB040000C4010000C4010000000000006FE357D3BC4876406FE357D3BC4876403302000000000000
1002
}
1001
DCO15
1071
        5
1071
        5
1000
unitlink
1004
074132313900
1071
        4
1000
Link
1004
074132313900
  0
VERTEX
  5
4C6
  8
QUJIALING
 10
721782.83843501657
 20
3413782.1833943091
 30
0.1
  0
VERTEX
  5
4C7
  8
QUJIALING
 10
721873.35588072985
 20
3413784.0290710181
 30
0.1
  0
VERTEX
  5
4C8
  8
QUJIALING
 10
721868.22180503234
 20
3413872.112744879
 30
0.1
  0
VERTEX
  5
4C9
  8
QUJIALING
 10
721781.94919968024
 20
3413873.6690992918
 30
0.1
  0
VERTEX
  5
4CA
  8
QUJIALING
 10
721782.83843501657
 20
3413782.1833943091
 30
0.1
  0
SEQEND
  5
4CB
  8
QUJIALING
  0
POLYLINE
  5
CD
  8
QUJIALING
 66
     1
 10
0.0
 20
0.0
 30
1.999999999999998
 70
     1
1001
ADE
1011
-11.4396461751312
1021
0.0
1031
0.0
1021
-5.886228883638978
1031
0.0
1001
IRD
1002
{
1000
TPMLINK_Unit_topology-_-ade
1070
   515
1071
        5
1004
0100EF0400009E0100009E01000000000000B88DBA77E4286440B88DBA77E42864402F02000000000000
1002
}
1001
DCO15
1071
        5
1071
        5
1000
unitlink
1004
074332333400
1071
        4
1000
Link
1004
074332333400
  0
VERTEX
  5
4CC
  8
QUJIALING
 10
720633.04997318971
 20
3414344.4937757761
 30
1.999999999999998
  0
VERTEX
  5
4CD
  8
QUJIALING
 10
720624.20028239465
 20
3414320.0792121948
 30
1.999999999999998
  0
VERTEX
  5
4CE
  8
QUJIALING
 10
720661.27155595284
 20
3414335.7409292678
 30
1.999999999999998
  0
VERTEX
  5
4CF
  8
QUJIALING
 10
720674.99263617792
 20
3414345.8546139169
 30
1.999999999999998
  0
VERTEX
  5
4D0
  8
QUJIALING
 10
720682.26724439475
 20
3414360.5339507931
 30
1.999999999999998
  0
VERTEX
  5
4D1
  8
QUJIALING
 10
720682.73814537015
 20
3414364.1333274161
 30
1.999999999999998
  0
VERTEX
  5
4D2
  8
QUJIALING
 10
720669.82896338403
 20
3414366.6053825002
 30
1.999999999999998
  0
VERTEX
  5
4D3
  8
QUJIALING
 10
720662.7004968524
 20
3414358.528928915
 30
1.999999999999998
  0
VERTEX
  5
4D4
  8
QUJIALING
 10
720655.49084049452
 20
3414351.0563975819
 30
1.999999999999998
  0
VERTEX
  5
4D5
  8
QUJIALING
 10
720646.47877005104
 20
3414346.4021700919
 30
1.999999999999998
  0
VERTEX
  5
4D6
  8
QUJIALING
 10
720633.04997318971
 20
3414344.4937757761
 30
1.999999999999998
  0
SEQEND
  5
4D7
  8
QUJIALING
  0
POLYLINE
  5
CE
  8
QUJIALING
 66
     1
 10
0.0
 20
0.0
 30
0.0895522388059702
 70
     1
1001
ADE
1011
-8.6698652381310222
1021
0.0
1031
0.0
1021
-4.0140699027106139
1031
0.0
1001
IRD
1002
{
1000
TPMLINK_Unit_topology-_-ade
1070
   515
1071
        5
1004
0100F304000070010000700100000000000004E435561074654004E43556107465402802000000000000
1002
}
1001
DCO15
1071
        5
1071
        5
1000
unitlink
1004
074332333600
1071
        4
1000
Link
1004
074332333600
  0
VERTEX
  5
4D8
  8
QUJIALING
 10
720636.18390038982
 20
3414509.3887075041
 30
0.0895522388059702
  0
VERTEX
  5
4D9
  8
QUJIALING
 10
720644.6114041023
 20
3414506.7797633749
 30
0.0895522388059702
  0
VERTEX
  5
4DA
  8
QUJIALING
 10
720661.32026984554
 20
3414505.7651739921
 30
0.0895522388059702
  0
VERTEX
  5
4DB
  8
QUJIALING
 10
720669.86143931374
 20
3414506.3771485412
 30
0.0895522388059702
  0
VERTEX
  5
4DC
  8
QUJIALING
 10
720670.90066905704
 20
3414508.1567061101
 30
0.0895522388059702
  0
VERTEX
  5
4DD
  8
QUJIALING
 10
720670.83571719751
 20
3414529.752965847
 30
0.0895522388059702
  0
VERTEX
  5
4DE
  8
QUJIALING
 10
720671.75886530185
 20
3414536.4225197788
 30
0.0895522388059702
  0
VERTEX
  5
4DF
  8
QUJIALING
 10
720662.96030429017
 20
3414549.1509485859
 30
0.0895522388059702
  0
VERTEX
  5
4E0
  8
QUJIALING
 10
720640.7630064562
 20
3414563.1941540251
 30
0.0895522388059702
  0
VERTEX
  5
4E1
  8
QUJIALING
 10
720633.3747324869
 20
3414566.5680663381
 30
0.0895522388059702
  0
VERTEX
  5
4E2
  8
QUJIALING
 10
720633.97553718463
 20
3414557.3481866228
 30
0.0895522388059702
  0
VERTEX
  5
4E3
  8
QUJIALING
 10
720636.18390038982
 20
3414509.3887075041
 30
0.0895522388059702
  0
SEQEND
  5
4E4
  8
QUJIALING
  0
POLYLINE
  5
CF
  8
QUJIALING
 66
     1
 10
0.0
 20
0.0
 30
0.036231884057971
 70
     1
1001
ADE
1011
-8.7360250429483131
1021
0.0
1031
0.0
1021
-6.683406256604937
1031
0.0
1001
IRD
1002
{
1000
TPMLINK_Unit_topology-_-ade
1070
   515
1071
        5
1004
0100F4040000740100007401000000000000267EA2C9E6256940267EA2C9E62569402902000000000000
1002
}
1001
DCO15
1071
        5
1071
        5
1000
unitlink
1004
074332333500
1071
        4
1000
Link
1004
074332333500
  0
VERTEX
  5
4E5
  8
QUJIALING
 10
720600.83385109901
 20
3414505.104885662
 30
0.036231884057971
  0
VERTEX
  5
4E6
  8
QUJIALING
 10
720634.18663072574
 20
3414510.282512438
 30
0.036231884057971
  0
VERTEX
  5
4E7
  8
QUJIALING
 10
720633.00125929702
 20
3414563.2827292858
 30
0.036231884057971
  0
VERTEX
  5
4E8
  8
QUJIALING
 10
720630.56556458422
 20
3414566.9062628001
 30
0.036231884057971
  0
VERTEX
  5
4E9
  8
QUJIALING
 10
720604.0164921917
 20
3414577.4628237681
 30
0.036231884057971
  0
VERTEX
  5
4EA
  8
QUJIALING
 10
720595.11808750033
 20
3414577.4628237681
 30
0.036231884057971
  0
VERTEX
  5
4EB
  8
QUJIALING
 10
720600.83385109901
 20
3414505.104885662
 30
0.036231884057971
  0
SEQEND
  5
4EC
  8
QUJIALING
  0
POLYLINE
  5
D0
  8
QUJIALING
 66
     1
 10
0.0
 20
0.0
 30
0.08
 70
     1
1001
ADE
1011
-9.1500931436894462
1021
0.0
1031
0.0
1021
-3.0069374484010041
1031
0.0
1001
IRD
1002
{
1000
TPMLINK_Unit_topology-_-ade
1070
   515
1071
        5
1004
0100FA04000073010000730100000000000084843099A0D86A4084843099A0D86A400000000026020000
1002
}
1001
DCO15
1071
        5
1071
        5
1000
unitlink
1004
074332333700
1071
        4
1000
Link
1004
074332333700
  0
VERTEX
  5
4ED
  8
QUJIALING
 10
720638.50592935074
 20
3414505.5638665748
 30
0.08
  0
VERTEX
  5
4EE
  8
QUJIALING
 10
720670.4784819741
 20
3414504.47680652
 30
0.08
  0
VERTEX
  5
4EF
  8
QUJIALING
 10
720670.80324126745
 20
3414490.9811572582
 30
0.08
  0
VERTEX
  5
4F0
  8
QUJIALING
 10
720672.03732659295
 20
3414481.415028784
 30
0.08
  0
VERTEX
  5
4F1
  8
QUJIALING
 10
720674.63540095452
 20
3414451.7342631649
 30
0.08
  0
VERTEX
  5
4F2
  8
QUJIALING
 10
720671.72880526271
 20
3414431.1606451091
 30
0.08
  0
VERTEX
  5
4F3
  8
QUJIALING
 10
720659.22557239234
 20
3414430.8385532401
 30
0.08
  0
VERTEX
  5
4F4
  8
QUJIALING
 10
720643.39355674793
 20
3414429.7353885951
 30
0.08
  0
VERTEX
  5
4F5
  8
QUJIALING
 10
720639.67847893585
 20
3414429.4765243661
 30
0.08
  0
VERTEX
  5
4F6
  8
QUJIALING
 10
720638.27859784651
 20
3414437.1354492572
 30
0.08
  0
VERTEX
  5
4F7
  8
QUJIALING
 10
720641.52619079885
 20
3414449.7292412878
 30
0.08
  0
VERTEX
  5
4F8
  8
QUJIALING
 10
720641.26638336095
 20
3414494.2745466079
 30
0.08
  0
VERTEX
  5
4F9
  8
QUJIALING
 10
720638.50592935074
 20
3414505.5638665748
 30
0.08
  0
SEQEND
  5
4FA
  8
QUJIALING
  0
POLYLINE
  5
D1
  8
QUJIALING
 66
     1
 10
0.0
 20
0.0
 30
0.0824742268041237
 70
     1
1001
ADE
1011
-11.68321564781945
1021
0.0
1031
0.0
1021
-1.4131780704483381
1031
0.0
1001
IRD
1002
{
1000
TPMLINK_Unit_topology-_-ade
1070
   515
1071
        5
1004
0100FD0400009D0100009D01000000000000DAA381C21ED46640DAA381C21ED466402402000000000000
1002
}
1001
DCO15
1071
        5
1071
        5
1000
unitlink
1004
074332333200
1071
        4
1000
Link
1004
074332333200
  0
VERTEX
  5
4FB
  8
QUJIALING
 10
720631.60479432705
 20
3414345.9834506642
 30
0.0824742268041237
  0
VERTEX
  5
4FC
  8
QUJIALING
 10
720646.30015243974
 20
3414347.521439333
 30
0.0824742268041237
  0
VERTEX
  5
4FD
  8
QUJIALING
 10
720655.2797469534
 20
3414351.7730519888
 30
0.0824742268041237
  0
VERTEX
  5
4FE
  8
QUJIALING
 10
720659.68023540452
 20
3414355.5093176551
 30
0.0824742268041237
  0
VERTEX
  5
4FF
  8
QUJIALING
 10
720667.06850937381
 20
3414366.5651210179
 30
0.0824742268041237
  0
VERTEX
  5
500
  8
QUJIALING
 10
720671.71256729623
 20
3414376.5258120289
 30
0.0824742268041237
  0
VERTEX
  5
501
  8
QUJIALING
 10
720675.10630193364
 20
3414395.2876633289
 30
0.0824742268041237
  0
VERTEX
  5
502
  8
QUJIALING
 10
720672.34584792354
 20
3414405.111465299
 30
0.0824742268041237
  0
VERTEX
  5
503
  8
QUJIALING
 10
720641.98085381091
 20
3414404.427020079
 30
0.0824742268041237
  0
VERTEX
  5
504
  8
QUJIALING
 10
720642.33808903769
 20
3414385.5926981089
 30
0.0824742268041237
  0
VERTEX
  5
505
  8
QUJIALING
 10
720628.64948473871
 20
3414380.6969017182
 30
0.0824742268041237
  0
VERTEX
  5
506
  8
QUJIALING
 10
720631.60479432705
 20
3414345.9834506642
 30
0.0824742268041237
  0
SEQEND
  5
507
  8
QUJIALING
  0
POLYLINE
  5
D2
  8
QUJIALING
 66
     1
 10
0.0
 20
0.0
 30
1.299999999999998
 70
     1
1001
ADE
1011
-13.28265517961699
1021
0.0
1031
0.0
1021
7.4483744413591921
1031
0.0
1001
IRD
1002
{
1000
TPMLINK_Unit_topology-_-ade
1070
   515
1071
        5
1004
0100000500009A0100009A010000000000004D59CEA40AFA70404D59CEA40AFA7040000000002E020000
1002
}
1001
DCO15
1071
        5
1071
        5
1000
unitlink
1004
074332323000
1071
        4
1000
Link
1004
074332323000
  0
VERTEX
  5
508
  8
QUJIALING
 10
720483.61198346305
 20
3414365.8967803922
 30
1.299999999999998
  0
VERTEX
  5
509
  8
QUJIALING
 10
720469.63109580067
 20
3414390.7300634021
 30
1.299999999999998
  0
VERTEX
  5
50A
  8
QUJIALING
 10
720458.52432790014
 20
3414404.257921848
 30
1.299999999999998
  0
VERTEX
  5
50B
  8
QUJIALING
 10
720446.97913495451
 20
3414412.898036202
 30
1.299999999999998
  0
VERTEX
  5
50C
  8
QUJIALING
 10
720438.95758035779
 20
3414477.952541206
 30
1.299999999999998
  0
VERTEX
  5
50D
  8
QUJIALING
 10
720448.06707859051
 20
3414477.348618953
 30
1.299999999999998
  0
VERTEX
  5
50E
  8
QUJIALING
 10
720472.47273963317
 20
3414469.6828325
 30
1.299999999999998
  0
VERTEX
  5
50F
  8
QUJIALING
 10
720485.59301516425
 20
3414451.444380485
 30
1.299999999999998
  0
VERTEX
  5
510
  8
QUJIALING
 10
720489.81488600385
 20
3414422.4319554898
 30
1.299999999999998
  0
VERTEX
  5
511
  8
QUJIALING
 10
720489.76617210743
 20
3414371.7910615732
 30
1.299999999999998
  0
VERTEX
  5
512
  8
QUJIALING
 10
720483.61198346305
 20
3414365.8967803922
 30
1.299999999999998
  0
SEQEND
  5
513
  8
QUJIALING
  0
POLYLINE
  5
D3
  8
QUJIALING
 66
     1
 10
0.0
 20
0.0
 30
6.099999999999997
 70
     1
1001
ADE
1011
-13.77791310288012
1021
0.0
1031
0.0
1021
-9.4453440238721686
1031
0.0
1001
IRD
1002
{
1000
TPMLINK_Unit_topology-_-ade
1070
   515
1071
        5
1004
01001F0500008901000089010000000000007C541CE4F19470407C541CE4F1947040FE01000000000000
1002
}
1001
DCO15
1071
        5
1071
        5
1000
unitlink
1004
074331383800
1071
        4
1000
Link
1004
074331383800
  0
VERTEX
  5
514
  8
QUJIALING
 10
720697.57964516827
 20
3414424.7832261249
 30
6.099999999999997
  0
VERTEX
  5
515
  8
QUJIALING
 10
720737.21651715785
 20
3414419.831063658
 30
6.099999999999997
  0
VERTEX
  5
516
  8
QUJIALING
 10
720751.47345022112
 20
3414512.6337830718
 30
6.099999999999997
  0
VERTEX
  5
517
  8
QUJIALING
 10
720710.65120680269
 20
3414514.4455498289
 30
6.099999999999997
  0
VERTEX
  5
518
  8
QUJIALING
 10
720697.57964516827
 20
3414424.7832261249
 30
6.099999999999997
  0
SEQEND
  5
519
  8
QUJIALING
  0
POLYLINE
  5
D4
  8
QUJIALING
 66
     1
 10
0.0
 20
0.0
 30
0.8383233532934131
 70
     1
1001
ADE
1011
-25.404295874759551
1021
0.0
1031
0.0
1021
19.690585802774869
1031
0.0
1001
IRD
1002
{
1000
TPMLINK_Unit_topology-_-ade
1070
   515
1071
        5
1004
010022050000640100006401000000000000BB5D707CD1437640BB5D707CD1437640FB01000000000000
1002
}
1001
DCO15
1071
        5
1071
        5
1000
unitlink
1004
074332343200
1071
        4
1000
Link
1004
074332343200
  0
VERTEX
  5
51A
  8
QUJIALING
 10
720670.51095790463
 20
3414568.3073624242
 30
0.8383233532934131
  0
VERTEX
  5
51B
  8
QUJIALING
 10
720668.04278726154
 20
3414648.9913753141
 30
0.8383233532934131
  0
VERTEX
  5
51C
  8
QUJIALING
 10
720571.30063990189
 20
3414650.5561324041
 30
0.8383233532934131
  0
VERTEX
  5
51D
  8
QUJIALING
 10
720558.84247421846
 20
3414602.6101463479
 30
0.8383233532934131
  0
VERTEX
  5
51E
  8
QUJIALING
 10
720585.09926323965
 20
3414603.8743569301
 30
0.8383233532934131
  0
VERTEX
  5
51F
  8
QUJIALING
 10
720609.06649923325
 20
3414599.7354764268
 30
0.8383233532934131
  0
VERTEX
  5
520
  8
QUJIALING
 10
720635.66428551811
 20
3414591.4335585348
 30
0.8383233532934131
  0
VERTEX
  5
521
  8
QUJIALING
 10
720658.90081309516
 20
3414576.0134103638
 30
0.8383233532934131
  0
VERTEX
  5
522
  8
QUJIALING
 10
720668.90339939308
 20
3414562.4855519151
 30
0.8383233532934131
  0
VERTEX
  5
523
  8
QUJIALING
 10
720670.51095790463
 20
3414568.3073624242
 30
0.8383233532934131
  0
SEQEND
  5
524
  8
QUJIALING
  0
POLYLINE
  5
D5
  8
QUJIALING
 66
     1
 10
0.0
 20
0.0
 30
4.4945121951219491
 70
     1
1001
ADE
1011
-6.4954707355936971
1021
0.0
1031
0.0
1021
0.7567461617290974
1031
0.0
1001
IRD
1002
{
1000
TPMLINK_Unit_topology-_-ade
1070
   515
1071
        5
1004
0100290500007E0100007E010000000000003AA923F6094179403AA923F609417940EC01000000000000
1002
}
1001
DCO15
1071
        5
1071
        5
1000
unitlink
1004
074332313900
1071
        4
1000
Link
1004
074332313900
  0
VERTEX
  5
525
  8
QUJIALING
 10
720431.89406568557
 20
3414479.28117016
 30
4.4945121951219491
  0
VERTEX
  5
526
  8
QUJIALING
 10
720385.74576982483
 20
3414480.0622429401
 30
4.4945121951219491
  0
VERTEX
  5
527
  8
QUJIALING
 10
720378.08145045489
 20
3414462.9269555709
 30
4.4945121951219491
  0
VERTEX
  5
528
  8
QUJIALING
 10
720368.45233735081
 20
3414420.966437493
 30
4.4945121951219491
  0
VERTEX
  5
529
  8
QUJIALING
 10
720350.36381426326
 20
3414352.644676642
 30
4.4945121951219491
  0
VERTEX
  5
52A
  8
QUJIALING
 10
720422.55060473469
 20
3414332.3190426282
 30
4.4945121951219491
  0
VERTEX
  5
52B
  8
QUJIALING
 10
720442.6923122555
 20
3414407.6318341638
 30
4.4945121951219491
  0
VERTEX
  5
52C
  8
QUJIALING
 10
720431.89406568557
 20
3414479.28117016
 30
4.4945121951219491
  0
SEQEND
  5
52D
  8
QUJIALING
  0
POLYLINE
  5
D6
  8
QUJIALING
 66
     1
 10
0.0
 20
0.0
 30
3.5
 70
     1
1001
ADE
1011
-14.54921642690897
1021
0.0
1031
0.0
1021
1.6909823063760969
1031
0.0
1001
IRD
1002
{
1000
TPMLINK_Unit_topology-_-ade
1070
   515
1071
        5
1004
01002A050000AB010000AB01000000000000002C1721403B7540002C1721403B7540EB01000000000000
1002
}
1001
DCO15
1071
        5
1071
        5
1000
unitlink
1004
074332313800
1071
        4
1000
Link
1004
074332313800
  0
VERTEX
  5
52E
  8
QUJIALING
 10
720314.26624893048
 20
3414264.5022604018
 30
3.5
  0
VERTEX
  5
52F
  8
QUJIALING
 10
720393.31266140565
 20
3414242.9704190399
 30
3.5
  0
VERTEX
  5
530
  8
QUJIALING
 10
720421.50176823512
 20
3414329.113889087
 30
3.5
  0
VERTEX
  5
531
  8
QUJIALING
 10
720349.09668334958
 20
3414349.5506181
 30
3.5
  0
VERTEX
  5
532
  8
QUJIALING
 10
720314.26624893048
 20
3414264.5022604018
 30
3.5
  0
SEQEND
  5
533
  8
QUJIALING
  0
ENDSEC
  0
EOF
