  0
SECTION
  2
HEADER
  9
$ACADVER
  1
AC1009
  9
$INSBASE
 10
0.0
 20
0.0
 30
0.0
  9
$EXTMIN
 10
719409.74073623738
 20
3413692.6531089768
 30
0.0066225165562914
  9
$EXTMAX
 10
730659.53900161386
 20
3423794.593125009
 30
11.699999999999999
  9
$LIMMIN
 10
0.0
 20
0.0
  9
$LIMMAX
 10
12.0
 20
9.0
  9
$ORTHOMODE
 70
     0
  9
$REGENMODE
 70
     1
  9
$FILLMODE
 70
     1
  9
$QTEXTMODE
 70
     0
  9
$MIRRTEXT
 70
     0
  9
$DRAGMODE
 70
     2
  9
$LTSCALE
 40
1.0
  9
$OSMODE
 70
    37
  9
$ATTMODE
 70
     1
  9
$TEXTSIZE
 40
0.2
  9
$TRACEWID
 40
0.05
  9
$TEXTSTYLE
  7
STANDARD
  9
$CLAYER
  8
HAN
  9
$CELTYPE
  6
BYLAYER
  9
$CECOLOR
 62
   256
  9
$DIMSCALE
 40
1.0
  9
$DIMASZ
 40
0.18
  9
$DIMEXO
 40
0.0625
  9
$DIMDLI
 40
0.38
  9
$DIMRND
 40
0.0
  9
$DIMDLE
 40
0.0
  9
$DIMEXE
 40
0.18
  9
$DIMTP
 40
0.0
  9
$DIMTM
 40
0.0
  9
$DIMTXT
 40
0.18
  9
$DIMCEN
 40
0.09
  9
$DIMTSZ
 40
0.0
  9
$DIMTOL
 70
     0
  9
$DIMLIM
 70
     0
  9
$DIMTIH
 70
     1
  9
$DIMTOH
 70
     1
  9
$DIMSE1
 70
     0
  9
$DIMSE2
 70
     0
  9
$DIMTAD
 70
     0
  9
$DIMZIN
 70
     0
  9
$DIMBLK
  1

  9
$DIMASO
 70
     1
  9
$DIMSHO
 70
     1
  9
$DIMPOST
  1

  9
$DIMAPOST
  1

  9
$DIMALT
 70
     0
  9
$DIMALTD
 70
     2
  9
$DIMALTF
 40
25.399999999999999
  9
$DIMLFAC
 40
1.0
  9
$DIMTOFL
 70
     0
  9
$DIMTVP
 40
0.0
  9
$DIMTIX
 70
     0
  9
$DIMSOXD
 70
     0
  9
$DIMSAH
 70
     0
  9
$DIMBLK1
  1

  9
$DIMBLK2
  1

  9
$DIMSTYLE
  2
STANDARD
  9
$DIMCLRD
 70
     0
  9
$DIMCLRE
 70
     0
  9
$DIMCLRT
 70
     0
  9
$DIMTFAC
 40
1.0
  9
$DIMGAP
 40
0.09
  9
$LUNITS
 70
     2
  9
$LUPREC
 70
     4
  9
$SKETCHINC
 40
0.1
  9
$FILLETRAD
 40
0.0
  9
$AUNITS
 70
     0
  9
$AUPREC
 70
     0
  9
$MENU
  1
.
  9
$ELEVATION
 40
0.0
  9
$PELEVATION
 40
0.0
  9
$THICKNESS
 40
0.0
  9
$LIMCHECK
 70
     0
  9
$BLIPMODE
 70
     0
  9
$CHAMFERA
 40
0.0
  9
$CHAMFERB
 40
0.0
  9
$SKPOLY
 70
     0
  9
$TDCREATE
 40
2457105.2334777541
  9
$TDUPDATE
 40
2457620.4974837271
  9
$TDINDWG
 40
0.0658700116
  9
$TDUSRTIMER
 40
0.0658647338
  9
$USRTIMER
 70
     1
  9
$ANGBASE
 50
0.0
  9
$ANGDIR
 70
     0
  9
$PDMODE
 70
     0
  9
$PDSIZE
 40
0.0
  9
$PLINEWID
 40
0.0
  9
$COORDS
 70
     1
  9
$SPLFRAME
 70
     0
  9
$SPLINETYPE
 70
     6
  9
$SPLINESEGS
 70
     8
  9
$ATTDIA
 70
     1
  9
$ATTREQ
 70
     1
  9
$HANDLING
 70
     1
  9
$HANDSEED
  5
576
  9
$SURFTAB1
 70
     6
  9
$SURFTAB2
 70
     6
  9
$SURFTYPE
 70
     6
  9
$SURFU
 70
     6
  9
$SURFV
 70
     6
  9
$UCSNAME
  2

  9
$UCSORG
 10
0.0
 20
0.0
 30
0.0
  9
$UCSXDIR
 10
1.0
 20
0.0
 30
0.0
  9
$UCSYDIR
 10
0.0
 20
1.0
 30
0.0
  9
$PUCSNAME
  2

  9
$PUCSORG
 10
0.0
 20
0.0
 30
0.0
  9
$PUCSXDIR
 10
1.0
 20
0.0
 30
0.0
  9
$PUCSYDIR
 10
0.0
 20
1.0
 30
0.0
  9
$USERI1
 70
     0
  9
$USERI2
 70
     0
  9
$USERI3
 70
     0
  9
$USERI4
 70
     0
  9
$USERI5
 70
     0
  9
$USERR1
 40
0.0
  9
$USERR2
 40
0.0
  9
$USERR3
 40
0.0
  9
$USERR4
 40
0.0
  9
$USERR5
 40
0.0
  9
$WORLDVIEW
 70
     1
  9
$SHADEDGE
 70
     3
  9
$SHADEDIF
 70
    70
  9
$TILEMODE
 70
     1
  9
$MAXACTVP
 70
    64
  9
$PLIMCHECK
 70
     0
  9
$PEXTMIN
 10
0.0
 20
0.0
 30
0.0
  9
$PEXTMAX
 10
0.0
 20
0.0
 30
0.0
  9
$PLIMMIN
 10
0.0
 20
0.0
  9
$PLIMMAX
 10
12.0
 20
9.0
  9
$UNITMODE
 70
     0
  9
$VISRETAIN
 70
     1
  9
$PLINEGEN
 70
     0
  9
$PSLTSCALE
 70
     1
  0
ENDSEC
  0
SECTION
  2
TABLES
  0
TABLE
  2
VPORT
 70
     1
  0
VPORT
  2
*ACTIVE
 70
     0
 10
0.0
 20
0.0
 11
1.0
 21
1.0
 12
721965.73298006167
 22
3418082.1702937749
 13
0.0
 23
0.0
 14
0.5
 24
0.5
 15
0.5
 25
0.5
 16
0.0
 26
0.0
 36
1.0
 17
5.1181586671325601
 27
7.0859848490330393
 37
-0.8446473595225725
 40
30818.663582624871
 41
1.1002570694087399
 42
50.0
 43
0.0
 44
0.0
 50
0.0
 51
0.0
 71
     0
 72
  1000
 73
     1
 74
     3
 75
     0
 76
     0
 77
     0
 78
     0
  0
ENDTAB
  0
TABLE
  2
LTYPE
 70
     1
  0
LTYPE
  2
CONTINUOUS
 70
     0
  3
Solid line
 72
    65
 73
     0
 40
0.0
  0
ENDTAB
  0
TABLE
  2
LAYER
 70
     2
  0
LAYER
  2
0
 70
     0
 62
    -7
  6
CONTINUOUS
  0
LAYER
  2
HAN
 70
     0
 62
   234
  6
CONTINUOUS
  0
ENDTAB
  0
TABLE
  2
STYLE
 70
     1
  0
STYLE
  2
STANDARD
 70
     0
 40
0.0
 41
1.0
 50
0.0
 71
     0
 42
0.2
  3
txt
  4

  0
ENDTAB
  0
TABLE
  2
VIEW
 70
     0
  0
ENDTAB
  0
TABLE
  2
UCS
 70
     0
  0
ENDTAB
  0
TABLE
  2
APPID
 70
     6
  0
APPID
  2
ACAD
 70
     0
  0
APPID
  2
ACAD_NAV_VCDISPLAY
 70
     0
  0
APPID
  2
ADE
 70
     0
  0
APPID
  2
DCO15
 70
     0
  0
APPID
  2
IRD
 70
     0
  0
APPID
  2
ADE_PROJECTION
 70
     0
  0
ENDTAB
  0
TABLE
  2
DIMSTYLE
 70
     1
  0
DIMSTYLE
  2
STANDARD
 70
     0
  3

  4

  5

  6

  7

 40
1.0
 41
0.18
 42
0.0625
 43
0.38
 44
0.18
 45
0.0
 46
0.0
 47
0.0
 48
0.0
140
0.18
141
0.09
142
0.0
143
25.399999999999999
144
1.0
145
0.0
146
1.0
147
0.09
 71
     0
 72
     0
 73
     1
 74
     1
 75
     0
 76
     0
 77
     0
 78
     0
170
     0
171
     2
172
     0
173
     0
174
     0
175
     0
176
     0
177
     0
178
     0
  0
ENDTAB
  0
ENDSEC
  0
SECTION
  2
BLOCKS
  0
BLOCK
  8
0
  2
$MODEL_SPACE
 70
     0
 10
0.0
 20
0.0
 30
0.0
  3
$MODEL_SPACE
  1

  0
ENDBLK
  5
17
  8
0
  0
BLOCK
 67
     1
  8
0
  2
$PAPER_SPACE
 70
     0
 10
0.0
 20
0.0
 30
0.0
  3
$PAPER_SPACE
  1

  0
ENDBLK
  5
1C
 67
     1
  8
0
  0
ENDSEC
  0
SECTION
  2
ENTITIES
  0
POLYLINE
  5
60
  8
HAN
 66
     1
 10
0.0
 20
0.0
 30
3.399999999999999
 70
     1
1001
ADE
1011
-34.529175769421272
1021
0.0
1031
0.0
1021
-0.6784108984284103
1031
0.0
1001
IRD
1002
{
1000
TPMLINK_Unit_topology-_-ade
1070
   515
1071
        5
1004
010097040000440100004401000000000000A4CDF5B596FC7840A4CDF5B596FC78408202000000000000
1002
}
1001
DCO15
1071
        5
1071
        5
1000
unitlink
1004
074132343700
1071
        4
1000
Link
1004
074132343700
  0
VERTEX
  5
116
  8
HAN
 10
721590.44482055656
 20
3414741.7756569092
 30
3.399999999999999
  0
VERTEX
  5
117
  8
HAN
 10
721694.33435231808
 20
3414743.2222683839
 30
3.399999999999999
  0
VERTEX
  5
118
  8
HAN
 10
721688.19359511137
 20
3414842.6793014221
 30
3.399999999999999
  0
VERTEX
  5
119
  8
HAN
 10
721591.85417466995
 20
3414841.6616850742
 30
3.399999999999999
  0
VERTEX
  5
11A
  8
HAN
 10
721590.44482055656
 20
3414741.7756569092
 30
3.399999999999999
  0
SEQEND
  5
11B
  8
HAN
  0
POLYLINE
  5
63
  8
HAN
 66
     1
 10
0.0
 20
0.0
 30
0.1
 70
     1
1001
ADE
1011
-14.4241443403298
1021
0.0
1031
0.0
1021
1.331476780120282
1031
0.0
1001
IRD
1002
{
1000
TPMLINK_Unit_topology-_-ade
1070
   515
1071
        5
1004
0100990400005A0100005A01000000000000AAF6F70270D47840AAF6F70270D478400000000081030000
1002
}
1001
DCO15
1071
        5
1071
        5
1000
unitlink
1004
074132353200
1071
        4
1000
Link
1004
074132353200
  0
VERTEX
  5
11C
  8
HAN
 10
721600.09218502056
 20
3414632.1324837641
 30
0.1
  0
VERTEX
  5
11D
  8
HAN
 10
721748.86293407541
 20
3414640.9817553349
 30
0.1
  0
VERTEX
  5
11E
  8
HAN
 10
721756.22848711908
 20
3414587.9858922092
 30
0.1
  0
VERTEX
  5
11F
  8
HAN
 10
721601.95454581454
 20
3414591.7570586731
 30
0.1
  0
VERTEX
  5
120
  8
HAN
 10
721600.09218502056
 20
3414632.1324837641
 30
0.1
  0
SEQEND
  5
121
  8
HAN
  0
POLYLINE
  5
64
  8
HAN
 66
     1
 10
0.0
 20
0.0
 30
0.6
 70
     1
1001
ADE
1011
-26.257609367487021
1021
0.0
1031
0.0
1021
10.38068440975621
1031
0.0
1001
IRD
1002
{
1000
TPMLINK_Unit_topology-_-ade
1070
   515
1071
        5
1004
01009B0400007B0100007B01000000000000F5D587EE37337440F5D587EE373374400000000085020000
1002
}
1001
DCO15
1071
        5
1071
        5
1000
unitlink
1004
074132353000
1071
        4
1000
Link
1004
074132353000
  0
VERTEX
  5
122
  8
HAN
 10
721690.44185048353
 20
3414485.2066410929
 30
0.6
  0
VERTEX
  5
123
  8
HAN
 10
721695.72692840546
 20
3414581.9699837998
 30
0.6
  0
VERTEX
  5
124
  8
HAN
 10
721756.63115972304
 20
3414582.927740362
 30
0.6
  0
VERTEX
  5
125
  8
HAN
 10
721758.5606326164
 20
3414485.685519374
 30
0.6
  0
VERTEX
  5
126
  8
HAN
 10
721690.44185048353
 20
3414485.2066410929
 30
0.6
  0
SEQEND
  5
127
  8
HAN
  0
POLYLINE
  5
65
  8
HAN
 66
     1
 10
0.0
 20
0.0
 30
0.0096153846153846
 70
     1
1001
ADE
1011
-11.94974890025332
1021
0.0
1031
0.0
1021
5.7995205288752913
1031
0.0
1001
IRD
1002
{
1000
TPMLINK_Unit_topology-_-ade
1070
   515
1071
        5
1004
01009C040000750100007501000000000000D0C5879AAAEE7140D0C5879AAAEE71400000000082030000
1002
}
1001
DCO15
1071
        5
1071
        5
1000
unitlink
1004
074132353100
1071
        4
1000
Link
1004
074132353100
  0
VERTEX
  5
128
  8
HAN
 10
721622.00428587187
 20
3414499.34352702
 30
0.0096153846153846
  0
VERTEX
  5
129
  8
HAN
 10
721620.89693621185
 20
3414591.0686711431
 30
0.0096153846153846
  0
VERTEX
  5
12A
  8
HAN
 10
721676.06308292621
 20
3414586.27988833
 30
0.0096153846153846
  0
VERTEX
  5
12B
  8
HAN
 10
721676.06308292621
 20
3414500.5407227241
 30
0.0096153846153846
  0
VERTEX
  5
12C
  8
HAN
 10
721622.00428587187
 20
3414499.34352702
 30
0.0096153846153846
  0
SEQEND
  5
12D
  8
HAN
  0
POLYLINE
  5
66
  8
HAN
 66
     1
 10
0.0
 20
0.0
 30
0.1636363636363636
 70
     1
1001
ADE
1011
-20.488275369862091
1021
0.0
1031
0.0
1021
6.0818436597473911
1031
0.0
1001
IRD
1002
{
1000
TPMLINK_Unit_topology-_-ade
1070
   515
1071
        5
1004
01009D040000AD010000AD01000000000000E94EC73C2A5E7C40E94EC73C2A5E7C407F02000000000000
1002
}
1001
DCO15
1071
        5
1071
        5
1000
unitlink
1004
074132343300
1071
        4
1000
Link
1004
074132343300
  0
VERTEX
  5
12E
  8
HAN
 10
721506.68891897786
 20
3414249.8978256369
 30
0.1636363636363636
  0
VERTEX
  5
12F
  8
HAN
 10
721508.28283137095
 20
3414128.6418541712
 30
0.1636363636363636
  0
VERTEX
  5
130
  8
HAN
 10
721608.97237363912
 20
3414118.9723245669
 30
0.1636363636363636
  0
VERTEX
  5
131
  8
HAN
 10
721608.68583319895
 20
3414248.4306318839
 30
0.1636363636363636
  0
VERTEX
  5
132
  8
HAN
 10
721506.68891897786
 20
3414249.8978256369
 30
0.1636363636363636
  0
SEQEND
  5
133
  8
HAN
  0
POLYLINE
  5
67
  8
HAN
 66
     1
 10
0.0
 20
0.0
 30
3.2000000000000002
 70
     1
1001
ADE
1011
-26.794506171834659
1021
0.0
1031
0.0
1021
1.8506650258786961
1031
0.0
1001
IRD
1002
{
1000
TPMLINK_Unit_topology-_-ade
1070
   515
1071
        5
1004
01009E040000350100003501000000000000FA9CE762300E7E40FA9CE762300E7E407102000000000000
1002
}
1001
DCO15
1071
        5
1071
        5
1000
unitlink
1004
074132323800
1071
        4
1000
Link
1004
074132323800
  0
VERTEX
  5
134
  8
HAN
 10
721408.85625429824
 20
3414834.1792119299
 30
3.2000000000000002
  0
VERTEX
  5
135
  8
HAN
 10
721519.62477637455
 20
3414842.5994883762
 30
3.2000000000000002
  0
VERTEX
  5
136
  8
HAN
 10
721519.62477637455
 20
3414965.2621647939
 30
3.2000000000000002
  0
VERTEX
  5
137
  8
HAN
 10
721399.22566785652
 20
3414960.4534287192
 30
3.2000000000000002
  0
VERTEX
  5
138
  8
HAN
 10
721408.85625429824
 20
3414834.1792119299
 30
3.2000000000000002
  0
SEQEND
  5
139
  8
HAN
  0
POLYLINE
  5
68
  8
HAN
 66
     1
 10
0.0
 20
0.0
 30
1.7
 70
     1
1001
ADE
1011
-35.770749633898959
1021
0.0
1031
0.0
1021
-0.6597594120539725
1031
0.0
1001
IRD
1002
{
1000
TPMLINK_Unit_topology-_-ade
1070
   515
1071
        5
1004
01009F0400004E0100004E01000000000000E284428B94557E40E284428B94557E407202000000000000
1002
}
1001
DCO15
1071
        5
1071
        5
1000
unitlink
1004
074132323900
1071
        4
1000
Link
1004
074132323900
  0
VERTEX
  5
13A
  8
HAN
 10
721407.57939756045
 20
3414696.214987325
 30
1.7
  0
VERTEX
  5
13B
  8
HAN
 10
721523.45222820644
 20
3414696.289206557
 30
1.7
  0
VERTEX
  5
13C
  8
HAN
 10
721524.49040367058
 20
3414821.0798956119
 30
1.7
  0
VERTEX
  5
13D
  8
HAN
 10
721400.90347037464
 20
3414817.0593133769
 30
1.7
  0
VERTEX
  5
13E
  8
HAN
 10
721407.57939756045
 20
3414696.214987325
 30
1.7
  0
SEQEND
  5
13F
  8
HAN
  0
POLYLINE
  5
69
  8
HAN
 66
     1
 10
0.0
 20
0.0
 30
1.0999999999999981
 70
     1
1001
ADE
1011
-48.79888616502285
1021
0.0
1031
0.0
1021
-6.8090505609288812
1031
0.0
1001
IRD
1002
{
1000
TPMLINK_Unit_topology-_-ade
1070
   515
1071
        5
1004
0100A004000061010000610100000000000001FB3362138F7C4001FB3362138F7C400000000073020000
1002
}
1001
DCO15
1071
        5
1071
        5
1000
unitlink
1004
074132333000
1071
        4
1000
Link
1004
074132333000
  0
VERTEX
  5
140
  8
HAN
 10
721410.24883038551
 20
3414580.174190246
 30
1.0999999999999981
  0
VERTEX
  5
141
  8
HAN
 10
721407.69857056066
 20
3414691.0345123559
 30
1.0999999999999981
  0
VERTEX
  5
142
  8
HAN
 10
721523.80250463623
 20
3414691.8825259809
 30
1.0999999999999981
  0
VERTEX
  5
143
  8
HAN
 10
721532.34251944348
 20
3414584.4441882521
 30
1.0999999999999981
  0
VERTEX
  5
144
  8
HAN
 10
721410.24883038551
 20
3414580.174190246
 30
1.0999999999999981
  0
SEQEND
  5
145
  8
HAN
  0
POLYLINE
  5
6A
  8
HAN
 66
     1
 10
0.0
 20
0.0
 30
0.0769230769230769
 70
     1
1001
ADE
1011
-25.359985021874309
1021
0.0
1031
0.0
1021
2.359473198652267
1031
0.0
1001
IRD
1002
{
1000
TPMLINK_Unit_topology-_-ade
1070
   515
1071
        5
1004
0100A10400008C0100008C010000000000002281B4F51BAC79402281B4F51BAC79407502000000000000
1002
}
1001
DCO15
1071
        5
1071
        5
1000
unitlink
1004
074132333200
1071
        4
1000
Link
1004
074132333200
  0
VERTEX
  5
146
  8
HAN
 10
721509.60829535499
 20
3414408.0673312861
 30
0.0769230769230769
  0
VERTEX
  5
147
  8
HAN
 10
721598.90094523504
 20
3414410.2123069209
 30
0.0769230769230769
  0
VERTEX
  5
148
  8
HAN
 10
721601.97132383659
 20
3414519.7158072349
 30
0.0769230769230769
  0
VERTEX
  5
149
  8
HAN
 10
721505.48090116703
 20
3414523.3273476069
 30
0.0769230769230769
  0
VERTEX
  5
14A
  8
HAN
 10
721509.60829535499
 20
3414408.0673312861
 30
0.0769230769230769
  0
SEQEND
  5
14B
  8
HAN
  0
POLYLINE
  5
6B
  8
HAN
 66
     1
 10
0.0
 20
0.0
 30
0.0897435897435898
 70
     1
1001
ADE
1011
-22.339940493926409
1021
0.0
1031
0.0
1021
1.4466114747337979
1031
0.0
1001
IRD
1002
{
1000
TPMLINK_Unit_topology-_-ade
1070
   515
1071
        5
1004
0100A20400008E0100008E010000000000009A783454E1847C409A783454E1847C407402000000000000
1002
}
1001
DCO15
1071
        5
1071
        5
1000
unitlink
1004
074132333100
1071
        4
1000
Link
1004
074132333100
  0
VERTEX
  5
14C
  8
HAN
 10
721398.75588315364
 20
3414401.792030476
 30
0.0897435897435898
  0
VERTEX
  5
14D
  8
HAN
 10
721503.76954260084
 20
3414409.5538492841
 30
0.0897435897435898
  0
VERTEX
  5
14E
  8
HAN
 10
721500.86694424984
 20
3414525.6419259659
 30
0.0897435897435898
  0
VERTEX
  5
14F
  8
HAN
 10
721393.45402720582
 20
3414529.0938402428
 30
0.0897435897435898
  0
VERTEX
  5
150
  8
HAN
 10
721398.75588315364
 20
3414401.792030476
 30
0.0897435897435898
  0
SEQEND
  5
151
  8
HAN
  0
POLYLINE
  5
6C
  8
HAN
 66
     1
 10
0.0
 20
0.0
 30
0.0851063829787234
 70
     1
1001
ADE
1011
-22.532887783017941
1021
0.0
1031
0.0
1021
-0.1346845175139606
1031
0.0
1001
IRD
1002
{
1000
TPMLINK_Unit_topology-_-ade
1070
   515
1071
        5
1004
0100A3040000A7010000A701000000000000C95FB811B7D47940C95FB811B7D479408002000000000000
1002
}
1001
DCO15
1071
        5
1071
        5
1000
unitlink
1004
074132343400
1071
        4
1000
Link
1004
074132343400
  0
VERTEX
  5
152
  8
HAN
 10
721399.41022613633
 20
3414282.2719927789
 30
0.0851063829787234
  0
VERTEX
  5
153
  8
HAN
 10
721497.31000291952
 20
3414282.2719927789
 30
0.0851063829787234
  0
VERTEX
  5
154
  8
HAN
 10
721503.23264579847
 20
3414387.9544434738
 30
0.0851063829787234
  0
VERTEX
  5
155
  8
HAN
 10
721397.43041916576
 20
3414385.9790705629
 30
0.0851063829787234
  0
VERTEX
  5
156
  8
HAN
 10
721399.41022613633
 20
3414282.2719927789
 30
0.0851063829787234
  0
SEQEND
  5
157
  8
HAN
  0
POLYLINE
  5
6D
  8
HAN
 66
     1
 10
0.0
 20
0.0
 30
0.4905660377358492
 70
     1
1001
ADE
1011
-43.220192801323719
1021
0.0
1031
0.0
1021
1.3967283191159361
1031
0.0
1001
IRD
1002
{
1000
TPMLINK_Unit_topology-_-ade
1070
   515
1071
        5
1004
0100A4040000BF010000BF01000000000000F14452D6ED987D40F14452D6ED987D407E02000000000000
1002
}
1001
DCO15
1071
        5
1071
        5
1000
unitlink
1004
074132343200
1071
        4
1000
Link
1004
074132343200
  0
VERTEX
  5
158
  8
HAN
 10
721386.96093146864
 20
3414010.4487083768
 30
0.4905660377358492
  0
VERTEX
  5
159
  8
HAN
 10
721501.8904037847
 20
3414007.375906073
 30
0.4905660377358492
  0
VERTEX
  5
15A
  8
HAN
 10
721504.96078239032
 20
3414128.3026487208
 30
0.4905660377358492
  0
VERTEX
  5
15B
  8
HAN
 10
721386.50792479143
 20
3414129.6095873639
 30
0.4905660377358492
  0
VERTEX
  5
15C
  8
HAN
 10
721386.96093146864
 20
3414010.4487083768
 30
0.4905660377358492
  0
SEQEND
  5
15D
  8
HAN
  0
POLYLINE
  5
6E
  8
HAN
 66
     1
 10
0.0
 20
0.0
 30
0.0857142857142858
 70
     1
1001
ADE
1011
-13.388864075881431
1021
0.0
1031
0.0
1021
2.5041343457996841
1031
0.0
1001
IRD
1002
{
1000
TPMLINK_Unit_topology-_-ade
1070
   515
1071
        5
1004
0100A50400005001000050010000000000003EB973384E6A76403EB973384E6A76400000000069020000
1002
}
1001
DCO15
1071
        5
1071
        5
1000
unitlink
1004
074132313600
1071
        4
1000
Link
1004
074132313600
  0
VERTEX
  5
15E
  8
HAN
 10
721391.82655876526
 20
3414671.819521321
 30
0.0857142857142858
  0
VERTEX
  5
15F
  8
HAN
 10
721300.58765796933
 20
3414661.5535681662
 30
0.0857142857142858
  0
VERTEX
  5
160
  8
HAN
 10
721303.03393999545
 20
3414752.2140639978
 30
0.0857142857142858
  0
VERTEX
  5
161
  8
HAN
 10
721396.32306950563
 20
3414754.5158145172
 30
0.0857142857142858
  0
VERTEX
  5
162
  8
HAN
 10
721391.82655876526
 20
3414671.819521321
 30
0.0857142857142858
  0
SEQEND
  5
163
  8
HAN
  0
POLYLINE
  5
6F
  8
HAN
 66
     1
 10
0.0
 20
0.0
 30
0.5316455696202533
 70
     1
1001
ADE
1011
-26.69383802078665
1021
0.0
1031
0.0
1021
2.6088889711536449
1031
0.0
1001
IRD
1002
{
1000
TPMLINK_Unit_topology-_-ade
1070
   515
1071
        5
1004
0100A60400004001000040010000000000009097847F905D79409097847F905D79406F02000000000000
1002
}
1001
DCO15
1071
        5
1071
        5
1000
unitlink
1004
074132323600
1071
        4
1000
Link
1004
074132323600
  0
VERTEX
  5
164
  8
HAN
 10
721284.71564617031
 20
3414761.6091990569
 30
0.5316455696202533
  0
VERTEX
  5
165
  8
HAN
 10
721384.49456177279
 20
3414764.6321182079
 30
0.5316455696202533
  0
VERTEX
  5
166
  8
HAN
 10
721387.64883049962
 20
3414863.1613245779
 30
0.5316455696202533
  0
VERTEX
  5
167
  8
HAN
 10
721280.4036937058
 20
3414861.7047364712
 30
0.5316455696202533
  0
VERTEX
  5
168
  8
HAN
 10
721284.71564617031
 20
3414761.6091990569
 30
0.5316455696202533
  0
SEQEND
  5
169
  8
HAN
  0
POLYLINE
  5
70
  8
HAN
 66
     1
 10
0.0
 20
0.0
 30
0.0340909090909091
 70
     1
1001
ADE
1011
-18.25449136854149
1021
0.0
1031
0.0
1021
-1.7409220845438531
1031
0.0
1001
IRD
1002
{
1000
TPMLINK_Unit_topology-_-ade
1070
   515
1071
        5
1004
0100A70400002A0100002A01000000000000F68411B096517440F68411B096517440000000006E020000
1002
}
1001
DCO15
1071
        5
1071
        5
1000
unitlink
1004
074132323500
1071
        4
1000
Link
1004
074132323500
  0
VERTEX
  5
16A
  8
HAN
 10
721291.44363425684
 20
3414956.4128932208
 30
0.0340909090909091
  0
VERTEX
  5
16B
  8
HAN
 10
721322.28164449346
 20
3414961.680554315
 30
0.0340909090909091
  0
VERTEX
  5
16C
  8
HAN
 10
721370.43457669031
 20
3414949.6587141319
 30
0.0340909090909091
  0
VERTEX
  5
16D
  8
HAN
 10
721374.19285432633
 20
3414869.6361580039
 30
0.0340909090909091
  0
VERTEX
  5
16E
  8
HAN
 10
721298.03739814425
 20
3414868.7482378581
 30
0.0340909090909091
  0
VERTEX
  5
16F
  8
HAN
 10
721291.44363425684
 20
3414956.4128932208
 30
0.0340909090909091
  0
SEQEND
  5
170
  8
HAN
  0
POLYLINE
  5
71
  8
HAN
 66
     1
 10
0.0
 20
0.0
 30
0.0454545454545455
 70
     1
1001
ADE
1011
-26.24922035261989
1021
0.0
1031
0.0
1021
8.0710943648591655
1031
0.0
1001
IRD
1002
{
1000
TPMLINK_Unit_topology-_-ade
1070
   515
1071
        5
1004
0100A80400002B0100002B01000000000000725B34DF3BD87240725B34DF3BD87240000000006D020000
1002
}
1001
DCO15
1071
        5
1071
        5
1000
unitlink
1004
074132323400
1071
        4
1000
Link
1004
074132323400
  0
VERTEX
  5
171
  8
HAN
 10
721221.74771776062
 20
3414954.1980811711
 30
0.0454545454545455
  0
VERTEX
  5
172
  8
HAN
 10
721284.9505385235
 20
3414954.1980811711
 30
0.0454545454545455
  0
VERTEX
  5
173
  8
HAN
 10
721294.9837975651
 20
3414871.3920450369
 30
0.0454545454545455
  0
VERTEX
  5
174
  8
HAN
 10
721223.50941040355
 20
3414870.7934471858
 30
0.0454545454545455
  0
VERTEX
  5
175
  8
HAN
 10
721221.74771776062
 20
3414954.1980811711
 30
0.0454545454545455
  0
SEQEND
  5
176
  8
HAN
  0
POLYLINE
  5
72
  8
HAN
 66
     1
 10
0.0
 20
0.0
 30
0.9
 70
     1
1001
ADE
1011
-25.00764649559278
1021
0.0
1031
0.0
1021
-5.9910560459829849
1031
0.0
1001
IRD
1002
{
1000
TPMLINK_Unit_topology-_-ade
1070
   515
1071
        5
1004
0100A90400002901000029010000000000004E895CB0BC8074404E895CB0BC807440000000006C020000
1002
}
1001
DCO15
1071
        5
1071
        5
1000
unitlink
1004
07413232323100
1071
        4
1000
Link
1004
07413232323100
  0
VERTEX
  5
177
  8
HAN
 10
721138.44779953163
 20
3414957.2710619061
 30
0.9
  0
VERTEX
  5
178
  8
HAN
 10
721205.18780693435
 20
3414954.267917587
 30
0.9
  0
VERTEX
  5
179
  8
HAN
 10
721210.79166733485
 20
3414864.7376322532
 30
0.9
  0
VERTEX
  5
17A
  8
HAN
 10
721136.91802257695
 20
3414859.7892233469
 30
0.9
  0
VERTEX
  5
17B
  8
HAN
 10
721138.44779953163
 20
3414957.2710619061
 30
0.9
  0
SEQEND
  5
17C
  8
HAN
  0
POLYLINE
  5
73
  8
HAN
 66
     1
 10
0.0
 20
0.0
 30
1.0
 70
     1
1001
ADE
1011
-28.42197461228352
1021
0.0
1031
0.0
1021
-3.1875335606746358
1031
0.0
1001
IRD
1002
{
1000
TPMLINK_Unit_topology-_-ade
1070
   515
1071
        5
1004
0100AA0400003F0100003F0100000000000053F3F5421BBF764053F3F5421BBF76408702000000000000
1002
}
1001
DCO15
1071
        5
1071
        5
1000
unitlink
1004
07413232323200
1071
        4
1000
Link
1004
07413232323200
  0
VERTEX
  5
17D
  8
HAN
 10
721191.74860878312
 20
3414765.8991503268
 30
1.0
  0
VERTEX
  5
17E
  8
HAN
 10
721280.18557937816
 20
3414762.9660208542
 30
1.0
  0
VERTEX
  5
17F
  8
HAN
 10
721275.30317405984
 20
3414861.0462788339
 30
1.0
  0
VERTEX
  5
180
  8
HAN
 10
721191.26204605412
 20
3414859.090859185
 30
1.0
  0
VERTEX
  5
181
  8
HAN
 10
721191.74860878312
 20
3414765.8991503268
 30
1.0
  0
SEQEND
  5
182
  8
HAN
  0
POLYLINE
  5
74
  8
HAN
 66
     1
 10
0.0
 20
0.0
 30
0.9
 70
     1
1001
ADE
1011
-24.344914503279139
1021
0.0
1031
0.0
1021
3.1077205142937601
1031
0.0
1001
IRD
1002
{
1000
TPMLINK_Unit_topology-_-ade
1070
   515
1071
        5
1004
0100AB040000410100004101000000000000473D82D9AEFB7340473D82D9AEFB7340000000006B020000
1002
}
1001
DCO15
1071
        5
1071
        5
1000
unitlink
1004
074132323100
1071
        4
1000
Link
1004
074132323100
  0
VERTEX
  5
183
  8
HAN
 10
721192.00027916185
 20
3414754.1566558052
 30
0.9
  0
VERTEX
  5
184
  8
HAN
 10
721281.52782139182
 20
3414752.5903247599
 30
0.9
  0
VERTEX
  5
185
  8
HAN
 10
721284.27941751864
 20
3414686.305589329
 30
0.9
  0
VERTEX
  5
186
  8
HAN
 10
721193.96330810338
 20
3414680.8184423568
 30
0.9
  0
VERTEX
  5
187
  8
HAN
 10
721192.00027916185
 20
3414754.1566558052
 30
0.9
  0
SEQEND
  5
188
  8
HAN
  0
POLYLINE
  5
75
  8
HAN
 66
     1
 10
0.0
 20
0.0
 30
1.1999999999999991
 70
     1
1001
ADE
1011
-20.98930946923792
1021
0.0
1031
0.0
1021
1.5613427292555571
1031
0.0
1001
IRD
1002
{
1000
TPMLINK_Unit_topology-_-ade
1070
   515
1071
        5
1004
0100AC0400006201000062010000000000003F8809C5A9A275403F8809C5A9A275400000000067020000
1002
}
1001
DCO15
1071
        5
1071
        5
1000
unitlink
1004
074132313400
1071
        4
1000
Link
1004
074132313400
  0
VERTEX
  5
189
  8
HAN
 10
721300.18498536584
 20
3414580.0045875199
 30
1.1999999999999991
  0
VERTEX
  5
18A
  8
HAN
 10
721301.47689330205
 20
3414659.4085925319
 30
1.1999999999999991
  0
VERTEX
  5
18B
  8
HAN
 10
721390.97087948013
 20
3414668.6669059689
 30
1.1999999999999991
  0
VERTEX
  5
18C
  8
HAN
 10
721391.52455431235
 20
3414583.286899073
 30
1.1999999999999991
  0
VERTEX
  5
18D
  8
HAN
 10
721300.18498536584
 20
3414580.0045875199
 30
1.1999999999999991
  0
SEQEND
  5
18E
  8
HAN
  0
POLYLINE
  5
76
  8
HAN
 66
     1
 10
0.0
 20
0.0
 30
0.3
 70
     1
1001
ADE
1011
-15.41900511656422
1021
0.0
1031
0.0
1021
-6.5845763650722802
1031
0.0
1001
IRD
1002
{
1000
TPMLINK_Unit_topology-_-ade
1070
   515
1071
        5
1004
0100AD0400005201000052010000000000009C3A2729750974409C3A2729750974400000000068020000
1002
}
1001
DCO15
1071
        5
1071
        5
1000
unitlink
1004
074132313500
1071
        4
1000
Link
1004
074132313500
  0
VERTEX
  5
18F
  8
HAN
 10
721218.22433247813
 20
3414663.2895019348
 30
0.3
  0
VERTEX
  5
190
  8
HAN
 10
721298.37295864942
 20
3414661.134549669
 30
0.3
  0
VERTEX
  5
191
  8
HAN
 10
721299.02730162814
 20
3414583.6360811531
 30
0.3
  0
VERTEX
  5
192
  8
HAN
 10
721218.15722037863
 20
3414581.281596269
 30
0.3
  0
VERTEX
  5
193
  8
HAN
 10
721218.22433247813
 20
3414663.2895019348
 30
0.3
  0
SEQEND
  5
194
  8
HAN
  0
POLYLINE
  5
77
  8
HAN
 66
     1
 10
0.0
 20
0.0
 30
1.3
 70
     1
1001
ADE
1011
-16.064959084847931
1021
0.0
1031
0.0
1021
-2.115045741666107
1031
0.0
1001
IRD
1002
{
1000
TPMLINK_Unit_topology-_-ade
1070
   515
1071
        5
1004
0100AE04000053010000530100000000000064FAD8043305724064FAD804330572406A02000000000000
1002
}
1001
DCO15
1071
        5
1071
        5
1000
unitlink
1004
074132313700
1071
        4
1000
Link
1004
074132313700
  0
VERTEX
  5
195
  8
HAN
 10
721217.13376084354
 20
3414658.4209060762
 30
1.3
  0
VERTEX
  5
196
  8
HAN
 10
721158.29322662205
 20
3414653.731889572
 30
1.3
  0
VERTEX
  5
197
  8
HAN
 10
721154.30005663645
 20
3414566.9950608811
 30
1.3
  0
VERTEX
  5
198
  8
HAN
 10
721216.27808156225
 20
3414579.1066907421
 30
1.3
  0
VERTEX
  5
199
  8
HAN
 10
721217.13376084354
 20
3414658.4209060762
 30
1.3
  0
SEQEND
  5
19A
  8
HAN
  0
POLYLINE
  5
78
  8
HAN
 66
     1
 10
0.0
 20
0.0
 30
0.2105263157894737
 70
     1
1001
ADE
1011
-3.2046028038021159
1021
0.0
1031
0.0
1021
12.914748648181551
1031
0.0
1001
IRD
1002
{
1000
TPMLINK_Unit_topology-_-ade
1070
   515
1071
        5
1004
0100AF0400008D0100008D01000000000000CA654386C7D97940CA654386C7D979407602000000000000
1002
}
1001
DCO15
1071
        5
1071
        5
1000
unitlink
1004
074132333300
1071
        4
1000
Link
1004
074132333300
  0
VERTEX
  5
19B
  8
HAN
 10
721320.53672987968
 20
3414403.148852272
 30
0.2105263157894737
  0
VERTEX
  5
19C
  8
HAN
 10
721379.88060485199
 20
3414395.3171970481
 30
0.2105263157894737
  0
VERTEX
  5
19D
  8
HAN
 10
721390.18231229845
 20
3414466.819710419
 30
0.2105263157894737
  0
VERTEX
  5
19E
  8
HAN
 10
721387.22937987
 20
3414506.9856262598
 30
0.2105263157894737
  0
VERTEX
  5
19F
  8
HAN
 10
721292.65165206802
 20
3414511.8143155952
 30
0.2105263157894737
  0
VERTEX
  5
1A0
  8
HAN
 10
721288.07125120214
 20
3414480.477718065
 30
0.2105263157894737
  0
VERTEX
  5
1A1
  8
HAN
 10
721324.99968456873
 20
3414480.9565963461
 30
0.2105263157894737
  0
VERTEX
  5
1A2
  8
HAN
 10
721320.53672987968
 20
3414403.148852272
 30
0.2105263157894737
  0
SEQEND
  5
1A3
  8
HAN
  0
POLYLINE
  5
79
  8
HAN
 66
     1
 10
0.0
 20
0.0
 30
0.4339622641509436
 70
     1
1001
ADE
1011
-34.730512069654651
1021
0.0
1031
0.0
1021
3.631493632681666
1031
0.0
1001
IRD
1002
{
1000
TPMLINK_Unit_topology-_-ade
1070
   515
1071
        5
1004
0100B0040000A9010000A9010000000000006A9CADDFAB267A406A9CADDFAB267A407702000000000000
1002
}
1001
DCO15
1071
        5
1071
        5
1000
unitlink
1004
074132333400
1071
        4
1000
Link
1004
074132333400
  0
VERTEX
  5
1A4
  8
HAN
 10
721286.14177830913
 20
3414276.8646588512
 30
0.4339622641509436
  0
VERTEX
  5
1A5
  8
HAN
 10
721385.65224550664
 20
3414278.5307562058
 30
0.4339622641509436
  0
VERTEX
  5
1A6
  8
HAN
 10
721385.09857067838
 20
3414386.248439597
 30
0.4339622641509436
  0
VERTEX
  5
1A7
  8
HAN
 10
721282.80295130238
 20
3414385.6897482681
 30
0.4339622641509436
  0
VERTEX
  5
1A8
  8
HAN
 10
721286.14177830913
 20
3414276.8646588512
 30
0.4339622641509436
  0
SEQEND
  5
1A9
  8
HAN
  0
POLYLINE
  5
7A
  8
HAN
 66
     1
 10
0.0
 20
0.0
 30
0.1891891891891892
 70
     1
1001
ADE
1011
-44.176540236803689
1021
0.0
1031
0.0
1021
10.9742939453572
1031
0.0
1001
IRD
1002
{
1000
TPMLINK_Unit_topology-_-ade
1070
   515
1071
        5
1004
0100B1040000B8010000B80100000000000017B2D027E29E7C4017B2D027E29E7C407802000000000000
1002
}
1001
DCO15
1071
        5
1071
        5
1000
unitlink
1004
074132333500
1071
        4
1000
Link
1004
074132333500
  0
VERTEX
  5
1AA
  8
HAN
 10
721267.71950668842
 20
3414144.843902688
 30
0.1891891891891892
  0
VERTEX
  5
1AB
  8
HAN
 10
721382.54831085366
 20
3414147.0786680002
 30
0.1891891891891892
  0
VERTEX
  5
1AC
  8
HAN
 10
721384.7965662257
 20
3414259.6948771421
 30
0.1891891891891892
  0
VERTEX
  5
1AD
  8
HAN
 10
721268.79330029711
 20
3414259.2758586458
 30
0.1891891891891892
  0
VERTEX
  5
1AE
  8
HAN
 10
721267.71950668842
 20
3414144.843902688
 30
0.1891891891891892
  0
SEQEND
  5
1AF
  8
HAN
  0
POLYLINE
  5
7B
  8
HAN
 66
     1
 10
0.0
 20
0.0
 30
1.1999999999999991
 70
     1
1001
ADE
1011
-40.183370249345899
1021
0.0
1031
0.0
1021
3.6564352107234281
1031
0.0
1001
IRD
1002
{
1000
TPMLINK_Unit_topology-_-ade
1070
   515
1071
        5
1004
0100B2040000BE010000BE0100000000000022CF26A569227D4022CF26A569227D407902000000000000
1002
}
1001
DCO15
1071
        5
1071
        5
1000
unitlink
1004
074132333600
1071
        4
1000
Link
1004
074132333600
  0
VERTEX
  5
1B0
  8
HAN
 10
721267.45105828706
 20
3414018.1805972941
 30
1.1999999999999991
  0
VERTEX
  5
1B1
  8
HAN
 10
721382.06174812454
 20
3414011.3964883089
 30
1.1999999999999991
  0
VERTEX
  5
1B2
  8
HAN
 10
721381.6087414436
 20
3414132.0837918171
 30
1.1999999999999991
  0
VERTEX
  5
1B3
  8
HAN
 10
721265.32024909183
 20
3414132.522763575
 30
1.1999999999999991
  0
VERTEX
  5
1B4
  8
HAN
 10
721267.45105828706
 20
3414018.1805972941
 30
1.1999999999999991
  0
SEQEND
  5
1B5
  8
HAN
  0
POLYLINE
  5
7C
  8
HAN
 66
     1
 10
0.0
 20
0.0
 30
2.0
 70
     1
1001
ADE
1011
-37.993837965768762
1021
0.0
1031
0.0
1021
10.0015724375844
1031
0.0
1001
IRD
1002
{
1000
TPMLINK_Unit_topology-_-ade
1070
   515
1071
        5
1004
0100B3040000C2010000C2010000000000003D6194CDF72F79403D6194CDF72F7940000000007D020000
1002
}
1001
DCO15
1071
        5
1071
        5
1000
unitlink
1004
074132343100
1071
        4
1000
Link
1004
074132343100
  0
VERTEX
  5
1B6
  8
HAN
 10
721263.40755422437
 20
3413924.9290286489
 30
2.0
  0
VERTEX
  5
1B7
  8
HAN
 10
721268.74296622386
 20
3414007.824854461
 30
2.0
  0
VERTEX
  5
1B8
  8
HAN
 10
721387.31326999865
 20
3414003.0560249109
 30
2.0
  0
VERTEX
  5
1B9
  8
HAN
 10
721376.10554919392
 20
3413915.5909021641
 30
2.0
  0
VERTEX
  5
1BA
  8
HAN
 10
721263.40755422437
 20
3413924.9290286489
 30
2.0
  0
SEQEND
  5
1BB
  8
HAN
  0
POLYLINE
  5
7D
  8
HAN
 66
     1
 10
0.0
 20
0.0
 30
1.3132653061224471
 70
     1
1001
ADE
1011
-38.311049125390127
1021
0.0
1031
0.0
1021
18.795334957540032
1031
0.0
1001
IRD
1002
{
1000
TPMLINK_Unit_topology-_-ade
1070
   515
1071
        5
1004
0100B40400006C0100006C01000000000000F908306237957540F9083062379575400000000046020000
1002
}
1001
DCO15
1071
        5
1071
        5
1000
unitlink
1004
074131383100
1071
        4
1000
Link
1004
074131383100
  0
VERTEX
  5
1BC
  8
HAN
 10
721180.1854068212
 20
3414515.4869909179
 30
1.3132653061224471
  0
VERTEX
  5
1BD
  8
HAN
 10
721277.16553485033
 20
3414514.7574216989
 30
1.3132653061224471
  0
VERTEX
  5
1BE
  8
HAN
 10
721287.1484598181
 20
3414509.4099475569
 30
1.3132653061224471
  0
VERTEX
  5
1BF
  8
HAN
 10
721281.09159273666
 20
3414429.2676718631
 30
1.3132653061224471
  0
VERTEX
  5
1C0
  8
HAN
 10
721253.97830408451
 20
3414444.2226415221
 30
1.3132653061224471
  0
VERTEX
  5
1C1
  8
HAN
 10
721232.44134868577
 20
3414456.101853915
 30
1.3132653061224471
  0
VERTEX
  5
1C2
  8
HAN
 10
721205.82537189161
 20
3414465.2434027418
 30
1.3132653061224471
  0
VERTEX
  5
1C3
  8
HAN
 10
721180.66518385825
 20
3414467.8377781441
 30
1.3132653061224471
  0
VERTEX
  5
1C4
  8
HAN
 10
721180.1854068212
 20
3414515.4869909179
 30
1.3132653061224471
  0
SEQEND
  5
1C5
  8
HAN
  0
POLYLINE
  5
7E
  8
HAN
 66
     1
 10
0.0
 20
0.0
 30
0.2631578947368421
 70
     1
1001
ADE
1011
-39.87297678401228
1021
0.0
1031
0.0
1021
5.551995074376463
1031
0.0
1001
IRD
1002
{
1000
TPMLINK_Unit_topology-_-ade
1070
   515
1071
        5
1004
0100B50400008F0100008F0100000000000053A8B0B96985734053A8B0B9698573400000000045020000
1002
}
1001
DCO15
1071
        5
1071
        5
1000
unitlink
1004
074131383000
1071
        4
1000
Link
1004
074131383000
  0
VERTEX
  5
1C6
  8
HAN
 10
721276.59508199629
 20
3414389.121709283
 30
0.2631578947368421
  0
VERTEX
  5
1C7
  8
HAN
 10
721176.98394664773
 20
3414386.8669907101
 30
0.2631578947368421
  0
VERTEX
  5
1C8
  8
HAN
 10
721180.5576660037
 20
3414465.4728652518
 30
0.2631578947368421
  0
VERTEX
  5
1C9
  8
HAN
 10
721213.17414690903
 20
3414457.8207893842
 30
0.2631578947368421
  0
VERTEX
  5
1CA
  8
HAN
 10
721246.91475549713
 20
3414435.163860702
 30
0.2631578947368421
  0
VERTEX
  5
1CB
  8
HAN
 10
721269.631896607
 20
3414419.9092263728
 30
0.2631578947368421
  0
VERTEX
  5
1CC
  8
HAN
 10
721276.4105237202
 20
3414407.3988970178
 30
0.2631578947368421
  0
VERTEX
  5
1CD
  8
HAN
 10
721276.59508199629
 20
3414389.121709283
 30
0.2631578947368421
  0
SEQEND
  5
1CE
  8
HAN
  0
POLYLINE
  5
7F
  8
HAN
 66
     1
 10
0.0
 20
0.0
 30
0.2258064516129032
 70
     1
1001
ADE
1011
-34.185226254048771
1021
0.0
1031
0.0
1021
5.7615043222904188
1031
0.0
1001
IRD
1002
{
1000
TPMLINK_Unit_topology-_-ade
1070
   515
1071
        5
1004
0100B6040000A1010000A101000000000000D31D604E68487640D31D604E684876404402000000000000
1002
}
1001
DCO15
1071
        5
1071
        5
1000
unitlink
1004
074131373900
1071
        4
1000
Link
1004
074131373900
  0
VERTEX
  5
1CF
  8
HAN
 10
721170.39018275973
 20
3414313.9777256488
 30
0.2258064516129032
  0
VERTEX
  5
1D0
  8
HAN
 10
721279.06145169225
 20
3414308.0915134419
 30
0.2258064516129032
  0
VERTEX
  5
1D1
  8
HAN
 10
721274.39716070145
 20
3414386.956780388
 30
0.2258064516129032
  0
VERTEX
  5
1D2
  8
HAN
 10
721176.17860144004
 20
3414384.173300378
 30
0.2258064516129032
  0
VERTEX
  5
1D3
  8
HAN
 10
721170.39018275973
 20
3414313.9777256488
 30
0.2258064516129032
  0
SEQEND
  5
1D4
  8
HAN
  0
POLYLINE
  5
80
  8
HAN
 66
     1
 10
0.0
 20
0.0
 30
0.0454545454545455
 70
     1
1001
ADE
1011
-30.35144750576001
1021
0.0
1031
0.0
1021
-2.4887748030014318
1031
0.0
1001
IRD
1002
{
1000
TPMLINK_Unit_topology-_-ade
1070
   515
1071
        5
1004
0100B7040000A6010000A6010000000000007C94954832C376407C94954832C376404302000000000000
1002
}
1001
DCO15
1071
        5
1071
        5
1000
unitlink
1004
074131373800
1071
        4
1000
Link
1004
074131373800
  0
VERTEX
  5
1D5
  8
HAN
 10
721152.11891336774
 20
3414303.0832447498
 30
0.0454545454545455
  0
VERTEX
  5
1D6
  8
HAN
 10
721150.05521627143
 20
3414225.5049631861
 30
0.0454545454545455
  0
VERTEX
  5
1D7
  8
HAN
 10
721252.01042090484
 20
3414220.2065830091
 30
0.0454545454545455
  0
VERTEX
  5
1D8
  8
HAN
 10
721255.48832634825
 20
3414301.2475446728
 30
0.0454545454545455
  0
VERTEX
  5
1D9
  8
HAN
 10
721152.11891336774
 20
3414303.0832447498
 30
0.0454545454545455
  0
SEQEND
  5
1DA
  8
HAN
  0
POLYLINE
  5
81
  8
HAN
 66
     1
 10
0.0
 20
0.0
 30
0.078125
 70
     1
1001
ADE
1011
-18.50167374452576
1021
0.0
1031
0.0
1021
10.421312349848449
1031
0.0
1001
IRD
1002
{
1000
TPMLINK_Unit_topology-_-ade
1070
   515
1071
        5
1004
0100B8040000B0010000B00100000000000022AD10AEFA6D764022AD10AEFA6D76400000000042020000
1002
}
1001
DCO15
1071
        5
1071
        5
1000
unitlink
1004
074131373700
1071
        4
1000
Link
1004
074131373700
  0
VERTEX
  5
1DB
  8
HAN
 10
721149.50154144294
 20
3414222.6716000228
 30
0.078125
  0
VERTEX
  5
1DC
  8
HAN
 10
721252.03205316875
 20
3414218.321788969
 30
0.078125
  0
VERTEX
  5
1DD
  8
HAN
 10
721252.96264656913
 20
3414137.240267138
 30
0.078125
  0
VERTEX
  5
1DE
  8
HAN
 10
721143.37756226223
 20
3414159.659199514
 30
0.078125
  0
VERTEX
  5
1DF
  8
HAN
 10
721149.50154144294
 20
3414222.6716000228
 30
0.078125
  0
SEQEND
  5
1E0
  8
HAN
  0
POLYLINE
  5
82
  8
HAN
 66
     1
 10
0.0
 20
0.0
 30
0.1145833333333333
 70
     1
1001
ADE
1011
-28.723979066940959
1021
0.0
1031
0.0
1021
-12.216384486760941
1031
0.0
1001
IRD
1002
{
1000
TPMLINK_Unit_topology-_-ade
1070
   515
1071
        5
1004
0100B9040000B7010000B70100000000000066472B9639A9754066472B9639A975400000000041020000
1002
}
1001
DCO15
1071
        5
1071
        5
1000
unitlink
1004
074131373600
1071
        4
1000
Link
1004
074131373600
  0
VERTEX
  5
1E1
  8
HAN
 10
721147.3203981705
 20
3414156.0277058799
 30
0.1145833333333333
  0
VERTEX
  5
1E2
  8
HAN
 10
721252.98840060085
 20
3414133.5204266608
 30
0.1145833333333333
  0
VERTEX
  5
1E3
  8
HAN
 10
721253.34073913086
 20
3414082.6296326462
 30
0.1145833333333333
  0
VERTEX
  5
1E4
  8
HAN
 10
721139.28372412187
 20
3414082.8790484178
 30
0.1145833333333333
  0
VERTEX
  5
1E5
  8
HAN
 10
721147.3203981705
 20
3414156.0277058799
 30
0.1145833333333333
  0
SEQEND
  5
1E6
  8
HAN
  0
POLYLINE
  5
83
  8
HAN
 66
     1
 10
0.0
 20
0.0
 30
1.1000000000000001
 70
     1
1001
ADE
1011
-26.571954802260741
1021
0.0
1031
0.0
1021
-6.0159084107726812
1031
0.0
1001
IRD
1002
{
1000
TPMLINK_Unit_topology-_-ade
1070
   515
1071
        5
1004
0100BA040000BD010000BD0100000000000064E0E1FA7B8D764064E0E1FA7B8D7640000000007A020000
1002
}
1001
DCO15
1071
        5
1071
        5
1000
unitlink
1004
074132333700
1071
        4
1000
Link
1004
074132333700
  0
VERTEX
  5
1E7
  8
HAN
 10
721143.0163496444
 20
3414073.327202417
 30
1.1000000000000001
  0
VERTEX
  5
1E8
  8
HAN
 10
721253.29040505365
 20
3414079.8661058992
 30
1.1000000000000001
  0
VERTEX
  5
1E9
  8
HAN
 10
721260.63918007177
 20
3414007.0766071482
 30
1.1000000000000001
  0
VERTEX
  5
1EA
  8
HAN
 10
721145.63771364535
 20
3414011.2439750531
 30
1.1000000000000001
  0
VERTEX
  5
1EB
  8
HAN
 10
721143.0163496444
 20
3414073.327202417
 30
1.1000000000000001
  0
SEQEND
  5
1EC
  8
HAN
  0
POLYLINE
  5
84
  8
HAN
 66
     1
 10
0.0
 20
0.0
 30
2.0999999999999992
 70
     1
1001
ADE
1011
-36.01403099519667
1021
0.0
1031
0.0
1021
5.3125559338368467
1031
0.0
1001
IRD
1002
{
1000
TPMLINK_Unit_topology-_-ade
1070
   515
1071
        5
1004
0100BB040000C1010000C101000000000000906D67AC34217640906D67AC342176407B02000000000000
1002
}
1001
DCO15
1071
        5
1071
        5
1000
unitlink
1004
074132333800
1071
        4
1000
Link
1004
074132333800
  0
VERTEX
  5
1ED
  8
HAN
 10
721148.67941820994
 20
3413939.205587409
 30
2.0999999999999992
  0
VERTEX
  5
1EE
  8
HAN
 10
721254.04541618738
 20
3413933.5189078189
 30
2.0999999999999992
  0
VERTEX
  5
1EF
  8
HAN
 10
721257.6191355437
 20
3414002.497333583
 30
2.0999999999999992
  0
VERTEX
  5
1F0
  8
HAN
 10
721145.82715393254
 20
3414006.7573549598
 30
2.0999999999999992
  0
VERTEX
  5
1F1
  8
HAN
 10
721148.67941820994
 20
3413939.205587409
 30
2.0999999999999992
  0
SEQEND
  5
1F2
  8
HAN
  0
POLYLINE
  5
85
  8
HAN
 66
     1
 10
0.0
 20
0.0
 30
0.0576923076923077
 70
     1
1001
ADE
1011
-30.152357098879289
1021
0.0
1031
0.0
1021
-0.9270741562359036
1031
0.0
1001
IRD
1002
{
1000
TPMLINK_Unit_topology-_-ade
1070
   515
1071
        5
1004
0100BC040000BC010000BC01000000000000EA97FD5AB8667740EA97FD5AB86677400000000040020000
1002
}
1001
DCO15
1071
        5
1071
        5
1000
unitlink
1004
074131373500
1071
        4
1000
Link
1004
074131373500
  0
VERTEX
  5
1F3
  8
HAN
 10
721022.25699866191
 20
3414085.6226219051
 30
0.0576923076923077
  0
VERTEX
  5
1F4
  8
HAN
 10
721032.81993645686
 20
3414168.2276203972
 30
0.0576923076923077
  0
VERTEX
  5
1F5
  8
HAN
 10
721136.41917361191
 20
3414160.6845026119
 30
0.0576923076923077
  0
VERTEX
  5
1F6
  8
HAN
 10
721132.79062838841
 20
3414084.0463142288
 30
0.0576923076923077
  0
VERTEX
  5
1F7
  8
HAN
 10
721022.25699866191
 20
3414085.6226219051
 30
0.0576923076923077
  0
SEQEND
  5
1F8
  8
HAN
  0
POLYLINE
  5
86
  8
HAN
 66
     1
 10
0.0
 20
0.0
 30
0.0462962962962963
 70
     1
1001
ADE
1011
-28.212249299394909
1021
0.0
1031
0.0
1021
10.485439034178841
1031
0.0
1001
IRD
1002
{
1000
TPMLINK_Unit_topology-_-ade
1070
   515
1071
        5
1004
0100BE040000A4010000A401000000000000B5AC6C14D0BB7540B5AC6C14D0BB75403E02000000000000
1002
}
1001
DCO15
1071
        5
1071
        5
1000
unitlink
1004
074131373300
1071
        4
1000
Link
1004
074131373300
  0
VERTEX
  5
1F9
  8
HAN
 10
721041.16583301127
 20
3414304.9089681972
 30
0.0462962962962963
  0
VERTEX
  5
1FA
  8
HAN
 10
721038.41423688841
 20
3414232.3190020639
 30
0.0462962962962963
  0
VERTEX
  5
1FB
  8
HAN
 10
721139.61928462633
 20
3414228.6476019081
 30
0.0462962962962963
  0
VERTEX
  5
1FC
  8
HAN
 10
721140.54207601014
 20
3414303.0732681188
 30
0.0462962962962963
  0
VERTEX
  5
1FD
  8
HAN
 10
721041.16583301127
 20
3414304.9089681972
 30
0.0462962962962963
  0
SEQEND
  5
1FE
  8
HAN
  0
POLYLINE
  5
87
  8
HAN
 66
     1
 10
0.0
 20
0.0
 30
0.16
 70
     1
1001
ADE
1011
-22.54966580867767
1021
0.0
1031
0.0
1021
-3.3371830238029361
1031
0.0
1001
IRD
1002
{
1000
TPMLINK_Unit_topology-_-ade
1070
   515
1071
        5
1004
0100BF040000A0010000A001000000000000A4A0DFC2F5677140A4A0DFC2F56771400000000049020000
1002
}
1001
DCO15
1071
        5
1071
        5
1000
unitlink
1004
074131383400
1071
        4
1000
Link
1004
074131383400
  0
VERTEX
  5
1FF
  8
HAN
 10
721077.00369474653
 20
3414314.3468609918
 30
0.16
  0
VERTEX
  5
200
  8
HAN
 10
721081.24853510794
 20
3414366.9835654069
 30
0.16
  0
VERTEX
  5
201
  8
HAN
 10
721169.04794074979
 20
3414368.0710181701
 30
0.16
  0
VERTEX
  5
202
  8
HAN
 10
721161.36360522732
 20
3414315.1050849371
 30
0.16
  0
VERTEX
  5
203
  8
HAN
 10
721077.00369474653
 20
3414314.3468609918
 30
0.16
  0
SEQEND
  5
204
  8
HAN
  0
POLYLINE
  5
88
  8
HAN
 66
     1
 10
0.0
 20
0.0
 30
0.5
 70
     1
1001
ADE
1011
-25.880103800445792
1021
0.0
1031
0.0
1021
3.287299870047717
1031
0.0
1001
IRD
1002
{
1000
TPMLINK_Unit_topology-_-ade
1070
   515
1071
        5
1004
0100C0040000940100009401000000000000D857D918F7D07140D857D918F7D071400000000048020000
1002
}
1001
DCO15
1071
        5
1071
        5
1000
unitlink
1004
074131383300
1071
        4
1000
Link
1004
074131383300
  0
VERTEX
  5
205
  8
HAN
 10
721079.85595902056
 20
3414374.1168564721
 30
0.5
  0
VERTEX
  5
206
  8
HAN
 10
721081.71831981454
 20
3414427.0628364421
 30
0.5
  0
VERTEX
  5
207
  8
HAN
 10
721172.85655245953
 20
3414427.0628364421
 30
0.5
  0
VERTEX
  5
208
  8
HAN
 10
721170.07140028465
 20
3414376.4414114621
 30
0.5
  0
VERTEX
  5
209
  8
HAN
 10
721079.85595902056
 20
3414374.1168564721
 30
0.5
  0
SEQEND
  5
20A
  8
HAN
  0
POLYLINE
  5
89
  8
HAN
 66
     1
 10
0.0
 20
0.0
 30
0.8181818181818181
 70
     1
1001
ADE
1011
-21.02286552300211
1021
0.0
1031
0.0
1021
5.8213641070760769
1031
0.0
1001
IRD
1002
{
1000
TPMLINK_Unit_topology-_-ade
1070
   515
1071
        5
1004
0100C10400006F0100006F0100000000000007189BDCDE14754007189BDCDE1475400000000047020000
1002
}
1001
DCO15
1071
        5
1071
        5
1000
unitlink
1004
074131383200
1071
        4
1000
Link
1004
074131383200
  0
VERTEX
  5
20B
  8
HAN
 10
721085.67793374904
 20
3414511.4950634092
 30
0.8181818181818181
  0
VERTEX
  5
20C
  8
HAN
 10
721178.32618866081
 20
3414512.2532873531
 30
0.8181818181818181
  0
VERTEX
  5
20D
  8
HAN
 10
721176.04437723744
 20
3414437.1591868741
 30
0.8181818181818181
  0
VERTEX
  5
20E
  8
HAN
 10
721079.60428864532
 20
3414438.6756347641
 30
0.8181818181818181
  0
VERTEX
  5
20F
  8
HAN
 10
721085.67793374904
 20
3414511.4950634092
 30
0.8181818181818181
  0
SEQEND
  5
210
  8
HAN
  0
POLYLINE
  5
8A
  8
HAN
 66
     1
 10
0.0
 20
0.0
 30
0.09375
 70
     1
1001
ADE
1011
-19.34506300301291
1021
0.0
1031
0.0
1021
-1.546377783641218
1031
0.0
1001
IRD
1002
{
1000
TPMLINK_Unit_topology-_-ade
1070
   515
1071
        5
1004
0100C2040000560100005601000000000000CF00C442272E7240CF00C442272E72406602000000000000
1002
}
1001
DCO15
1071
        5
1071
        5
1000
unitlink
1004
074132313300
1071
        4
1000
Link
1004
074132313300
  0
VERTEX
  5
211
  8
HAN
 10
721092.50658999023
 20
3414653.3428009711
 30
0.09375
  0
VERTEX
  5
212
  8
HAN
 10
721091.75157885626
 20
3414569.8982604598
 30
0.09375
  0
VERTEX
  5
213
  8
HAN
 10
721152.50480794546
 20
3414566.8653646782
 30
0.09375
  0
VERTEX
  5
214
  8
HAN
 10
721155.54163049906
 20
3414650.3099051882
 30
0.09375
  0
VERTEX
  5
215
  8
HAN
 10
721092.50658999023
 20
3414653.3428009711
 30
0.09375
  0
SEQEND
  5
216
  8
HAN
  0
POLYLINE
  5
8B
  8
HAN
 66
     1
 10
0.0
 20
0.0
 30
1.5
 70
     1
1001
ADE
1011
-12.50143807579297
1021
0.0
1031
0.0
1021
-6.9587000231258571
1031
0.0
1001
IRD
1002
{
1000
TPMLINK_Unit_topology-_-ade
1070
   515
1071
        5
1004
0100C3040000420100004201000000000000A25CF597BFB17140A25CF597BFB171406502000000000000
1002
}
1001
DCO15
1071
        5
1071
        5
1000
unitlink
1004
074132313200
1071
        4
1000
Link
1004
074132313200
  0
VERTEX
  5
217
  8
HAN
 10
721069.50391750038
 20
3414745.86607556
 30
1.5
  0
VERTEX
  5
218
  8
HAN
 10
721135.12639255496
 20
3414750.7085129078
 30
1.5
  0
VERTEX
  5
219
  8
HAN
 10
721132.3879557848
 20
3414822.955502212
 30
1.5
  0
VERTEX
  5
21A
  8
HAN
 10
721061.73569185287
 20
3414819.7430270761
 30
1.5
  0
VERTEX
  5
21B
  8
HAN
 10
721069.50391750038
 20
3414745.86607556
 30
1.5
  0
SEQEND
  5
21C
  8
HAN
  0
POLYLINE
  5
8C
  8
HAN
 66
     1
 10
0.0
 20
0.0
 30
0.7
 70
     1
1001
ADE
1011
-24.646918954094868
1021
0.0
1031
0.0
1021
-1.4696571878157541
1031
0.0
1001
IRD
1002
{
1000
TPMLINK_Unit_topology-_-ade
1070
   515
1071
        5
1004
0100C40400003701000037010000000000001BD2FF51E8E870401BD2FF51E8E870400000000064020000
1002
}
1001
DCO15
1071
        5
1071
        5
1000
unitlink
1004
074132313100
1071
        4
1000
Link
1004
074132313100
  0
VERTEX
  5
21D
  8
HAN
 10
721063.54375248426
 20
3414823.011570272
 30
0.7
  0
VERTEX
  5
21E
  8
HAN
 10
721062.33970075846
 20
3414889.4297936298
 30
0.7
  0
VERTEX
  5
21F
  8
HAN
 10
721135.15632993344
 20
3414888.1029017251
 30
0.7
  0
VERTEX
  5
220
  8
HAN
 10
721132.79062838841
 20
3414826.1679773498
 30
0.7
  0
VERTEX
  5
221
  8
HAN
 10
721063.54375248426
 20
3414823.011570272
 30
0.7
  0
SEQEND
  5
222
  8
HAN
  0
POLYLINE
  5
8D
  8
HAN
 66
     1
 10
0.0
 20
0.0
 30
2.0
 70
     1
1001
ADE
1011
-21.165478734299541
1021
0.0
1031
0.0
1021
-0.443960072938353
1031
0.0
1001
IRD
1002
{
1000
TPMLINK_Unit_topology-_-ade
1070
   515
1071
        5
1004
0100C5040000280100002801000000000000385614210B2D7140385614210B2D71407002000000000000
1002
}
1001
DCO15
1071
        5
1071
        5
1000
unitlink
1004
074132323300
1071
        4
1000
Link
1004
074132323300
  0
VERTEX
  5
223
  8
HAN
 10
721061.73569185287
 20
3414959.1863966011
 30
2.0
  0
VERTEX
  5
224
  8
HAN
 10
721062.62492718559
 20
3414892.2132736412
 30
2.0
  0
VERTEX
  5
225
  8
HAN
 10
721132.37117775914
 20
3414890.876405105
 30
2.0
  0
VERTEX
  5
226
  8
HAN
 10
721133.26041309151
 20
3414957.400579676
 30
2.0
  0
VERTEX
  5
227
  8
HAN
 10
721061.73569185287
 20
3414959.1863966011
 30
2.0
  0
SEQEND
  5
228
  8
HAN
  0
POLYLINE
  5
8E
  8
HAN
 66
     1
 10
0.0
 20
0.0
 30
0.7
 70
     1
1001
ADE
1011
-15.603563394513911
1021
0.0
1031
0.0
1021
-2.3744381447322662
1031
0.0
1001
IRD
1002
{
1000
TPMLINK_Unit_topology-_-ade
1070
   515
1071
        5
1004
0100C6040000330100003301000000000000F2F0C2E8D8F97140F2F0C2E8D8F971400000000063020000
1002
}
1001
DCO15
1071
        5
1071
        5
1000
unitlink
1004
074132313000
1071
        4
1000
Link
1004
074132313000
  0
VERTEX
  5
229
  8
HAN
 10
720975.27852822852
 20
3414884.5611977722
 30
0.7
  0
VERTEX
  5
22A
  8
HAN
 10
721050.34341277194
 20
3414890.2478773608
 30
0.7
  0
VERTEX
  5
22B
  8
HAN
 10
721051.28298218187
 20
3414821.997745649
 30
0.7
  0
VERTEX
  5
22C
  8
HAN
 10
720971.5202505925
 20
3414820.3715548199
 30
0.7
  0
VERTEX
  5
22D
  8
HAN
 10
720975.27852822852
 20
3414884.5611977722
 30
0.7
  0
SEQEND
  5
22E
  8
HAN
  0
POLYLINE
  5
8F
  8
HAN
 66
     1
 10
0.0
 20
0.0
 30
0.7
 70
     1
1001
ADE
1011
-27.48240520618856
1021
0.0
1031
0.0
1021
6.7990739289671183
1031
0.0
1001
IRD
1002
{
1000
TPMLINK_Unit_topology-_-ade
1070
   515
1071
        5
1004
0100C70400003A0100003A01000000000000F8C702E90FEF7340F8C702E90FEF73406202000000000000
1002
}
1001
DCO15
1071
        5
1071
        5
1000
unitlink
1004
074132303900
1071
        4
1000
Link
1004
074132303900
  0
VERTEX
  5
22F
  8
HAN
 10
720971.41958244145
 20
3414818.795247145
 30
0.7
  0
VERTEX
  5
230
  8
HAN
 10
720971.82225504552
 20
3414740.917666656
 30
0.7
  0
VERTEX
  5
231
  8
HAN
 10
721056.55128208175
 20
3414745.0280385688
 30
0.7
  0
VERTEX
  5
232
  8
HAN
 10
721052.6923362948
 20
3414819.8826999092
 30
0.7
  0
VERTEX
  5
233
  8
HAN
 10
720971.41958244145
 20
3414818.795247145
 30
0.7
  0
SEQEND
  5
234
  8
HAN
  0
POLYLINE
  5
90
  8
HAN
 66
     1
 10
0.0
 20
0.0
 30
1.3
 70
     1
1001
ADE
1011
-24.08485511131585
1021
0.0
1031
0.0
1021
-12.9347019107081
1031
0.0
1001
IRD
1002
{
1000
TPMLINK_Unit_topology-_-ade
1070
   515
1071
        5
1004
0100C8040000470100004701000000000000A770A2B124C77540A770A2B124C775406102000000000000
1002
}
1001
DCO15
1071
        5
1071
        5
1000
unitlink
1004
074132303800
1071
        4
1000
Link
1004
074132303800
  0
VERTEX
  5
235
  8
HAN
 10
720974.10406646505
 20
3414736.707528431
 30
1.3
  0
VERTEX
  5
236
  8
HAN
 10
720969.55722164735
 20
3414652.2653248371
 30
1.3
  0
VERTEX
  5
237
  8
HAN
 10
721058.83309350139
 20
3414653.9314221889
 30
1.3
  0
VERTEX
  5
238
  8
HAN
 10
721060.44378391653
 20
3414742.0051194192
 30
1.3
  0
VERTEX
  5
239
  8
HAN
 10
720974.10406646505
 20
3414736.707528431
 30
1.3
  0
SEQEND
  5
23A
  8
HAN
  0
POLYLINE
  5
91
  8
HAN
 66
     1
 10
0.0
 20
0.0
 30
2.7000000000000002
 70
     1
1001
ADE
1011
-34.009056991199031
1021
0.0
1031
0.0
1021
-6.1406162939965707
1031
0.0
1001
IRD
1002
{
1000
TPMLINK_Unit_topology-_-ade
1070
   515
1071
        5
1004
0100C9040000570100005701000000000000D302716AC6967540D302716AC69675400000000060020000
1002
}
1001
DCO15
1071
        5
1071
        5
1000
unitlink
1004
074132303700
1071
        4
1000
Link
1004
074132303700
  0
VERTEX
  5
23B
  8
HAN
 10
720963.61012988165
 20
3414646.0468237582
 30
2.7000000000000002
  0
VERTEX
  5
23C
  8
HAN
 10
721079.10094789066
 20
3414652.365091145
 30
2.7000000000000002
  0
VERTEX
  5
23D
  8
HAN
 10
721083.48001245409
 20
3414624.6300573559
 30
2.7000000000000002
  0
VERTEX
  5
23E
  8
HAN
 10
721051.33331625548
 20
3414616.3594303732
 30
2.7000000000000002
  0
VERTEX
  5
23F
  8
HAN
 10
721053.61512767896
 20
3414593.3134130882
 30
2.7000000000000002
  0
VERTEX
  5
240
  8
HAN
 10
720961.77221797802
 20
3414592.5950956652
 30
2.7000000000000002
  0
VERTEX
  5
241
  8
HAN
 10
720963.61012988165
 20
3414646.0468237582
 30
2.7000000000000002
  0
SEQEND
  5
242
  8
HAN
  0
POLYLINE
  5
92
  8
HAN
 66
     1
 10
0.0
 20
0.0
 30
0.4
 70
     1
1001
ADE
1011
-24.672085991129279
1021
0.0
1031
0.0
1021
0.1895559877157211
1031
0.0
1001
IRD
1002
{
1000
TPMLINK_Unit_topology-_-ade
1070
   515
1071
        5
1004
0100CA04000060010000600100000000000014D3F99750E3744014D3F99750E374405F02000000000000
1002
}
1001
DCO15
1071
        5
1071
        5
1000
unitlink
1004
074132303600
1071
        4
1000
Link
1004
074132303600
  0
VERTEX
  5
243
  8
HAN
 10
720962.84601158649
 20
3414589.5921297758
 30
0.4
  0
VERTEX
  5
244
  8
HAN
 10
720961.83933007705
 20
3414515.2163467179
 30
0.4
  0
VERTEX
  5
245
  8
HAN
 10
721054.30302670959
 20
3414517.1218832121
 30
0.4
  0
VERTEX
  5
246
  8
HAN
 10
721056.68550628051
 20
3414590.579816232
 30
0.4
  0
VERTEX
  5
247
  8
HAN
 10
720962.84601158649
 20
3414589.5921297758
 30
0.4
  0
SEQEND
  5
248
  8
HAN
  0
POLYLINE
  5
93
  8
HAN
 66
     1
 10
0.0
 20
0.0
 30
0.135593220338983
 70
     1
1001
ADE
1011
-31.727245568996299
1021
0.0
1031
0.0
1021
3.392054492142051
1031
0.0
1001
IRD
1002
{
1000
TPMLINK_Unit_topology-_-ade
1070
   515
1071
        5
1004
0100CB0400006D0100006D01000000000000FBC525C948EA7540FBC525C948EA75404C02000000000000
1002
}
1001
DCO15
1071
        5
1071
        5
1000
unitlink
1004
074131383700
1071
        4
1000
Link
1004
074131383700
  0
VERTEX
  5
249
  8
HAN
 10
720959.22195815295
 20
3414511.6447128709
 30
0.135593220338983
  0
VERTEX
  5
24A
  8
HAN
 10
720961.99033230555
 20
3414441.0001897542
 30
0.135593220338983
  0
VERTEX
  5
24B
  8
HAN
 10
721062.32292273268
 20
3414441.0001897542
 30
0.135593220338983
  0
VERTEX
  5
24C
  8
HAN
 10
721066.43353889894
 20
3414513.2709037019
 30
0.135593220338983
  0
VERTEX
  5
24D
  8
HAN
 10
720959.22195815295
 20
3414511.6447128709
 30
0.135593220338983
  0
SEQEND
  5
24E
  8
HAN
  0
POLYLINE
  5
94
  8
HAN
 66
     1
 10
0.0
 20
0.0
 30
1.1000000000000001
 70
     1
1001
ADE
1011
-34.57950984488707
1021
0.0
1031
0.0
1021
-2.065162586979568
1031
0.0
1001
IRD
1002
{
1000
TPMLINK_Unit_topology-_-ade
1070
   515
1071
        5
1004
0100CC040000830100008301000000000000DD67D1341DA07440DD67D1341DA07440000000004B020000
1002
}
1001
DCO15
1071
        5
1071
        5
1000
unitlink
1004
074131383600
1071
        4
1000
Link
1004
074131383600
  0
VERTEX
  5
24F
  8
HAN
 10
720962.92990171176
 20
3414439.1445364142
 30
1.1000000000000001
  0
VERTEX
  5
250
  8
HAN
 10
721061.38335332647
 20
3414439.1445364142
 30
1.1000000000000001
  0
VERTEX
  5
251
  8
HAN
 10
721064.16850550089
 20
3414374.525898336
 30
1.1000000000000001
  0
VERTEX
  5
252
  8
HAN
 10
720963.71846889344
 20
3414372.7400814132
 30
1.1000000000000001
  0
VERTEX
  5
253
  8
HAN
 10
720962.92990171176
 20
3414439.1445364142
 30
1.1000000000000001
  0
SEQEND
  5
254
  8
HAN
  0
POLYLINE
  5
95
  8
HAN
 66
     1
 10
0.0
 20
0.0
 30
0.0625
 70
     1
1001
ADE
1011
-13.90898285235744
1021
0.0
1031
0.0
1021
3.45191427739337
1031
0.0
1001
IRD
1002
{
1000
TPMLINK_Unit_topology-_-ade
1070
   515
1071
        5
1004
0100CD0400009F0100009F01000000000000955EAE4107607340955EAE41076073404A02000000000000
1002
}
1001
DCO15
1071
        5
1071
        5
1000
unitlink
1004
074131383500
1071
        4
1000
Link
1004
074131383500
  0
VERTEX
  5
255
  8
HAN
 10
720968.03042136133
 20
3414315.7136594192
 30
0.0625
  0
VERTEX
  5
256
  8
HAN
 10
721065.22552108765
 20
3414316.7512290301
 30
0.0625
  0
VERTEX
  5
257
  8
HAN
 10
721066.26575864479
 20
3414372.3011096548
 30
0.0625
  0
VERTEX
  5
258
  8
HAN
 10
720964.25536569953
 20
3414370.8046150259
 30
0.0625
  0
VERTEX
  5
259
  8
HAN
 10
720968.03042136133
 20
3414315.7136594192
 30
0.0625
  0
SEQEND
  5
25A
  8
HAN
  0
POLYLINE
  5
96
  8
HAN
 66
     1
 10
0.0
 20
0.0
 30
0.03
 70
     1
1001
ADE
1011
-22.717446058755741
1021
0.0
1031
0.0
1021
2.1549522657878679
1031
0.0
1001
IRD
1002
{
1000
TPMLINK_Unit_topology-_-ade
1070
   515
1071
        5
1004
0100CE040000AC010000AC01000000000000ED6E1F9B6F4B7240ED6E1F9B6F4B7240000000003D020000
1002
}
1001
DCO15
1071
        5
1071
        5
1000
unitlink
1004
074131373200
1071
        4
1000
Link
1004
074131373200
  0
VERTEX
  5
25B
  8
HAN
 10
720936.37028789136
 20
3414252.3421001998
 30
0.03
  0
VERTEX
  5
25C
  8
HAN
 10
720941.85670211562
 20
3414302.7240860411
 30
0.03
  0
VERTEX
  5
25D
  8
HAN
 10
721032.29025770735
 20
3414303.5122398771
 30
0.03
  0
VERTEX
  5
25E
  8
HAN
 10
721035.86397706345
 20
3414251.5339930989
 30
0.03
  0
VERTEX
  5
25F
  8
HAN
 10
720936.37028789136
 20
3414252.3421001998
 30
0.03
  0
SEQEND
  5
260
  8
HAN
  0
POLYLINE
  5
97
  8
HAN
 66
     1
 10
0.0
 20
0.0
 30
0.02
 70
     1
1001
ADE
1011
-34.411729593062773
1021
0.0
1031
0.0
1021
5.6567496969364566
1031
0.0
1001
IRD
1002
{
1000
TPMLINK_Unit_topology-_-ade
1070
   515
1071
        5
1004
0100CF040000B5010000B50100000000000075B8DB8F50EF744075B8DB8F50EF74403C02000000000000
1002
}
1001
DCO15
1071
        5
1071
        5
1000
unitlink
1004
074131373100
1071
        4
1000
Link
1004
074131373100
  0
VERTEX
  5
261
  8
HAN
 10
720929.57518770185
 20
3414180.9692830299
 30
0.02
  0
VERTEX
  5
262
  8
HAN
 10
721020.79731047514
 20
3414173.3770669461
 30
0.02
  0
VERTEX
  5
263
  8
HAN
 10
721034.60562517855
 20
3414248.5310272099
 30
0.02
  0
VERTEX
  5
264
  8
HAN
 10
720936.10183949012
 20
3414249.1595549551
 30
0.02
  0
VERTEX
  5
265
  8
HAN
 10
720929.57518770185
 20
3414180.9692830299
 30
0.02
  0
SEQEND
  5
266
  8
HAN
  0
POLYLINE
  5
98
  8
HAN
 66
     1
 10
0.0
 20
0.0
 30
0.02
 70
     1
1001
ADE
1011
-31.584632353740751
1021
0.0
1031
0.0
1021
-0.2444274555891752
1031
0.0
1001
IRD
1002
{
1000
TPMLINK_Unit_topology-_-ade
1070
   515
1071
        5
1004
0100D1040000C0010000C0010000000000007BD181369F597C407BD181369F597C40000000007C020000
1002
}
1001
DCO15
1071
        5
1071
        5
1000
unitlink
1004
074132333900
1071
        4
1000
Link
1004
074132333900
  0
VERTEX
  5
267
  8
HAN
 10
720880.51624214672
 20
3413974.7323699002
 30
0.02
  0
VERTEX
  5
268
  8
HAN
 10
720880.19745967165
 20
3414080.704142889
 30
0.02
  0
VERTEX
  5
269
  8
HAN
 10
720998.7174293698
 20
3414076.8631400098
 30
0.02
  0
VERTEX
  5
26A
  8
HAN
 10
721001.78780797124
 20
3413969.2551995572
 30
0.02
  0
VERTEX
  5
26B
  8
HAN
 10
720880.51624214672
 20
3413974.7323699002
 30
0.02
  0
SEQEND
  5
26C
  8
HAN
  0
POLYLINE
  5
99
  8
HAN
 66
     1
 10
0.0
 20
0.0
 30
0.0952380952380953
 70
     1
1001
ADE
1011
-32.792650165036321
1021
0.0
1031
0.0
1021
3.0029658884741361
1031
0.0
1001
IRD
1002
{
1000
TPMLINK_Unit_topology-_-ade
1070
   515
1071
        5
1004
0100D4040000A3010000A3010000000000008515919C7FF672408515919C7FF672404F02000000000000
1002
}
1001
DCO15
1071
        5
1071
        5
1000
unitlink
1004
074131393000
1071
        4
1000
Link
1004
074131393000
  0
VERTEX
  5
26D
  8
HAN
 10
720857.88268621266
 20
3414309.997049937
 30
0.0952380952380953
  0
VERTEX
  5
26E
  8
HAN
 10
720952.22552166122
 20
3414312.890272886
 30
0.0952380952380953
  0
VERTEX
  5
26F
  8
HAN
 10
720954.57444518432
 20
3414370.3955731601
 30
0.0952380952380953
  0
VERTEX
  5
270
  8
HAN
 10
720862.88253771164
 20
3414369.557536168
 30
0.0952380952380953
  0
VERTEX
  5
271
  8
HAN
 10
720857.88268621266
 20
3414309.997049937
 30
0.0952380952380953
  0
SEQEND
  5
272
  8
HAN
  0
POLYLINE
  5
9A
  8
HAN
 66
     1
 10
0.0
 20
0.0
 30
0.02
 70
     1
1001
ADE
1011
-18.464216683292761
1021
0.0
1031
0.0
1021
-3.0528490417636922
1031
0.0
1001
IRD
1002
{
1000
TPMLINK_Unit_topology-_-ade
1070
   515
1071
        5
1004
0100D504000096010000960100000000000010A2B4557A43734010A2B4557A437340000000004E020000
1002
}
1001
DCO15
1071
        5
1071
        5
1000
unitlink
1004
074131383900
1071
        4
1000
Link
1004
074131383900
  0
VERTEX
  5
273
  8
HAN
 10
720862.09397052613
 20
3414373.6080482979
 30
0.02
  0
VERTEX
  5
274
  8
HAN
 10
720872.61379230046
 20
3414430.8439795389
 30
0.02
  0
VERTEX
  5
275
  8
HAN
 10
720956.16835757345
 20
3414441.8581800079
 30
0.02
  0
VERTEX
  5
276
  8
HAN
 10
720957.94682824262
 20
3414372.001810729
 30
0.02
  0
VERTEX
  5
277
  8
HAN
 10
720862.09397052613
 20
3414373.6080482979
 30
0.02
  0
SEQEND
  5
278
  8
HAN
  0
POLYLINE
  5
9B
  8
HAN
 66
     1
 10
0.0
 20
0.0
 30
0.0833333333333333
 70
     1
1001
ADE
1011
-23.044617550331171
1021
0.0
1031
0.0
1021
1.227125594858079
1031
0.0
1001
IRD
1002
{
1000
TPMLINK_Unit_topology-_-ade
1070
   515
1071
        5
1004
0100D6040000860100008601000000000000B1094FD303FA7240B1094FD303FA7240000000004D020000
1002
}
1001
DCO15
1071
        5
1071
        5
1000
unitlink
1004
074131383800
1071
        4
1000
Link
1004
074131383800
  0
VERTEX
  5
279
  8
HAN
 10
720871.15410410985
 20
3414433.777109012
 30
0.0833333333333333
  0
VERTEX
  5
27A
  8
HAN
 10
720868.48639811215
 20
3414501.3987129792
 30
0.0833333333333333
  0
VERTEX
  5
27B
  8
HAN
 10
720954.85967161146
 20
3414507.7837567278
 30
0.0833333333333333
  0
VERTEX
  5
27C
  8
HAN
 10
720956.45358400035
 20
3414444.4221741389
 30
0.0833333333333333
  0
VERTEX
  5
27D
  8
HAN
 10
720871.15410410985
 20
3414433.777109012
 30
0.0833333333333333
  0
SEQEND
  5
27E
  8
HAN
  0
POLYLINE
  5
9C
  8
HAN
 66
     1
 10
0.0
 20
0.0
 30
0.2608695652173913
 70
     1
1001
ADE
1011
-25.938826890778731
1021
0.0
1031
0.0
1021
4.7588529200293124
1031
0.0
1001
IRD
1002
{
1000
TPMLINK_Unit_topology-_-ade
1070
   515
1071
        5
1004
0100D7040000710100007101000000000000B794490C9F247240B794490C9F2472405E02000000000000
1002
}
1001
DCO15
1071
        5
1071
        5
1000
unitlink
1004
074132303500
1071
        4
1000
Link
1004
074132303500
  0
VERTEX
  5
27F
  8
HAN
 10
720865.3321293816
 20
3414508.5419806731
 30
0.2608695652173913
  0
VERTEX
  5
280
  8
HAN
 10
720916.25343573105
 20
3414509.0108823241
 30
0.2608695652173913
  0
VERTEX
  5
281
  8
HAN
 10
720946.83977558813
 20
3414517.3712989842
 30
0.2608695652173913
  0
VERTEX
  5
282
  8
HAN
 10
720953.11475699767
 20
3414574.9663889352
 30
0.2608695652173913
  0
VERTEX
  5
283
  8
HAN
 10
720901.94178027264
 20
3414570.6265545129
 30
0.2608695652173913
  0
VERTEX
  5
284
  8
HAN
 10
720867.41260450345
 20
3414572.3026284971
 30
0.2608695652173913
  0
VERTEX
  5
285
  8
HAN
 10
720865.3321293816
 20
3414508.5419806731
 30
0.2608695652173913
  0
SEQEND
  5
286
  8
HAN
  0
POLYLINE
  5
9D
  8
HAN
 66
     1
 10
0.0
 20
0.0
 30
0.7000000000000001
 70
     1
1001
ADE
1011
-30.752465343219232
1021
0.0
1031
0.0
1021
0.0798130468465388
1031
0.0
1001
IRD
1002
{
1000
TPMLINK_Unit_topology-_-ade
1070
   515
1071
        5
1004
0100D8040000630100006301000000000000C483A2D7235D7140C483A2D7235D71405D02000000000000
1002
}
1001
DCO15
1071
        5
1071
        5
1000
unitlink
1004
074132303400
1071
        4
1000
Link
1004
074132303400
  0
VERTEX
  5
287
  8
HAN
 10
720868.30183983583
 20
3414574.1582818371
 30
0.7000000000000001
  0
VERTEX
  5
288
  8
HAN
 10
720898.75395549065
 20
3414572.9511095029
 30
0.7000000000000001
  0
VERTEX
  5
289
  8
HAN
 10
720925.56523969024
 20
3414575.1160383988
 30
0.7000000000000001
  0
VERTEX
  5
28A
  8
HAN
 10
720953.49734203925
 20
3414577.371469921
 30
0.7000000000000001
  0
VERTEX
  5
28B
  8
HAN
 10
720953.11475699767
 20
3414630.3765967311
 30
0.7000000000000001
  0
VERTEX
  5
28C
  8
HAN
 10
720868.99012991064
 20
3414629.4413190419
 30
0.7000000000000001
  0
VERTEX
  5
28D
  8
HAN
 10
720868.30183983583
 20
3414574.1582818371
 30
0.7000000000000001
  0
SEQEND
  5
28E
  8
HAN
  0
POLYLINE
  5
9E
  8
HAN
 66
     1
 10
0.0
 20
0.0
 30
0.0487804878048781
 70
     1
1001
ADE
1011
-24.45397166558541
1021
0.0
1031
0.0
1021
-0.8779435153119266
1031
0.0
1001
IRD
1002
{
1000
TPMLINK_Unit_topology-_-ade
1070
   515
1071
        5
1004
0100D90400005C0100005C01000000000000288611FD52FA7340288611FD52FA73405C02000000000000
1002
}
1001
DCO15
1071
        5
1071
        5
1000
unitlink
1004
074132303300
1071
        4
1000
Link
1004
074132303300
  0
VERTEX
  5
28F
  8
HAN
 10
720869.14074109145
 20
3414631.8531380971
 30
0.0487804878048781
  0
VERTEX
  5
290
  8
HAN
 10
720952.52752611425
 20
3414632.9705207539
 30
0.0487804878048781
  0
VERTEX
  5
291
  8
HAN
 10
720960.93331671914
 20
3414710.9279142912
 30
0.0487804878048781
  0
VERTEX
  5
292
  8
HAN
 10
720911.77370301262
 20
3414702.9565862352
 30
0.0487804878048781
  0
VERTEX
  5
293
  8
HAN
 10
720873.48624960706
 20
3414701.4401383442
 30
0.0487804878048781
  0
VERTEX
  5
294
  8
HAN
 10
720869.14074109145
 20
3414631.8531380971
 30
0.0487804878048781
  0
SEQEND
  5
295
  8
HAN
  0
POLYLINE
  5
9F
  8
HAN
 66
     1
 10
0.0
 20
0.0
 30
0.0568181818181818
 70
     1
1001
ADE
1011
-33.505716236191802
1021
0.0
1031
0.0
1021
-1.0425579254515449
1031
0.0
1001
IRD
1002
{
1000
TPMLINK_Unit_topology-_-ade
1070
   515
1071
        5
1004
0100DA0400004C0100004C010000000000008C67003EC06A74408C67003EC06A74405B02000000000000
1002
}
1001
DCO15
1071
        5
1071
        5
1000
unitlink
1004
074132303200
1071
        4
1000
Link
1004
074132303200
  0
VERTEX
  5
296
  8
HAN
 10
720873.68758590915
 20
3414703.2259552679
 30
0.0568181818181818
  0
VERTEX
  5
297
  8
HAN
 10
720911.45492053416
 20
3414704.5528471721
 30
0.0568181818181818
  0
VERTEX
  5
298
  8
HAN
 10
720961.78899600345
 20
3414713.1527029718
 30
0.0568181818181818
  0
VERTEX
  5
299
  8
HAN
 10
720964.05402939743
 20
3414785.7626223681
 30
0.0568181818181818
  0
VERTEX
  5
29A
  8
HAN
 10
720875.58350275061
 20
3414779.6968308059
 30
0.0568181818181818
  0
VERTEX
  5
29B
  8
HAN
 10
720873.68758590915
 20
3414703.2259552679
 30
0.0568181818181818
  0
SEQEND
  5
29C
  8
HAN
  0
POLYLINE
  5
A0
  8
HAN
 66
     1
 10
0.0
 20
0.0
 30
0.1666666666666666
 70
     1
1001
ADE
1011
-27.792798670241609
1021
0.0
1031
0.0
1021
-2.583947391714899
1031
0.0
1001
IRD
1002
{
1000
TPMLINK_Unit_topology-_-ade
1070
   515
1071
        5
1004
0100DB0400003D0100003D01000000000000D9753E9770BE7340D9753E9770BE73405A02000000000000
1002
}
1001
DCO15
1071
        5
1071
        5
1000
unitlink
1004
074132303100
1071
        4
1000
Link
1004
074132303100
  0
VERTEX
  5
29D
  8
HAN
 10
720876.72440846264
 20
3414782.2508483059
 30
0.1666666666666666
  0
VERTEX
  5
29E
  8
HAN
 10
720963.98691729875
 20
3414788.0672240979
 30
0.1666666666666666
  0
VERTEX
  5
29F
  8
HAN
 10
720968.38275988761
 20
3414855.6988046942
 30
0.1666666666666666
  0
VERTEX
  5
2A0
  8
HAN
 10
720923.78676902514
 20
3414851.5684795179
 30
0.1666666666666666
  0
VERTEX
  5
2A1
  8
HAN
 10
720879.24111223605
 20
3414853.5039459062
 30
0.1666666666666666
  0
VERTEX
  5
2A2
  8
HAN
 10
720876.72440846264
 20
3414782.2508483059
 30
0.1666666666666666
  0
SEQEND
  5
2A3
  8
HAN
  0
POLYLINE
  5
A1
  8
HAN
 66
     1
 10
0.0
 20
0.0
 30
0.4
 70
     1
1001
ADE
1011
-28.447141651180569
1021
0.0
1031
0.0
1021
-11.542961904779069
1031
0.0
1001
IRD
1002
{
1000
TPMLINK_Unit_topology-_-ade
1070
   515
1071
        5
1004
0100DC0400002C0100002C01000000000000B26EC76770A07340B26EC76770A073400000000059020000
1002
}
1001
DCO15
1071
        5
1071
        5
1000
unitlink
1004
074132303000
1071
        4
1000
Link
1004
074132303000
  0
VERTEX
  5
2A4
  8
HAN
 10
720891.8246311025
 20
3414932.5388155752
 30
0.4
  0
VERTEX
  5
2A5
  8
HAN
 10
720935.78305701155
 20
3414929.7353823041
 30
0.4
  0
VERTEX
  5
2A6
  8
HAN
 10
720934.54148314905
 20
3414894.5577818919
 30
0.4
  0
VERTEX
  5
2A7
  8
HAN
 10
720937.96420028072
 20
3414886.4567576349
 30
0.4
  0
VERTEX
  5
2A8
  8
HAN
 10
720969.13777102134
 20
3414883.3440488069
 30
0.4
  0
VERTEX
  5
2A9
  8
HAN
 10
720969.13777102134
 20
3414857.1952993241
 30
0.4
  0
VERTEX
  5
2AA
  8
HAN
 10
720924.55855818104
 20
3414852.526236082
 30
0.4
  0
VERTEX
  5
2AB
  8
HAN
 10
720879.35855841264
 20
3414855.638944909
 30
0.4
  0
VERTEX
  5
2AC
  8
HAN
 10
720882.47927109152
 20
3414901.4017506619
 30
0.4
  0
VERTEX
  5
2AD
  8
HAN
 10
720891.8246311025
 20
3414932.5388155752
 30
0.4
  0
SEQEND
  5
2AE
  8
HAN
  0
POLYLINE
  5
A2
  8
HAN
 66
     1
 10
0.0
 20
0.0
 30
0.0480769230769231
 70
     1
1001
ADE
1011
-3.2557089640758918
1021
0.0
1031
0.0
1021
-3.6530679450370358
1031
0.0
1001
IRD
1002
{
1000
TPMLINK_Unit_topology-_-ade
1070
   515
1071
        5
1004
0100DD040000250100002501000000000000BE95390060207040BE953900602070405802000000000000
1002
}
1001
DCO15
1071
        5
1071
        5
1000
unitlink
1004
074131393900
1071
        4
1000
Link
1004
074131393900
  0
VERTEX
  5
2AF
  8
HAN
 10
720852.48439196218
 20
3414966.5279348739
 30
0.0480769230769231
  0
VERTEX
  5
2B0
  8
HAN
 10
720837.54807640193
 20
3414933.972840549
 30
0.0480769230769231
  0
VERTEX
  5
2B1
  8
HAN
 10
720825.26234352461
 20
3414919.523188903
 30
0.0480769230769231
  0
VERTEX
  5
2B2
  8
HAN
 10
720805.46813562862
 20
3414900.2644147449
 30
0.0480769230769231
  0
VERTEX
  5
2B3
  8
HAN
 10
720876.25462375954
 20
3414907.3977058078
 30
0.0480769230769231
  0
VERTEX
  5
2B4
  8
HAN
 10
720892.8313126117
 20
3414969.2528171381
 30
0.0480769230769231
  0
VERTEX
  5
2B5
  8
HAN
 10
720852.48439196218
 20
3414966.5279348739
 30
0.0480769230769231
  0
SEQEND
  5
2B6
  8
HAN
  0
POLYLINE
  5
A3
  8
HAN
 66
     1
 10
0.0
 20
0.0
 30
1.5
 70
     1
1001
ADE
1011
-19.219227816793129
1021
0.0
1031
0.0
1021
-3.2424050294794129
1031
0.0
1001
IRD
1002
{
1000
TPMLINK_Unit_topology-_-ade
1070
   515
1071
        5
1004
0100DE040000320100003201000000000000582B5AC7B5997440582B5AC7B59974405702000000000000
1002
}
1001
DCO15
1071
        5
1071
        5
1000
unitlink
1004
074131393800
1071
        4
1000
Link
1004
074131393800
  0
VERTEX
  5
2B7
  8
HAN
 10
720808.28684385482
 20
3414895.405795515
 30
1.5
  0
VERTEX
  5
2B8
  8
HAN
 10
720797.76702208095
 20
3414881.608115036
 30
1.5
  0
VERTEX
  5
2B9
  8
HAN
 10
720787.71243996033
 20
3414868.4206376802
 30
1.5
  0
VERTEX
  5
2BA
  8
HAN
 10
720780.93866284937
 20
3414857.6143178199
 30
1.5
  0
VERTEX
  5
2BB
  8
HAN
 10
720780.13331764191
 20
3414845.8119635121
 30
1.5
  0
VERTEX
  5
2BC
  8
HAN
 10
720781.27422335371
 20
3414834.9773423988
 30
1.5
  0
VERTEX
  5
2BD
  8
HAN
 10
720784.66338443395
 20
3414825.270080572
 30
1.5
  0
VERTEX
  5
2BE
  8
HAN
 10
720785.83784619346
 20
3414817.1790329469
 30
1.5
  0
VERTEX
  5
2BF
  8
HAN
 10
720872.83190662763
 20
3414820.880362995
 30
1.5
  0
VERTEX
  5
2C0
  8
HAN
 10
720876.72440846264
 20
3414905.4323095288
 30
1.5
  0
VERTEX
  5
2C1
  8
HAN
 10
720812.26323581464
 20
3414898.7878733771
 30
1.5
  0
VERTEX
  5
2C2
  8
HAN
 10
720808.28684385482
 20
3414895.405795515
 30
1.5
  0
SEQEND
  5
2C3
  8
HAN
  0
POLYLINE
  5
A4
  8
HAN
 66
     1
 10
0.0
 20
0.0
 30
0.0520833333333334
 70
     1
1001
ADE
1011
-29.0427615417866
1021
0.0
1031
0.0
1021
-1.047546240501104
1031
0.0
1001
IRD
1002
{
1000
TPMLINK_Unit_topology-_-ade
1070
   515
1071
        5
1004
0100DF040000430100004301000000000000420967AEF07E7440420967AEF07E74405602000000000000
1002
}
1001
DCO15
1071
        5
1071
        5
1000
unitlink
1004
074131393700
1071
        4
1000
Link
1004
074131393700
  0
VERTEX
  5
2C4
  8
HAN
 10
720777.3984995411
 20
3414744.030375483
 30
0.0520833333333334
  0
VERTEX
  5
2C5
  8
HAN
 10
720868.87229268998
 20
3414743.5115906792
 30
0.0520833333333334
  0
VERTEX
  5
2C6
  8
HAN
 10
720873.46947158093
 20
3414819.5534710898
 30
0.0520833333333334
  0
VERTEX
  5
2C7
  8
HAN
 10
720785.31772741664
 20
3414815.6326551619
 30
0.0520833333333334
  0
VERTEX
  5
2C8
  8
HAN
 10
720777.3984995411
 20
3414744.030375483
 30
0.0520833333333334
  0
SEQEND
  5
2C9
  8
HAN
  0
POLYLINE
  5
A5
  8
HAN
 66
     1
 10
0.0
 20
0.0
 30
0.4
 70
     1
1001
ADE
1011
-28.119970161351372
1021
0.0
1031
0.0
1021
4.304916215594857
1031
0.0
1001
IRD
1002
{
1000
TPMLINK_Unit_topology-_-ade
1070
   515
1071
        5
1004
0100E00400004501000045010000000000001E8471373BC675401E8471373BC675400000000055020000
1002
}
1001
DCO15
1071
        5
1071
        5
1000
unitlink
1004
074131393600
1071
        4
1000
Link
1004
074131393600
  0
VERTEX
  5
2CA
  8
HAN
 10
720776.22403778124
 20
3414741.5362177691
 30
0.4
  0
VERTEX
  5
2CB
  8
HAN
 10
720868.87229268998
 20
3414741.5362177691
 30
0.4
  0
VERTEX
  5
2CC
  8
HAN
 10
720862.54697720695
 20
3414659.9872371228
 30
0.4
  0
VERTEX
  5
2CD
  8
HAN
 10
720772.23086779541
 20
3414658.0218408429
 30
0.4
  0
VERTEX
  5
2CE
  8
HAN
 10
720776.22403778124
 20
3414741.5362177691
 30
0.4
  0
SEQEND
  5
2CF
  8
HAN
  0
POLYLINE
  5
A6
  8
HAN
 66
     1
 10
0.0
 20
0.0
 30
1.1000000000000001
 70
     1
1001
ADE
1011
-29.440872337319892
1021
0.0
1031
0.0
1021
-3.611540371086448
1031
0.0
1001
IRD
1002
{
1000
TPMLINK_Unit_topology-_-ade
1070
   515
1071
        5
1004
0100E10400005401000054010000000000009C140744765774409C140744765774400000000054020000
1002
}
1001
DCO15
1071
        5
1071
        5
1000
unitlink
1004
074131393500
1071
        4
1000
Link
1004
074131393500
  0
VERTEX
  5
2D0
  8
HAN
 10
720774.56301328936
 20
3414655.7571456381
 30
1.1000000000000001
  0
VERTEX
  5
2D1
  8
HAN
 10
720861.75841002574
 20
3414657.0640842812
 30
1.1000000000000001
  0
VERTEX
  5
2D2
  8
HAN
 10
720861.10406704224
 20
3414583.735847462
 30
1.1000000000000001
  0
VERTEX
  5
2D3
  8
HAN
 10
720769.20169964014
 20
3414585.4526799251
 30
1.1000000000000001
  0
VERTEX
  5
2D4
  8
HAN
 10
720772.04630951583
 20
3414655.8868418401
 30
1.1000000000000001
  0
VERTEX
  5
2D5
  8
HAN
 10
720774.56301328936
 20
3414655.7571456381
 30
1.1000000000000001
  0
SEQEND
  5
2D6
  8
HAN
  0
POLYLINE
  5
A7
  8
HAN
 66
     1
 10
0.0
 20
0.0
 30
0.0375
 70
     1
1001
ADE
1011
-22.063103077933189
1021
0.0
1031
0.0
1021
4.459553992841391
1031
0.0
1001
IRD
1002
{
1000
TPMLINK_Unit_topology-_-ade
1070
   515
1071
        5
1004
0100E204000072010000720100000000000018F07B7BA64D754018F07B7BA64D75405302000000000000
1002
}
1001
DCO15
1071
        5
1071
        5
1000
unitlink
1004
074131393400
1071
        4
1000
Link
1004
074131393400
  0
VERTEX
  5
2D7
  8
HAN
 10
720762.78483963024
 20
3414505.748524033
 30
0.0375
  0
VERTEX
  5
2D8
  8
HAN
 10
720858.36924894154
 20
3414508.3324714261
 30
0.0375
  0
VERTEX
  5
2D9
  8
HAN
 10
720864.05699947104
 20
3414581.1020169151
 30
0.0375
  0
VERTEX
  5
2DA
  8
HAN
 10
720768.97593091405
 20
3414582.6483946992
 30
0.0375
  0
VERTEX
  5
2DB
  8
HAN
 10
720762.78483963024
 20
3414505.748524033
 30
0.0375
  0
SEQEND
  5
2DC
  8
HAN
  0
POLYLINE
  5
A8
  8
HAN
 66
     1
 10
0.0
 20
0.0
 30
0.0568181818181818
 70
     1
1001
ADE
1011
-34.831180222332492
1021
0.0
1031
0.0
1021
1.501482943538575
1031
0.0
1001
IRD
1002
{
1000
TPMLINK_Unit_topology-_-ade
1070
   515
1071
        5
1004
0100E3040000770100007701000000000000769E0B5239757440769E0B52397574400000000052020000
1002
}
1001
DCO15
1071
        5
1071
        5
1000
unitlink
1004
074131393300
1071
        4
1000
Link
1004
074131393300
  0
VERTEX
  5
2DD
  8
HAN
 10
720760.93925686553
 20
3414498.1762612108
 30
0.0568181818181818
  0
VERTEX
  5
2DE
  8
HAN
 10
720859.14103810105
 20
3414500.879928174
 30
0.0568181818181818
  0
VERTEX
  5
2DF
  8
HAN
 10
720855.36598243925
 20
3414437.3786727511
 30
0.0568181818181818
  0
VERTEX
  5
2E0
  8
HAN
 10
720752.73480256274
 20
3414435.8821781231
 30
0.0568181818181818
  0
VERTEX
  5
2E1
  8
HAN
 10
720760.93925686553
 20
3414498.1762612108
 30
0.0568181818181818
  0
SEQEND
  5
2E2
  8
HAN
  0
POLYLINE
  5
A9
  8
HAN
 66
     1
 10
0.0
 20
0.0
 30
0.04
 70
     1
1001
ADE
1011
-28.908537343377251
1021
0.0
1031
0.0
1021
-6.3950203796848637
1031
0.0
1001
IRD
1002
{
1000
TPMLINK_Unit_topology-_-ade
1070
   515
1071
        5
1004
0100E4040000850100008501000000000000EE1B9BA4B4307540EE1B9BA4B43075400000000051020000
1002
}
1001
DCO15
1071
        5
1071
        5
1000
unitlink
1004
074131393200
1071
        4
1000
Link
1004
074131393200
  0
VERTEX
  5
2E3
  8
HAN
 10
720752.01334748033
 20
3414433.9167818441
 30
0.04
  0
VERTEX
  5
2E4
  8
HAN
 10
720855.63443084073
 20
3414435.0341645
 30
0.04
  0
VERTEX
  5
2E5
  8
HAN
 10
720847.98365136993
 20
3414366.3550376608
 30
0.04
  0
VERTEX
  5
2E6
  8
HAN
 10
720746.5437112822
 20
3414369.3180970279
 30
0.04
  0
VERTEX
  5
2E7
  8
HAN
 10
720752.01334748033
 20
3414433.9167818441
 30
0.04
  0
SEQEND
  5
2E8
  8
HAN
  0
POLYLINE
  5
AA
  8
HAN
 66
     1
 10
0.0
 20
0.0
 30
0.0416666666666667
 70
     1
1001
ADE
1011
-33.715441551059492
1021
0.0
1031
0.0
1021
2.583947392180562
1031
0.0
1001
IRD
1002
{
1000
TPMLINK_Unit_topology-_-ade
1070
   515
1071
        5
1004
0100E50400009901000099010000000000004D1C0D79BBB573404D1C0D79BBB573400000000050020000
1002
}
1001
DCO15
1071
        5
1071
        5
1000
unitlink
1004
074131393100
1071
        4
1000
Link
1004
074131393100
  0
VERTEX
  5
2E9
  8
HAN
 10
720748.60740837455
 20
3414366.7541028969
 30
0.0416666666666667
  0
VERTEX
  5
2EA
  8
HAN
 10
720845.81928612641
 20
3414364.9583093412
 30
0.0416666666666667
  0
VERTEX
  5
2EB
  8
HAN
 10
720835.92025128379
 20
3414303.821515434
 30
0.0416666666666667
  0
VERTEX
  5
2EC
  8
HAN
 10
720740.40295407549
 20
3414306.6748318598
 30
0.0416666666666667
  0
VERTEX
  5
2ED
  8
HAN
 10
720748.60740837455
 20
3414366.7541028969
 30
0.0416666666666667
  0
SEQEND
  5
2EE
  8
HAN
  0
POLYLINE
  5
AB
  8
HAN
 66
     1
 10
0.0
 20
0.0
 30
0.0133333333333333
 70
     1
1001
ADE
1011
-40.846102241426713
1021
0.0
1031
0.0
1021
7.0073076812550408
1031
0.0
1001
IRD
1002
{
1000
TPMLINK_Unit_topology-_-ade
1070
   515
1071
        5
1004
0100E8040000AA010000AA0100000000000020F04789BBAB7E4020F04789BBAB7E403602000000000000
1002
}
1001
DCO15
1071
        5
1071
        5
1000
unitlink
1004
074132353300
1071
        4
1000
Link
1004
074132353300
  0
VERTEX
  5
2EF
  8
HAN
 10
720528.30485032802
 20
3414268.0378915351
 30
0.0133333333333333
  0
VERTEX
  5
2F0
  8
HAN
 10
720520.84571688622
 20
3414209.5423538121
 30
0.0133333333333333
  0
VERTEX
  5
2F1
  8
HAN
 10
720695.57207085926
 20
3414149.3832697282
 30
0.0133333333333333
  0
VERTEX
  5
2F2
  8
HAN
 10
720709.51460976165
 20
3414201.471259445
 30
0.0133333333333333
  0
VERTEX
  5
2F3
  8
HAN
 10
720528.30485032802
 20
3414268.0378915351
 30
0.0133333333333333
  0
SEQEND
  5
2F4
  8
HAN
  0
POLYLINE
  5
AC
  8
HAN
 66
     1
 10
0.0
 20
0.0
 30
0.352112676056338
 70
     1
1001
ADE
1011
-21.232590835657891
1021
0.0
1031
0.0
1021
5.5819249670021218
1031
0.0
1001
IRD
1002
{
1000
TPMLINK_Unit_topology-_-ade
1070
   515
1071
        5
1004
0100EA040000C3010000C301000000000000C35E10E27E1F7540C35E10E27E1F75403402000000000000
1002
}
1001
DCO15
1071
        5
1071
        5
1000
unitlink
1004
074132313800
1071
        4
1000
Link
1004
074132313800
  0
VERTEX
  5
2F5
  8
HAN
 10
721876.07392080501
 20
3413784.4680427769
 30
0.352112676056338
  0
VERTEX
  5
2F6
  8
HAN
 10
721935.95469258376
 20
3413780.886432298
 30
0.352112676056338
  0
VERTEX
  5
2F7
  8
HAN
 10
721967.84971840691
 20
3413867.7729104548
 30
0.352112676056338
  0
VERTEX
  5
2F8
  8
HAN
 10
721870.050609775
 20
3413871.8034693212
 30
0.352112676056338
  0
VERTEX
  5
2F9
  8
HAN
 10
721876.07392080501
 20
3413784.4680427769
 30
0.352112676056338
  0
SEQEND
  5
2FA
  8
HAN
  0
POLYLINE
  5
AD
  8
HAN
 66
     1
 10
0.0
 20
0.0
 30
0.9
 70
     1
1001
ADE
1011
-16.794803181663148
1021
0.0
1031
0.0
1021
1.4665647363290191
1031
0.0
1001
IRD
1002
{
1000
TPMLINK_Unit_topology-_-ade
1070
   515
1071
        5
1004
0100EB040000C4010000C4010000000000006FE357D3BC4876406FE357D3BC4876403302000000000000
1002
}
1001
DCO15
1071
        5
1071
        5
1000
unitlink
1004
074132313900
1071
        4
1000
Link
1004
074132313900
  0
VERTEX
  5
2FB
  8
HAN
 10
721782.83843501657
 20
3413782.1833943091
 30
0.9
  0
VERTEX
  5
2FC
  8
HAN
 10
721873.35588072985
 20
3413784.0290710181
 30
0.9
  0
VERTEX
  5
2FD
  8
HAN
 10
721868.22180503234
 20
3413872.112744879
 30
0.9
  0
VERTEX
  5
2FE
  8
HAN
 10
721781.94919968024
 20
3413873.6690992918
 30
0.9
  0
VERTEX
  5
2FF
  8
HAN
 10
721782.83843501657
 20
3413782.1833943091
 30
0.9
  0
SEQEND
  5
300
  8
HAN
  0
POLYLINE
  5
AE
  8
HAN
 66
     1
 10
0.0
 20
0.0
 30
0.03
 70
     1
1001
ADE
1011
-20.603414891054861
1021
0.0
1031
0.0
1021
-1.0126280318945631
1031
0.0
1001
IRD
1002
{
1000
TPMLINK_Unit_topology-_-ade
1070
   515
1071
        5
1004
0100EC040000C5010000C5010000000000003963E0067EDA76403963E0067EDA76400000000032020000
1002
}
1001
DCO15
1071
        5
1071
        5
1000
unitlink
1004
074132323000
1071
        4
1000
Link
1004
074132323000
  0
VERTEX
  5
301
  8
HAN
 10
721695.30747777969
 20
3413775.3693554332
 30
0.03
  0
VERTEX
  5
302
  8
HAN
 10
721694.77058097359
 20
3413876.3228831021
 30
0.03
  0
VERTEX
  5
303
  8
HAN
 10
721779.38216183323
 20
3413874.9261547821
 30
0.03
  0
VERTEX
  5
304
  8
HAN
 10
721780.87540607154
 20
3413780.5871333722
 30
0.03
  0
VERTEX
  5
305
  8
HAN
 10
721695.30747777969
 20
3413775.3693554332
 30
0.03
  0
SEQEND
  5
306
  8
HAN
  0
POLYLINE
  5
AF
  8
HAN
 66
     1
 10
0.0
 20
0.0
 30
0.5
 70
     1
1001
ADE
1011
-11.4396461751312
1021
0.0
1031
0.0
1021
-5.886228883638978
1031
0.0
1001
IRD
1002
{
1000
TPMLINK_Unit_topology-_-ade
1070
   515
1071
        5
1004
0100EF0400009E0100009E01000000000000B88DBA77E4286440B88DBA77E42864402F02000000000000
1002
}
1001
DCO15
1071
        5
1071
        5
1000
unitlink
1004
074332333400
1071
        4
1000
Link
1004
074332333400
  0
VERTEX
  5
307
  8
HAN
 10
720633.04997318971
 20
3414344.4937757761
 30
0.5
  0
VERTEX
  5
308
  8
HAN
 10
720624.20028239465
 20
3414320.0792121948
 30
0.5
  0
VERTEX
  5
309
  8
HAN
 10
720661.27155595284
 20
3414335.7409292678
 30
0.5
  0
VERTEX
  5
30A
  8
HAN
 10
720674.99263617792
 20
3414345.8546139169
 30
0.5
  0
VERTEX
  5
30B
  8
HAN
 10
720682.26724439475
 20
3414360.5339507931
 30
0.5
  0
VERTEX
  5
30C
  8
HAN
 10
720682.73814537015
 20
3414364.1333274161
 30
0.5
  0
VERTEX
  5
30D
  8
HAN
 10
720669.82896338403
 20
3414366.6053825002
 30
0.5
  0
VERTEX
  5
30E
  8
HAN
 10
720662.7004968524
 20
3414358.528928915
 30
0.5
  0
VERTEX
  5
30F
  8
HAN
 10
720655.49084049452
 20
3414351.0563975819
 30
0.5
  0
VERTEX
  5
310
  8
HAN
 10
720646.47877005104
 20
3414346.4021700919
 30
0.5
  0
VERTEX
  5
311
  8
HAN
 10
720633.04997318971
 20
3414344.4937757761
 30
0.5
  0
SEQEND
  5
312
  8
HAN
  0
POLYLINE
  5
B0
  8
HAN
 66
     1
 10
0.0
 20
0.0
 30
0.046875
 70
     1
1001
ADE
1011
-26.735783085343432
1021
0.0
1031
0.0
1021
-4.9284556447528303
1031
0.0
1001
IRD
1002
{
1000
TPMLINK_Unit_topology-_-ade
1070
   515
1071
        5
1004
01007C040000FE000000FE000000000000000C61454EF13576400C61454EF1357640000000009A020000
1002
}
1001
DCO15
1071
        5
1071
        5
1000
unitlink
1004
074331343200
1071
        4
1000
Link
1004
074331343200
  0
VERTEX
  5
313
  8
HAN
 10
721072.8930785805
 20
3415271.4549425058
 30
0.046875
  0
VERTEX
  5
314
  8
HAN
 10
721072.8930785805
 20
3415366.4823514419
 30
0.046875
  0
VERTEX
  5
315
  8
HAN
 10
721158.67912120384
 20
3415375.0522773508
 30
0.046875
  0
VERTEX
  5
316
  8
HAN
 10
721155.55840852496
 20
3415284.6939316569
 30
0.046875
  0
VERTEX
  5
317
  8
HAN
 10
721072.8930785805
 20
3415271.4549425058
 30
0.046875
  0
SEQEND
  5
318
  8
HAN
  0
POLYLINE
  5
B1
  8
HAN
 66
     1
 10
0.0
 20
0.0
 30
0.012
 70
     1
1001
ADE
1011
-21.744320601108491
1021
0.0
1031
0.0
1021
0.5836329050362111
1031
0.0
1001
IRD
1002
{
1000
TPMLINK_Unit_topology-_-ade
1070
   515
1071
        5
1004
01007E040000000100000001000000000000CCF8A138ECCD7740CCF8A138ECCD77400000000098020000
1002
}
1001
DCO15
1071
        5
1071
        5
1000
unitlink
1004
074332363300
1071
        4
1000
Link
1004
074332363300
  0
VERTEX
  5
319
  8
HAN
 10
720954.38988690835
 20
3415233.8829506892
 30
0.012
  0
VERTEX
  5
31A
  8
HAN
 10
721054.40369486064
 20
3415248.9775931798
 30
0.012
  0
VERTEX
  5
31B
  8
HAN
 10
721065.96375419199
 20
3415237.8835796639
 30
0.012
  0
VERTEX
  5
31C
  8
HAN
 10
721063.74905487173
 20
3415157.0728697018
 30
0.012
  0
VERTEX
  5
31D
  8
HAN
 10
720968.96999076765
 20
3415148.5827568402
 30
0.012
  0
VERTEX
  5
31E
  8
HAN
 10
720961.63799377554
 20
3415160.714339965
 30
0.012
  0
VERTEX
  5
31F
  8
HAN
 10
720954.38988690835
 20
3415233.8829506892
 30
0.012
  0
SEQEND
  5
320
  8
HAN
  0
POLYLINE
  5
B2
  8
HAN
 66
     1
 10
0.0
 20
0.0
 30
0.0225
 70
     1
1001
ADE
1011
-27.22234581597149
1021
0.0
1031
0.0
1021
1.6261908300220951
1031
0.0
1001
IRD
1002
{
1000
TPMLINK_Unit_topology-_-ade
1070
   515
1071
        5
1004
01007F04000009010000090100000000000030C53A13811F764030C53A13811F7640000000008A020000
1002
}
1001
DCO15
1071
        5
1071
        5
1000
unitlink
1004
074332363200
1071
        4
1000
Link
1004
074332363200
  0
VERTEX
  5
321
  8
HAN
 10
720969.50688757375
 20
3415143.2153294361
 30
0.0225
  0
VERTEX
  5
322
  8
HAN
 10
721063.68194277235
 20
3415151.4859564202
 30
0.0225
  0
VERTEX
  5
323
  8
HAN
 10
721063.90005709964
 20
3415067.4927012119
 30
0.0225
  0
VERTEX
  5
324
  8
HAN
 10
720967.00696182624
 20
3415064.7491277261
 30
0.0225
  0
VERTEX
  5
325
  8
HAN
 10
720969.50688757375
 20
3415143.2153294361
 30
0.0225
  0
SEQEND
  5
326
  8
HAN
  0
POLYLINE
  5
B3
  8
HAN
 66
     1
 10
0.0
 20
0.0
 30
0.0655737704918033
 70
     1
1001
ADE
1011
-16.803192192921411
1021
0.0
1031
0.0
1021
4.3797409455291909
1031
0.0
1001
IRD
1002
{
1000
TPMLINK_Unit_topology-_-ade
1070
   515
1071
        5
1004
01008B040000F2000000F200000000000000F8115DF679DA7540F8115DF679DA75409B02000000000000
1002
}
1001
DCO15
1071
        5
1071
        5
1000
unitlink
1004
074331343300
1071
        4
1000
Link
1004
074331343300
  0
VERTEX
  5
327
  8
HAN
 10
721221.34504515701
 20
3415439.2020137799
 30
0.0655737704918033
  0
VERTEX
  5
328
  8
HAN
 10
721221.98261011392
 20
3415354.9992493242
 30
0.0655737704918033
  0
VERTEX
  5
329
  8
HAN
 10
721310.06724218302
 20
3415355.9370526238
 30
0.0655737704918033
  0
VERTEX
  5
32A
  8
HAN
 10
721316.4596697652
 20
3415437.925005028
 30
0.0655737704918033
  0
VERTEX
  5
32B
  8
HAN
 10
721221.34504515701
 20
3415439.2020137799
 30
0.0655737704918033
  0
SEQEND
  5
32C
  8
HAN
  0
POLYLINE
  5
B4
  8
HAN
 66
     1
 10
0.0
 20
0.0
 30
0.06
 70
     1
1001
ADE
1011
-11.434224141878071
1021
0.0
1031
0.0
1021
1.062511186115443
1031
0.0
1001
IRD
1002
{
1000
TPMLINK_Unit_topology-_-ade
1070
   515
1071
        5
1004
01008C040000FD000000FD0000000000000024A4C47B6448754024A4C47B644875409402000000000000
1002
}
1001
DCO15
1071
        5
1071
        5
1000
unitlink
1004
074331333600
1071
        4
1000
Link
1004
074331333600
  0
VERTEX
  5
32D
  8
HAN
 10
721310.50347083446
 20
3415282.4092831891
 30
0.06
  0
VERTEX
  5
32E
  8
HAN
 10
721315.80532678601
 20
3415193.3478995059
 30
0.06
  0
VERTEX
  5
32F
  8
HAN
 10
721396.96063446265
 20
3415195.143693062
 30
0.06
  0
VERTEX
  5
330
  8
HAN
 10
721391.50777628645
 20
3415284.0853571752
 30
0.06
  0
VERTEX
  5
331
  8
HAN
 10
721310.50347083446
 20
3415282.4092831891
 30
0.06
  0
SEQEND
  5
332
  8
HAN
  0
POLYLINE
  5
B5
  8
HAN
 66
     1
 10
0.0
 20
0.0
 30
0.5
 70
     1
1001
ADE
1011
-16.70252404350321
1021
0.0
1031
0.0
1021
2.459239507559686
1031
0.0
1001
IRD
1002
{
1000
TPMLINK_Unit_topology-_-ade
1070
   515
1071
        5
1004
01008E040000170100001701000000000000841CC3C416E67540841CC3C416E675400000000091020000
1002
}
1001
DCO15
1071
        5
1071
        5
1000
unitlink
1004
074132323700
1071
        4
1000
Link
1004
074132323700
  0
VERTEX
  5
333
  8
HAN
 10
721415.04734557855
 20
3415063.9609738891
 30
0.5
  0
VERTEX
  5
334
  8
HAN
 10
721521.35291296605
 20
3415068.560200714
 30
0.5
  0
VERTEX
  5
335
  8
HAN
 10
721521.77236359555
 20
3414995.8205851172
 30
0.5
  0
VERTEX
  5
336
  8
HAN
 10
721419.22507384454
 20
3414995.4015666209
 30
0.5
  0
VERTEX
  5
337
  8
HAN
 10
721415.04734557855
 20
3415063.9609738891
 30
0.5
  0
SEQEND
  5
338
  8
HAN
  0
POLYLINE
  5
B6
  8
HAN
 66
     1
 10
0.0
 20
0.0
 30
0.0133333333333333
 70
     1
1001
ADE
1011
-16.543132804450579
1021
0.0
1031
0.0
1021
-3.2872998681850718
1031
0.0
1001
IRD
1002
{
1000
TPMLINK_Unit_topology-_-ade
1070
   515
1071
        5
1004
010090040000060100000601000000000000AA6287DE90A47640AA6287DE90A476408D02000000000000
1002
}
1001
DCO15
1071
        5
1071
        5
1000
unitlink
1004
074331333900
1071
        4
1000
Link
1004
074331333900
  0
VERTEX
  5
339
  8
HAN
 10
721152.89070252341
 20
3415158.6691306392
 30
0.0133333333333333
  0
VERTEX
  5
33A
  8
HAN
 10
721156.78320435807
 20
3415070.395900792
 30
0.0133333333333333
  0
VERTEX
  5
33B
  8
HAN
 10
721245.27050903055
 20
3415071.3736106162
 30
0.0133333333333333
  0
VERTEX
  5
33C
  8
HAN
 10
721246.57919499266
 20
3415163.008965062
 30
0.0133333333333333
  0
VERTEX
  5
33D
  8
HAN
 10
721152.89070252341
 20
3415158.6691306392
 30
0.0133333333333333
  0
SEQEND
  5
33E
  8
HAN
  0
POLYLINE
  5
B7
  8
HAN
 66
     1
 10
0.0
 20
0.0
 30
0.1111111111111111
 70
     1
1001
ADE
1011
-17.13036368240137
1021
0.0
1031
0.0
1021
-5.237731202505528
1031
0.0
1001
IRD
1002
{
1000
TPMLINK_Unit_topology-_-ade
1070
   515
1071
        5
1004
010091040000240100002401000000000000FD9105F6ED117640FD9105F6ED1176408C02000000000000
1002
}
1001
DCO15
1071
        5
1071
        5
1000
unitlink
1004
074331343000
1071
        4
1000
Link
1004
074331343000
  0
VERTEX
  5
33F
  8
HAN
 10
721158.71267725155
 20
3414976.2464353722
 30
0.1111111111111111
  0
VERTEX
  5
340
  8
HAN
 10
721245.18661890551
 20
3414980.725942628
 30
0.1111111111111111
  0
VERTEX
  5
341
  8
HAN
 10
721247.43487427384
 20
3415068.211018635
 30
0.1111111111111111
  0
VERTEX
  5
342
  8
HAN
 10
721158.71267725155
 20
3415066.5249680202
 30
0.1111111111111111
  0
VERTEX
  5
343
  8
HAN
 10
721158.71267725155
 20
3414976.2464353722
 30
0.1111111111111111
  0
SEQEND
  5
344
  8
HAN
  0
POLYLINE
  5
B8
  8
HAN
 66
     1
 10
0.0
 20
0.0
 30
0.0735294117647059
 70
     1
1001
ADE
1011
-21.417149111628529
1021
0.0
1031
0.0
1021
-0.0195010434836149
1031
0.0
1001
IRD
1002
{
1000
TPMLINK_Unit_topology-_-ade
1070
   515
1071
        5
1004
0100920400001A0100001A0100000000000079397A4553B0754079397A4553B075408B02000000000000
1002
}
1001
DCO15
1071
        5
1071
        5
1000
unitlink
1004
074331353500
1071
        4
1000
Link
1004
074331353500
  0
VERTEX
  5
345
  8
HAN
 10
721059.89010908816
 20
3415055.570627335
 30
0.0735294117647059
  0
VERTEX
  5
346
  8
HAN
 10
721061.62085699232
 20
3414967.8352311202
 30
0.0735294117647059
  0
VERTEX
  5
347
  8
HAN
 10
721145.17281095334
 20
3414969.123120938
 30
0.0735294117647059
  0
VERTEX
  5
348
  8
HAN
 10
721143.89768103894
 20
3415060.6587090739
 30
0.0735294117647059
  0
VERTEX
  5
349
  8
HAN
 10
721059.89010908816
 20
3415055.570627335
 30
0.0735294117647059
  0
SEQEND
  5
34A
  8
HAN
  0
POLYLINE
  5
B9
  8
HAN
 66
     1
 10
0.0
 20
0.0
 30
0.7
 70
     1
1001
ADE
1011
-26.56800283503253
1021
0.0
1031
0.0
1021
0.364147026091814
1031
0.0
1001
IRD
1002
{
1000
TPMLINK_Unit_topology-_-ade
1070
   515
1071
        5
1004
0100930400002601000026010000000000004287261DF76A79404287261DF76A79408902000000000000
1002
}
1001
DCO15
1071
        5
1071
        5
1000
unitlink
1004
074331353400
1071
        4
1000
Link
1004
074331353400
  0
VERTEX
  5
34B
  8
HAN
 10
720934.50792709738
 20
3414961.4909983301
 30
0.7
  0
VERTEX
  5
34C
  8
HAN
 10
721035.05863185599
 20
3414964.0350391981
 30
0.7
  0
VERTEX
  5
34D
  8
HAN
 10
721038.8840215914
 20
3415062.5642455691
 30
0.7
  0
VERTEX
  5
34E
  8
HAN
 10
720930.04497240845
 20
3415060.0202047001
 30
0.7
  0
VERTEX
  5
34F
  8
HAN
 10
720934.50792709738
 20
3414961.4909983301
 30
0.7
  0
SEQEND
  5
350
  8
HAN
  0
POLYLINE
  5
BA
  8
HAN
 66
     1
 10
0.0
 20
0.0
 30
0.0267857142857143
 70
     1
1001
ADE
1011
-16.746783194597811
1021
0.0
1031
0.0
1021
5.7151486203074437
1031
0.0
1001
IRD
1002
{
1000
TPMLINK_Unit_topology-_-ade
1070
   515
1071
        5
1004
01009404000016010000160100000000000002D9BFC44A1A744002D9BFC44A1A74400000000088020000
1002
}
1001
DCO15
1071
        5
1071
        5
1000
unitlink
1004
074331343100
1071
        4
1000
Link
1004
074331343100
  0
VERTEX
  5
351
  8
HAN
 10
720840.36114541464
 20
3415067.5777200512
 30
0.0267857142857143
  0
VERTEX
  5
352
  8
HAN
 10
720905.53227765486
 20
3415059.2819340159
 30
0.0267857142857143
  0
VERTEX
  5
353
  8
HAN
 10
720904.7940445469
 20
3414973.6924178712
 30
0.0267857142857143
  0
VERTEX
  5
354
  8
HAN
 10
720849.10750554444
 20
3414972.3620691248
 30
0.0267857142857143
  0
VERTEX
  5
355
  8
HAN
 10
720860.69311694754
 20
3415008.3526708018
 30
0.0267857142857143
  0
VERTEX
  5
356
  8
HAN
 10
720837.79325178347
 20
3415014.5117501882
 30
0.0267857142857143
  0
VERTEX
  5
357
  8
HAN
 10
720840.36114541464
 20
3415067.5777200512
 30
0.0267857142857143
  0
SEQEND
  5
358
  8
HAN
  0
POLYLINE
  5
BB
  8
HAN
 66
     1
 10
0.0
 20
0.0
 30
0.0657894736842105
 70
     1
1001
ADE
1011
-25.200593782472431
1021
0.0
1031
0.0
1021
12.879830439575009
1031
0.0
1001
IRD
1002
{
1000
TPMLINK_Unit_topology-_-ade
1070
   515
1071
        5
1004
01009504000023010000230100000000000016F23BBD069B784016F23BBD069B78400000000086020000
1002
}
1001
DCO15
1071
        5
1071
        5
1000
unitlink
1004
074132343500
1071
        4
1000
Link
1004
074132343500
  0
VERTEX
  5
359
  8
HAN
 10
721687.40502792981
 20
3414988.2982054488
 30
0.0657894736842105
  0
VERTEX
  5
35A
  8
HAN
 10
721686.90168717515
 20
3414893.5002590208
 30
0.0657894736842105
  0
VERTEX
  5
35B
  8
HAN
 10
721581.7705815509
 20
3414893.9292541482
 30
0.0657894736842105
  0
VERTEX
  5
35C
  8
HAN
 10
721591.25016576424
 20
3414991.0318023041
 30
0.0657894736842105
  0
VERTEX
  5
35D
  8
HAN
 10
721687.40502792981
 20
3414988.2982054488
 30
0.0657894736842105
  0
SEQEND
  5
35E
  8
HAN
  0
POLYLINE
  5
BC
  8
HAN
 66
     1
 10
0.0
 20
0.0
 30
0.1050724637681159
 70
     1
1001
ADE
1011
-8.7360250429483131
1021
0.0
1031
0.0
1021
-6.6834062566049379
1031
0.0
1001
IRD
1002
{
1000
TPMLINK_Unit_topology-_-ade
1070
   515
1071
        5
1004
0100F4040000740100007401000000000000267EA2C9E6256940267EA2C9E62569402902000000000000
1002
}
1001
DCO15
1071
        5
1071
        5
1000
unitlink
1004
074332333500
1071
        4
1000
Link
1004
074332333500
  0
VERTEX
  5
35F
  8
HAN
 10
720600.83385109901
 20
3414505.104885662
 30
0.1050724637681159
  0
VERTEX
  5
360
  8
HAN
 10
720634.18663072574
 20
3414510.282512438
 30
0.1050724637681159
  0
VERTEX
  5
361
  8
HAN
 10
720633.00125929702
 20
3414563.2827292858
 30
0.1050724637681159
  0
VERTEX
  5
362
  8
HAN
 10
720630.56556458422
 20
3414566.9062628001
 30
0.1050724637681159
  0
VERTEX
  5
363
  8
HAN
 10
720604.0164921917
 20
3414577.4628237681
 30
0.1050724637681159
  0
VERTEX
  5
364
  8
HAN
 10
720595.11808750033
 20
3414577.4628237681
 30
0.1050724637681159
  0
VERTEX
  5
365
  8
HAN
 10
720600.83385109901
 20
3414505.104885662
 30
0.1050724637681159
  0
SEQEND
  5
366
  8
HAN
  0
POLYLINE
  5
BD
  8
HAN
 66
     1
 10
0.0
 20
0.0
 30
0.5
 70
     1
1001
ADE
1011
-10.25512006622739
1021
0.0
1031
0.0
1021
-7.1919096419587731
1031
0.0
1001
IRD
1002
{
1000
TPMLINK_Unit_topology-_-ade
1070
   515
1071
        5
1004
0100F50400007C0100007C010000000000003022C4B84FEE70403022C4B84FEE70408003000000000000
1002
}
1001
DCO15
1071
        5
1071
        5
1000
unitlink
1004
074332323700
1071
        4
1000
Link
1004
074332323700
  0
VERTEX
  5
367
  8
HAN
 10
720556.27687578276
 20
3414483.8226654958
 30
0.5
  0
VERTEX
  5
368
  8
HAN
 10
720562.99939319503
 20
3414482.20415386
 30
0.5
  0
VERTEX
  5
369
  8
HAN
 10
720597.37516460195
 20
3414490.3369735242
 30
0.5
  0
VERTEX
  5
36A
  8
HAN
 10
720596.18979317695
 20
3414516.5874607512
 30
0.5
  0
VERTEX
  5
36B
  8
HAN
 10
720595.27281407826
 20
3414536.8943009698
 30
0.5
  0
VERTEX
  5
36C
  8
HAN
 10
720592.71486871701
 20
3414576.8427969231
 30
0.5
  0
VERTEX
  5
36D
  8
HAN
 10
720579.61083115276
 20
3414583.751667487
 30
0.5
  0
VERTEX
  5
36E
  8
HAN
 10
720568.92625033483
 20
3414583.969079501
 30
0.5
  0
VERTEX
  5
36F
  8
HAN
 10
720553.41899398714
 20
3414581.9399007298
 30
0.5
  0
VERTEX
  5
370
  8
HAN
 10
720547.4434229508
 20
3414575.208180692
 30
0.5
  0
VERTEX
  5
371
  8
HAN
 10
720547.91432392993
 20
3414555.3351124488
 30
0.5
  0
VERTEX
  5
372
  8
HAN
 10
720551.37301042688
 20
3414526.6689362139
 30
0.5
  0
VERTEX
  5
373
  8
HAN
 10
720556.27687578276
 20
3414483.8226654958
 30
0.5
  0
SEQEND
  5
374
  8
HAN
  0
POLYLINE
  5
BE
  8
HAN
 66
     1
 10
0.0
 20
0.0
 30
0.1337579617834395
 70
     1
1001
ADE
1011
-7.5506536159664384
1021
0.0
1031
0.0
1021
-2.411662860307842
1031
0.0
1001
IRD
1002
{
1000
TPMLINK_Unit_topology-_-ade
1070
   515
1071
        5
1004
0100F60400007D0100007D01000000000000981BAFA57FF96640981BAFA57FF966402202000000000000
1002
}
1001
DCO15
1071
        5
1071
        5
1000
unitlink
1004
074332323800
1071
        4
1000
Link
1004
074332323800
  0
VERTEX
  5
375
  8
HAN
 10
720564.18476462376
 20
3414481.3667150051
 30
0.1337579617834395
  0
VERTEX
  5
376
  8
HAN
 10
720567.04264642298
 20
3414426.5547313988
 30
0.1337579617834395
  0
VERTEX
  5
377
  8
HAN
 10
720603.30202174175
 20
3414433.2622945458
 30
0.1337579617834395
  0
VERTEX
  5
378
  8
HAN
 10
720605.26681547984
 20
3414440.2436357811
 30
0.1337579617834395
  0
VERTEX
  5
379
  8
HAN
 10
720601.98674659815
 20
3414472.0904692118
 30
0.1337579617834395
  0
VERTEX
  5
37A
  8
HAN
 10
720598.17082487815
 20
3414489.499534667
 30
0.1337579617834395
  0
VERTEX
  5
37B
  8
HAN
 10
720564.18476462376
 20
3414481.3667150051
 30
0.1337579617834395
  0
SEQEND
  5
37C
  8
HAN
  0
POLYLINE
  5
BF
  8
HAN
 66
     1
 10
0.0
 20
0.0
 30
0.14
 70
     1
1001
ADE
1011
-10.782008605077859
1021
0.0
1031
0.0
1021
1.1447435533627861
1031
0.0
1001
IRD
1002
{
1000
TPMLINK_Unit_topology-_-ade
1070
   515
1071
        5
1004
0100F70400008A0100008A010000000000008F0C6816F1A865408F0C6816F1A865401F02000000000000
1002
}
1001
DCO15
1071
        5
1071
        5
1000
unitlink
1004
074332333100
1071
        4
1000
Link
1004
074332333100
  0
VERTEX
  5
37D
  8
HAN
 10
720566.26322411373
 20
3414424.6946508628
 30
0.14
  0
VERTEX
  5
37E
  8
HAN
 10
720566.08460650221
 20
3414397.445678845
 30
0.14
  0
VERTEX
  5
37F
  8
HAN
 10
720570.46885698661
 20
3414371.7024863078
 30
0.14
  0
VERTEX
  5
380
  8
HAN
 10
720603.62678103894
 20
3414381.3974515311
 30
0.14
  0
VERTEX
  5
381
  8
HAN
 10
720600.2005704717
 20
3414394.7723163432
 30
0.14
  0
VERTEX
  5
382
  8
HAN
 10
720600.95002938143
 20
3414431.0613827058
 30
0.14
  0
VERTEX
  5
383
  8
HAN
 10
720566.26322411373
 20
3414424.6946508628
 30
0.14
  0
SEQEND
  5
384
  8
HAN
  0
POLYLINE
  5
C0
  8
HAN
 66
     1
 10
0.0
 20
0.0
 30
0.2674418604651163
 70
     1
1001
ADE
1011
-10.538439132273201
1021
0.0
1031
0.0
1021
1.888263576198369
1031
0.0
1001
IRD
1002
{
1000
TPMLINK_Unit_topology-_-ade
1070
   515
1071
        5
1004
0100F80400009201000092010000000000005BFE2719B1EB64405BFE2719B1EB64402102000000000000
1002
}
1001
DCO15
1071
        5
1071
        5
1000
unitlink
1004
074332333000
1071
        4
1000
Link
1004
074332333000
  0
VERTEX
  5
385
  8
HAN
 10
720605.44543309137
 20
3414382.0899490449
 30
0.2674418604651163
  0
VERTEX
  5
386
  8
HAN
 10
720623.82680920523
 20
3414382.4361978061
 30
0.2674418604651163
  0
VERTEX
  5
387
  8
HAN
 10
720639.39901741594
 20
3414387.2192620412
 30
0.2674418604651163
  0
VERTEX
  5
388
  8
HAN
 10
720639.38277944946
 20
3414426.425894652
 30
0.2674418604651163
  0
VERTEX
  5
389
  8
HAN
 10
720636.94708473585
 20
3414435.243159533
 30
0.2674418604651163
  0
VERTEX
  5
38A
  8
HAN
 10
720602.63626518846
 20
3414431.2572726682
 30
0.2674418604651163
  0
VERTEX
  5
38B
  8
HAN
 10
720602.53883739933
 20
3414408.6142143612
 30
0.2674418604651163
  0
VERTEX
  5
38C
  8
HAN
 10
720601.49960765254
 20
3414395.0460944292
 30
0.2674418604651163
  0
VERTEX
  5
38D
  8
HAN
 10
720605.44543309137
 20
3414382.0899490449
 30
0.2674418604651163
  0
SEQEND
  5
38E
  8
HAN
  0
POLYLINE
  5
C1
  8
HAN
 66
     1
 10
0.0
 20
0.0
 30
0.1206896551724138
 70
     1
1001
ADE
1011
-8.8307209505001083
1021
0.0
1031
0.0
1021
-5.1483884528279287
1031
0.0
1001
IRD
1002
{
1000
TPMLINK_Unit_topology-_-ade
1070
   515
1071
        5
1004
0100F9040000840100008401000000000000BCCD7700391D6A40BCCD7700391D6A402302000000000000
1002
}
1001
DCO15
1071
        5
1071
        5
1000
unitlink
1004
074332323900
1071
        4
1000
Link
1004
074332323900
  0
VERTEX
  5
38F
  8
HAN
 10
720636.3949939349
 20
3414436.6039976738
 30
0.1206896551724138
  0
VERTEX
  5
390
  8
HAN
 10
720639.99982211005
 20
3414449.8419734412
 30
0.1206896551724138
  0
VERTEX
  5
391
  8
HAN
 10
720638.97683032986
 20
3414494.4275402441
 30
0.1206896551724138
  0
VERTEX
  5
392
  8
HAN
 10
720634.83614931616
 20
3414508.5754255368
 30
0.1206896551724138
  0
VERTEX
  5
393
  8
HAN
 10
720601.09365853295
 20
3414503.2125959401
 30
0.1206896551724138
  0
VERTEX
  5
394
  8
HAN
 10
720599.8433352483
 20
3414489.0486060511
 30
0.1206896551724138
  0
VERTEX
  5
395
  8
HAN
 10
720603.69173289812
 20
3414471.8489003112
 30
0.1206896551724138
  0
VERTEX
  5
396
  8
HAN
 10
720605.16938769072
 20
3414456.64616415
 30
0.1206896551724138
  0
VERTEX
  5
397
  8
HAN
 10
720606.61456655315
 20
3414439.9537530988
 30
0.1206896551724138
  0
VERTEX
  5
398
  8
HAN
 10
720604.9907700792
 20
3414433.8742690948
 30
0.1206896551724138
  0
VERTEX
  5
399
  8
HAN
 10
720636.3949939349
 20
3414436.6039976738
 30
0.1206896551724138
  0
SEQEND
  5
39A
  8
HAN
  0
POLYLINE
  5
C2
  8
HAN
 66
     1
 10
0.0
 20
0.0
 30
0.06
 70
     1
1001
ADE
1011
-9.1500931436894462
1021
0.0
1031
0.0
1021
-3.0069374484010041
1031
0.0
1001
IRD
1002
{
1000
TPMLINK_Unit_topology-_-ade
1070
   515
1071
        5
1004
0100FA04000073010000730100000000000084843099A0D86A4084843099A0D86A400000000026020000
1002
}
1001
DCO15
1071
        5
1071
        5
1000
unitlink
1004
074332333700
1071
        4
1000
Link
1004
074332333700
  0
VERTEX
  5
39B
  8
HAN
 10
720638.50592935074
 20
3414505.5638665748
 30
0.06
  0
VERTEX
  5
39C
  8
HAN
 10
720670.4784819741
 20
3414504.47680652
 30
0.06
  0
VERTEX
  5
39D
  8
HAN
 10
720670.80324126745
 20
3414490.9811572582
 30
0.06
  0
VERTEX
  5
39E
  8
HAN
 10
720672.03732659295
 20
3414481.415028784
 30
0.06
  0
VERTEX
  5
39F
  8
HAN
 10
720674.63540095452
 20
3414451.7342631649
 30
0.06
  0
VERTEX
  5
3A0
  8
HAN
 10
720671.72880526271
 20
3414431.1606451091
 30
0.06
  0
VERTEX
  5
3A1
  8
HAN
 10
720659.22557239234
 20
3414430.8385532401
 30
0.06
  0
VERTEX
  5
3A2
  8
HAN
 10
720643.39355674793
 20
3414429.7353885951
 30
0.06
  0
VERTEX
  5
3A3
  8
HAN
 10
720639.67847893585
 20
3414429.4765243661
 30
0.06
  0
VERTEX
  5
3A4
  8
HAN
 10
720638.27859784651
 20
3414437.1354492572
 30
0.06
  0
VERTEX
  5
3A5
  8
HAN
 10
720641.52619079885
 20
3414449.7292412878
 30
0.06
  0
VERTEX
  5
3A6
  8
HAN
 10
720641.26638336095
 20
3414494.2745466079
 30
0.06
  0
VERTEX
  5
3A7
  8
HAN
 10
720638.50592935074
 20
3414505.5638665748
 30
0.06
  0
SEQEND
  5
3A8
  8
HAN
  0
POLYLINE
  5
C3
  8
HAN
 66
     1
 10
0.0
 20
0.0
 30
0.0681818181818182
 70
     1
1001
ADE
1011
-2.8010489234002289
1021
0.0
1031
0.0
1021
11.98181748297065
1031
0.0
1001
IRD
1002
{
1000
TPMLINK_Unit_topology-_-ade
1070
   515
1071
        5
1004
0100FB0400008701000087010000000000009E7035F73AA46F409E7035F73AA46F400000000027020000
1002
}
1001
DCO15
1071
        5
1071
        5
1000
unitlink
1004
074332333800
1071
        4
1000
Link
1004
074332333800
  0
VERTEX
  5
3A9
  8
HAN
 10
720673.0116044766
 20
3414430.041375868
 30
0.0681818181818182
  0
VERTEX
  5
3AA
  8
HAN
 10
720674.53797316563
 20
3414439.9698576932
 30
0.0681818181818182
  0
VERTEX
  5
3AB
  8
HAN
 10
720676.1882280201
 20
3414450.7041746709
 30
0.0681818181818182
  0
VERTEX
  5
3AC
  8
HAN
 10
720671.84247101482
 20
3414500.6278086998
 30
0.0681818181818182
  0
VERTEX
  5
3AD
  8
HAN
 10
720672.55694146454
 20
3414516.8612388368
 30
0.0681818181818182
  0
VERTEX
  5
3AE
  8
HAN
 10
720672.11851641547
 20
3414529.3503510128
 30
0.0681818181818182
  0
VERTEX
  5
3AF
  8
HAN
 10
720673.10903226573
 20
3414534.9305926231
 30
0.0681818181818182
  0
VERTEX
  5
3B0
  8
HAN
 10
720684.70293910825
 20
3414522.1193885808
 30
0.0681818181818182
  0
VERTEX
  5
3B1
  8
HAN
 10
720693.55262990657
 20
3414475.496590713
 30
0.0681818181818182
  0
VERTEX
  5
3B2
  8
HAN
 10
720692.74073166784
 20
3414456.8635761612
 30
0.0681818181818182
  0
VERTEX
  5
3B3
  8
HAN
 10
720689.75294614921
 20
3414436.8616711688
 30
0.0681818181818182
  0
VERTEX
  5
3B4
  8
HAN
 10
720679.55550427735
 20
3414415.8371244972
 30
0.0681818181818182
  0
VERTEX
  5
3B5
  8
HAN
 10
720672.44327571231
 20
3414416.5618311991
 30
0.0681818181818182
  0
VERTEX
  5
3B6
  8
HAN
 10
720672.15099234495
 20
3414426.0796458931
 30
0.0681818181818182
  0
VERTEX
  5
3B7
  8
HAN
 10
720673.0116044766
 20
3414430.041375868
 30
0.0681818181818182
  0
SEQEND
  5
3B8
  8
HAN
  0
POLYLINE
  5
C4
  8
HAN
 66
     1
 10
0.0
 20
0.0
 30
0.0103092783505155
 70
     1
1001
ADE
1011
-11.68321564781945
1021
0.0
1031
0.0
1021
-1.4131780704483381
1031
0.0
1001
IRD
1002
{
1000
TPMLINK_Unit_topology-_-ade
1070
   515
1071
        5
1004
0100FD0400009D0100009D01000000000000DAA381C21ED46640DAA381C21ED466402402000000000000
1002
}
1001
DCO15
1071
        5
1071
        5
1000
unitlink
1004
074332333200
1071
        4
1000
Link
1004
074332333200
  0
VERTEX
  5
3B9
  8
HAN
 10
720631.60479432705
 20
3414345.9834506642
 30
0.0103092783505155
  0
VERTEX
  5
3BA
  8
HAN
 10
720646.30015243974
 20
3414347.521439333
 30
0.0103092783505155
  0
VERTEX
  5
3BB
  8
HAN
 10
720655.2797469534
 20
3414351.7730519888
 30
0.0103092783505155
  0
VERTEX
  5
3BC
  8
HAN
 10
720659.68023540452
 20
3414355.5093176551
 30
0.0103092783505155
  0
VERTEX
  5
3BD
  8
HAN
 10
720667.06850937381
 20
3414366.5651210179
 30
0.0103092783505155
  0
VERTEX
  5
3BE
  8
HAN
 10
720671.71256729623
 20
3414376.5258120289
 30
0.0103092783505155
  0
VERTEX
  5
3BF
  8
HAN
 10
720675.10630193364
 20
3414395.2876633289
 30
0.0103092783505155
  0
VERTEX
  5
3C0
  8
HAN
 10
720672.34584792354
 20
3414405.111465299
 30
0.0103092783505155
  0
VERTEX
  5
3C1
  8
HAN
 10
720641.98085381091
 20
3414404.427020079
 30
0.0103092783505155
  0
VERTEX
  5
3C2
  8
HAN
 10
720642.33808903769
 20
3414385.5926981089
 30
0.0103092783505155
  0
VERTEX
  5
3C3
  8
HAN
 10
720628.64948473871
 20
3414380.6969017182
 30
0.0103092783505155
  0
VERTEX
  5
3C4
  8
HAN
 10
720631.60479432705
 20
3414345.9834506642
 30
0.0103092783505155
  0
SEQEND
  5
3C5
  8
HAN
  0
POLYLINE
  5
C5
  8
HAN
 66
     1
 10
0.0
 20
0.0
 30
0.0267857142857143
 70
     1
1001
ADE
1011
-11.675096664577721
1021
0.0
1031
0.0
1021
-0.173124379478395
1031
0.0
1001
IRD
1002
{
1000
TPMLINK_Unit_topology-_-ade
1070
   515
1071
        5
1004
0100FE040000980100009801000000000000C8FC760A33396940C8FC760A333969402002000000000000
1002
}
1001
DCO15
1071
        5
1071
        5
1000
unitlink
1004
074332333300
1071
        4
1000
Link
1004
074332333300
  0
VERTEX
  5
3C6
  8
HAN
 10
720570.89104407281
 20
3414369.955137928
 30
0.0267857142857143
  0
VERTEX
  5
3C7
  8
HAN
 10
720577.38622997701
 20
3414323.3967584339
 30
0.0267857142857143
  0
VERTEX
  5
3C8
  8
HAN
 10
720612.26537829265
 20
3414328.6468558782
 30
0.0267857142857143
  0
VERTEX
  5
3C9
  8
HAN
 10
720624.60623151425
 20
3414333.373554037
 30
0.0267857142857143
  0
VERTEX
  5
3CA
  8
HAN
 10
720629.02295792813
 20
3414339.7992868018
 30
0.0267857142857143
  0
VERTEX
  5
3CB
  8
HAN
 10
720627.33420959488
 20
3414380.7854769812
 30
0.0267857142857143
  0
VERTEX
  5
3CC
  8
HAN
 10
720570.89104407281
 20
3414369.955137928
 30
0.0267857142857143
  0
SEQEND
  5
3CD
  8
HAN
  0
POLYLINE
  5
C6
  8
HAN
 66
     1
 10
0.0
 20
0.0
 30
0.0397350993377484
 70
     1
1001
ADE
1011
-20.50043051503599
1021
0.0
1031
0.0
1021
-7.5812373380176723
1031
0.0
1001
IRD
1002
{
1000
TPMLINK_Unit_topology-_-ade
1070
   515
1071
        5
1004
0100FF0400008B0100008B0100000000000054A5FDD88438724054A5FDD884387240000000001D020000
1002
}
1001
DCO15
1071
        5
1071
        5
1000
unitlink
1004
074332323600
1071
        4
1000
Link
1004
074332323600
  0
VERTEX
  5
3CE
  8
HAN
 10
720555.28635993216
 20
3414409.5563330748
 30
0.0397350993377484
  0
VERTEX
  5
3CF
  8
HAN
 10
720561.44054858026
 20
3414413.3328602239
 30
0.0397350993377484
  0
VERTEX
  5
3D0
  8
HAN
 10
720563.89248126012
 20
3414383.2494797711
 30
0.0397350993377484
  0
VERTEX
  5
3D1
  8
HAN
 10
720568.99120219424
 20
3414352.5138632841
 30
0.0397350993377484
  0
VERTEX
  5
3D2
  8
HAN
 10
720572.19008125376
 20
3414334.5008755769
 30
0.0397350993377484
  0
VERTEX
  5
3D3
  8
HAN
 10
720571.18332743645
 20
3414323.8718439369
 30
0.0397350993377484
  0
VERTEX
  5
3D4
  8
HAN
 10
720561.09955132031
 20
3414315.9564362862
 30
0.0397350993377484
  0
VERTEX
  5
3D5
  8
HAN
 10
720549.29455093667
 20
3414309.909161469
 30
0.0397350993377484
  0
VERTEX
  5
3D6
  8
HAN
 10
720522.51814703655
 20
3414308.1296039
 30
0.0397350993377484
  0
VERTEX
  5
3D7
  8
HAN
 10
720508.81330477796
 20
3414312.091333874
 30
0.0397350993377484
  0
VERTEX
  5
3D8
  8
HAN
 10
720500.79175018158
 20
3414355.4690561709
 30
0.0397350993377484
  0
VERTEX
  5
3D9
  8
HAN
 10
720500.9216539003
 20
3414368.3285739948
 30
0.0397350993377484
  0
VERTEX
  5
3DA
  8
HAN
 10
720503.71458384022
 20
3414376.3647660948
 30
0.0397350993377484
  0
VERTEX
  5
3DB
  8
HAN
 10
720514.91877952975
 20
3414383.1447999151
 30
0.0397350993377484
  0
SEQEND
  5
3DC
  8
HAN
  0
POLYLINE
  5
C7
  8
HAN
 66
     1
 10
0.0
 20
0.0
 30
0.0864197530864198
 70
     1
1001
ADE
1011
-12.357091184705491
1021
0.0
1031
0.0
1021
-2.8746699197217822
1031
0.0
1001
IRD
1002
{
1000
TPMLINK_Unit_topology-_-ade
1070
   515
1071
        5
1004
010001050000690100006901000000000000F7B1837AC67C6A40F7B1837AC67C6A40000000002D020000
1002
}
1001
DCO15
1071
        5
1071
        5
1000
unitlink
1004
074332323200
1071
        4
1000
Link
1004
074332323200
  0
VERTEX
  5
3DD
  8
HAN
 10
720452.37013925612
 20
3414541.4126914628
 30
0.0864197530864198
  0
VERTEX
  5
3DE
  8
HAN
 10
720502.24635357095
 20
3414540.6778866109
 30
0.0864197530864198
  0
VERTEX
  5
3DF
  8
HAN
 10
720504.21796074871
 20
3414487.5186696812
 30
0.0864197530864198
  0
VERTEX
  5
3E0
  8
HAN
 10
720450.47029737767
 20
3414486.3832958448
 30
0.0864197530864198
  0
VERTEX
  5
3E1
  8
HAN
 10
720452.37013925612
 20
3414541.4126914628
 30
0.0864197530864198
  0
SEQEND
  5
3E2
  8
HAN
  0
POLYLINE
  5
C8
  8
HAN
 66
     1
 10
0.0
 20
0.0
 30
0.0833333333333333
 70
     1
1001
ADE
1011
-13.62365243781823
1021
0.0
1031
0.0
1021
-3.9053638977929932
1031
0.0
1001
IRD
1002
{
1000
TPMLINK_Unit_topology-_-ade
1070
   515
1071
        5
1004
0100020500006801000068010000000000004FFC8F590AE068404FFC8F590AE068402C02000000000000
1002
}
1001
DCO15
1071
        5
1071
        5
1000
unitlink
1004
074332323300
1071
        4
1000
Link
1004
074332323300
  0
VERTEX
  5
3E3
  8
HAN
 10
720453.16579952859
 20
3414543.4418702298
 30
0.0833333333333333
  0
VERTEX
  5
3E4
  8
HAN
 10
720502.48049851891
 20
3414543.1036737692
 30
0.0833333333333333
  0
VERTEX
  5
3E5
  8
HAN
 10
720507.14079440758
 20
3414591.3852447541
 30
0.0833333333333333
  0
VERTEX
  5
3E6
  8
HAN
 10
720470.31309032056
 20
3414589.2352815368
 30
0.0833333333333333
  0
VERTEX
  5
3E7
  8
HAN
 10
720454.26998113096
 20
3414591.5140815009
 30
0.0833333333333333
  0
VERTEX
  5
3E8
  8
HAN
 10
720453.16579952859
 20
3414543.4418702298
 30
0.0833333333333333
  0
SEQEND
  5
3E9
  8
HAN
  0
POLYLINE
  5
C9
  8
HAN
 66
     1
 10
0.0
 20
0.0
 30
0.0416666666666667
 70
     1
1001
ADE
1011
-23.561286875978109
1021
0.0
1031
0.0
1021
29.859610978048298
1031
0.0
1001
IRD
1002
{
1000
TPMLINK_Unit_topology-_-ade
1070
   515
1071
        5
1004
0100030500006E0100006E010000000000006628D367FCA67A406628D367FCA67A40EE01000000000000
1002
}
1001
DCO15
1071
        5
1071
        5
1000
unitlink
1004
074332343600
1071
        4
1000
Link
1004
074332343600
  0
VERTEX
  5
3EA
  8
HAN
 10
720333.50823717564
 20
3414511.6191936899
 30
0.0416666666666667
  0
VERTEX
  5
3EB
  8
HAN
 10
720336.64216437575
 20
3414529.7851750348
 30
0.0416666666666667
  0
VERTEX
  5
3EC
  8
HAN
 10
720341.26318032423
 20
3414556.571148084
 30
0.0416666666666667
  0
VERTEX
  5
3ED
  8
HAN
 10
720353.75697923813
 20
3414584.7984660561
 30
0.0416666666666667
  0
VERTEX
  5
3EE
  8
HAN
 10
720369.31294948235
 20
3414602.602094051
 30
0.0416666666666667
  0
VERTEX
  5
3EF
  8
HAN
 10
720389.31812207412
 20
3414619.2381390249
 30
0.0416666666666667
  0
VERTEX
  5
3F0
  8
HAN
 10
720401.22055024654
 20
3414625.8732314999
 30
0.0416666666666667
  0
VERTEX
  5
3F1
  8
HAN
 10
720314.83181819716
 20
3414650.5340266158
 30
0.0416666666666667
  0
VERTEX
  5
3F2
  8
HAN
 10
720287.06765795138
 20
3414592.729978303
 30
0.0416666666666667
  0
VERTEX
  5
3F3
  8
HAN
 10
720324.78845009964
 20
3414578.4210470752
 30
0.0416666666666667
  0
VERTEX
  5
3F4
  8
HAN
 10
720306.24469433737
 20
3414516.4747285978
 30
0.0416666666666667
  0
VERTEX
  5
3F5
  8
HAN
 10
720333.50823717564
 20
3414511.6191936899
 30
0.0416666666666667
  0
SEQEND
  5
3F6
  8
HAN
  0
POLYLINE
  5
CA
  8
HAN
 66
     1
 10
0.0
 20
0.0
 30
0.0625
 70
     1
1001
ADE
1011
-27.59642111719586
1021
0.0
1031
0.0
1021
11.587254945188761
1031
0.0
1001
IRD
1002
{
1000
TPMLINK_Unit_topology-_-ade
1070
   515
1071
        5
1004
010006050000F7000000F7000000000000006AFA356BAA2D79406AFA356BAA2D79400000000017020000
1002
}
1001
DCO15
1071
        5
1071
        5
1000
unitlink
1004
074331353000
1071
        4
1000
Link
1004
074331353000
  0
VERTEX
  5
3F7
  8
HAN
 10
720298.9863240869
 20
3415334.9021124239
 30
0.0625
  0
VERTEX
  5
3F8
  8
HAN
 10
720306.11479061865
 20
3415420.5141308899
 30
0.0625
  0
VERTEX
  5
3F9
  8
HAN
 10
720393.86475220707
 20
3415395.02861185
 30
0.0625
  0
VERTEX
  5
3FA
  8
HAN
 10
720375.49961406016
 20
3415270.6930985749
 30
0.0625
  0
VERTEX
  5
3FB
  8
HAN
 10
720298.9863240869
 20
3415334.9021124239
 30
0.0625
  0
SEQEND
  5
3FC
  8
HAN
  0
POLYLINE
  5
CB
  8
HAN
 66
     1
 10
0.0
 20
0.0
 30
0.4
 70
     1
1001
ADE
1011
-19.160798422759399
1021
0.0
1031
0.0
1021
-0.7408112948760393
1031
0.0
1001
IRD
1002
{
1000
TPMLINK_Unit_topology-_-ade
1070
   515
1071
        5
1004
010007050000030100000301000000000000BB17560DFC817340BB17560DFC8173400000000011020000
1002
}
1001
DCO15
1071
        5
1071
        5
1000
unitlink
1004
074332363000
1071
        4
1000
Link
1004
074332363000
  0
VERTEX
  5
3FD
  8
HAN
 10
720800.04120283201
 20
3415195.170607869
 30
0.4
  0
VERTEX
  5
3FE
  8
HAN
 10
720836.72276523698
 20
3415202.2968904441
 30
0.4
  0
VERTEX
  5
3FF
  8
HAN
 10
720838.76874879736
 20
3415163.0983101288
 30
0.4
  0
VERTEX
  5
400
  8
HAN
 10
720834.6930196397
 20
3415131.0340646901
 30
0.4
  0
VERTEX
  5
401
  8
HAN
 10
720831.28304703895
 20
3415096.095149328
 30
0.4
  0
VERTEX
  5
402
  8
HAN
 10
720826.55779929459
 20
3415089.1299126861
 30
0.4
  0
VERTEX
  5
403
  8
HAN
 10
720778.81818288565
 20
3415091.9401642331
 30
0.4
  0
VERTEX
  5
404
  8
HAN
 10
720780.52316918597
 20
3415177.2945092041
 30
0.4
  0
VERTEX
  5
405
  8
HAN
 10
720800.04120283201
 20
3415195.170607869
 30
0.4
  0
SEQEND
  5
406
  8
HAN
  0
POLYLINE
  5
CC
  8
HAN
 66
     1
 10
0.0
 20
0.0
 30
0.0740740740740741
 70
     1
1001
ADE
1011
-27.352851645788181
1021
0.0
1031
0.0
1021
-6.7800338179804367
1031
0.0
1001
IRD
1002
{
1000
TPMLINK_Unit_topology-_-ade
1070
   515
1071
        5
1004
0100080500000A0100000A01000000000000800B654BF8107940800B654BF81079401002000000000000
1002
}
1001
DCO15
1071
        5
1071
        5
1000
unitlink
1004
074331363100
1071
        4
1000
Link
1004
074331363100
  0
VERTEX
  5
407
  8
HAN
 10
720645.30963658914
 20
3415137.2906992212
 30
0.0740740740740741
  0
VERTEX
  5
408
  8
HAN
 10
720646.17024872068
 20
3415095.660325306
 30
0.0740740740740741
  0
VERTEX
  5
409
  8
HAN
 10
720669.69905966532
 20
3415089.580841301
 30
0.0740740740740741
  0
VERTEX
  5
40A
  8
HAN
 10
720711.36567725264
 20
3415090.8692087722
 30
0.0740740740740741
  0
VERTEX
  5
40B
  8
HAN
 10
720729.80596869683
 20
3415091.4393983632
 30
0.0740740740740741
  0
VERTEX
  5
40C
  8
HAN
 10
720773.84853740095
 20
3415094.6415236071
 30
0.0740740740740741
  0
VERTEX
  5
40D
  8
HAN
 10
720775.32702045876
 20
3415177.0690448969
 30
0.0740740740740741
  0
VERTEX
  5
40E
  8
HAN
 10
720742.33147605893
 20
3415180.6845261138
 30
0.0740740740740741
  0
VERTEX
  5
40F
  8
HAN
 10
720711.13834574434
 20
3415176.344338194
 30
0.0740740740740741
  0
VERTEX
  5
410
  8
HAN
 10
720685.27126787603
 20
3415174.1702180859
 30
0.0740740740740741
  0
VERTEX
  5
411
  8
HAN
 10
720681.34168039996
 20
3415160.2558493968
 30
0.0740740740740741
  0
VERTEX
  5
412
  8
HAN
 10
720669.37430037186
 20
3415148.652489861
 30
0.0740740740740741
  0
VERTEX
  5
413
  8
HAN
 10
720645.30963658914
 20
3415137.2906992212
 30
0.0740740740740741
  0
SEQEND
  5
414
  8
HAN
  0
POLYLINE
  5
CD
  8
HAN
 66
     1
 10
0.0
 20
0.0
 30
0.3
 70
     1
1001
ADE
1011
-30.31628021597863
1021
0.0
1031
0.0
1021
4.557599929161368
1031
0.0
1001
IRD
1002
{
1000
TPMLINK_Unit_topology-_-ade
1070
   515
1071
        5
1004
010009050000190100001901000000000000640DBBEE55B27940640DBBEE55B27940000000000F020000
1002
}
1001
DCO15
1071
        5
1071
        5
1000
unitlink
1004
074331363200
1071
        4
1000
Link
1004
074331363200
  0
VERTEX
  5
415
  8
HAN
 10
720518.19884841167
 20
3415057.3233407401
 30
0.3
  0
VERTEX
  5
416
  8
HAN
 10
720514.07440536085
 20
3415147.2352856402
 30
0.3
  0
VERTEX
  5
417
  8
HAN
 10
720630.66299236938
 20
3415151.164806427
 30
0.3
  0
VERTEX
  5
418
  8
HAN
 10
720629.34771722555
 20
3415106.3457230218
 30
0.3
  0
VERTEX
  5
419
  8
HAN
 10
720617.55895480525
 20
3415102.4162022341
 30
0.3
  0
VERTEX
  5
41A
  8
HAN
 10
720623.128576722
 20
3415060.5442594169
 30
0.3
  0
VERTEX
  5
41B
  8
HAN
 10
720518.19884841167
 20
3415057.3233407401
 30
0.3
  0
SEQEND
  5
41C
  8
HAN
  0
POLYLINE
  5
CE
  8
HAN
 66
     1
 10
0.0
 20
0.0
 30
0.015
 70
     1
1001
ADE
1011
-30.819657122716311
1021
0.0
1031
0.0
1021
-3.7282133698463431
1031
0.0
1001
IRD
1002
{
1000
TPMLINK_Unit_topology-_-ade
1070
   515
1071
        5
1004
01000B050000F8000000F800000000000000897CEA59118E7640897CEA59118E76401502000000000000
1002
}
1001
DCO15
1071
        5
1071
        5
1000
unitlink
1004
074331353300
1071
        4
1000
Link
1004
074331353300
  0
VERTEX
  5
41D
  8
HAN
 10
720592.61744092766
 20
3415334.265980985
 30
0.015
  0
VERTEX
  5
41E
  8
HAN
 10
720583.81646402541
 20
3415316.6958695971
 30
0.015
  0
VERTEX
  5
41F
  8
HAN
 10
720583.81646402541
 20
3415258.4858167842
 30
0.015
  0
VERTEX
  5
420
  8
HAN
 10
720693.27658450219
 20
3415255.8446634691
 30
0.015
  0
VERTEX
  5
421
  8
HAN
 10
720697.06003029284
 20
3415288.3034714479
 30
0.015
  0
VERTEX
  5
422
  8
HAN
 10
720702.74331796204
 20
3415304.5369015872
 30
0.015
  0
VERTEX
  5
423
  8
HAN
 10
720681.91000916809
 20
3415329.1286156941
 30
0.015
  0
VERTEX
  5
424
  8
HAN
 10
720640.8441962786
 20
3415339.7334904419
 30
0.015
  0
VERTEX
  5
425
  8
HAN
 10
720611.43724209059
 20
3415339.7334904419
 30
0.015
  0
VERTEX
  5
426
  8
HAN
 10
720592.61744092766
 20
3415334.265980985
 30
0.015
  0
SEQEND
  5
427
  8
HAN
  0
POLYLINE
  5
CF
  8
HAN
 66
     1
 10
0.0
 20
0.0
 30
0.2068965517241379
 70
     1
1001
ADE
1011
-27.921180412173271
1021
0.0
1031
0.0
1021
1.8238451997749501
1031
0.0
1001
IRD
1002
{
1000
TPMLINK_Unit_topology-_-ade
1070
   515
1071
        5
1004
01000F050000FF000000FF00000000000000BB2B76EC6CDF7540BB2B76EC6CDF75401B02000000000000
1002
}
1001
DCO15
1071
        5
1071
        5
1000
unitlink
1004
074332353100
1071
        4
1000
Link
1004
074332353100
  0
VERTEX
  5
428
  8
HAN
 10
720401.02569466841
 20
3415235.0375288082
 30
0.2068965517241379
  0
VERTEX
  5
429
  8
HAN
 10
720405.63727666065
 20
3415199.1323378421
 30
0.2068965517241379
  0
VERTEX
  5
42A
  8
HAN
 10
720408.98229740188
 20
3415172.7530138688
 30
0.2068965517241379
  0
VERTEX
  5
42B
  8
HAN
 10
720408.72248996794
 20
3415155.4164190828
 30
0.2068965517241379
  0
VERTEX
  5
42C
  8
HAN
 10
720421.09581911936
 20
3415148.0727244969
 30
0.2068965517241379
  0
VERTEX
  5
42D
  8
HAN
 10
720467.99106135964
 20
3415143.9821577761
 30
0.2068965517241379
  0
VERTEX
  5
42E
  8
HAN
 10
720500.27213530999
 20
3415149.9167004391
 30
0.2068965517241379
  0
VERTEX
  5
42F
  8
HAN
 10
720501.68483824667
 20
3415209.6808465142
 30
0.2068965517241379
  0
VERTEX
  5
430
  8
HAN
 10
720501.23017523065
 20
3415217.3385806722
 30
0.2068965517241379
  0
VERTEX
  5
431
  8
HAN
 10
720400.24627235904
 20
3415239.6514948141
 30
0.2068965517241379
  0
VERTEX
  5
432
  8
HAN
 10
720401.02569466841
 20
3415235.0375288082
 30
0.2068965517241379
  0
SEQEND
  5
433
  8
HAN
  0
POLYLINE
  5
D0
  8
HAN
 66
     1
 10
0.0
 20
0.0
 30
0.7
 70
     1
1001
ADE
1011
-32.833164753508761
1021
0.0
1031
0.0
1021
5.1822036341764033
1031
0.0
1001
IRD
1002
{
1000
TPMLINK_Unit_topology-_-ade
1070
   515
1071
        5
1004
01001005000018010000180100000000000020C526D872A3764020C526D872A37640000000001A020000
1002
}
1001
DCO15
1071
        5
1071
        5
1000
unitlink
1004
074332353200
1071
        4
1000
Link
1004
074332353200
  0
VERTEX
  5
434
  8
HAN
 10
720512.7266542837
 20
3415059.2156304619
 30
0.7
  0
VERTEX
  5
435
  8
HAN
 10
720484.18031222746
 20
3415059.2639442431
 30
0.7
  0
VERTEX
  5
436
  8
HAN
 10
720463.88285627204
 20
3415064.465727909
 30
0.7
  0
VERTEX
  5
437
  8
HAN
 10
720447.23894238845
 20
3415072.2603511089
 30
0.7
  0
VERTEX
  5
438
  8
HAN
 10
720437.87213834818
 20
3415076.646982078
 30
0.7
  0
VERTEX
  5
439
  8
HAN
 10
720434.7194715552
 20
3415078.5975086112
 30
0.7
  0
VERTEX
  5
43A
  8
HAN
 10
720412.81445708871
 20
3415079.1048033
 30
0.7
  0
VERTEX
  5
43B
  8
HAN
 10
720408.44644456718
 20
3415147.4124361668
 30
0.7
  0
VERTEX
  5
43C
  8
HAN
 10
720468.6405799503
 20
3415141.1638539322
 30
0.7
  0
VERTEX
  5
43D
  8
HAN
 10
720495.5956014581
 20
3415146.035493433
 30
0.7
  0
VERTEX
  5
43E
  8
HAN
 10
720508.19821978151
 20
3415148.3131919769
 30
0.7
  0
VERTEX
  5
43F
  8
HAN
 10
720512.7266542837
 20
3415059.2156304619
 30
0.7
  0
SEQEND
  5
440
  8
HAN
  0
POLYLINE
  5
D1
  8
HAN
 66
     1
 10
0.0
 20
0.0
 30
0.2
 70
     1
1001
ADE
1011
-29.885974148288369
1021
0.0
1031
0.0
1021
-1.5782501529902211
1031
0.0
1001
IRD
1002
{
1000
TPMLINK_Unit_topology-_-ade
1070
   515
1071
        5
1004
010012050000150100001501000000000000644E9F4022887440644E9F40228874400000000019020000
1002
}
1001
DCO15
1071
        5
1071
        5
1000
unitlink
1004
074332353000
1071
        4
1000
Link
1004
074332353000
  0
VERTEX
  5
441
  8
HAN
 10
720326.02253542095
 20
3415073.4359864262
 30
0.2
  0
VERTEX
  5
442
  8
HAN
 10
720435.41770404205
 20
3415076.8260033359
 30
0.2
  0
VERTEX
  5
443
  8
HAN
 10
720441.55565471936
 20
3415069.6191977938
 30
0.2
  0
VERTEX
  5
444
  8
HAN
 10
720443.89392164734
 20
3415024.8081666832
 30
0.2
  0
VERTEX
  5
445
  8
HAN
 10
720328.08475694456
 20
3415024.5665977821
 30
0.2
  0
VERTEX
  5
446
  8
HAN
 10
720326.02253542095
 20
3415073.4359864262
 30
0.2
  0
SEQEND
  5
447
  8
HAN
  0
POLYLINE
  5
D2
  8
HAN
 66
     1
 10
0.0
 20
0.0
 30
0.0803571428571429
 70
     1
1001
ADE
1011
-15.23121095076203
1021
0.0
1031
0.0
1021
3.760422555729745
1031
0.0
1001
IRD
1002
{
1000
TPMLINK_Unit_topology-_-ade
1070
   515
1071
        5
1004
0100130500000F0100000F01000000000000F2131C8DE2F17040F2131C8DE2F17040000000000D020000
1002
}
1001
DCO15
1071
        5
1071
        5
1000
unitlink
1004
07433235366200
1071
        4
1000
Link
1004
07433235363100
  0
VERTEX
  5
448
  8
HAN
 10
720777.81142906845
 20
3415090.0237176199
 30
0.0803571428571429
  0
VERTEX
  5
449
  8
HAN
 10
720841.69158245262
 20
3415084.9024569211
 30
0.0803571428571429
  0
VERTEX
  5
44A
  8
HAN
 10
720831.60780633625
 20
3415012.6250417829
 30
0.0803571428571429
  0
VERTEX
  5
44B
  8
HAN
 10
720770.60177271464
 20
3415017.52889047
 30
0.0803571428571429
  0
VERTEX
  5
44C
  8
HAN
 10
720777.81142906845
 20
3415090.0237176199
 30
0.0803571428571429
  0
SEQEND
  5
44D
  8
HAN
  0
POLYLINE
  5
D3
  8
HAN
 66
     1
 10
0.0
 20
0.0
 30
0.0576923076923077
 70
     1
1001
ADE
1011
-23.1959326636279
1021
0.0
1031
0.0
1021
0.6562621793709696
1031
0.0
1001
IRD
1002
{
1000
TPMLINK_Unit_topology-_-ade
1070
   515
1071
        5
1004
01001405000011010000110100000000000082627CE026B8744082627CE026B874400E02000000000000
1002
}
1001
DCO15
1071
        5
1071
        5
1000
unitlink
1004
074332353500
1071
        4
1000
Link
1004
074332353500
  0
VERTEX
  5
44E
  8
HAN
 10
720673.28764987714
 20
3415087.0685247309
 30
0.0576923076923077
  0
VERTEX
  5
44F
  8
HAN
 10
720673.9696443975
 20
3415022.1106472891
 30
0.0576923076923077
  0
VERTEX
  5
450
  8
HAN
 10
720768.08488817525
 20
3415018.4951660759
 30
0.0576923076923077
  0
VERTEX
  5
451
  8
HAN
 10
720773.52460636932
 20
3415090.3619140801
 30
0.0576923076923077
  0
VERTEX
  5
452
  8
HAN
 10
720673.28764987714
 20
3415087.0685247309
 30
0.0576923076923077
  0
SEQEND
  5
453
  8
HAN
  0
POLYLINE
  5
D4
  8
HAN
 66
     1
 10
0.0
 20
0.0
 30
0.8
 70
     1
1001
ADE
1011
-6.6007326765684411
1021
0.0
1031
0.0
1021
0.3663794989697635
1031
0.0
1001
IRD
1002
{
1000
TPMLINK_Unit_topology-_-ade
1070
   515
1071
        5
1004
0100150500002F0100002F010000000000008968EBF3545073408968EBF3545073400C02000000000000
1002
}
1001
DCO15
1071
        5
1071
        5
1000
unitlink
1004
074332353900
1071
        4
1000
Link
1004
074332353900
  0
VERTEX
  5
454
  8
HAN
 10
720766.88327878353
 20
3414908.0498645999
 30
0.8
  0
VERTEX
  5
455
  8
HAN
 10
720797.73541183374
 20
3414908.3558518742
 30
0.8
  0
VERTEX
  5
456
  8
HAN
 10
720818.11405761552
 20
3414919.4599690158
 30
0.8
  0
VERTEX
  5
457
  8
HAN
 10
720835.08273079235
 20
3414937.642054955
 30
0.8
  0
VERTEX
  5
458
  8
HAN
 10
720852.06764193985
 20
3414988.6211453341
 30
0.8
  0
VERTEX
  5
459
  8
HAN
 10
720854.71443019435
 20
3415005.8852694491
 30
0.8
  0
VERTEX
  5
45A
  8
HAN
 10
720806.87738599628
 20
3415011.3205697192
 30
0.8
  0
VERTEX
  5
45B
  8
HAN
 10
720766.88327878353
 20
3414908.0498645999
 30
0.8
  0
SEQEND
  5
45C
  8
HAN
  0
POLYLINE
  5
D5
  8
HAN
 66
     1
 10
0.0
 20
0.0
 30
0.1530612244897959
 70
     1
1001
ADE
1011
-40.440651247161433
1021
0.0
1031
0.0
1021
-1.4212303673848501
1031
0.0
1001
IRD
1002
{
1000
TPMLINK_Unit_topology-_-ade
1070
   515
1071
        5
1004
0100160500002201000022010000000000002DA4A93B345879402DA4A93B34587940000000000B020000
1002
}
1001
DCO15
1071
        5
1071
        5
1000
unitlink
1004
074331353700
1071
        4
1000
Link
1004
074331353700
  0
VERTEX
  5
45D
  8
HAN
 10
720672.96289058402
 20
3415016.5223533828
 30
0.1530612244897959
  0
VERTEX
  5
45E
  8
HAN
 10
720802.55808737152
 20
3415012.6653032661
 30
0.1530612244897959
  0
VERTEX
  5
45F
  8
HAN
 10
720772.03071361408
 20
3414938.1412973511
 30
0.1530612244897959
  0
VERTEX
  5
460
  8
HAN
 10
720665.46095086273
 20
3414928.5188028002
 30
0.1530612244897959
  0
VERTEX
  5
461
  8
HAN
 10
720672.96289058402
 20
3415016.5223533828
 30
0.1530612244897959
  0
SEQEND
  5
462
  8
HAN
  0
POLYLINE
  5
D6
  8
HAN
 66
     1
 10
0.0
 20
0.0
 30
0.0775862068965517
 70
     1
1001
ADE
1011
-12.60877964098472
1021
0.0
1031
0.0
1021
-2.1942508490756141
1031
0.0
1001
IRD
1002
{
1000
TPMLINK_Unit_topology-_-ade
1070
   515
1071
        5
1004
0100170500001B0100001B010000000000009E3B8B8DAF4679409E3B8B8DAF4679400000000009020000
1002
}
1001
DCO15
1071
        5
1071
        5
1000
unitlink
1004
074331363000
1071
        4
1000
Link
1004
074331363000
  0
VERTEX
  5
463
  8
HAN
 10
720598.80410550139
 20
3415053.3374538771
 30
0.0775862068965517
  0
VERTEX
  5
464
  8
HAN
 10
720668.46497434378
 20
3415057.9353152891
 30
0.0775862068965517
  0
VERTEX
  5
465
  8
HAN
 10
720660.05370859441
 20
3414926.7392452289
 30
0.0775862068965517
  0
VERTEX
  5
466
  8
HAN
 10
720586.8367254698
 20
3414924.017568945
 30
0.0775862068965517
  0
VERTEX
  5
467
  8
HAN
 10
720598.80410550139
 20
3415053.3374538771
 30
0.0775862068965517
  0
SEQEND
  5
468
  8
HAN
  0
POLYLINE
  5
D7
  8
HAN
 66
     1
 10
0.0
 20
0.0
 30
0.1527777777777778
 70
     1
1001
ADE
1011
-26.524715444073081
1021
0.0
1031
0.0
1021
3.4665137263946231
1031
0.0
1001
IRD
1002
{
1000
TPMLINK_Unit_topology-_-ade
1070
   515
1071
        5
1004
0100190500002101000021010000000000007B02B4391C9776407B02B4391C9776400000000007020000
1002
}
1001
DCO15
1071
        5
1071
        5
1000
unitlink
1004
074331363700
1071
        4
1000
Link
1004
074331363700
  0
VERTEX
  5
469
  8
HAN
 10
720425.1228343806
 20
3415016.643137834
 30
0.1527777777777778
  0
VERTEX
  5
46A
  8
HAN
 10
720509.5440131909
 20
3415018.060342053
 30
0.1527777777777778
  0
VERTEX
  5
46B
  8
HAN
 10
720507.83902689093
 20
3414924.6375957918
 30
0.1527777777777778
  0
VERTEX
  5
46C
  8
HAN
 10
720417.39356315124
 20
3414923.8404184189
 30
0.1527777777777778
  0
VERTEX
  5
46D
  8
HAN
 10
720425.1228343806
 20
3415016.643137834
 30
0.1527777777777778
  0
SEQEND
  5
46E
  8
HAN
  0
POLYLINE
  5
D8
  8
HAN
 66
     1
 10
0.0
 20
0.0
 30
0.0789473684210526
 70
     1
1001
ADE
1011
-18.048497835174199
1021
0.0
1031
0.0
1021
8.3542578225024027
1031
0.0
1001
IRD
1002
{
1000
TPMLINK_Unit_topology-_-ade
1070
   515
1071
        5
1004
01001B0500001D0100001D01000000000000EB95F766F1A67840EB95F766F1A678400402000000000000
1002
}
1001
DCO15
1071
        5
1071
        5
1000
unitlink
1004
074331363500
1071
        4
1000
Link
1004
074331363500
  0
VERTEX
  5
46F
  8
HAN
 10
720237.98029046506
 20
3415044.6007119608
 30
0.0789473684210526
  0
VERTEX
  5
470
  8
HAN
 10
720145.65122281411
 20
3415044.6007119608
 30
0.0789473684210526
  0
VERTEX
  5
471
  8
HAN
 10
720124.33077507827
 20
3414948.0939360652
 30
0.0789473684210526
  0
VERTEX
  5
472
  8
HAN
 10
720226.72738088295
 20
3414944.4220887721
 30
0.0789473684210526
  0
VERTEX
  5
473
  8
HAN
 10
720237.98029046506
 20
3415044.6007119608
 30
0.0789473684210526
  0
SEQEND
  5
474
  8
HAN
  0
POLYLINE
  5
D9
  8
HAN
 66
     1
 10
0.0
 20
0.0
 30
0.0865384615384616
 70
     1
1001
ADE
1011
-14.735953023773609
1021
0.0
1031
0.0
1021
8.1569765522144735
1031
0.0
1001
IRD
1002
{
1000
TPMLINK_Unit_topology-_-ade
1070
   515
1071
        5
1004
01001C050000A5010000A501000000000000F776B9D648F17140F776B9D648F171400002000000000000
1002
}
1001
DCO15
1071
        5
1071
        5
1000
unitlink
1004
07433235366100
1071
        4
1000
Link
1004
07433235363200
  0
VERTEX
  5
475
  8
HAN
 10
720725.03804358479
 20
3414304.0470894738
 30
0.0865384615384616
  0
VERTEX
  5
476
  8
HAN
 10
720669.87767727685
 20
3414310.3117763042
 30
0.0865384615384616
  0
VERTEX
  5
477
  8
HAN
 10
720679.14955515787
 20
3414215.5201396048
 30
0.0865384615384616
  0
VERTEX
  5
478
  8
HAN
 10
720714.69446002692
 20
3414205.261513615
 30
0.0865384615384616
  0
VERTEX
  5
479
  8
HAN
 10
720725.03804358479
 20
3414304.0470894738
 30
0.0865384615384616
  0
SEQEND
  5
47A
  8
HAN
  0
POLYLINE
  5
DA
  8
HAN
 66
     1
 10
0.0
 20
0.0
 30
0.03
 70
     1
1001
ADE
1011
-14.656718621379691
1021
0.0
1031
0.0
1021
7.755837100557982
1031
0.0
1001
IRD
1002
{
1000
TPMLINK_Unit_topology-_-ade
1070
   515
1071
        5
1004
01001D050000AF010000AF01000000000000D445C60BFD277340D445C60BFD2773400102000000000000
1002
}
1001
DCO15
1071
        5
1071
        5
1000
unitlink
1004
074331383600
1071
        4
1000
Link
1004
074331383600
  0
VERTEX
  5
47B
  8
HAN
 10
720618.08219681075
 20
3414236.4002023628
 30
0.03
  0
VERTEX
  5
47C
  8
HAN
 10
720677.91938067705
 20
3414217.9087209571
 30
0.03
  0
VERTEX
  5
47D
  8
HAN
 10
720665.93185184163
 20
3414331.8516699639
 30
0.03
  0
VERTEX
  5
47E
  8
HAN
 10
720615.25316381094
 20
3414309.305239216
 30
0.03
  0
VERTEX
  5
47F
  8
HAN
 10
720610.9988170414
 20
3414289.738158247
 30
0.03
  0
VERTEX
  5
480
  8
HAN
 10
720618.08219681075
 20
3414236.4002023628
 30
0.03
  0
SEQEND
  5
481
  8
HAN
  0
POLYLINE
  5
DB
  8
HAN
 66
     1
 10
0.0
 20
0.0
 30
0.7
 70
     1
1001
ADE
1011
0.2435694726882502
1021
0.0
1031
0.0
1021
-16.044201166369021
1031
0.0
1001
IRD
1002
{
1000
TPMLINK_Unit_topology-_-ade
1070
   515
1071
        5
1004
010020050000650100006501000000000000C66C80C16FCB7440C66C80C16FCB7440FD01000000000000
1002
}
1001
DCO15
1071
        5
1071
        5
1000
unitlink
1004
074332353700
1071
        4
1000
Link
1004
074332353700
  0
VERTEX
  5
482
  8
HAN
 10
720678.74360603839
 20
3414561.6159038711
 30
0.7
  0
VERTEX
  5
483
  8
HAN
 10
720704.00987921306
 20
3414516.708245201
 30
0.7
  0
VERTEX
  5
484
  8
HAN
 10
720748.45318877324
 20
3414521.2497405368
 30
0.7
  0
VERTEX
  5
485
  8
HAN
 10
720753.32457820303
 20
3414536.613522632
 30
0.7
  0
VERTEX
  5
486
  8
HAN
 10
720755.84146274265
 20
3414612.4339483161
 30
0.7
  0
VERTEX
  5
487
  8
HAN
 10
720753.66557546344
 20
3414619.4555510338
 30
0.7
  0
VERTEX
  5
488
  8
HAN
 10
720711.15458371094
 20
3414620.9613305172
 30
0.7
  0
VERTEX
  5
489
  8
HAN
 10
720710.16406786081
 20
3414561.7447406189
 30
0.7
  0
VERTEX
  5
48A
  8
HAN
 10
720706.86776101228
 20
3414555.8907209211
 30
0.7
  0
VERTEX
  5
48B
  8
HAN
 10
720678.74360603839
 20
3414561.6159038711
 30
0.7
  0
SEQEND
  5
48C
  8
HAN
  0
POLYLINE
  5
DC
  8
HAN
 66
     1
 10
0.0
 20
0.0
 30
0.6
 70
     1
1001
ADE
1011
-17.846026326413259
1021
0.0
1031
0.0
1021
10.6844802936539
1031
0.0
1001
IRD
1002
{
1000
TPMLINK_Unit_topology-_-ade
1070
   515
1071
        5
1004
010021050000490100004901000000000000CDADEC5211887640CDADEC5211887640FC01000000000000
1002
}
1001
DCO15
1071
        5
1071
        5
1000
unitlink
1004
074332353800
1071
        4
1000
Link
1004
074332353800
  0
VERTEX
  5
48D
  8
HAN
 10
720682.9654768781
 20
3414728.29039317
 30
0.6
  0
VERTEX
  5
48E
  8
HAN
 10
720673.61341527232
 20
3414635.744213569
 30
0.6
  0
VERTEX
  5
48F
  8
HAN
 10
720750.41381134698
 20
3414621.6637151712
 30
0.6
  0
VERTEX
  5
490
  8
HAN
 10
720762.04436528322
 20
3414731.3180567268
 30
0.6
  0
VERTEX
  5
491
  8
HAN
 10
720682.9654768781
 20
3414728.29039317
 30
0.6
  0
SEQEND
  5
492
  8
HAN
  0
POLYLINE
  5
DD
  8
HAN
 66
     1
 10
0.0
 20
0.0
 30
0.0480769230769231
 70
     1
1001
ADE
1011
-15.65339803334791
1021
0.0
1031
0.0
1021
2.5082904212176791
1031
0.0
1001
IRD
1002
{
1000
TPMLINK_Unit_topology-_-ade
1070
   515
1071
        5
1004
0100230500004A0100004A01000000000000157C44D512A87340157C44D512A8734000000000FA010000
1002
}
1001
DCO15
1071
        5
1071
        5
1000
unitlink
1004
074331383900
1071
        4
1000
Link
1004
074331383900
  0
VERTEX
  5
493
  8
HAN
 10
720606.90684992075
 20
3414725.810285788
 30
0.0480769230769231
  0
VERTEX
  5
494
  8
HAN
 10
720679.01965143904
 20
3414728.9667860921
 30
0.0480769230769231
  0
VERTEX
  5
495
  8
HAN
 10
720671.12800056487
 20
3414662.1890895972
 30
0.0480769230769231
  0
VERTEX
  5
496
  8
HAN
 10
720573.83011569455
 20
3414658.0663136919
 30
0.0480769230769231
  0
VERTEX
  5
497
  8
HAN
 10
720593.02339004702
 20
3414715.0524174031
 30
0.0480769230769231
  0
VERTEX
  5
498
  8
HAN
 10
720606.90684992075
 20
3414725.810285788
 30
0.0480769230769231
  0
SEQEND
  5
499
  8
HAN
  0
POLYLINE
  5
DE
  8
HAN
 66
     1
 10
0.0
 20
0.0
 30
0.0833333333333333
 70
     1
1001
ADE
1011
-13.79087979963515
1021
0.0
1031
0.0
1021
3.36183387087658
1031
0.0
1001
IRD
1002
{
1000
TPMLINK_Unit_topology-_-ade
1070
   515
1071
        5
1004
0100240500005E0100005E0100000000000054014C694E566C4054014C694E566C40F901000000000000
1002
}
1001
DCO15
1071
        5
1071
        5
1000
unitlink
1004
074332343300
1071
        4
1000
Link
1004
074332343300
  0
VERTEX
  5
49A
  8
HAN
 10
720511.02166798338
 20
3414607.3126876168
 30
0.0833333333333333
  0
VERTEX
  5
49B
  8
HAN
 10
720549.52188244089
 20
3414600.669542843
 30
0.0833333333333333
  0
VERTEX
  5
49C
  8
HAN
 10
720570.9072820358
 20
3414669.516679591
 30
0.0833333333333333
  0
VERTEX
  5
49D
  8
HAN
 10
720537.26221904543
 20
3414677.2549367142
 30
0.0833333333333333
  0
VERTEX
  5
49E
  8
HAN
 10
720519.17312629544
 20
3414645.7060382608
 30
0.0833333333333333
  0
VERTEX
  5
49F
  8
HAN
 10
720512.30446720135
 20
3414628.6190646738
 30
0.0833333333333333
  0
VERTEX
  5
4A0
  8
HAN
 10
720506.22492584737
 20
3414608.1403570962
 30
0.0833333333333333
  0
VERTEX
  5
4A1
  8
HAN
 10
720511.02166798338
 20
3414607.3126876168
 30
0.0833333333333333
  0
SEQEND
  5
4A2
  8
HAN
  0
POLYLINE
  5
DF
  8
HAN
 66
     1
 10
0.0
 20
0.0
 30
0.2
 70
     1
1001
ADE
1011
-38.96299645293039
1021
0.0
1031
0.0
1021
15.428200467024
1031
0.0
1001
IRD
1002
{
1000
TPMLINK_Unit_topology-_-ade
1070
   515
1071
        5
1004
010025050000390100003901000000000000A379ABF961EE7A40A379ABF961EE7A400A02000000000000
1002
}
1001
DCO15
1071
        5
1071
        5
1000
unitlink
1004
074331353800
1071
        4
1000
Link
1004
074331353800
  0
VERTEX
  5
4A3
  8
HAN
 10
720641.00657592702
 20
3414820.835439092
 30
0.2
  0
VERTEX
  5
4A4
  8
HAN
 10
720674.58668705809
 20
3414825.7392877778
 30
0.2
  0
VERTEX
  5
4A5
  8
HAN
 10
720680.88701738801
 20
3414874.8019315442
 30
0.2
  0
VERTEX
  5
4A6
  8
HAN
 10
720745.87135237816
 20
3414877.0726792119
 30
0.2
  0
VERTEX
  5
4A7
  8
HAN
 10
720773.16737114626
 20
3414933.599802014
 30
0.2
  0
VERTEX
  5
4A8
  8
HAN
 10
720657.1633508692
 20
3414922.7533583641
 30
0.2
  0
VERTEX
  5
4A9
  8
HAN
 10
720641.00657592702
 20
3414820.835439092
 30
0.2
  0
SEQEND
  5
4AA
  8
HAN
  0
POLYLINE
  5
E0
  8
HAN
 66
     1
 10
0.0
 20
0.0
 30
3.0
 70
     1
1001
ADE
1011
-32.143051251652643
1021
0.0
1031
0.0
1021
6.2123469007201484
1031
0.0
1001
IRD
1002
{
1000
TPMLINK_Unit_topology-_-ade
1070
   515
1071
        5
1004
0100260500003801000038010000000000009C95771BE57B78409C95771BE57B78400202000000000000
1002
}
1001
DCO15
1071
        5
1071
        5
1000
unitlink
1004
074331353900
1071
        4
1000
Link
1004
074331353900
  0
VERTEX
  5
4AB
  8
HAN
 10
720548.20660729706
 20
3414821.1816878491
 30
3.0
  0
VERTEX
  5
4AC
  8
HAN
 10
720635.85914109624
 20
3414820.4247719599
 30
3.0
  0
VERTEX
  5
4AD
  8
HAN
 10
720654.27299313981
 20
3414923.2606530562
 30
3.0
  0
VERTEX
  5
4AE
  8
HAN
 10
720554.29584408191
 20
3414920.4020877299
 30
3.0
  0
VERTEX
  5
4AF
  8
HAN
 10
720547.63827852905
 20
3414861.290177688
 30
3.0
  0
VERTEX
  5
4B0
  8
HAN
 10
720548.20660729706
 20
3414821.1816878491
 30
3.0
  0
SEQEND
  5
4B1
  8
HAN
  0
POLYLINE
  5
E1
  8
HAN
 66
     1
 10
0.0
 20
0.0
 30
0.2
 70
     1
1001
ADE
1011
-27.385327573865649
1021
0.0
1031
0.0
1021
8.9179185894317925
1031
0.0
1001
IRD
1002
{
1000
TPMLINK_Unit_topology-_-ade
1070
   515
1071
        5
1004
010027050000360100003601000000000000D6AD28D086077A40D6AD28D086077A400302000000000000
1002
}
1001
DCO15
1071
        5
1071
        5
1000
unitlink
1004
074332343900
1071
        4
1000
Link
1004
074332343900
  0
VERTEX
  5
4B2
  8
HAN
 10
720434.75194748503
 20
3414823.6215337482
 30
0.2
  0
VERTEX
  5
4B3
  8
HAN
 10
720534.90771415445
 20
3414819.3216073108
 30
0.2
  0
VERTEX
  5
4B4
  8
HAN
 10
720543.5354984178
 20
3414862.2303282288
 30
0.2
  0
VERTEX
  5
4B5
  8
HAN
 10
720548.80741199106
 20
3414920.4987152908
 30
0.2
  0
VERTEX
  5
4B6
  8
HAN
 10
720433.014485255
 20
3414921.7548735738
 30
0.2
  0
VERTEX
  5
4B7
  8
HAN
 10
720434.75194748503
 20
3414823.6215337482
 30
0.2
  0
SEQEND
  5
4B8
  8
HAN
  0
POLYLINE
  5
E2
  8
HAN
 66
     1
 10
0.0
 20
0.0
 30
0.1764705882352941
 70
     1
1001
ADE
1011
-25.95809982100036
1021
0.0
1031
0.0
1021
6.95718434313312
1031
0.0
1001
IRD
1002
{
1000
TPMLINK_Unit_topology-_-ade
1070
   515
1071
        5
1004
0100280500004B0100004B0100000000000006154F77B0EA734006154F77B0EA7340F801000000000000
1002
}
1001
DCO15
1071
        5
1071
        5
1000
unitlink
1004
074332343800
1071
        4
1000
Link
1004
074332343800
  0
VERTEX
  5
4B9
  8
HAN
 10
720447.40132203687
 20
3414724.4494476481
 30
0.1764705882352941
  0
VERTEX
  5
4BA
  8
HAN
 10
720527.50320222229
 20
3414726.4705741168
 30
0.1764705882352941
  0
VERTEX
  5
4BB
  8
HAN
 10
720524.82393803436
 20
3414805.8259580508
 30
0.1764705882352941
  0
VERTEX
  5
4BC
  8
HAN
 10
720443.15040155768
 20
3414801.6947225239
 30
0.1764705882352941
  0
VERTEX
  5
4BD
  8
HAN
 10
720447.40132203687
 20
3414724.4494476481
 30
0.1764705882352941
  0
SEQEND
  5
4BE
  8
HAN
  0
POLYLINE
  5
E3
  8
HAN
 66
     1
 10
0.0
 20
0.0
 30
0.4993902439024391
 70
     1
1001
ADE
1011
-6.4954707355936971
1021
0.0
1031
0.0
1021
0.7567461617290974
1031
0.0
1001
IRD
1002
{
1000
TPMLINK_Unit_topology-_-ade
1070
   515
1071
        5
1004
0100290500007E0100007E010000000000003AA923F6094179403AA923F609417940EC01000000000000
1002
}
1001
DCO15
1071
        5
1071
        5
1000
unitlink
1004
074332313900
1071
        4
1000
Link
1004
074332313900
  0
VERTEX
  5
4BF
  8
HAN
 10
720431.89406568557
 20
3414479.28117016
 30
0.4993902439024391
  0
VERTEX
  5
4C0
  8
HAN
 10
720385.74576982483
 20
3414480.0622429401
 30
0.4993902439024391
  0
VERTEX
  5
4C1
  8
HAN
 10
720378.08145045489
 20
3414462.9269555709
 30
0.4993902439024391
  0
VERTEX
  5
4C2
  8
HAN
 10
720368.45233735081
 20
3414420.966437493
 30
0.4993902439024391
  0
VERTEX
  5
4C3
  8
HAN
 10
720350.36381426326
 20
3414352.644676642
 30
0.4993902439024391
  0
VERTEX
  5
4C4
  8
HAN
 10
720422.55060473469
 20
3414332.3190426282
 30
0.4993902439024391
  0
VERTEX
  5
4C5
  8
HAN
 10
720442.6923122555
 20
3414407.6318341638
 30
0.4993902439024391
  0
VERTEX
  5
4C6
  8
HAN
 10
720431.89406568557
 20
3414479.28117016
 30
0.4993902439024391
  0
SEQEND
  5
4C7
  8
HAN
  0
POLYLINE
  5
E4
  8
HAN
 66
     1
 10
0.0
 20
0.0
 30
0.2
 70
     1
1001
ADE
1011
-14.54921642690897
1021
0.0
1031
0.0
1021
1.690982306376098
1031
0.0
1001
IRD
1002
{
1000
TPMLINK_Unit_topology-_-ade
1070
   515
1071
        5
1004
01002A050000AB010000AB01000000000000002C1721403B7540002C1721403B7540EB01000000000000
1002
}
1001
DCO15
1071
        5
1071
        5
1000
unitlink
1004
074332313800
1071
        4
1000
Link
1004
074332313800
  0
VERTEX
  5
4C8
  8
HAN
 10
720314.26624893048
 20
3414264.5022604018
 30
0.2
  0
VERTEX
  5
4C9
  8
HAN
 10
720393.31266140565
 20
3414242.9704190399
 30
0.2
  0
VERTEX
  5
4CA
  8
HAN
 10
720421.50176823512
 20
3414329.113889087
 30
0.2
  0
VERTEX
  5
4CB
  8
HAN
 10
720349.09668334958
 20
3414349.5506181
 30
0.2
  0
VERTEX
  5
4CC
  8
HAN
 10
720314.26624893048
 20
3414264.5022604018
 30
0.2
  0
SEQEND
  5
4CD
  8
HAN
  0
POLYLINE
  5
E5
  8
HAN
 66
     1
 10
0.0
 20
0.0
 30
0.0303030303030303
 70
     1
1001
ADE
1011
-9.2312829701695591
1021
0.0
1031
0.0
1021
-2.9431144404225038
1031
0.0
1001
IRD
1002
{
1000
TPMLINK_Unit_topology-_-ade
1070
   515
1071
        5
1004
01002B05000076010000760100000000000033AB31E6CC6B784033AB31E6CC6B784000000000EA010000
1002
}
1001
DCO15
1071
        5
1071
        5
1000
unitlink
1004
074332313700
1071
        4
1000
Link
1004
074332313700
  0
VERTEX
  5
4CE
  8
HAN
 10
720309.167527996
 20
3414499.0737154372
 30
0.0303030303030303
  0
VERTEX
  5
4CF
  8
HAN
 10
720371.05041171238
 20
3414468.4910925892
 30
0.0303030303030303
  0
VERTEX
  5
4D0
  8
HAN
 10
720348.08992953598
 20
3414361.435808022
 30
0.0303030303030303
  0
VERTEX
  5
4D1
  8
HAN
 10
720262.30476168566
 20
3414385.1015080111
 30
0.0303030303030303
  0
VERTEX
  5
4D2
  8
HAN
 10
720309.167527996
 20
3414499.0737154372
 30
0.0303030303030303
  0
SEQEND
  5
4D3
  8
HAN
  0
POLYLINE
  5
E6
  8
HAN
 66
     1
 10
0.0
 20
0.0
 30
0.036
 70
     1
1001
ADE
1011
-15.43418551050126
1021
0.0
1031
0.0
1021
10.790077572222801
1031
0.0
1001
IRD
1002
{
1000
TPMLINK_Unit_topology-_-ade
1070
   515
1071
        5
1004
01002E0500003B0100003B010000000000001E704DB52C2374401E704DB52C23744000000000F5010000
1002
}
1001
DCO15
1071
        5
1071
        5
1000
unitlink
1004
074331363900
1071
        4
1000
Link
1004
074331363900
  0
VERTEX
  5
4D4
  8
HAN
 10
720362.78528764856
 20
3414818.6854758719
 30
0.036
  0
VERTEX
  5
4D5
  8
HAN
 10
720434.54085394379
 20
3414803.5149488989
 30
0.036
  0
VERTEX
  5
4D6
  8
HAN
 10
720431.9103036524
 20
3414718.241126895
 30
0.036
  0
VERTEX
  5
4D7
  8
HAN
 10
720363.30490252015
 20
3414723.9904667339
 30
0.036
  0
VERTEX
  5
4D8
  8
HAN
 10
720362.78528764856
 20
3414818.6854758719
 30
0.036
  0
SEQEND
  5
4D9
  8
HAN
  0
POLYLINE
  5
E7
  8
HAN
 66
     1
 10
0.0
 20
0.0
 30
0.02
 70
     1
1001
ADE
1011
-23.395494374912229
1021
0.0
1031
0.0
1021
1.799688311293721
1031
0.0
1001
IRD
1002
{
1000
TPMLINK_Unit_topology-_-ade
1070
   515
1071
        5
1004
01002F0500004801000048010000000000004134D136F30375404134D136F3037540F401000000000000
1002
}
1001
DCO15
1071
        5
1071
        5
1000
unitlink
1004
074331373000
1071
        4
1000
Link
1004
074331373000
  0
VERTEX
  5
4DA
  8
HAN
 10
720206.09833992948
 20
3414730.3394160299
 30
0.02
  0
VERTEX
  5
4DB
  8
HAN
 10
720285.76862077042
 20
3414725.4640370291
 30
0.02
  0
VERTEX
  5
4DC
  8
HAN
 10
720289.9904916063
 20
3414826.069431942
 30
0.02
  0
VERTEX
  5
4DD
  8
HAN
 10
720245.69332372781
 20
3414827.6557343919
 30
0.02
  0
VERTEX
  5
4DE
  8
HAN
 10
720223.02512491855
 20
3414810.7942251121
 30
0.02
  0
VERTEX
  5
4DF
  8
HAN
 10
720211.43121807685
 20
3414784.463214918
 30
0.02
  0
VERTEX
  5
4E0
  8
HAN
 10
720208.78442981828
 20
3414757.600753142
 30
0.02
  0
VERTEX
  5
4E1
  8
HAN
 10
720206.09833992948
 20
3414730.3394160299
 30
0.02
  0
SEQEND
  5
4E2
  8
HAN
  0
POLYLINE
  5
E8
  8
HAN
 66
     1
 10
0.0
 20
0.0
 30
0.06
 70
     1
1001
ADE
1011
-12.040450872736979
1021
0.0
1031
0.0
1021
-3.4745660242624581
1031
0.0
1001
IRD
1002
{
1000
TPMLINK_Unit_topology-_-ade
1070
   515
1071
        5
1004
010030050000510100005101000000000000FC439F9B927B7240FC439F9B927B7240F101000000000000
1002
}
1001
DCO15
1071
        5
1071
        5
1000
unitlink
1004
074331373400
1071
        4
1000
Link
1004
074331373400
  0
VERTEX
  5
4E3
  8
HAN
 10
720093.39745220169
 20
3414670.5876350501
 30
0.06
  0
VERTEX
  5
4E4
  8
HAN
 10
720141.72163534164
 20
3414661.2147616972
 30
0.06
  0
VERTEX
  5
4E5
  8
HAN
 10
720197.1418090834
 20
3414733.3069740119
 30
0.06
  0
VERTEX
  5
4E6
  8
HAN
 10
720144.2222819142
 20
3414754.871024562
 30
0.06
  0
VERTEX
  5
4E7
  8
HAN
 10
720093.39745220169
 20
3414670.5876350501
 30
0.06
  0
SEQEND
  5
4E8
  8
HAN
  0
POLYLINE
  5
E9
  8
HAN
 66
     1
 10
0.0
 20
0.0
 30
0.0428571428571429
 70
     1
1001
ADE
1011
-16.911840301007029
1021
0.0
1031
0.0
1021
6.1036408958025259
1031
0.0
1001
IRD
1002
{
1000
TPMLINK_Unit_topology-_-ade
1070
   515
1071
        5
1004
0100310500005D0100005D010000000000008F3C2800727873408F3C28007278734000000000F0010000
1002
}
1001
DCO15
1071
        5
1071
        5
1000
unitlink
1004
074331373300
1071
        4
1000
Link
1004
074331373300
  0
VERTEX
  5
4E9
  8
HAN
 10
720212.19440241926
 20
3414623.030770767
 30
0.0428571428571429
  0
VERTEX
  5
4EA
  8
HAN
 10
720144.12485412497
 20
3414658.5575037892
 30
0.0428571428571429
  0
VERTEX
  5
4EB
  8
HAN
 10
720197.75885174435
 20
3414726.1967960289
 30
0.0428571428571429
  0
VERTEX
  5
4EC
  8
HAN
 10
720251.63641883468
 20
3414704.1657122709
 30
0.0428571428571429
  0
VERTEX
  5
4ED
  8
HAN
 10
720212.19440241926
 20
3414623.030770767
 30
0.0428571428571429
  0
SEQEND
  5
4EE
  8
HAN
  0
POLYLINE
  5
EA
  8
HAN
 66
     1
 10
0.0
 20
0.0
 30
0.03
 70
     1
1001
ADE
1011
-11.75628649070859
1021
0.0
1031
0.0
1021
-1.6104593379423009
1031
0.0
1001
IRD
1002
{
1000
TPMLINK_Unit_topology-_-ade
1070
   515
1071
        5
1004
0100330500005F0100005F01000000000000166D0007E2BB7640166D0007E2BB7640ED01000000000000
1002
}
1001
DCO15
1071
        5
1071
        5
1000
unitlink
1004
074331383400
1071
        4
1000
Link
1004
074331383400
  0
VERTEX
  5
4EF
  8
HAN
 10
720239.44170729455
 20
3414603.47979439
 30
0.03
  0
VERTEX
  5
4F0
  8
HAN
 10
720209.64504195016
 20
3414515.2990932781
 30
0.03
  0
VERTEX
  5
4F1
  8
HAN
 10
720289.61701841652
 20
3414483.5488874088
 30
0.03
  0
VERTEX
  5
4F2
  8
HAN
 10
720320.81014873099
 20
3414577.8251771191
 30
0.03
  0
VERTEX
  5
4F3
  8
HAN
 10
720239.44170729455
 20
3414603.47979439
 30
0.03
  0
SEQEND
  5
4F4
  8
HAN
  0
POLYLINE
  5
EB
  8
HAN
 66
     1
 10
0.0
 20
0.0
 30
0.024
 70
     1
1001
ADE
1011
-22.99295810598414
1021
0.0
1031
0.0
1021
-0.3663794980384409
1031
0.0
1001
IRD
1002
{
1000
TPMLINK_Unit_topology-_-ade
1070
   515
1071
        5
1004
01003405000091010000910100000000000047493FABAD847C4047493FABAD847C4000000000E9010000
1002
}
1001
DCO15
1071
        5
1071
        5
1000
unitlink
1004
074332343700
1071
        4
1000
Link
1004
074332343700
  0
VERTEX
  5
4F5
  8
HAN
 10
720156.92037035909
 20
3414382.1946289041
 30
0.024
  0
VERTEX
  5
4F6
  8
HAN
 10
720206.67349439859
 20
3414513.374594368
 30
0.024
  0
VERTEX
  5
4F7
  8
HAN
 10
720287.79836636432
 20
3414481.584127015
 30
0.024
  0
VERTEX
  5
4F8
  8
HAN
 10
720244.21566893545
 20
3414352.1756668221
 30
0.024
  0
VERTEX
  5
4F9
  8
HAN
 10
720156.92037035909
 20
3414382.1946289041
 30
0.024
  0
SEQEND
  5
4FA
  8
HAN
  0
POLYLINE
  5
EC
  8
HAN
 66
     1
 10
0.0
 20
0.0
 30
0.02
 70
     1
1001
ADE
1011
-17.643529833061621
1021
0.0
1031
0.0
1021
8.1231912393122911
1031
0.0
1001
IRD
1002
{
1000
TPMLINK_Unit_topology-_-ade
1070
   515
1071
        5
1004
010036050000670100006701000000000000FD880C6761197540FD880C6761197540F201000000000000
1002
}
1001
DCO15
1071
        5
1071
        5
1000
unitlink
1004
074331383300
1071
        4
1000
Link
1004
074331383300
  0
VERTEX
  5
4FB
  8
HAN
 10
720078.70209408936
 20
3414547.733744368
 30
0.02
  0
VERTEX
  5
4FC
  8
HAN
 10
720100.03877979144
 20
3414549.376412895
 30
0.02
  0
VERTEX
  5
4FD
  8
HAN
 10
720099.92511403561
 20
3414564.8287702519
 30
0.02
  0
VERTEX
  5
4FE
  8
HAN
 10
720091.75741776079
 20
3414665.7079432532
 30
0.02
  0
VERTEX
  5
4FF
  8
HAN
 10
720039.63355086371
 20
3414657.3899207688
 30
0.02
  0
VERTEX
  5
500
  8
HAN
 10
720042.23162522935
 20
3414569.5796253029
 30
0.02
  0
VERTEX
  5
501
  8
HAN
 10
720076.96463185921
 20
3414571.761797708
 30
0.02
  0
VERTEX
  5
502
  8
HAN
 10
720078.70209408936
 20
3414547.733744368
 30
0.02
  0
SEQEND
  5
503
  8
HAN
  0
POLYLINE
  5
ED
  8
HAN
 66
     1
 10
0.0
 20
0.0
 30
0.02
 70
     1
1001
ADE
1011
-18.01602190721314
1021
0.0
1031
0.0
1021
5.4554310124367458
1031
0.0
1001
IRD
1002
{
1000
TPMLINK_Unit_topology-_-ade
1070
   515
1071
        5
1004
0100370500008101000081010000000000000798F295E24D71400798F295E24D7140F301000000000000
1002
}
1001
DCO15
1071
        5
1071
        5
1000
unitlink
1004
074331383200
1071
        4
1000
Link
1004
074331383200
  0
VERTEX
  5
504
  8
HAN
 10
720085.53827725339
 20
3414467.5006600949
 30
0.02
  0
VERTEX
  5
505
  8
HAN
 10
720132.70956489816
 20
3414471.5590176289
 30
0.02
  0
VERTEX
  5
506
  8
HAN
 10
720142.48481968418
 20
3414477.4613511078
 30
0.02
  0
VERTEX
  5
507
  8
HAN
 10
720142.48481968418
 20
3414551.3653301778
 30
0.02
  0
VERTEX
  5
508
  8
HAN
 10
720078.60466630023
 20
3414546.3245924469
 30
0.02
  0
VERTEX
  5
509
  8
HAN
 10
720078.13376532134
 20
3414488.0259643719
 30
0.02
  0
VERTEX
  5
50A
  8
HAN
 10
720085.53827725339
 20
3414467.5006600949
 30
0.02
  0
SEQEND
  5
50B
  8
HAN
  0
POLYLINE
  5
EE
  8
HAN
 66
     1
 10
0.0
 20
0.0
 30
0.03
 70
     1
1001
DCO15
1071
        4
1071
        4
1000
unitlink
1004
0743343100
1071
        3
1000
Link
1004
0743343100
1001
ADE
1011
-6.4998547565191984
1021
0.0
1031
0.0
1021
5.3542419876903278
1031
0.0
1001
IRD
1002
{
1000
TPMLINK_Unit_topology-_-ade
1070
   515
1071
        2
1004
010097030000910000009100000000000000A0F2AD6204167640A0F2AD62041676400000000086030000
1002
}
  0
VERTEX
  5
50C
  8
HAN
 10
724881.07663716935
 20
3422122.6138044819
 30
0.03
  0
VERTEX
  5
50D
  8
HAN
 10
724860.67344046675
 20
3422136.7727117599
 30
0.03
  0
VERTEX
  5
50E
  8
HAN
 10
724844.80536418932
 20
3422145.269114539
 30
0.03
  0
VERTEX
  5
50F
  8
HAN
 10
724838.57441881869
 20
3422161.6930236169
 30
0.03
  0
VERTEX
  5
510
  8
HAN
 10
724847.63981445599
 20
3422176.4208273771
 30
0.03
  0
VERTEX
  5
511
  8
HAN
 10
724861.40506780031
 20
3422189.4472337542
 30
0.03
  0
VERTEX
  5
512
  8
HAN
 10
724873.14502163813
 20
3422207.0062897629
 30
0.03
  0
VERTEX
  5
513
  8
HAN
 10
724896.9447134462
 20
3422230.22785027
 30
0.03
  0
VERTEX
  5
514
  8
HAN
 10
724911.81952082645
 20
3422245.6409758348
 30
0.03
  0
VERTEX
  5
515
  8
HAN
 10
724924.54305313237
 20
3422245.6409758348
 30
0.03
  0
VERTEX
  5
516
  8
HAN
 10
724941.63212336996
 20
3422240.4759250018
 30
0.03
  0
VERTEX
  5
517
  8
HAN
 10
724949.18581219949
 20
3422220.2152722208
 30
0.03
  0
VERTEX
  5
518
  8
HAN
 10
724949.18581219949
 20
3422209.4882660322
 30
0.03
  0
VERTEX
  5
519
  8
HAN
 10
724940.04289313511
 20
3422190.4183268161
 30
0.03
  0
VERTEX
  5
51A
  8
HAN
 10
724929.03601421404
 20
3422167.4606138021
 30
0.03
  0
VERTEX
  5
51B
  8
HAN
 10
724914.48637006537
 20
3422137.1135411011
 30
0.03
  0
VERTEX
  5
51C
  8
HAN
 10
724898.70352617535
 20
3422124.8682221598
 30
0.03
  0
VERTEX
  5
51D
  8
HAN
 10
724881.07663716935
 20
3422122.6138044819
 30
0.03
  0
SEQEND
  5
51E
  8
HAN
  0
POLYLINE
  5
EF
  8
HAN
 66
     1
 10
0.0
 20
0.0
 30
0.078125
 70
     1
1001
DCO15
1071
        4
1071
        4
1000
unitlink
1004
074132353400
1071
        3
1000
Link
1004
074132353400
1001
ADE
1011
-24.378562266123481
1021
0.0
1031
0.0
1021
9.7789249308407271
1031
0.0
1001
IRD
1002
{
1000
TPMLINK_Unit_topology-_-ade
1070
   515
1071
        2
1004
01009A030000AE010000AE01000000000000C521B8D0C71D7040C521B8D0C71D70408303000000000000
1002
}
  0
VERTEX
  5
51F
  8
HAN
 10
720612.12427385058
 20
3414245.4291283251
 30
0.078125
  0
VERTEX
  5
520
  8
HAN
 10
720604.49562187318
 20
3414310.069403606
 30
0.078125
  0
VERTEX
  5
521
  8
HAN
 10
720528.20887725975
 20
3414299.4617650681
 30
0.078125
  0
VERTEX
  5
522
  8
HAN
 10
720528.20887725975
 20
3414271.6167484368
 30
0.078125
  0
VERTEX
  5
523
  8
HAN
 10
720612.12427385058
 20
3414245.4291283251
 30
0.078125
  0
SEQEND
  5
524
  8
HAN
  0
POLYLINE
  5
F0
  8
HAN
 66
     1
 10
0.0
 20
0.0
 30
0.2
 70
     1
1001
ADE
1011
-21.374807079671879
1021
0.0
1031
0.0
1021
-3.2777180452831081
1031
0.0
1001
IRD
1002
{
1000
TPMLINK_Unit_topology-_-ade
1070
   515
1071
        5
1004
0100430500002E0100002E010000000000009494822BFFB675409494822BFFB6754000000000CD010000
1002
}
1001
DCO15
1071
        5
1071
        5
1000
unitlink
1004
074132363500
1071
        4
1000
Link
1004
074132363500
  0
VERTEX
  5
525
  8
HAN
 10
720112.14136482414
 20
3414910.7287559202
 30
0.2
  0
VERTEX
  5
526
  8
HAN
 10
720111.00205664919
 20
3414905.669149186
 30
0.2
  0
VERTEX
  5
527
  8
HAN
 10
720061.3608209939
 20
3414901.1084987381
 30
0.2
  0
VERTEX
  5
528
  8
HAN
 10
720061.3608209939
 20
3414901.1084987381
 30
0.2
  0
VERTEX
  5
529
  8
HAN
 10
720060.98846837424
 20
3414929.1822344339
 30
0.2
  0
VERTEX
  5
52A
  8
HAN
 10
720060.2963969683
 20
3414951.7189125852
 30
0.2
  0
VERTEX
  5
52B
  8
HAN
 10
720062.28218469047
 20
3414974.0867474731
 30
0.2
  0
VERTEX
  5
52C
  8
HAN
 10
720065.604830842
 20
3415023.5027826
 30
0.2
  0
VERTEX
  5
52D
  8
HAN
 10
720131.19921018369
 20
3415011.7206329349
 30
0.2
  0
VERTEX
  5
52E
  8
HAN
 10
720116.10250699136
 20
3414950.6025080769
 30
0.2
  0
VERTEX
  5
52F
  8
HAN
 10
720115.07170512411
 20
3414924.880093581
 30
0.2
  0
VERTEX
  5
530
  8
HAN
 10
720112.14136482414
 20
3414910.7287559202
 30
0.2
  0
SEQEND
  5
531
  8
HAN
  0
POLYLINE
  5
F1
  8
HAN
 66
     1
 10
0.0
 20
0.0
 30
0.4
 70
     1
1001
ADE
1011
-22.04602893802803
1021
0.0
1031
0.0
1021
-0.3930505043826997
1031
0.0
1001
IRD
1002
{
1000
TPMLINK_Unit_topology-_-ade
1070
   515
1071
        5
1004
0100460500004F0100004F01000000000000A8B0AB3C99027740A8B0AB3C99027740D401000000000000
1002
}
1001
DCO15
1071
        5
1071
        5
1000
unitlink
1004
074332303800
1071
        4
1000
Link
1004
074332303800
  0
VERTEX
  5
532
  8
HAN
 10
719962.31603265915
 20
3414680.5993234338
 30
0.4
  0
VERTEX
  5
533
  8
HAN
 10
719994.23244863376
 20
3414681.718332428
 30
0.4
  0
VERTEX
  5
534
  8
HAN
 10
720015.07534430234
 20
3414682.4490970508
 30
0.4
  0
VERTEX
  5
535
  8
HAN
 10
720031.74965988495
 20
3414725.3596832128
 30
0.4
  0
VERTEX
  5
536
  8
HAN
 10
720036.23029610515
 20
3414761.1599206119
 30
0.4
  0
VERTEX
  5
537
  8
HAN
 10
720030.54832988605
 20
3414798.7312513818
 30
0.4
  0
VERTEX
  5
538
  8
HAN
 10
720010.88872675982
 20
3414801.1544291331
 30
0.4
  0
VERTEX
  5
539
  8
HAN
 10
719993.34222720121
 20
3414803.3171527172
 30
0.4
  0
VERTEX
  5
53A
  8
HAN
 10
719977.51123375469
 20
3414799.0693692081
 30
0.4
  0
VERTEX
  5
53B
  8
HAN
 10
719957.3483707644
 20
3414799.415537457
 30
0.4
  0
VERTEX
  5
53C
  8
HAN
 10
719954.91324238095
 20
3414788.2979013338
 30
0.4
  0
VERTEX
  5
53D
  8
HAN
 10
719956.29314846545
 20
3414770.2407993581
 30
0.4
  0
VERTEX
  5
53E
  8
HAN
 10
719957.79922936112
 20
3414750.5326057179
 30
0.4
  0
VERTEX
  5
53F
  8
HAN
 10
719953.85802008223
 20
3414733.772376732
 30
0.4
  0
VERTEX
  5
540
  8
HAN
 10
719954.2151722461
 20
3414709.105876307
 30
0.4
  0
VERTEX
  5
541
  8
HAN
 10
719961.86147535965
 20
3414691.0487743299
 30
0.4
  0
VERTEX
  5
542
  8
HAN
 10
719962.31603265915
 20
3414680.5993234338
 30
0.4
  0
SEQEND
  5
543
  8
HAN
  0
POLYLINE
  5
F2
  8
HAN
 66
     1
 10
0.0
 20
0.0
 30
1.5
 70
     1
1001
ADE
1011
-24.229527387884449
1021
0.0
1031
0.0
1021
1.0955618838779611
1031
0.0
1001
IRD
1002
{
1000
TPMLINK_Unit_topology-_-ade
1070
   515
1071
        5
1004
01004705000055010000550100000000000084E852EB8B52734084E852EB8B527340D501000000000000
1002
}
1001
DCO15
1071
        5
1071
        5
1000
unitlink
1004
074332303900
1071
        4
1000
Link
1004
074332303900
  0
VERTEX
  5
544
  8
HAN
 10
719975.06098856195
 20
3414653.3764102301
 30
1.5
  0
VERTEX
  5
545
  8
HAN
 10
719978.60743010347
 20
3414608.6550015169
 30
1.5
  0
VERTEX
  5
546
  8
HAN
 10
719971.7805649637
 20
3414577.22382345
 30
1.5
  0
VERTEX
  5
547
  8
HAN
 10
719974.34369680053
 20
3414559.624187341
 30
1.5
  0
VERTEX
  5
548
  8
HAN
 10
719990.10576006968
 20
3414560.3243476069
 30
1.5
  0
VERTEX
  5
549
  8
HAN
 10
720038.51931678527
 20
3414570.1877525048
 30
1.5
  0
VERTEX
  5
54A
  8
HAN
 10
720038.51931678527
 20
3414594.6690931679
 30
1.5
  0
VERTEX
  5
54B
  8
HAN
 10
720038.51931678527
 20
3414625.6149246409
 30
1.5
  0
VERTEX
  5
54C
  8
HAN
 10
720035.61339691654
 20
3414658.4204041562
 30
1.5
  0
VERTEX
  5
54D
  8
HAN
 10
719999.88194647816
 20
3414656.5205039922
 30
1.5
  0
VERTEX
  5
54E
  8
HAN
 10
719975.06098856195
 20
3414653.3764102301
 30
1.5
  0
SEQEND
  5
54F
  8
HAN
  0
POLYLINE
  5
F3
  8
HAN
 66
     1
 10
0.0
 20
0.0
 30
0.0480769230769231
 70
     1
1001
ADE
1011
-23.457518509705562
1021
0.0
1031
0.0
1021
0.1247815787792206
1031
0.0
1001
IRD
1002
{
1000
TPMLINK_Unit_topology-_-ade
1070
   515
1071
        5
1004
01004A050000970100009701000000000000A741868B10D67840A741868B10D67840D801000000000000
1002
}
1001
DCO15
1071
        5
1071
        5
1000
unitlink
1004
074332313200
1071
        4
1000
Link
1004
074332313200
  0
VERTEX
  5
550
  8
HAN
 10
719994.63830336556
 20
3414370.2635124451
 30
0.0480769230769231
  0
VERTEX
  5
551
  8
HAN
 10
720085.20884493354
 20
3414378.30588644
 30
0.0480769230769231
  0
VERTEX
  5
552
  8
HAN
 10
720086.71862453222
 20
3414403.9464882212
 30
0.0480769230769231
  0
VERTEX
  5
553
  8
HAN
 10
720084.62441412359
 20
3414440.398809996
 30
0.0480769230769231
  0
VERTEX
  5
554
  8
HAN
 10
720083.54073830519
 20
3414459.2615276431
 30
0.0480769230769231
  0
VERTEX
  5
555
  8
HAN
 10
720077.20538965613
 20
3414479.9183434779
 30
0.0480769230769231
  0
VERTEX
  5
556
  8
HAN
 10
720056.0035385564
 20
3414478.8556874529
 30
0.0480769230769231
  0
VERTEX
  5
557
  8
HAN
 10
720041.52264178544
 20
3414477.6722750631
 30
0.0480769230769231
  0
VERTEX
  5
558
  8
HAN
 10
720023.71373622864
 20
3414472.3589949468
 30
0.0480769230769231
  0
VERTEX
  5
559
  8
HAN
 10
720007.87941683515
 20
3414467.6348318518
 30
0.0480769230769231
  0
VERTEX
  5
55A
  8
HAN
 10
719989.15330122737
 20
3414462.0479024691
 30
0.0480769230769231
  0
VERTEX
  5
55B
  8
HAN
 10
719972.08901455998
 20
3414456.2581461049
 30
0.0480769230769231
  0
VERTEX
  5
55C
  8
HAN
 10
719966.42151274346
 20
3414454.3352145832
 30
0.0480769230769231
  0
VERTEX
  5
55D
  8
HAN
 10
719972.86825564096
 20
3414429.5065857559
 30
0.0480769230769231
  0
VERTEX
  5
55E
  8
HAN
 10
719982.2678511925
 20
3414407.6013809079
 30
0.0480769230769231
  0
VERTEX
  5
55F
  8
HAN
 10
719988.32809395227
 20
3414393.4783414281
 30
0.0480769230769231
  0
VERTEX
  5
560
  8
HAN
 10
719990.54728768405
 20
3414377.1788270222
 30
0.0480769230769231
  0
VERTEX
  5
561
  8
HAN
 10
719994.63830336556
 20
3414370.2635124451
 30
0.0480769230769231
  0
SEQEND
  5
562
  8
HAN
  0
POLYLINE
  5
F4
  8
HAN
 66
     1
 10
0.0
 20
0.0
 30
0.0657894736842105
 70
     1
1001
ADE
1011
-15.441325817373579
1021
0.0
1031
0.0
1021
7.7294855592772347
1031
0.0
1001
IRD
1002
{
1000
TPMLINK_Unit_topology-_-ade
1070
   515
1071
        5
1004
010055050000C6010000C601000000000000254A1EEE99AA7140254A1EEE99AA7140C801000000000000
1002
}
1001
DCO15
1071
        5
1071
        5
1000
unitlink
1004
074331393200
1071
        4
1000
Link
1004
074331393200
  0
VERTEX
  5
563
  8
HAN
 10
719909.2628709228
 20
3413717.4213679088
 30
0.0657894736842105
  0
VERTEX
  5
564
  8
HAN
 10
719911.67689555511
 20
3413738.0274441889
 30
0.0657894736842105
  0
VERTEX
  5
565
  8
HAN
 10
719914.39037698205
 20
3413761.189678953
 30
0.0657894736842105
  0
VERTEX
  5
566
  8
HAN
 10
719912.34283338476
 20
3413779.4086309681
 30
0.0657894736842105
  0
VERTEX
  5
567
  8
HAN
 10
719894.44575420395
 20
3413781.9602427571
 30
0.0657894736842105
  0
VERTEX
  5
568
  8
HAN
 10
719874.45097085461
 20
3413783.3688612529
 30
0.0657894736842105
  0
VERTEX
  5
569
  8
HAN
 10
719862.62994892104
 20
3413784.2016439778
 30
0.0657894736842105
  0
VERTEX
  5
56A
  8
HAN
 10
719842.48609814455
 20
3413785.6207641689
 30
0.0657894736842105
  0
VERTEX
  5
56B
  8
HAN
 10
719825.23816521105
 20
3413784.560150038
 30
0.0657894736842105
  0
VERTEX
  5
56C
  8
HAN
 10
719827.01954890788
 20
3413764.259945204
 30
0.0657894736842105
  0
VERTEX
  5
56D
  8
HAN
 10
719835.99306116626
 20
3413754.1017935369
 30
0.0657894736842105
  0
VERTEX
  5
56E
  8
HAN
 10
719837.59131196153
 20
3413739.5728999092
 30
0.0657894736842105
  0
VERTEX
  5
56F
  8
HAN
 10
719837.14180392411
 20
3413734.2845436139
 30
0.0657894736842105
  0
VERTEX
  5
570
  8
HAN
 10
719843.83447911602
 20
3413724.3356724111
 30
0.0657894736842105
  0
VERTEX
  5
571
  8
HAN
 10
719882.12590434775
 20
3413719.594665016
 30
0.0657894736842105
  0
VERTEX
  5
572
  8
HAN
 10
719898.81700065115
 20
3413717.5280767269
 30
0.0657894736842105
  0
VERTEX
  5
573
  8
HAN
 10
719909.12584299094
 20
3413716.251699639
 30
0.0657894736842105
  0
VERTEX
  5
574
  8
HAN
 10
719909.2628709228
 20
3413717.4213679088
 30
0.0657894736842105
  0
SEQEND
  5
575
  8
HAN
  0
ENDSEC
  0
EOF
