  0
SECTION
  2
HEADER
  9
$ACADVER
  1
AC1009
  9
$INSBASE
 10
0.0
 20
0.0
 30
0.0
  9
$EXTMIN
 10
719409.74073623738
 20
3413692.6531089768
 30
0.0066225165562914
  9
$EXTMAX
 10
730659.53900161386
 20
3423794.593125009
 30
11.699999999999999
  9
$LIMMIN
 10
0.0
 20
0.0
  9
$LIMMAX
 10
12.0
 20
9.0
  9
$ORTHOMODE
 70
     0
  9
$REGENMODE
 70
     1
  9
$FILLMODE
 70
     1
  9
$QTEXTMODE
 70
     0
  9
$MIRRTEXT
 70
     0
  9
$DRAGMODE
 70
     2
  9
$LTSCALE
 40
1.0
  9
$OSMODE
 70
    37
  9
$ATTMODE
 70
     1
  9
$TEXTSIZE
 40
0.2
  9
$TRACEWID
 40
0.05
  9
$TEXTSTYLE
  7
STANDARD
  9
$CLAYER
  8
EASTERN_ZHOU
  9
$CELTYPE
  6
BYLAYER
  9
$CECOLOR
 62
   256
  9
$DIMSCALE
 40
1.0
  9
$DIMASZ
 40
0.18
  9
$DIMEXO
 40
0.0625
  9
$DIMDLI
 40
0.38
  9
$DIMRND
 40
0.0
  9
$DIMDLE
 40
0.0
  9
$DIMEXE
 40
0.18
  9
$DIMTP
 40
0.0
  9
$DIMTM
 40
0.0
  9
$DIMTXT
 40
0.18
  9
$DIMCEN
 40
0.09
  9
$DIMTSZ
 40
0.0
  9
$DIMTOL
 70
     0
  9
$DIMLIM
 70
     0
  9
$DIMTIH
 70
     1
  9
$DIMTOH
 70
     1
  9
$DIMSE1
 70
     0
  9
$DIMSE2
 70
     0
  9
$DIMTAD
 70
     0
  9
$DIMZIN
 70
     0
  9
$DIMBLK
  1

  9
$DIMASO
 70
     1
  9
$DIMSHO
 70
     1
  9
$DIMPOST
  1

  9
$DIMAPOST
  1

  9
$DIMALT
 70
     0
  9
$DIMALTD
 70
     2
  9
$DIMALTF
 40
25.399999999999999
  9
$DIMLFAC
 40
1.0
  9
$DIMTOFL
 70
     0
  9
$DIMTVP
 40
0.0
  9
$DIMTIX
 70
     0
  9
$DIMSOXD
 70
     0
  9
$DIMSAH
 70
     0
  9
$DIMBLK1
  1

  9
$DIMBLK2
  1

  9
$DIMSTYLE
  2
STANDARD
  9
$DIMCLRD
 70
     0
  9
$DIMCLRE
 70
     0
  9
$DIMCLRT
 70
     0
  9
$DIMTFAC
 40
1.0
  9
$DIMGAP
 40
0.09
  9
$LUNITS
 70
     2
  9
$LUPREC
 70
     4
  9
$SKETCHINC
 40
0.1
  9
$FILLETRAD
 40
0.0
  9
$AUNITS
 70
     0
  9
$AUPREC
 70
     0
  9
$MENU
  1
.
  9
$ELEVATION
 40
0.0
  9
$PELEVATION
 40
0.0
  9
$THICKNESS
 40
0.0
  9
$LIMCHECK
 70
     0
  9
$BLIPMODE
 70
     0
  9
$CHAMFERA
 40
0.0
  9
$CHAMFERB
 40
0.0
  9
$SKPOLY
 70
     0
  9
$TDCREATE
 40
2457105.2334777541
  9
$TDUPDATE
 40
2457620.4974837271
  9
$TDINDWG
 40
0.0667291782
  9
$TDUSRTIMER
 40
0.0667239005
  9
$USRTIMER
 70
     1
  9
$ANGBASE
 50
0.0
  9
$ANGDIR
 70
     0
  9
$PDMODE
 70
     0
  9
$PDSIZE
 40
0.0
  9
$PLINEWID
 40
0.0
  9
$COORDS
 70
     1
  9
$SPLFRAME
 70
     0
  9
$SPLINETYPE
 70
     6
  9
$SPLINESEGS
 70
     8
  9
$ATTDIA
 70
     1
  9
$ATTREQ
 70
     1
  9
$HANDLING
 70
     1
  9
$HANDSEED
  5
828
  9
$SURFTAB1
 70
     6
  9
$SURFTAB2
 70
     6
  9
$SURFTYPE
 70
     6
  9
$SURFU
 70
     6
  9
$SURFV
 70
     6
  9
$UCSNAME
  2

  9
$UCSORG
 10
0.0
 20
0.0
 30
0.0
  9
$UCSXDIR
 10
1.0
 20
0.0
 30
0.0
  9
$UCSYDIR
 10
0.0
 20
1.0
 30
0.0
  9
$PUCSNAME
  2

  9
$PUCSORG
 10
0.0
 20
0.0
 30
0.0
  9
$PUCSXDIR
 10
1.0
 20
0.0
 30
0.0
  9
$PUCSYDIR
 10
0.0
 20
1.0
 30
0.0
  9
$USERI1
 70
     0
  9
$USERI2
 70
     0
  9
$USERI3
 70
     0
  9
$USERI4
 70
     0
  9
$USERI5
 70
     0
  9
$USERR1
 40
0.0
  9
$USERR2
 40
0.0
  9
$USERR3
 40
0.0
  9
$USERR4
 40
0.0
  9
$USERR5
 40
0.0
  9
$WORLDVIEW
 70
     1
  9
$SHADEDGE
 70
     3
  9
$SHADEDIF
 70
    70
  9
$TILEMODE
 70
     1
  9
$MAXACTVP
 70
    64
  9
$PLIMCHECK
 70
     0
  9
$PEXTMIN
 10
0.0
 20
0.0
 30
0.0
  9
$PEXTMAX
 10
0.0
 20
0.0
 30
0.0
  9
$PLIMMIN
 10
0.0
 20
0.0
  9
$PLIMMAX
 10
12.0
 20
9.0
  9
$UNITMODE
 70
     0
  9
$VISRETAIN
 70
     1
  9
$PLINEGEN
 70
     0
  9
$PSLTSCALE
 70
     1
  0
ENDSEC
  0
SECTION
  2
TABLES
  0
TABLE
  2
VPORT
 70
     1
  0
VPORT
  2
*ACTIVE
 70
     0
 10
0.0
 20
0.0
 11
1.0
 21
1.0
 12
721965.73298006167
 22
3418082.1702937749
 13
0.0
 23
0.0
 14
0.5
 24
0.5
 15
0.5
 25
0.5
 16
0.0
 26
0.0
 36
1.0
 17
5.1181586671325601
 27
7.0859848490330393
 37
-0.8446473595225725
 40
30818.663582624871
 41
1.1002570694087399
 42
50.0
 43
0.0
 44
0.0
 50
0.0
 51
0.0
 71
     0
 72
  1000
 73
     1
 74
     3
 75
     0
 76
     0
 77
     0
 78
     0
  0
ENDTAB
  0
TABLE
  2
LTYPE
 70
     1
  0
LTYPE
  2
CONTINUOUS
 70
     0
  3
Solid line
 72
    65
 73
     0
 40
0.0
  0
ENDTAB
  0
TABLE
  2
LAYER
 70
     2
  0
LAYER
  2
0
 70
     0
 62
    -7
  6
CONTINUOUS
  0
LAYER
  2
EASTERN_ZHOU
 70
     0
 62
    84
  6
CONTINUOUS
  0
ENDTAB
  0
TABLE
  2
STYLE
 70
     1
  0
STYLE
  2
STANDARD
 70
     0
 40
0.0
 41
1.0
 50
0.0
 71
     0
 42
0.2
  3
txt
  4

  0
ENDTAB
  0
TABLE
  2
VIEW
 70
     0
  0
ENDTAB
  0
TABLE
  2
UCS
 70
     0
  0
ENDTAB
  0
TABLE
  2
APPID
 70
     6
  0
APPID
  2
ACAD
 70
     0
  0
APPID
  2
ACAD_NAV_VCDISPLAY
 70
     0
  0
APPID
  2
ADE
 70
     0
  0
APPID
  2
DCO15
 70
     0
  0
APPID
  2
IRD
 70
     0
  0
APPID
  2
ADE_PROJECTION
 70
     0
  0
ENDTAB
  0
TABLE
  2
DIMSTYLE
 70
     1
  0
DIMSTYLE
  2
STANDARD
 70
     0
  3

  4

  5

  6

  7

 40
1.0
 41
0.18
 42
0.0625
 43
0.38
 44
0.18
 45
0.0
 46
0.0
 47
0.0
 48
0.0
140
0.18
141
0.09
142
0.0
143
25.399999999999999
144
1.0
145
0.0
146
1.0
147
0.09
 71
     0
 72
     0
 73
     1
 74
     1
 75
     0
 76
     0
 77
     0
 78
     0
170
     0
171
     2
172
     0
173
     0
174
     0
175
     0
176
     0
177
     0
178
     0
  0
ENDTAB
  0
ENDSEC
  0
SECTION
  2
BLOCKS
  0
BLOCK
  8
0
  2
$MODEL_SPACE
 70
     0
 10
0.0
 20
0.0
 30
0.0
  3
$MODEL_SPACE
  1

  0
ENDBLK
  5
17
  8
0
  0
BLOCK
 67
     1
  8
0
  2
$PAPER_SPACE
 70
     0
 10
0.0
 20
0.0
 30
0.0
  3
$PAPER_SPACE
  1

  0
ENDBLK
  5
1C
 67
     1
  8
0
  0
ENDSEC
  0
SECTION
  2
ENTITIES
  0
POLYLINE
  5
60
  8
EASTERN_ZHOU
 66
     1
 10
0.0
 20
0.0
 30
0.03
 70
     1
1001
DCO15
1071
        4
1071
        4
1000
unitlink
1004
0743343100
1071
        3
1000
Link
1004
0743343100
1001
ADE
1011
-6.4998547565191984
1021
0.0
1031
0.0
1021
5.3542419876903278
1031
0.0
1001
IRD
1002
{
1000
TPMLINK_Unit_topology-_-ade
1070
   515
1071
        2
1004
010097030000910000009100000000000000A0F2AD6204167640A0F2AD62041676400000000086030000
1002
}
  0
VERTEX
  5
14F
  8
EASTERN_ZHOU
 10
724881.07663716935
 20
3422122.6138044819
 30
0.03
  0
VERTEX
  5
150
  8
EASTERN_ZHOU
 10
724860.67344046675
 20
3422136.7727117599
 30
0.03
  0
VERTEX
  5
151
  8
EASTERN_ZHOU
 10
724844.80536418932
 20
3422145.269114539
 30
0.03
  0
VERTEX
  5
152
  8
EASTERN_ZHOU
 10
724838.57441881869
 20
3422161.6930236169
 30
0.03
  0
VERTEX
  5
153
  8
EASTERN_ZHOU
 10
724847.63981445599
 20
3422176.4208273771
 30
0.03
  0
VERTEX
  5
154
  8
EASTERN_ZHOU
 10
724861.40506780031
 20
3422189.4472337542
 30
0.03
  0
VERTEX
  5
155
  8
EASTERN_ZHOU
 10
724873.14502163813
 20
3422207.0062897629
 30
0.03
  0
VERTEX
  5
156
  8
EASTERN_ZHOU
 10
724896.9447134462
 20
3422230.22785027
 30
0.03
  0
VERTEX
  5
157
  8
EASTERN_ZHOU
 10
724911.81952082645
 20
3422245.6409758348
 30
0.03
  0
VERTEX
  5
158
  8
EASTERN_ZHOU
 10
724924.54305313237
 20
3422245.6409758348
 30
0.03
  0
VERTEX
  5
159
  8
EASTERN_ZHOU
 10
724941.63212336996
 20
3422240.4759250018
 30
0.03
  0
VERTEX
  5
15A
  8
EASTERN_ZHOU
 10
724949.18581219949
 20
3422220.2152722208
 30
0.03
  0
VERTEX
  5
15B
  8
EASTERN_ZHOU
 10
724949.18581219949
 20
3422209.4882660322
 30
0.03
  0
VERTEX
  5
15C
  8
EASTERN_ZHOU
 10
724940.04289313511
 20
3422190.4183268161
 30
0.03
  0
VERTEX
  5
15D
  8
EASTERN_ZHOU
 10
724929.03601421404
 20
3422167.4606138021
 30
0.03
  0
VERTEX
  5
15E
  8
EASTERN_ZHOU
 10
724914.48637006537
 20
3422137.1135411011
 30
0.03
  0
VERTEX
  5
15F
  8
EASTERN_ZHOU
 10
724898.70352617535
 20
3422124.8682221598
 30
0.03
  0
VERTEX
  5
160
  8
EASTERN_ZHOU
 10
724881.07663716935
 20
3422122.6138044819
 30
0.03
  0
SEQEND
  5
161
  8
EASTERN_ZHOU
  0
POLYLINE
  5
63
  8
EASTERN_ZHOU
 66
     1
 10
0.0
 20
0.0
 30
0.303370786516854
 70
     1
1001
DCO15
1071
        4
1071
        4
1000
unitlink
1004
074332323100
1071
        3
1000
Link
1004
074332323100
1001
ADE
1011
-10.545608554850331
1021
0.0
1031
0.0
1021
-6.050147915724664
1031
0.0
1001
IRD
1002
{
1000
TPMLINK_Unit_topology-_-ade
1070
   515
1071
        2
1004
0100990300007F0100007F010000000000007FCEB398827278407FCEB398827278400000000084030000
1002
}
  0
VERTEX
  5
162
  8
EASTERN_ZHOU
 10
720377.79411324556
 20
3414476.3566949922
 30
0.303370786516854
  0
VERTEX
  5
163
  8
EASTERN_ZHOU
 10
720353.30155581702
 20
3414485.681305205
 30
0.303370786516854
  0
VERTEX
  5
164
  8
EASTERN_ZHOU
 10
720353.22887760517
 20
3414499.3798032389
 30
0.303370786516854
  0
VERTEX
  5
165
  8
EASTERN_ZHOU
 10
720359.10127713066
 20
3414525.546395292
 30
0.303370786516854
  0
VERTEX
  5
166
  8
EASTERN_ZHOU
 10
720370.11444884911
 20
3414549.7575710728
 30
0.303370786516854
  0
VERTEX
  5
167
  8
EASTERN_ZHOU
 10
720382.86705243925
 20
3414576.3316517668
 30
0.303370786516854
  0
VERTEX
  5
168
  8
EASTERN_ZHOU
 10
720395.80377416778
 20
3414589.8740340229
 30
0.303370786516854
  0
VERTEX
  5
169
  8
EASTERN_ZHOU
 10
720404.95222575846
 20
3414599.4507901049
 30
0.303370786516854
  0
VERTEX
  5
16A
  8
EASTERN_ZHOU
 10
720415.11679769133
 20
3414602.627899297
 30
0.303370786516854
  0
VERTEX
  5
16B
  8
EASTERN_ZHOU
 10
720428.15042370197
 20
3414602.627899297
 30
0.303370786516854
  0
VERTEX
  5
16C
  8
EASTERN_ZHOU
 10
720443.30140828725
 20
3414597.9338418292
 30
0.303370786516854
  0
VERTEX
  5
16D
  8
EASTERN_ZHOU
 10
720452.14392407506
 20
3414595.0549610369
 30
0.303370786516854
  0
VERTEX
  5
16E
  8
EASTERN_ZHOU
 10
720444.57085438923
 20
3414481.807517081
 30
0.303370786516854
  0
VERTEX
  5
16F
  8
EASTERN_ZHOU
 10
720389.54912474123
 20
3414488.5654871701
 30
0.303370786516854
  0
VERTEX
  5
170
  8
EASTERN_ZHOU
 10
720382.66355344665
 20
3414486.607415753
 30
0.303370786516854
  0
VERTEX
  5
171
  8
EASTERN_ZHOU
 10
720381.63152283628
 20
3414482.7600879292
 30
0.303370786516854
  0
VERTEX
  5
172
  8
EASTERN_ZHOU
 10
720377.79411324556
 20
3414476.3566949922
 30
0.303370786516854
  0
SEQEND
  5
173
  8
EASTERN_ZHOU
  0
POLYLINE
  5
64
  8
EASTERN_ZHOU
 66
     1
 10
0.0
 20
0.0
 30
0.109375
 70
     1
1001
DCO15
1071
        4
1071
        4
1000
unitlink
1004
074132353400
1071
        3
1000
Link
1004
074132353400
1001
ADE
1011
-24.378562266123481
1021
0.0
1031
0.0
1021
9.7789249308407271
1031
0.0
1001
IRD
1002
{
1000
TPMLINK_Unit_topology-_-ade
1070
   515
1071
        2
1004
01009A030000AE010000AE01000000000000C521B8D0C71D7040C521B8D0C71D70408303000000000000
1002
}
  0
VERTEX
  5
174
  8
EASTERN_ZHOU
 10
720612.12427385058
 20
3414245.4291283251
 30
0.109375
  0
VERTEX
  5
175
  8
EASTERN_ZHOU
 10
720604.49562187318
 20
3414310.069403606
 30
0.109375
  0
VERTEX
  5
176
  8
EASTERN_ZHOU
 10
720528.20887725975
 20
3414299.4617650681
 30
0.109375
  0
VERTEX
  5
177
  8
EASTERN_ZHOU
 10
720528.20887725975
 20
3414271.6167484368
 30
0.109375
  0
VERTEX
  5
178
  8
EASTERN_ZHOU
 10
720612.12427385058
 20
3414245.4291283251
 30
0.109375
  0
SEQEND
  5
179
  8
EASTERN_ZHOU
  0
POLYLINE
  5
65
  8
EASTERN_ZHOU
 66
     1
 10
0.0
 20
0.0
 30
0.06
 70
     1
1001
ADE
1011
-15.5779681870481
1021
0.0
1031
0.0
1021
16.966269467957311
1031
0.0
1001
IRD
1002
{
1000
TPMLINK_Unit_topology-_-ade
1070
   515
1071
        5
1004
01009B0300003001000030010000000000001C77D6264C9F75401C77D6264C9F7540D201000000000000
1002
}
1001
DCO15
1071
        5
1071
        5
1000
unitlink
1004
074332303500
1071
        4
1000
Link
1004
074332303500
  0
VERTEX
  5
17A
  8
EASTERN_ZHOU
 10
719937.26987217471
 20
3414900.7620452801
 30
0.06
  0
VERTEX
  5
17B
  8
EASTERN_ZHOU
 10
719935.67572817579
 20
3414900.9394398248
 30
0.06
  0
VERTEX
  5
17C
  8
EASTERN_ZHOU
 10
719928.18649145425
 20
3414890.1240441082
 30
0.06
  0
VERTEX
  5
17D
  8
EASTERN_ZHOU
 10
719928.38657722261
 20
3414872.8595594461
 30
0.06
  0
VERTEX
  5
17E
  8
EASTERN_ZHOU
 10
719928.64632425085
 20
3414850.44717786
 30
0.06
  0
VERTEX
  5
17F
  8
EASTERN_ZHOU
 10
719933.51658101019
 20
3414837.4859945429
 30
0.06
  0
VERTEX
  5
180
  8
EASTERN_ZHOU
 10
719946.84203042416
 20
3414826.7883176031
 30
0.06
  0
VERTEX
  5
181
  8
EASTERN_ZHOU
 10
719950.82222670317
 20
3414816.1604202539
 30
0.06
  0
VERTEX
  5
182
  8
EASTERN_ZHOU
 10
719955.67624927347
 20
3414803.1992369369
 30
0.06
  0
VERTEX
  5
183
  8
EASTERN_ZHOU
 10
719978.01643925405
 20
3414806.474303076
 30
0.06
  0
VERTEX
  5
184
  8
EASTERN_ZHOU
 10
720006.60290080705
 20
3414808.7218280882
 30
0.06
  0
VERTEX
  5
185
  8
EASTERN_ZHOU
 10
720024.64688780555
 20
3414810.1404825789
 30
0.06
  0
VERTEX
  5
186
  8
EASTERN_ZHOU
 10
720018.92465041578
 20
3414843.7250734689
 30
0.06
  0
VERTEX
  5
187
  8
EASTERN_ZHOU
 10
720013.89205176011
 20
3414873.2620806671
 30
0.06
  0
VERTEX
  5
188
  8
EASTERN_ZHOU
 10
720012.25239865109
 20
3414900.1102461098
 30
0.06
  0
VERTEX
  5
189
  8
EASTERN_ZHOU
 10
719943.16931595921
 20
3414899.8561275289
 30
0.06
  0
VERTEX
  5
18A
  8
EASTERN_ZHOU
 10
719941.21706044546
 20
3414899.757729867
 30
0.06
  0
SEQEND
  5
18B
  8
EASTERN_ZHOU
  0
POLYLINE
  5
66
  8
EASTERN_ZHOU
 66
     1
 10
0.0
 20
0.0
 30
0.048
 70
     1
1001
ADE
1011
2.1662232298403961
1021
0.0
1031
0.0
1021
-4.9322001566179079
1031
0.0
1001
IRD
1002
{
1000
TPMLINK_Unit_topology-_-ade
1070
   515
1071
        5
1004
01009C030000310100003101000000000000C08108F573537840C08108F573537840D301000000000000
1002
}
1001
DCO15
1071
        5
1071
        5
1000
unitlink
1004
074332303400
1071
        4
1000
Link
1004
074332303400
  0
VERTEX
  5
18C
  8
EASTERN_ZHOU
 10
719942.50310500362
 20
3414900.7315330999
 30
0.048
  0
VERTEX
  5
18D
  8
EASTERN_ZHOU
 10
719970.89682623371
 20
3414904.8435108862
 30
0.048
  0
VERTEX
  5
18E
  8
EASTERN_ZHOU
 10
719995.16330194753
 20
3414908.8863666202
 30
0.048
  0
VERTEX
  5
18F
  8
EASTERN_ZHOU
 10
720005.68669369817
 20
3414909.9233286949
 30
0.048
  0
VERTEX
  5
190
  8
EASTERN_ZHOU
 10
720004.38795856014
 20
3414965.9542826619
 30
0.048
  0
VERTEX
  5
191
  8
EASTERN_ZHOU
 10
720003.65656625631
 20
3414997.508529034
 30
0.048
  0
VERTEX
  5
192
  8
EASTERN_ZHOU
 10
720003.29656680801
 20
3415013.0398809812
 30
0.048
  0
VERTEX
  5
193
  8
EASTERN_ZHOU
 10
719981.96854326886
 20
3415026.8557434059
 30
0.048
  0
VERTEX
  5
194
  8
EASTERN_ZHOU
 10
719948.96911945834
 20
3415024.155910288
 30
0.048
  0
VERTEX
  5
195
  8
EASTERN_ZHOU
 10
719921.20115634426
 20
3415017.1146010612
 30
0.048
  0
VERTEX
  5
196
  8
EASTERN_ZHOU
 10
719906.25090863206
 20
3415008.4724123068
 30
0.048
  0
VERTEX
  5
197
  8
EASTERN_ZHOU
 10
719907.42891192797
 20
3414997.0726265442
 30
0.048
  0
VERTEX
  5
198
  8
EASTERN_ZHOU
 10
719921.57735943049
 20
3414978.5934490031
 30
0.048
  0
VERTEX
  5
199
  8
EASTERN_ZHOU
 10
719935.19900160423
 20
3414961.3689669459
 30
0.048
  0
SEQEND
  5
19A
  8
EASTERN_ZHOU
  0
POLYLINE
  5
67
  8
EASTERN_ZHOU
 66
     1
 10
0.0
 20
0.0
 30
0.06
 70
     1
1001
ADE
1011
-12.16131322237197
1021
0.0
1031
0.0
1021
-3.920147706288843
1031
0.0
1001
IRD
1002
{
1000
TPMLINK_Unit_topology-_-ade
1070
   515
1071
        5
1004
01009D0300001F0100001F010000000000009666465A1AAE75409666465A1AAE7540000000007F030000
1002
}
1001
DCO15
1071
        5
1071
        5
1000
unitlink
1004
074331373600
1071
        4
1000
Link
1004
074331373600
  0
VERTEX
  5
19B
  8
EASTERN_ZHOU
 10
720006.53461140231
 20
3415025.1891426691
 30
0.06
  0
VERTEX
  5
19C
  8
EASTERN_ZHOU
 10
720060.41378728475
 20
3415024.5246266238
 30
0.06
  0
VERTEX
  5
19D
  8
EASTERN_ZHOU
 10
720056.32130450418
 20
3414901.6620486169
 30
0.06
  0
VERTEX
  5
19E
  8
EASTERN_ZHOU
 10
720006.71264137374
 20
3414904.8316486031
 30
0.06
  0
VERTEX
  5
19F
  8
EASTERN_ZHOU
 10
720006.53461140231
 20
3415025.1891426691
 30
0.06
  0
SEQEND
  5
1A0
  8
EASTERN_ZHOU
  0
POLYLINE
  5
68
  8
EASTERN_ZHOU
 66
     1
 10
0.0
 20
0.0
 30
0.06
 70
     1
1001
ADE
1011
-19.942540265503329
1021
0.0
1031
0.0
1021
-5.1741275670938194
1031
0.0
1001
IRD
1002
{
1000
TPMLINK_Unit_topology-_-ade
1070
   515
1071
        5
1004
01004D0400003F0000003F00000000000000AEF3CBDCB0547440AEF3CBDCB054744000000000BD020000
1002
}
1001
DCO15
1071
        5
1071
        5
1000
unitlink
1004
0743313100
1071
        4
1000
Link
1004
0743313100
  0
VERTEX
  5
1A1
  8
EASTERN_ZHOU
 10
726131.79870380834
 20
3422495.927402779
 30
0.06
  0
VERTEX
  5
1A2
  8
EASTERN_ZHOU
 10
726158.19757366914
 20
3422574.4742053682
 30
0.06
  0
VERTEX
  5
1A3
  8
EASTERN_ZHOU
 10
726231.59666279703
 20
3422556.010145783
 30
0.06
  0
VERTEX
  5
1A4
  8
EASTERN_ZHOU
 10
726232.69726159796
 20
3422542.9781142022
 30
0.06
  0
VERTEX
  5
1A5
  8
EASTERN_ZHOU
 10
726207.13546688505
 20
3422474.0058654258
 30
0.06
  0
VERTEX
  5
1A6
  8
EASTERN_ZHOU
 10
726191.9596045278
 20
3422473.2644016631
 30
0.06
  0
VERTEX
  5
1A7
  8
EASTERN_ZHOU
 10
726157.93405001261
 20
3422481.2915528412
 30
0.06
  0
VERTEX
  5
1A8
  8
EASTERN_ZHOU
 10
726131.79870380834
 20
3422495.927402779
 30
0.06
  0
SEQEND
  5
1A9
  8
EASTERN_ZHOU
  0
POLYLINE
  5
69
  8
EASTERN_ZHOU
 66
     1
 10
0.0
 20
0.0
 30
0.0075
 70
     1
1001
ADE
1011
-14.191523989778929
1021
0.0
1031
0.0
1021
-11.51283680554479
1031
0.0
1001
IRD
1002
{
1000
TPMLINK_Unit_topology-_-ade
1070
   515
1071
        5
1004
0100500400005B0000005B0000000000000071B6FC7DDBA8744071B6FC7DDBA874400000000022030000
1002
}
1001
DCO15
1071
        5
1071
        5
1000
unitlink
1004
07433800
1071
        4
1000
Link
1004
07433800
  0
VERTEX
  5
1AA
  8
EASTERN_ZHOU
 10
726459.34310787555
 20
3422356.717581199
 30
0.0075
  0
VERTEX
  5
1AB
  8
EASTERN_ZHOU
 10
726477.07669984177
 20
3422408.4185599191
 30
0.0075
  0
VERTEX
  5
1AC
  8
EASTERN_ZHOU
 10
726495.29640990682
 20
3422461.536780084
 30
0.0075
  0
VERTEX
  5
1AD
  8
EASTERN_ZHOU
 10
726526.71215567738
 20
3422480.6468017432
 30
0.0075
  0
VERTEX
  5
1AE
  8
EASTERN_ZHOU
 10
726538.22968962055
 20
3422469.3314199611
 30
0.0075
  0
VERTEX
  5
1AF
  8
EASTERN_ZHOU
 10
726531.25406341255
 20
3422453.6317307111
 30
0.0075
  0
VERTEX
  5
1B0
  8
EASTERN_ZHOU
 10
726517.62834021449
 20
3422437.9401008491
 30
0.0075
  0
VERTEX
  5
1B1
  8
EASTERN_ZHOU
 10
726508.90105675545
 20
3422412.1178193479
 30
0.0075
  0
VERTEX
  5
1B2
  8
EASTERN_ZHOU
 10
726509.59861937515
 20
3422387.3513177722
 30
0.0075
  0
VERTEX
  5
1B3
  8
EASTERN_ZHOU
 10
726510.19602866343
 20
3422366.1406943141
 30
0.0075
  0
VERTEX
  5
1B4
  8
EASTERN_ZHOU
 10
726490.73342582199
 20
3422354.5576650179
 30
0.0075
  0
VERTEX
  5
1B5
  8
EASTERN_ZHOU
 10
726475.01501476427
 20
3422350.721395982
 30
0.0075
  0
VERTEX
  5
1B6
  8
EASTERN_ZHOU
 10
726459.34310787555
 20
3422356.717581199
 30
0.0075
  0
SEQEND
  5
1B7
  8
EASTERN_ZHOU
  0
POLYLINE
  5
6A
  8
EASTERN_ZHOU
 66
     1
 10
0.0
 20
0.0
 30
0.0535714285714286
 70
     1
1001
ADE
1011
-15.98193471878767
1021
0.0
1031
0.0
1021
1.1968192267231641
1031
0.0
1001
IRD
1002
{
1000
TPMLINK_Unit_topology-_-ade
1070
   515
1071
        5
1004
010063040000D2000000D20000000000000096B6D96F5CE6724096B6D96F5CE67240B302000000000000
1002
}
1001
DCO15
1071
        5
1071
        5
1000
unitlink
1004
074131313100
1071
        4
1000
Link
1004
074131313100
  0
VERTEX
  5
1B8
  8
EASTERN_ZHOU
 10
726277.32576795295
 20
3420232.1901767491
 30
0.0535714285714286
  0
VERTEX
  5
1B9
  8
EASTERN_ZHOU
 10
726279.21693772823
 20
3420169.6332014059
 30
0.0535714285714286
  0
VERTEX
  5
1BA
  8
EASTERN_ZHOU
 10
726281.85217429325
 20
3420162.3958703242
 30
0.0535714285714286
  0
VERTEX
  5
1BB
  8
EASTERN_ZHOU
 10
726292.31561361253
 20
3420159.2204711628
 30
0.0535714285714286
  0
VERTEX
  5
1BC
  8
EASTERN_ZHOU
 10
726357.21994015202
 20
3420171.3901481489
 30
0.0535714285714286
  0
VERTEX
  5
1BD
  8
EASTERN_ZHOU
 10
726355.18925785634
 20
3420247.2048179568
 30
0.0535714285714286
  0
VERTEX
  5
1BE
  8
EASTERN_ZHOU
 10
726277.32576795295
 20
3420232.1901767491
 30
0.0535714285714286
  0
SEQEND
  5
1BF
  8
EASTERN_ZHOU
  0
POLYLINE
  5
6B
  8
EASTERN_ZHOU
 66
     1
 10
0.0
 20
0.0
 30
0.0454545454545455
 70
     1
1001
ADE
1011
-26.856160910800099
1021
0.0
1031
0.0
1021
-6.036482160910964
1031
0.0
1001
IRD
1002
{
1000
TPMLINK_Unit_topology-_-ade
1070
   515
1071
        5
1004
010066040000D5000000D500000000000000967EDC61E8617140967EDC61E8617140B802000000000000
1002
}
1001
DCO15
1071
        5
1071
        5
1000
unitlink
1004
074131303800
1071
        4
1000
Link
1004
074131303800
  0
VERTEX
  5
1C0
  8
EASTERN_ZHOU
 10
726374.69000846124
 20
3420116.12691961
 30
0.0454545454545455
  0
VERTEX
  5
1C1
  8
EASTERN_ZHOU
 10
726381.37110823393
 20
3420061.387551337
 30
0.0454545454545455
  0
VERTEX
  5
1C2
  8
EASTERN_ZHOU
 10
726466.72177026805
 20
3420100.4030521922
 30
0.0454545454545455
  0
VERTEX
  5
1C3
  8
EASTERN_ZHOU
 10
726454.28965422139
 20
3420143.5771976332
 30
0.0454545454545455
  0
VERTEX
  5
1C4
  8
EASTERN_ZHOU
 10
726374.69000846124
 20
3420116.12691961
 30
0.0454545454545455
  0
SEQEND
  5
1C5
  8
EASTERN_ZHOU
  0
POLYLINE
  5
6C
  8
EASTERN_ZHOU
 66
     1
 10
0.0
 20
0.0
 30
0.06
 70
     1
1001
ADE
1011
-20.44633549277205
1021
0.0
1031
0.0
1021
8.8250306630507112
1031
0.0
1001
IRD
1002
{
1000
TPMLINK_Unit_topology-_-ade
1070
   515
1071
        5
1004
01006B040000E1000000E1000000000000009006F597B5F776409006F597B5F77640AF02000000000000
1002
}
1001
DCO15
1071
        5
1071
        5
1000
unitlink
1004
0743373600
1071
        4
1000
Link
1004
0743373600
  0
VERTEX
  5
1C6
  8
EASTERN_ZHOU
 10
726154.81827030354
 20
3418850.5046911859
 30
0.06
  0
VERTEX
  5
1C7
  8
EASTERN_ZHOU
 10
726206.1588792128
 20
3418776.938590833
 30
0.06
  0
VERTEX
  5
1C8
  8
EASTERN_ZHOU
 10
726288.75029354903
 20
3418812.6013859739
 30
0.06
  0
VERTEX
  5
1C9
  8
EASTERN_ZHOU
 10
726247.45458637935
 20
3418889.5121326512
 30
0.06
  0
VERTEX
  5
1CA
  8
EASTERN_ZHOU
 10
726154.81827030354
 20
3418850.5046911859
 30
0.06
  0
SEQEND
  5
1CB
  8
EASTERN_ZHOU
  0
POLYLINE
  5
6D
  8
EASTERN_ZHOU
 66
     1
 10
0.0
 20
0.0
 30
0.06
 70
     1
1001
ADE
1011
-26.646892122924331
1021
0.0
1031
0.0
1021
9.8969293632544542
1031
0.0
1001
IRD
1002
{
1000
TPMLINK_Unit_topology-_-ade
1070
   515
1071
        5
1004
01006E0400000600000006000000000000002FEC4661E5F578402FEC4661E5F57840AD02000000000000
1002
}
1001
DCO15
1071
        5
1071
        5
1000
unitlink
1004
0743333500
1071
        4
1000
Link
1004
0743333500
  0
VERTEX
  5
1CC
  8
EASTERN_ZHOU
 10
725153.3663687259
 20
3423186.3994136802
 30
0.06
  0
VERTEX
  5
1CD
  8
EASTERN_ZHOU
 10
725151.90923791751
 20
3423092.3302283911
 30
0.06
  0
VERTEX
  5
1CE
  8
EASTERN_ZHOU
 10
725204.35044562805
 20
3423069.44156439
 30
0.06
  0
VERTEX
  5
1CF
  8
EASTERN_ZHOU
 10
725240.74771305919
 20
3423065.9760272349
 30
0.06
  0
VERTEX
  5
1D0
  8
EASTERN_ZHOU
 10
725250.28106888023
 20
3423074.6318107331
 30
0.06
  0
VERTEX
  5
1D1
  8
EASTERN_ZHOU
 10
725254.62145851925
 20
3423170.6997244288
 30
0.06
  0
VERTEX
  5
1D2
  8
EASTERN_ZHOU
 10
725153.3663687259
 20
3423186.3994136802
 30
0.06
  0
SEQEND
  5
1D3
  8
EASTERN_ZHOU
  0
POLYLINE
  5
6E
  8
EASTERN_ZHOU
 66
     1
 10
0.0
 20
0.0
 30
0.06
 70
     1
1001
ADE
1011
-22.742613097536381
1021
0.0
1031
0.0
1021
-1.321903589181602
1031
0.0
1001
IRD
1002
{
1000
TPMLINK_Unit_topology-_-ade
1070
   515
1071
        5
1004
01007A040000C7010000C701000000000000092531328C9E7440092531328C9E744000000000A2020000
1002
}
1001
DCO15
1071
        5
1071
        5
1000
unitlink
1004
074132383400
1071
        4
1000
Link
1004
074132383400
  0
VERTEX
  5
1D4
  8
EASTERN_ZHOU
 10
722425.82269305375
 20
3413696.623808058
 30
0.06
  0
VERTEX
  5
1D5
  8
EASTERN_ZHOU
 10
722430.68832034641
 20
3413727.9504289571
 30
0.06
  0
VERTEX
  5
1D6
  8
EASTERN_ZHOU
 10
722428.92662770674
 20
3413743.8332252861
 30
0.06
  0
VERTEX
  5
1D7
  8
EASTERN_ZHOU
 10
722432.90301966656
 20
3413780.886432298
 30
0.06
  0
VERTEX
  5
1D8
  8
EASTERN_ZHOU
 10
722450.57028015715
 20
3413789.2767788512
 30
0.06
  0
VERTEX
  5
1D9
  8
EASTERN_ZHOU
 10
722492.96834972501
 20
3413798.5350922891
 30
0.06
  0
VERTEX
  5
1DA
  8
EASTERN_ZHOU
 10
722499.15944100555
 20
3413776.4767614589
 30
0.06
  0
VERTEX
  5
1DB
  8
EASTERN_ZHOU
 10
722506.65921825194
 20
3413745.1501405602
 30
0.06
  0
VERTEX
  5
1DC
  8
EASTERN_ZHOU
 10
722508.87391757208
 20
3413716.0383317121
 30
0.06
  0
VERTEX
  5
1DD
  8
EASTERN_ZHOU
 10
722510.19938155985
 20
3413704.5652062218
 30
0.06
  0
VERTEX
  5
1DE
  8
EASTERN_ZHOU
 10
722465.58661267173
 20
3413692.6531089768
 30
0.06
  0
VERTEX
  5
1DF
  8
EASTERN_ZHOU
 10
722425.82269305375
 20
3413696.623808058
 30
0.06
  0
SEQEND
  5
1E0
  8
EASTERN_ZHOU
  0
POLYLINE
  5
6F
  8
EASTERN_ZHOU
 66
     1
 10
0.0
 20
0.0
 30
0.125
 70
     1
1001
ADE
1011
-26.735783085343432
1021
0.0
1031
0.0
1021
-4.9284556447528303
1031
0.0
1001
IRD
1002
{
1000
TPMLINK_Unit_topology-_-ade
1070
   515
1071
        5
1004
01007C040000FE000000FE000000000000000C61454EF13576400C61454EF1357640000000009A020000
1002
}
1001
DCO15
1071
        5
1071
        5
1000
unitlink
1004
074331343200
1071
        4
1000
Link
1004
074331343200
  0
VERTEX
  5
1E1
  8
EASTERN_ZHOU
 10
721072.8930785805
 20
3415271.4549425058
 30
0.125
  0
VERTEX
  5
1E2
  8
EASTERN_ZHOU
 10
721072.8930785805
 20
3415366.4823514419
 30
0.125
  0
VERTEX
  5
1E3
  8
EASTERN_ZHOU
 10
721158.67912120384
 20
3415375.0522773508
 30
0.125
  0
VERTEX
  5
1E4
  8
EASTERN_ZHOU
 10
721155.55840852496
 20
3415284.6939316569
 30
0.125
  0
VERTEX
  5
1E5
  8
EASTERN_ZHOU
 10
721072.8930785805
 20
3415271.4549425058
 30
0.125
  0
SEQEND
  5
1E6
  8
EASTERN_ZHOU
  0
POLYLINE
  5
70
  8
EASTERN_ZHOU
 66
     1
 10
0.0
 20
0.0
 30
0.03
 70
     1
1001
ADE
1011
-34.26072736654897
1021
0.0
1031
0.0
1021
10.111315375659609
1031
0.0
1001
IRD
1002
{
1000
TPMLINK_Unit_topology-_-ade
1070
   515
1071
        5
1004
01007D040000FB000000FB00000000000000316BC5E76D347740316BC5E76D3477409902000000000000
1002
}
1001
DCO15
1071
        5
1071
        5
1000
unitlink
1004
074332363400
1071
        4
1000
Link
1004
074332363400
  0
VERTEX
  5
1E7
  8
EASTERN_ZHOU
 10
720949.54103763786
 20
3415328.401551452
 30
0.03
  0
VERTEX
  5
1E8
  8
EASTERN_ZHOU
 10
720953.34964934736
 20
3415246.1641832758
 30
0.03
  0
VERTEX
  5
1E9
  8
EASTERN_ZHOU
 10
720988.98617477703
 20
3415245.4757957491
 30
0.03
  0
VERTEX
  5
1EA
  8
EASTERN_ZHOU
 10
721025.64615974575
 20
3415253.077988463
 30
0.03
  0
VERTEX
  5
1EB
  8
EASTERN_ZHOU
 10
721054.47080696013
 20
3415257.487659303
 30
0.03
  0
VERTEX
  5
1EC
  8
EASTERN_ZHOU
 10
721063.46382844448
 20
3415293.6030630139
 30
0.03
  0
VERTEX
  5
1ED
  8
EASTERN_ZHOU
 10
721062.23903260764
 20
3415323.423212653
 30
0.03
  0
VERTEX
  5
1EE
  8
EASTERN_ZHOU
 10
721036.82032449928
 20
3415340.014349774
 30
0.03
  0
VERTEX
  5
1EF
  8
EASTERN_ZHOU
 10
721011.78751096514
 20
3415340.9222231801
 30
0.03
  0
VERTEX
  5
1F0
  8
EASTERN_ZHOU
 10
720975.16108205169
 20
3415338.4879252519
 30
0.03
  0
VERTEX
  5
1F1
  8
EASTERN_ZHOU
 10
720949.54103763786
 20
3415328.401551452
 30
0.03
  0
SEQEND
  5
1F2
  8
EASTERN_ZHOU
  0
POLYLINE
  5
71
  8
EASTERN_ZHOU
 66
     1
 10
0.0
 20
0.0
 30
0.048
 70
     1
1001
ADE
1011
-21.744320601108491
1021
0.0
1031
0.0
1021
0.5836329050362111
1031
0.0
1001
IRD
1002
{
1000
TPMLINK_Unit_topology-_-ade
1070
   515
1071
        5
1004
01007E040000000100000001000000000000CCF8A138ECCD7740CCF8A138ECCD77400000000098020000
1002
}
1001
DCO15
1071
        5
1071
        5
1000
unitlink
1004
074332363300
1071
        4
1000
Link
1004
074332363300
  0
VERTEX
  5
1F3
  8
EASTERN_ZHOU
 10
720954.38988690835
 20
3415233.8829506892
 30
0.048
  0
VERTEX
  5
1F4
  8
EASTERN_ZHOU
 10
721054.40369486064
 20
3415248.9775931798
 30
0.048
  0
VERTEX
  5
1F5
  8
EASTERN_ZHOU
 10
721065.96375419199
 20
3415237.8835796639
 30
0.048
  0
VERTEX
  5
1F6
  8
EASTERN_ZHOU
 10
721063.74905487173
 20
3415157.0728697018
 30
0.048
  0
VERTEX
  5
1F7
  8
EASTERN_ZHOU
 10
720968.96999076765
 20
3415148.5827568402
 30
0.048
  0
VERTEX
  5
1F8
  8
EASTERN_ZHOU
 10
720961.63799377554
 20
3415160.714339965
 30
0.048
  0
VERTEX
  5
1F9
  8
EASTERN_ZHOU
 10
720954.38988690835
 20
3415233.8829506892
 30
0.048
  0
SEQEND
  5
1FA
  8
EASTERN_ZHOU
  0
POLYLINE
  5
72
  8
EASTERN_ZHOU
 66
     1
 10
0.0
 20
0.0
 30
0.03
 70
     1
1001
ADE
1011
-27.22234581597149
1021
0.0
1031
0.0
1021
1.6261908300220951
1031
0.0
1001
IRD
1002
{
1000
TPMLINK_Unit_topology-_-ade
1070
   515
1071
        5
1004
01007F04000009010000090100000000000030C53A13811F764030C53A13811F7640000000008A020000
1002
}
1001
DCO15
1071
        5
1071
        5
1000
unitlink
1004
074332363200
1071
        4
1000
Link
1004
074332363200
  0
VERTEX
  5
1FB
  8
EASTERN_ZHOU
 10
720969.50688757375
 20
3415143.2153294361
 30
0.03
  0
VERTEX
  5
1FC
  8
EASTERN_ZHOU
 10
721063.68194277235
 20
3415151.4859564202
 30
0.03
  0
VERTEX
  5
1FD
  8
EASTERN_ZHOU
 10
721063.90005709964
 20
3415067.4927012119
 30
0.03
  0
VERTEX
  5
1FE
  8
EASTERN_ZHOU
 10
720967.00696182624
 20
3415064.7491277261
 30
0.03
  0
VERTEX
  5
1FF
  8
EASTERN_ZHOU
 10
720969.50688757375
 20
3415143.2153294361
 30
0.03
  0
SEQEND
  5
200
  8
EASTERN_ZHOU
  0
POLYLINE
  5
73
  8
EASTERN_ZHOU
 66
     1
 10
0.0
 20
0.0
 30
0.1136363636363636
 70
     1
1001
ADE
1011
-12.33184848888777
1021
0.0
1031
0.0
1021
11.57788011245429
1031
0.0
1001
IRD
1002
{
1000
TPMLINK_Unit_topology-_-ade
1070
   515
1071
        5
1004
010083040000100100001001000000000000B16BBC67872D7440B16BBC67872D74409002000000000000
1002
}
1001
DCO15
1071
        5
1071
        5
1000
unitlink
1004
074332363700
1071
        4
1000
Link
1004
074332363700
  0
VERTEX
  5
201
  8
EASTERN_ZHOU
 10
721400.75246814662
 20
3415087.3062900999
 30
0.1136363636363636
  0
VERTEX
  5
202
  8
EASTERN_ZHOU
 10
721460.53257177758
 20
3415072.9000351368
 30
0.1136363636363636
  0
VERTEX
  5
203
  8
EASTERN_ZHOU
 10
721466.72366305825
 20
3415087.9946776298
 30
0.1136363636363636
  0
VERTEX
  5
204
  8
EASTERN_ZHOU
 10
721463.6365064308
 20
3415107.5488741142
 30
0.1136363636363636
  0
VERTEX
  5
205
  8
EASTERN_ZHOU
 10
721464.08951310825
 20
3415176.2080476899
 30
0.1136363636363636
  0
VERTEX
  5
206
  8
EASTERN_ZHOU
 10
721398.80621723062
 20
3415178.54257931
 30
0.1136363636363636
  0
VERTEX
  5
207
  8
EASTERN_ZHOU
 10
721400.75246814662
 20
3415087.3062900999
 30
0.1136363636363636
  0
SEQEND
  5
208
  8
EASTERN_ZHOU
  0
POLYLINE
  5
74
  8
EASTERN_ZHOU
 66
     1
 10
0.0
 20
0.0
 30
0.06
 70
     1
1001
ADE
1011
-16.878693306818601
1021
0.0
1031
0.0
1021
-1.860426174942404
1031
0.0
1001
IRD
1002
{
1000
TPMLINK_Unit_topology-_-ade
1070
   515
1071
        5
1004
010084040000040100000401000000000000857AEFE538077440857AEFE5380774409302000000000000
1002
}
1001
DCO15
1071
        5
1071
        5
1000
unitlink
1004
074332363600
1071
        4
1000
Link
1004
074332363600
  0
VERTEX
  5
209
  8
EASTERN_ZHOU
 10
721402.74905313936
 20
3415180.877110933
 30
0.06
  0
VERTEX
  5
20A
  8
EASTERN_ZHOU
 10
721462.56271282199
 20
3415178.921691284
 30
0.06
  0
VERTEX
  5
20B
  8
EASTERN_ZHOU
 10
721453.82318326854
 20
3415283.5860946709
 30
0.06
  0
VERTEX
  5
20C
  8
EASTERN_ZHOU
 10
721399.17533378291
 20
3415281.71091903
 30
0.06
  0
VERTEX
  5
20D
  8
EASTERN_ZHOU
 10
721402.74905313936
 20
3415180.877110933
 30
0.06
  0
SEQEND
  5
20E
  8
EASTERN_ZHOU
  0
POLYLINE
  5
75
  8
EASTERN_ZHOU
 66
     1
 10
0.0
 20
0.0
 30
0.06
 70
     1
1001
ADE
1011
-14.28648841928225
1021
0.0
1031
0.0
1021
0.0349182072095573
1031
0.0
1001
IRD
1002
{
1000
TPMLINK_Unit_topology-_-ade
1070
   515
1071
        5
1004
010087040000ED000000ED000000000000003CB4C36F646C75403CB4C36F646C7540A102000000000000
1002
}
1001
DCO15
1071
        5
1071
        5
1000
unitlink
1004
074332363500
1071
        4
1000
Link
1004
074332363500
  0
VERTEX
  5
20F
  8
EASTERN_ZHOU
 10
721398.21898634732
 20
3415642.7452365761
 30
0.06
  0
VERTEX
  5
210
  8
EASTERN_ZHOU
 10
721459.59300236765
 20
3415648.6015188899
 30
0.06
  0
VERTEX
  5
211
  8
EASTERN_ZHOU
 10
721475.61601639166
 20
3415671.248470942
 30
0.06
  0
VERTEX
  5
212
  8
EASTERN_ZHOU
 10
721472.88119829074
 20
3415710.2970041269
 30
0.06
  0
VERTEX
  5
213
  8
EASTERN_ZHOU
 10
721454.50926074374
 20
3415714.1978667919
 30
0.06
  0
VERTEX
  5
214
  8
EASTERN_ZHOU
 10
721444.34177749965
 20
3415757.92543985
 30
0.06
  0
VERTEX
  5
215
  8
EASTERN_ZHOU
 10
721401.89337385795
 20
3415750.0738313631
 30
0.06
  0
VERTEX
  5
216
  8
EASTERN_ZHOU
 10
721398.21898634732
 20
3415642.7452365761
 30
0.06
  0
SEQEND
  5
217
  8
EASTERN_ZHOU
  0
POLYLINE
  5
76
  8
EASTERN_ZHOU
 66
     1
 10
0.0
 20
0.0
 30
0.2131147540983606
 70
     1
1001
ADE
1011
-16.803192192921411
1021
0.0
1031
0.0
1021
4.3797409455291909
1031
0.0
1001
IRD
1002
{
1000
TPMLINK_Unit_topology-_-ade
1070
   515
1071
        5
1004
01008B040000F2000000F200000000000000F8115DF679DA7540F8115DF679DA75409B02000000000000
1002
}
1001
DCO15
1071
        5
1071
        5
1000
unitlink
1004
074331343300
1071
        4
1000
Link
1004
074331343300
  0
VERTEX
  5
218
  8
EASTERN_ZHOU
 10
721221.34504515701
 20
3415439.2020137799
 30
0.2131147540983606
  0
VERTEX
  5
219
  8
EASTERN_ZHOU
 10
721221.98261011392
 20
3415354.9992493242
 30
0.2131147540983606
  0
VERTEX
  5
21A
  8
EASTERN_ZHOU
 10
721310.06724218302
 20
3415355.9370526238
 30
0.2131147540983606
  0
VERTEX
  5
21B
  8
EASTERN_ZHOU
 10
721316.4596697652
 20
3415437.925005028
 30
0.2131147540983606
  0
VERTEX
  5
21C
  8
EASTERN_ZHOU
 10
721221.34504515701
 20
3415439.2020137799
 30
0.2131147540983606
  0
SEQEND
  5
21D
  8
EASTERN_ZHOU
  0
POLYLINE
  5
77
  8
EASTERN_ZHOU
 66
     1
 10
0.0
 20
0.0
 30
0.03
 70
     1
1001
ADE
1011
-9.5131402631523052
1021
0.0
1031
0.0
1021
1.28199706505984
1031
0.0
1001
IRD
1002
{
1000
TPMLINK_Unit_topology-_-ade
1070
   515
1071
        5
1004
01008F040000050100000501000000000000ECF2D5BA62547440ECF2D5BA62547440000000008E020000
1002
}
1001
DCO15
1071
        5
1071
        5
1000
unitlink
1004
074331333800
1071
        4
1000
Link
1004
074331333800
  0
VERTEX
  5
21E
  8
EASTERN_ZHOU
 10
721249.07882195583
 20
3415163.227957793
 30
0.03
  0
VERTEX
  5
21F
  8
EASTERN_ZHOU
 10
721319.34549009067
 20
3415169.3840321819
 30
0.03
  0
VERTEX
  5
220
  8
EASTERN_ZHOU
 10
721318.47303278383
 20
3415079.2950555198
 30
0.03
  0
VERTEX
  5
221
  8
EASTERN_ZHOU
 10
721248.13955133024
 20
3415069.5877936929
 30
0.03
  0
VERTEX
  5
222
  8
EASTERN_ZHOU
 10
721249.07882195583
 20
3415163.227957793
 30
0.03
  0
SEQEND
  5
223
  8
EASTERN_ZHOU
  0
POLYLINE
  5
78
  8
EASTERN_ZHOU
 66
     1
 10
0.0
 20
0.0
 30
0.02
 70
     1
1001
ADE
1011
-16.543132804450579
1021
0.0
1031
0.0
1021
-3.2872998681850718
1031
0.0
1001
IRD
1002
{
1000
TPMLINK_Unit_topology-_-ade
1070
   515
1071
        5
1004
010090040000060100000601000000000000AA6287DE90A47640AA6287DE90A476408D02000000000000
1002
}
1001
DCO15
1071
        5
1071
        5
1000
unitlink
1004
074331333900
1071
        4
1000
Link
1004
074331333900
  0
VERTEX
  5
224
  8
EASTERN_ZHOU
 10
721152.89070252341
 20
3415158.6691306392
 30
0.02
  0
VERTEX
  5
225
  8
EASTERN_ZHOU
 10
721156.78320435807
 20
3415070.395900792
 30
0.02
  0
VERTEX
  5
226
  8
EASTERN_ZHOU
 10
721245.27050903055
 20
3415071.3736106162
 30
0.02
  0
VERTEX
  5
227
  8
EASTERN_ZHOU
 10
721246.57919499266
 20
3415163.008965062
 30
0.02
  0
VERTEX
  5
228
  8
EASTERN_ZHOU
 10
721152.89070252341
 20
3415158.6691306392
 30
0.02
  0
SEQEND
  5
229
  8
EASTERN_ZHOU
  0
POLYLINE
  5
79
  8
EASTERN_ZHOU
 66
     1
 10
0.0
 20
0.0
 30
0.0740740740740741
 70
     1
1001
ADE
1011
-17.13036368240137
1021
0.0
1031
0.0
1021
-5.237731202505528
1031
0.0
1001
IRD
1002
{
1000
TPMLINK_Unit_topology-_-ade
1070
   515
1071
        5
1004
010091040000240100002401000000000000FD9105F6ED117640FD9105F6ED1176408C02000000000000
1002
}
1001
DCO15
1071
        5
1071
        5
1000
unitlink
1004
074331343000
1071
        4
1000
Link
1004
074331343000
  0
VERTEX
  5
22A
  8
EASTERN_ZHOU
 10
721158.71267725155
 20
3414976.2464353722
 30
0.0740740740740741
  0
VERTEX
  5
22B
  8
EASTERN_ZHOU
 10
721245.18661890551
 20
3414980.725942628
 30
0.0740740740740741
  0
VERTEX
  5
22C
  8
EASTERN_ZHOU
 10
721247.43487427384
 20
3415068.211018635
 30
0.0740740740740741
  0
VERTEX
  5
22D
  8
EASTERN_ZHOU
 10
721158.71267725155
 20
3415066.5249680202
 30
0.0740740740740741
  0
VERTEX
  5
22E
  8
EASTERN_ZHOU
 10
721158.71267725155
 20
3414976.2464353722
 30
0.0740740740740741
  0
SEQEND
  5
22F
  8
EASTERN_ZHOU
  0
POLYLINE
  5
7A
  8
EASTERN_ZHOU
 66
     1
 10
0.0
 20
0.0
 30
0.1617647058823529
 70
     1
1001
ADE
1011
-21.417149111628529
1021
0.0
1031
0.0
1021
-0.0195010434836149
1031
0.0
1001
IRD
1002
{
1000
TPMLINK_Unit_topology-_-ade
1070
   515
1071
        5
1004
0100920400001A0100001A0100000000000079397A4553B0754079397A4553B075408B02000000000000
1002
}
1001
DCO15
1071
        5
1071
        5
1000
unitlink
1004
074331353500
1071
        4
1000
Link
1004
074331353500
  0
VERTEX
  5
230
  8
EASTERN_ZHOU
 10
721059.89010908816
 20
3415055.570627335
 30
0.1617647058823529
  0
VERTEX
  5
231
  8
EASTERN_ZHOU
 10
721061.62085699232
 20
3414967.8352311202
 30
0.1617647058823529
  0
VERTEX
  5
232
  8
EASTERN_ZHOU
 10
721145.17281095334
 20
3414969.123120938
 30
0.1617647058823529
  0
VERTEX
  5
233
  8
EASTERN_ZHOU
 10
721143.89768103894
 20
3415060.6587090739
 30
0.1617647058823529
  0
VERTEX
  5
234
  8
EASTERN_ZHOU
 10
721059.89010908816
 20
3415055.570627335
 30
0.1617647058823529
  0
SEQEND
  5
235
  8
EASTERN_ZHOU
  0
POLYLINE
  5
7B
  8
EASTERN_ZHOU
 66
     1
 10
0.0
 20
0.0
 30
1.1000000000000001
 70
     1
1001
ADE
1011
-26.56800283503253
1021
0.0
1031
0.0
1021
0.364147026091814
1031
0.0
1001
IRD
1002
{
1000
TPMLINK_Unit_topology-_-ade
1070
   515
1071
        5
1004
0100930400002601000026010000000000004287261DF76A79404287261DF76A79408902000000000000
1002
}
1001
DCO15
1071
        5
1071
        5
1000
unitlink
1004
074331353400
1071
        4
1000
Link
1004
074331353400
  0
VERTEX
  5
236
  8
EASTERN_ZHOU
 10
720934.50792709738
 20
3414961.4909983301
 30
1.1000000000000001
  0
VERTEX
  5
237
  8
EASTERN_ZHOU
 10
721035.05863185599
 20
3414964.0350391981
 30
1.1000000000000001
  0
VERTEX
  5
238
  8
EASTERN_ZHOU
 10
721038.8840215914
 20
3415062.5642455691
 30
1.1000000000000001
  0
VERTEX
  5
239
  8
EASTERN_ZHOU
 10
720930.04497240845
 20
3415060.0202047001
 30
1.1000000000000001
  0
VERTEX
  5
23A
  8
EASTERN_ZHOU
 10
720934.50792709738
 20
3414961.4909983301
 30
1.1000000000000001
  0
SEQEND
  5
23B
  8
EASTERN_ZHOU
  0
POLYLINE
  5
7C
  8
EASTERN_ZHOU
 66
     1
 10
0.0
 20
0.0
 30
0.0357142857142857
 70
     1
1001
ADE
1011
-16.746783194597811
1021
0.0
1031
0.0
1021
5.7151486203074437
1031
0.0
1001
IRD
1002
{
1000
TPMLINK_Unit_topology-_-ade
1070
   515
1071
        5
1004
01009404000016010000160100000000000002D9BFC44A1A744002D9BFC44A1A74400000000088020000
1002
}
1001
DCO15
1071
        5
1071
        5
1000
unitlink
1004
074331343100
1071
        4
1000
Link
1004
074331343100
  0
VERTEX
  5
23C
  8
EASTERN_ZHOU
 10
720840.36114541464
 20
3415067.5777200512
 30
0.0357142857142857
  0
VERTEX
  5
23D
  8
EASTERN_ZHOU
 10
720905.53227765486
 20
3415059.2819340159
 30
0.0357142857142857
  0
VERTEX
  5
23E
  8
EASTERN_ZHOU
 10
720904.7940445469
 20
3414973.6924178712
 30
0.0357142857142857
  0
VERTEX
  5
23F
  8
EASTERN_ZHOU
 10
720849.10750554444
 20
3414972.3620691248
 30
0.0357142857142857
  0
VERTEX
  5
240
  8
EASTERN_ZHOU
 10
720860.69311694754
 20
3415008.3526708018
 30
0.0357142857142857
  0
VERTEX
  5
241
  8
EASTERN_ZHOU
 10
720837.79325178347
 20
3415014.5117501882
 30
0.0357142857142857
  0
VERTEX
  5
242
  8
EASTERN_ZHOU
 10
720840.36114541464
 20
3415067.5777200512
 30
0.0357142857142857
  0
SEQEND
  5
243
  8
EASTERN_ZHOU
  0
POLYLINE
  5
7D
  8
EASTERN_ZHOU
 66
     1
 10
0.0
 20
0.0
 30
0.1842105263157895
 70
     1
1001
ADE
1011
-25.200593782472431
1021
0.0
1031
0.0
1021
12.879830439575009
1031
0.0
1001
IRD
1002
{
1000
TPMLINK_Unit_topology-_-ade
1070
   515
1071
        5
1004
01009504000023010000230100000000000016F23BBD069B784016F23BBD069B78400000000086020000
1002
}
1001
DCO15
1071
        5
1071
        5
1000
unitlink
1004
074132343500
1071
        4
1000
Link
1004
074132343500
  0
VERTEX
  5
244
  8
EASTERN_ZHOU
 10
721687.40502792981
 20
3414988.2982054488
 30
0.1842105263157895
  0
VERTEX
  5
245
  8
EASTERN_ZHOU
 10
721686.90168717515
 20
3414893.5002590208
 30
0.1842105263157895
  0
VERTEX
  5
246
  8
EASTERN_ZHOU
 10
721581.7705815509
 20
3414893.9292541482
 30
0.1842105263157895
  0
VERTEX
  5
247
  8
EASTERN_ZHOU
 10
721591.25016576424
 20
3414991.0318023041
 30
0.1842105263157895
  0
VERTEX
  5
248
  8
EASTERN_ZHOU
 10
721687.40502792981
 20
3414988.2982054488
 30
0.1842105263157895
  0
SEQEND
  5
249
  8
EASTERN_ZHOU
  0
POLYLINE
  5
7E
  8
EASTERN_ZHOU
 66
     1
 10
0.0
 20
0.0
 30
2.0999999999999992
 70
     1
1001
ADE
1011
-34.529175769421272
1021
0.0
1031
0.0
1021
-0.6784108984284103
1031
0.0
1001
IRD
1002
{
1000
TPMLINK_Unit_topology-_-ade
1070
   515
1071
        5
1004
010097040000440100004401000000000000A4CDF5B596FC7840A4CDF5B596FC78408202000000000000
1002
}
1001
DCO15
1071
        5
1071
        5
1000
unitlink
1004
074132343700
1071
        4
1000
Link
1004
074132343700
  0
VERTEX
  5
24A
  8
EASTERN_ZHOU
 10
721590.44482055656
 20
3414741.7756569092
 30
2.0999999999999992
  0
VERTEX
  5
24B
  8
EASTERN_ZHOU
 10
721694.33435231808
 20
3414743.2222683839
 30
2.0999999999999992
  0
VERTEX
  5
24C
  8
EASTERN_ZHOU
 10
721688.19359511137
 20
3414842.6793014221
 30
2.0999999999999992
  0
VERTEX
  5
24D
  8
EASTERN_ZHOU
 10
721591.85417466995
 20
3414841.6616850742
 30
2.0999999999999992
  0
VERTEX
  5
24E
  8
EASTERN_ZHOU
 10
721590.44482055656
 20
3414741.7756569092
 30
2.0999999999999992
  0
SEQEND
  5
24F
  8
EASTERN_ZHOU
  0
POLYLINE
  5
7F
  8
EASTERN_ZHOU
 66
     1
 10
0.0
 20
0.0
 30
4.799999999999998
 70
     1
1001
ADE
1011
-33.715441551059492
1021
0.0
1031
0.0
1021
0.5886212205514312
1031
0.0
1001
IRD
1002
{
1000
TPMLINK_Unit_topology-_-ade
1070
   515
1071
        5
1004
010098040000580100005801000000000000F30DE7021E817740F30DE7021E8177408302000000000000
1002
}
1001
DCO15
1071
        5
1071
        5
1000
unitlink
1004
074132343800
1071
        4
1000
Link
1004
074132343800
  0
VERTEX
  5
250
  8
EASTERN_ZHOU
 10
721597.17280864343
 20
3414640.8121526092
 30
4.799999999999998
  0
VERTEX
  5
251
  8
EASTERN_ZHOU
 10
721695.49203605566
 20
3414642.4483200712
 30
4.799999999999998
  0
VERTEX
  5
252
  8
EASTERN_ZHOU
 10
721695.13969752565
 20
3414730.6816433929
 30
4.799999999999998
  0
VERTEX
  5
253
  8
EASTERN_ZHOU
 10
721596.45135356113
 20
3414731.619446693
 30
4.799999999999998
  0
VERTEX
  5
254
  8
EASTERN_ZHOU
 10
721597.17280864343
 20
3414640.8121526092
 30
4.799999999999998
  0
SEQEND
  5
255
  8
EASTERN_ZHOU
  0
POLYLINE
  5
80
  8
EASTERN_ZHOU
 66
     1
 10
0.0
 20
0.0
 30
3.199999999999998
 70
     1
1001
ADE
1011
-14.4241443403298
1021
0.0
1031
0.0
1021
1.331476780120282
1031
0.0
1001
IRD
1002
{
1000
TPMLINK_Unit_topology-_-ade
1070
   515
1071
        5
1004
0100990400005A0100005A01000000000000AAF6F70270D47840AAF6F70270D478400000000081030000
1002
}
1001
DCO15
1071
        5
1071
        5
1000
unitlink
1004
074132353200
1071
        4
1000
Link
1004
074132353200
  0
VERTEX
  5
256
  8
EASTERN_ZHOU
 10
721600.09218502056
 20
3414632.1324837641
 30
3.199999999999998
  0
VERTEX
  5
257
  8
EASTERN_ZHOU
 10
721748.86293407541
 20
3414640.9817553349
 30
3.199999999999998
  0
VERTEX
  5
258
  8
EASTERN_ZHOU
 10
721756.22848711908
 20
3414587.9858922092
 30
3.199999999999998
  0
VERTEX
  5
259
  8
EASTERN_ZHOU
 10
721601.95454581454
 20
3414591.7570586731
 30
3.199999999999998
  0
VERTEX
  5
25A
  8
EASTERN_ZHOU
 10
721600.09218502056
 20
3414632.1324837641
 30
3.199999999999998
  0
SEQEND
  5
25B
  8
EASTERN_ZHOU
  0
POLYLINE
  5
81
  8
EASTERN_ZHOU
 66
     1
 10
0.0
 20
0.0
 30
7.7999999999999989
 70
     1
1001
ADE
1011
-28.413585599511858
1021
0.0
1031
0.0
1021
-0.7582239448092878
1031
0.0
1001
IRD
1002
{
1000
TPMLINK_Unit_topology-_-ade
1070
   515
1071
        5
1004
01009A04000078010000780100000000000088CE2153B7D9744088CE2153B7D974400000000084020000
1002
}
1001
DCO15
1071
        5
1071
        5
1000
unitlink
1004
074132343900
1071
        4
1000
Link
1004
074132343900
  0
VERTEX
  5
25C
  8
EASTERN_ZHOU
 10
721774.8688730672
 20
3414495.7319866498
 30
7.7999999999999989
  0
VERTEX
  5
25D
  8
EASTERN_ZHOU
 10
721773.14073647559
 20
3414592.7646983899
 30
7.7999999999999989
  0
VERTEX
  5
25E
  8
EASTERN_ZHOU
 10
721847.95395064342
 20
3414590.1907276288
 30
7.7999999999999989
  0
VERTEX
  5
25F
  8
EASTERN_ZHOU
 10
721847.08149333659
 20
3414500.889904805
 30
7.7999999999999989
  0
VERTEX
  5
260
  8
EASTERN_ZHOU
 10
721774.8688730672
 20
3414495.7319866498
 30
7.7999999999999989
  0
SEQEND
  5
261
  8
EASTERN_ZHOU
  0
POLYLINE
  5
82
  8
EASTERN_ZHOU
 66
     1
 10
0.0
 20
0.0
 30
1.799999999999998
 70
     1
1001
ADE
1011
-26.257609367487021
1021
0.0
1031
0.0
1021
10.38068440975621
1031
0.0
1001
IRD
1002
{
1000
TPMLINK_Unit_topology-_-ade
1070
   515
1071
        5
1004
01009B0400007B0100007B01000000000000F5D587EE37337440F5D587EE373374400000000085020000
1002
}
1001
DCO15
1071
        5
1071
        5
1000
unitlink
1004
074132353000
1071
        4
1000
Link
1004
074132353000
  0
VERTEX
  5
262
  8
EASTERN_ZHOU
 10
721690.44185048353
 20
3414485.2066410929
 30
1.799999999999998
  0
VERTEX
  5
263
  8
EASTERN_ZHOU
 10
721695.72692840546
 20
3414581.9699837998
 30
1.799999999999998
  0
VERTEX
  5
264
  8
EASTERN_ZHOU
 10
721756.63115972304
 20
3414582.927740362
 30
1.799999999999998
  0
VERTEX
  5
265
  8
EASTERN_ZHOU
 10
721758.5606326164
 20
3414485.685519374
 30
1.799999999999998
  0
VERTEX
  5
266
  8
EASTERN_ZHOU
 10
721690.44185048353
 20
3414485.2066410929
 30
1.799999999999998
  0
SEQEND
  5
267
  8
EASTERN_ZHOU
  0
POLYLINE
  5
83
  8
EASTERN_ZHOU
 66
     1
 10
0.0
 20
0.0
 30
0.1153846153846154
 70
     1
1001
ADE
1011
-11.94974890025332
1021
0.0
1031
0.0
1021
5.7995205288752913
1031
0.0
1001
IRD
1002
{
1000
TPMLINK_Unit_topology-_-ade
1070
   515
1071
        5
1004
01009C040000750100007501000000000000D0C5879AAAEE7140D0C5879AAAEE71400000000082030000
1002
}
1001
DCO15
1071
        5
1071
        5
1000
unitlink
1004
074132353100
1071
        4
1000
Link
1004
074132353100
  0
VERTEX
  5
268
  8
EASTERN_ZHOU
 10
721622.00428587187
 20
3414499.34352702
 30
0.1153846153846154
  0
VERTEX
  5
269
  8
EASTERN_ZHOU
 10
721620.89693621185
 20
3414591.0686711431
 30
0.1153846153846154
  0
VERTEX
  5
26A
  8
EASTERN_ZHOU
 10
721676.06308292621
 20
3414586.27988833
 30
0.1153846153846154
  0
VERTEX
  5
26B
  8
EASTERN_ZHOU
 10
721676.06308292621
 20
3414500.5407227241
 30
0.1153846153846154
  0
VERTEX
  5
26C
  8
EASTERN_ZHOU
 10
721622.00428587187
 20
3414499.34352702
 30
0.1153846153846154
  0
SEQEND
  5
26D
  8
EASTERN_ZHOU
  0
POLYLINE
  5
84
  8
EASTERN_ZHOU
 66
     1
 10
0.0
 20
0.0
 30
0.7272727272727275
 70
     1
1001
ADE
1011
-20.488275369862091
1021
0.0
1031
0.0
1021
6.0818436597473911
1031
0.0
1001
IRD
1002
{
1000
TPMLINK_Unit_topology-_-ade
1070
   515
1071
        5
1004
01009D040000AD010000AD01000000000000E94EC73C2A5E7C40E94EC73C2A5E7C407F02000000000000
1002
}
1001
DCO15
1071
        5
1071
        5
1000
unitlink
1004
074132343300
1071
        4
1000
Link
1004
074132343300
  0
VERTEX
  5
26E
  8
EASTERN_ZHOU
 10
721506.68891897786
 20
3414249.8978256369
 30
0.7272727272727275
  0
VERTEX
  5
26F
  8
EASTERN_ZHOU
 10
721508.28283137095
 20
3414128.6418541712
 30
0.7272727272727275
  0
VERTEX
  5
270
  8
EASTERN_ZHOU
 10
721608.97237363912
 20
3414118.9723245669
 30
0.7272727272727275
  0
VERTEX
  5
271
  8
EASTERN_ZHOU
 10
721608.68583319895
 20
3414248.4306318839
 30
0.7272727272727275
  0
VERTEX
  5
272
  8
EASTERN_ZHOU
 10
721506.68891897786
 20
3414249.8978256369
 30
0.7272727272727275
  0
SEQEND
  5
273
  8
EASTERN_ZHOU
  0
POLYLINE
  5
85
  8
EASTERN_ZHOU
 66
     1
 10
0.0
 20
0.0
 30
2.399999999999999
 70
     1
1001
ADE
1011
-26.794506171834659
1021
0.0
1031
0.0
1021
1.8506650258786961
1031
0.0
1001
IRD
1002
{
1000
TPMLINK_Unit_topology-_-ade
1070
   515
1071
        5
1004
01009E040000350100003501000000000000FA9CE762300E7E40FA9CE762300E7E407102000000000000
1002
}
1001
DCO15
1071
        5
1071
        5
1000
unitlink
1004
074132323800
1071
        4
1000
Link
1004
074132323800
  0
VERTEX
  5
274
  8
EASTERN_ZHOU
 10
721408.85625429824
 20
3414834.1792119299
 30
2.399999999999999
  0
VERTEX
  5
275
  8
EASTERN_ZHOU
 10
721519.62477637455
 20
3414842.5994883762
 30
2.399999999999999
  0
VERTEX
  5
276
  8
EASTERN_ZHOU
 10
721519.62477637455
 20
3414965.2621647939
 30
2.399999999999999
  0
VERTEX
  5
277
  8
EASTERN_ZHOU
 10
721399.22566785652
 20
3414960.4534287192
 30
2.399999999999999
  0
VERTEX
  5
278
  8
EASTERN_ZHOU
 10
721408.85625429824
 20
3414834.1792119299
 30
2.399999999999999
  0
SEQEND
  5
279
  8
EASTERN_ZHOU
  0
POLYLINE
  5
86
  8
EASTERN_ZHOU
 66
     1
 10
0.0
 20
0.0
 30
1.299999999999998
 70
     1
1001
ADE
1011
-35.770749633898959
1021
0.0
1031
0.0
1021
-0.6597594120539725
1031
0.0
1001
IRD
1002
{
1000
TPMLINK_Unit_topology-_-ade
1070
   515
1071
        5
1004
01009F0400004E0100004E01000000000000E284428B94557E40E284428B94557E407202000000000000
1002
}
1001
DCO15
1071
        5
1071
        5
1000
unitlink
1004
074132323900
1071
        4
1000
Link
1004
074132323900
  0
VERTEX
  5
27A
  8
EASTERN_ZHOU
 10
721407.57939756045
 20
3414696.214987325
 30
1.299999999999998
  0
VERTEX
  5
27B
  8
EASTERN_ZHOU
 10
721523.45222820644
 20
3414696.289206557
 30
1.299999999999998
  0
VERTEX
  5
27C
  8
EASTERN_ZHOU
 10
721524.49040367058
 20
3414821.0798956119
 30
1.299999999999998
  0
VERTEX
  5
27D
  8
EASTERN_ZHOU
 10
721400.90347037464
 20
3414817.0593133769
 30
1.299999999999998
  0
VERTEX
  5
27E
  8
EASTERN_ZHOU
 10
721407.57939756045
 20
3414696.214987325
 30
1.299999999999998
  0
SEQEND
  5
27F
  8
EASTERN_ZHOU
  0
POLYLINE
  5
87
  8
EASTERN_ZHOU
 66
     1
 10
0.0
 20
0.0
 30
0.8
 70
     1
1001
ADE
1011
-48.79888616502285
1021
0.0
1031
0.0
1021
-6.8090505609288812
1031
0.0
1001
IRD
1002
{
1000
TPMLINK_Unit_topology-_-ade
1070
   515
1071
        5
1004
0100A004000061010000610100000000000001FB3362138F7C4001FB3362138F7C400000000073020000
1002
}
1001
DCO15
1071
        5
1071
        5
1000
unitlink
1004
074132333000
1071
        4
1000
Link
1004
074132333000
  0
VERTEX
  5
280
  8
EASTERN_ZHOU
 10
721410.24883038551
 20
3414580.174190246
 30
0.8
  0
VERTEX
  5
281
  8
EASTERN_ZHOU
 10
721407.69857056066
 20
3414691.0345123559
 30
0.8
  0
VERTEX
  5
282
  8
EASTERN_ZHOU
 10
721523.80250463623
 20
3414691.8825259809
 30
0.8
  0
VERTEX
  5
283
  8
EASTERN_ZHOU
 10
721532.34251944348
 20
3414584.4441882521
 30
0.8
  0
VERTEX
  5
284
  8
EASTERN_ZHOU
 10
721410.24883038551
 20
3414580.174190246
 30
0.8
  0
SEQEND
  5
285
  8
EASTERN_ZHOU
  0
POLYLINE
  5
88
  8
EASTERN_ZHOU
 66
     1
 10
0.0
 20
0.0
 30
0.6538461538461539
 70
     1
1001
ADE
1011
-25.359985021874309
1021
0.0
1031
0.0
1021
2.359473198652267
1031
0.0
1001
IRD
1002
{
1000
TPMLINK_Unit_topology-_-ade
1070
   515
1071
        5
1004
0100A10400008C0100008C010000000000002281B4F51BAC79402281B4F51BAC79407502000000000000
1002
}
1001
DCO15
1071
        5
1071
        5
1000
unitlink
1004
074132333200
1071
        4
1000
Link
1004
074132333200
  0
VERTEX
  5
286
  8
EASTERN_ZHOU
 10
721509.60829535499
 20
3414408.0673312861
 30
0.6538461538461539
  0
VERTEX
  5
287
  8
EASTERN_ZHOU
 10
721598.90094523504
 20
3414410.2123069209
 30
0.6538461538461539
  0
VERTEX
  5
288
  8
EASTERN_ZHOU
 10
721601.97132383659
 20
3414519.7158072349
 30
0.6538461538461539
  0
VERTEX
  5
289
  8
EASTERN_ZHOU
 10
721505.48090116703
 20
3414523.3273476069
 30
0.6538461538461539
  0
VERTEX
  5
28A
  8
EASTERN_ZHOU
 10
721509.60829535499
 20
3414408.0673312861
 30
0.6538461538461539
  0
SEQEND
  5
28B
  8
EASTERN_ZHOU
  0
POLYLINE
  5
89
  8
EASTERN_ZHOU
 66
     1
 10
0.0
 20
0.0
 30
0.1923076923076923
 70
     1
1001
ADE
1011
-22.339940493926409
1021
0.0
1031
0.0
1021
1.4466114747337979
1031
0.0
1001
IRD
1002
{
1000
TPMLINK_Unit_topology-_-ade
1070
   515
1071
        5
1004
0100A20400008E0100008E010000000000009A783454E1847C409A783454E1847C407402000000000000
1002
}
1001
DCO15
1071
        5
1071
        5
1000
unitlink
1004
074132333100
1071
        4
1000
Link
1004
074132333100
  0
VERTEX
  5
28C
  8
EASTERN_ZHOU
 10
721398.75588315364
 20
3414401.792030476
 30
0.1923076923076923
  0
VERTEX
  5
28D
  8
EASTERN_ZHOU
 10
721503.76954260084
 20
3414409.5538492841
 30
0.1923076923076923
  0
VERTEX
  5
28E
  8
EASTERN_ZHOU
 10
721500.86694424984
 20
3414525.6419259659
 30
0.1923076923076923
  0
VERTEX
  5
28F
  8
EASTERN_ZHOU
 10
721393.45402720582
 20
3414529.0938402428
 30
0.1923076923076923
  0
VERTEX
  5
290
  8
EASTERN_ZHOU
 10
721398.75588315364
 20
3414401.792030476
 30
0.1923076923076923
  0
SEQEND
  5
291
  8
EASTERN_ZHOU
  0
POLYLINE
  5
8A
  8
EASTERN_ZHOU
 66
     1
 10
0.0
 20
0.0
 30
0.3723404255319149
 70
     1
1001
ADE
1011
-22.532887783017941
1021
0.0
1031
0.0
1021
-0.1346845175139606
1031
0.0
1001
IRD
1002
{
1000
TPMLINK_Unit_topology-_-ade
1070
   515
1071
        5
1004
0100A3040000A7010000A701000000000000C95FB811B7D47940C95FB811B7D479408002000000000000
1002
}
1001
DCO15
1071
        5
1071
        5
1000
unitlink
1004
074132343400
1071
        4
1000
Link
1004
074132343400
  0
VERTEX
  5
292
  8
EASTERN_ZHOU
 10
721399.41022613633
 20
3414282.2719927789
 30
0.3723404255319149
  0
VERTEX
  5
293
  8
EASTERN_ZHOU
 10
721497.31000291952
 20
3414282.2719927789
 30
0.3723404255319149
  0
VERTEX
  5
294
  8
EASTERN_ZHOU
 10
721503.23264579847
 20
3414387.9544434738
 30
0.3723404255319149
  0
VERTEX
  5
295
  8
EASTERN_ZHOU
 10
721397.43041916576
 20
3414385.9790705629
 30
0.3723404255319149
  0
VERTEX
  5
296
  8
EASTERN_ZHOU
 10
721399.41022613633
 20
3414282.2719927789
 30
0.3723404255319149
  0
SEQEND
  5
297
  8
EASTERN_ZHOU
  0
POLYLINE
  5
8B
  8
EASTERN_ZHOU
 66
     1
 10
0.0
 20
0.0
 30
0.3962264150943397
 70
     1
1001
ADE
1011
-43.220192801323719
1021
0.0
1031
0.0
1021
1.3967283191159361
1031
0.0
1001
IRD
1002
{
1000
TPMLINK_Unit_topology-_-ade
1070
   515
1071
        5
1004
0100A4040000BF010000BF01000000000000F14452D6ED987D40F14452D6ED987D407E02000000000000
1002
}
1001
DCO15
1071
        5
1071
        5
1000
unitlink
1004
074132343200
1071
        4
1000
Link
1004
074132343200
  0
VERTEX
  5
298
  8
EASTERN_ZHOU
 10
721386.96093146864
 20
3414010.4487083768
 30
0.3962264150943397
  0
VERTEX
  5
299
  8
EASTERN_ZHOU
 10
721501.8904037847
 20
3414007.375906073
 30
0.3962264150943397
  0
VERTEX
  5
29A
  8
EASTERN_ZHOU
 10
721504.96078239032
 20
3414128.3026487208
 30
0.3962264150943397
  0
VERTEX
  5
29B
  8
EASTERN_ZHOU
 10
721386.50792479143
 20
3414129.6095873639
 30
0.3962264150943397
  0
VERTEX
  5
29C
  8
EASTERN_ZHOU
 10
721386.96093146864
 20
3414010.4487083768
 30
0.3962264150943397
  0
SEQEND
  5
29D
  8
EASTERN_ZHOU
  0
POLYLINE
  5
8C
  8
EASTERN_ZHOU
 66
     1
 10
0.0
 20
0.0
 30
0.1142857142857143
 70
     1
1001
ADE
1011
-13.388864075881431
1021
0.0
1031
0.0
1021
2.5041343457996841
1031
0.0
1001
IRD
1002
{
1000
TPMLINK_Unit_topology-_-ade
1070
   515
1071
        5
1004
0100A50400005001000050010000000000003EB973384E6A76403EB973384E6A76400000000069020000
1002
}
1001
DCO15
1071
        5
1071
        5
1000
unitlink
1004
074132313600
1071
        4
1000
Link
1004
074132313600
  0
VERTEX
  5
29E
  8
EASTERN_ZHOU
 10
721391.82655876526
 20
3414671.819521321
 30
0.1142857142857143
  0
VERTEX
  5
29F
  8
EASTERN_ZHOU
 10
721300.58765796933
 20
3414661.5535681662
 30
0.1142857142857143
  0
VERTEX
  5
2A0
  8
EASTERN_ZHOU
 10
721303.03393999545
 20
3414752.2140639978
 30
0.1142857142857143
  0
VERTEX
  5
2A1
  8
EASTERN_ZHOU
 10
721396.32306950563
 20
3414754.5158145172
 30
0.1142857142857143
  0
VERTEX
  5
2A2
  8
EASTERN_ZHOU
 10
721391.82655876526
 20
3414671.819521321
 30
0.1142857142857143
  0
SEQEND
  5
2A3
  8
EASTERN_ZHOU
  0
POLYLINE
  5
8D
  8
EASTERN_ZHOU
 66
     1
 10
0.0
 20
0.0
 30
0.1012658227848101
 70
     1
1001
ADE
1011
-26.69383802078665
1021
0.0
1031
0.0
1021
2.6088889711536449
1031
0.0
1001
IRD
1002
{
1000
TPMLINK_Unit_topology-_-ade
1070
   515
1071
        5
1004
0100A60400004001000040010000000000009097847F905D79409097847F905D79406F02000000000000
1002
}
1001
DCO15
1071
        5
1071
        5
1000
unitlink
1004
074132323600
1071
        4
1000
Link
1004
074132323600
  0
VERTEX
  5
2A4
  8
EASTERN_ZHOU
 10
721284.71564617031
 20
3414761.6091990569
 30
0.1012658227848101
  0
VERTEX
  5
2A5
  8
EASTERN_ZHOU
 10
721384.49456177279
 20
3414764.6321182079
 30
0.1012658227848101
  0
VERTEX
  5
2A6
  8
EASTERN_ZHOU
 10
721387.64883049962
 20
3414863.1613245779
 30
0.1012658227848101
  0
VERTEX
  5
2A7
  8
EASTERN_ZHOU
 10
721280.4036937058
 20
3414861.7047364712
 30
0.1012658227848101
  0
VERTEX
  5
2A8
  8
EASTERN_ZHOU
 10
721284.71564617031
 20
3414761.6091990569
 30
0.1012658227848101
  0
SEQEND
  5
2A9
  8
EASTERN_ZHOU
  0
POLYLINE
  5
8E
  8
EASTERN_ZHOU
 66
     1
 10
0.0
 20
0.0
 30
0.0454545454545455
 70
     1
1001
ADE
1011
-18.25449136854149
1021
0.0
1031
0.0
1021
-1.7409220845438531
1031
0.0
1001
IRD
1002
{
1000
TPMLINK_Unit_topology-_-ade
1070
   515
1071
        5
1004
0100A70400002A0100002A01000000000000F68411B096517440F68411B096517440000000006E020000
1002
}
1001
DCO15
1071
        5
1071
        5
1000
unitlink
1004
074132323500
1071
        4
1000
Link
1004
074132323500
  0
VERTEX
  5
2AA
  8
EASTERN_ZHOU
 10
721291.44363425684
 20
3414956.4128932208
 30
0.0454545454545455
  0
VERTEX
  5
2AB
  8
EASTERN_ZHOU
 10
721322.28164449346
 20
3414961.680554315
 30
0.0454545454545455
  0
VERTEX
  5
2AC
  8
EASTERN_ZHOU
 10
721370.43457669031
 20
3414949.6587141319
 30
0.0454545454545455
  0
VERTEX
  5
2AD
  8
EASTERN_ZHOU
 10
721374.19285432633
 20
3414869.6361580039
 30
0.0454545454545455
  0
VERTEX
  5
2AE
  8
EASTERN_ZHOU
 10
721298.03739814425
 20
3414868.7482378581
 30
0.0454545454545455
  0
VERTEX
  5
2AF
  8
EASTERN_ZHOU
 10
721291.44363425684
 20
3414956.4128932208
 30
0.0454545454545455
  0
SEQEND
  5
2B0
  8
EASTERN_ZHOU
  0
POLYLINE
  5
8F
  8
EASTERN_ZHOU
 66
     1
 10
0.0
 20
0.0
 30
0.0340909090909091
 70
     1
1001
ADE
1011
-26.24922035261989
1021
0.0
1031
0.0
1021
8.0710943648591655
1031
0.0
1001
IRD
1002
{
1000
TPMLINK_Unit_topology-_-ade
1070
   515
1071
        5
1004
0100A80400002B0100002B01000000000000725B34DF3BD87240725B34DF3BD87240000000006D020000
1002
}
1001
DCO15
1071
        5
1071
        5
1000
unitlink
1004
074132323400
1071
        4
1000
Link
1004
074132323400
  0
VERTEX
  5
2B1
  8
EASTERN_ZHOU
 10
721221.74771776062
 20
3414954.1980811711
 30
0.0340909090909091
  0
VERTEX
  5
2B2
  8
EASTERN_ZHOU
 10
721284.9505385235
 20
3414954.1980811711
 30
0.0340909090909091
  0
VERTEX
  5
2B3
  8
EASTERN_ZHOU
 10
721294.9837975651
 20
3414871.3920450369
 30
0.0340909090909091
  0
VERTEX
  5
2B4
  8
EASTERN_ZHOU
 10
721223.50941040355
 20
3414870.7934471858
 30
0.0340909090909091
  0
VERTEX
  5
2B5
  8
EASTERN_ZHOU
 10
721221.74771776062
 20
3414954.1980811711
 30
0.0340909090909091
  0
SEQEND
  5
2B6
  8
EASTERN_ZHOU
  0
POLYLINE
  5
90
  8
EASTERN_ZHOU
 66
     1
 10
0.0
 20
0.0
 30
0.6000000000000001
 70
     1
1001
ADE
1011
-25.00764649559278
1021
0.0
1031
0.0
1021
-5.9910560459829849
1031
0.0
1001
IRD
1002
{
1000
TPMLINK_Unit_topology-_-ade
1070
   515
1071
        5
1004
0100A90400002901000029010000000000004E895CB0BC8074404E895CB0BC807440000000006C020000
1002
}
1001
DCO15
1071
        5
1071
        5
1000
unitlink
1004
07413232323100
1071
        4
1000
Link
1004
07413232323100
  0
VERTEX
  5
2B7
  8
EASTERN_ZHOU
 10
721138.44779953163
 20
3414957.2710619061
 30
0.6000000000000001
  0
VERTEX
  5
2B8
  8
EASTERN_ZHOU
 10
721205.18780693435
 20
3414954.267917587
 30
0.6000000000000001
  0
VERTEX
  5
2B9
  8
EASTERN_ZHOU
 10
721210.79166733485
 20
3414864.7376322532
 30
0.6000000000000001
  0
VERTEX
  5
2BA
  8
EASTERN_ZHOU
 10
721136.91802257695
 20
3414859.7892233469
 30
0.6000000000000001
  0
VERTEX
  5
2BB
  8
EASTERN_ZHOU
 10
721138.44779953163
 20
3414957.2710619061
 30
0.6000000000000001
  0
SEQEND
  5
2BC
  8
EASTERN_ZHOU
  0
POLYLINE
  5
91
  8
EASTERN_ZHOU
 66
     1
 10
0.0
 20
0.0
 30
0.4
 70
     1
1001
ADE
1011
-28.42197461228352
1021
0.0
1031
0.0
1021
-3.1875335606746358
1031
0.0
1001
IRD
1002
{
1000
TPMLINK_Unit_topology-_-ade
1070
   515
1071
        5
1004
0100AA0400003F0100003F0100000000000053F3F5421BBF764053F3F5421BBF76408702000000000000
1002
}
1001
DCO15
1071
        5
1071
        5
1000
unitlink
1004
07413232323200
1071
        4
1000
Link
1004
07413232323200
  0
VERTEX
  5
2BD
  8
EASTERN_ZHOU
 10
721191.74860878312
 20
3414765.8991503268
 30
0.4
  0
VERTEX
  5
2BE
  8
EASTERN_ZHOU
 10
721280.18557937816
 20
3414762.9660208542
 30
0.4
  0
VERTEX
  5
2BF
  8
EASTERN_ZHOU
 10
721275.30317405984
 20
3414861.0462788339
 30
0.4
  0
VERTEX
  5
2C0
  8
EASTERN_ZHOU
 10
721191.26204605412
 20
3414859.090859185
 30
0.4
  0
VERTEX
  5
2C1
  8
EASTERN_ZHOU
 10
721191.74860878312
 20
3414765.8991503268
 30
0.4
  0
SEQEND
  5
2C2
  8
EASTERN_ZHOU
  0
POLYLINE
  5
92
  8
EASTERN_ZHOU
 66
     1
 10
0.0
 20
0.0
 30
2.7999999999999989
 70
     1
1001
ADE
1011
-20.98930946923792
1021
0.0
1031
0.0
1021
1.5613427292555571
1031
0.0
1001
IRD
1002
{
1000
TPMLINK_Unit_topology-_-ade
1070
   515
1071
        5
1004
0100AC0400006201000062010000000000003F8809C5A9A275403F8809C5A9A275400000000067020000
1002
}
1001
DCO15
1071
        5
1071
        5
1000
unitlink
1004
074132313400
1071
        4
1000
Link
1004
074132313400
  0
VERTEX
  5
2C3
  8
EASTERN_ZHOU
 10
721300.18498536584
 20
3414580.0045875199
 30
2.7999999999999989
  0
VERTEX
  5
2C4
  8
EASTERN_ZHOU
 10
721301.47689330205
 20
3414659.4085925319
 30
2.7999999999999989
  0
VERTEX
  5
2C5
  8
EASTERN_ZHOU
 10
721390.97087948013
 20
3414668.6669059689
 30
2.7999999999999989
  0
VERTEX
  5
2C6
  8
EASTERN_ZHOU
 10
721391.52455431235
 20
3414583.286899073
 30
2.7999999999999989
  0
VERTEX
  5
2C7
  8
EASTERN_ZHOU
 10
721300.18498536584
 20
3414580.0045875199
 30
2.7999999999999989
  0
SEQEND
  5
2C8
  8
EASTERN_ZHOU
  0
POLYLINE
  5
93
  8
EASTERN_ZHOU
 66
     1
 10
0.0
 20
0.0
 30
0.9000000000000001
 70
     1
1001
ADE
1011
-15.41900511656422
1021
0.0
1031
0.0
1021
-6.5845763650722802
1031
0.0
1001
IRD
1002
{
1000
TPMLINK_Unit_topology-_-ade
1070
   515
1071
        5
1004
0100AD0400005201000052010000000000009C3A2729750974409C3A2729750974400000000068020000
1002
}
1001
DCO15
1071
        5
1071
        5
1000
unitlink
1004
074132313500
1071
        4
1000
Link
1004
074132313500
  0
VERTEX
  5
2C9
  8
EASTERN_ZHOU
 10
721218.22433247813
 20
3414663.2895019348
 30
0.9000000000000001
  0
VERTEX
  5
2CA
  8
EASTERN_ZHOU
 10
721298.37295864942
 20
3414661.134549669
 30
0.9000000000000001
  0
VERTEX
  5
2CB
  8
EASTERN_ZHOU
 10
721299.02730162814
 20
3414583.6360811531
 30
0.9000000000000001
  0
VERTEX
  5
2CC
  8
EASTERN_ZHOU
 10
721218.15722037863
 20
3414581.281596269
 30
0.9000000000000001
  0
VERTEX
  5
2CD
  8
EASTERN_ZHOU
 10
721218.22433247813
 20
3414663.2895019348
 30
0.9000000000000001
  0
SEQEND
  5
2CE
  8
EASTERN_ZHOU
  0
POLYLINE
  5
94
  8
EASTERN_ZHOU
 66
     1
 10
0.0
 20
0.0
 30
1.5
 70
     1
1001
ADE
1011
-16.064959084847931
1021
0.0
1031
0.0
1021
-2.115045741666107
1031
0.0
1001
IRD
1002
{
1000
TPMLINK_Unit_topology-_-ade
1070
   515
1071
        5
1004
0100AE04000053010000530100000000000064FAD8043305724064FAD804330572406A02000000000000
1002
}
1001
DCO15
1071
        5
1071
        5
1000
unitlink
1004
074132313700
1071
        4
1000
Link
1004
074132313700
  0
VERTEX
  5
2CF
  8
EASTERN_ZHOU
 10
721217.13376084354
 20
3414658.4209060762
 30
1.5
  0
VERTEX
  5
2D0
  8
EASTERN_ZHOU
 10
721158.29322662205
 20
3414653.731889572
 30
1.5
  0
VERTEX
  5
2D1
  8
EASTERN_ZHOU
 10
721154.30005663645
 20
3414566.9950608811
 30
1.5
  0
VERTEX
  5
2D2
  8
EASTERN_ZHOU
 10
721216.27808156225
 20
3414579.1066907421
 30
1.5
  0
VERTEX
  5
2D3
  8
EASTERN_ZHOU
 10
721217.13376084354
 20
3414658.4209060762
 30
1.5
  0
SEQEND
  5
2D4
  8
EASTERN_ZHOU
  0
POLYLINE
  5
95
  8
EASTERN_ZHOU
 66
     1
 10
0.0
 20
0.0
 30
0.1368421052631579
 70
     1
1001
ADE
1011
-3.2046028038021159
1021
0.0
1031
0.0
1021
12.914748648181551
1031
0.0
1001
IRD
1002
{
1000
TPMLINK_Unit_topology-_-ade
1070
   515
1071
        5
1004
0100AF0400008D0100008D01000000000000CA654386C7D97940CA654386C7D979407602000000000000
1002
}
1001
DCO15
1071
        5
1071
        5
1000
unitlink
1004
074132333300
1071
        4
1000
Link
1004
074132333300
  0
VERTEX
  5
2D5
  8
EASTERN_ZHOU
 10
721320.53672987968
 20
3414403.148852272
 30
0.1368421052631579
  0
VERTEX
  5
2D6
  8
EASTERN_ZHOU
 10
721379.88060485199
 20
3414395.3171970481
 30
0.1368421052631579
  0
VERTEX
  5
2D7
  8
EASTERN_ZHOU
 10
721390.18231229845
 20
3414466.819710419
 30
0.1368421052631579
  0
VERTEX
  5
2D8
  8
EASTERN_ZHOU
 10
721387.22937987
 20
3414506.9856262598
 30
0.1368421052631579
  0
VERTEX
  5
2D9
  8
EASTERN_ZHOU
 10
721292.65165206802
 20
3414511.8143155952
 30
0.1368421052631579
  0
VERTEX
  5
2DA
  8
EASTERN_ZHOU
 10
721288.07125120214
 20
3414480.477718065
 30
0.1368421052631579
  0
VERTEX
  5
2DB
  8
EASTERN_ZHOU
 10
721324.99968456873
 20
3414480.9565963461
 30
0.1368421052631579
  0
VERTEX
  5
2DC
  8
EASTERN_ZHOU
 10
721320.53672987968
 20
3414403.148852272
 30
0.1368421052631579
  0
SEQEND
  5
2DD
  8
EASTERN_ZHOU
  0
POLYLINE
  5
96
  8
EASTERN_ZHOU
 66
     1
 10
0.0
 20
0.0
 30
0.1886792452830189
 70
     1
1001
ADE
1011
-34.730512069654651
1021
0.0
1031
0.0
1021
3.631493632681666
1031
0.0
1001
IRD
1002
{
1000
TPMLINK_Unit_topology-_-ade
1070
   515
1071
        5
1004
0100B0040000A9010000A9010000000000006A9CADDFAB267A406A9CADDFAB267A407702000000000000
1002
}
1001
DCO15
1071
        5
1071
        5
1000
unitlink
1004
074132333400
1071
        4
1000
Link
1004
074132333400
  0
VERTEX
  5
2DE
  8
EASTERN_ZHOU
 10
721286.14177830913
 20
3414276.8646588512
 30
0.1886792452830189
  0
VERTEX
  5
2DF
  8
EASTERN_ZHOU
 10
721385.65224550664
 20
3414278.5307562058
 30
0.1886792452830189
  0
VERTEX
  5
2E0
  8
EASTERN_ZHOU
 10
721385.09857067838
 20
3414386.248439597
 30
0.1886792452830189
  0
VERTEX
  5
2E1
  8
EASTERN_ZHOU
 10
721282.80295130238
 20
3414385.6897482681
 30
0.1886792452830189
  0
VERTEX
  5
2E2
  8
EASTERN_ZHOU
 10
721286.14177830913
 20
3414276.8646588512
 30
0.1886792452830189
  0
SEQEND
  5
2E3
  8
EASTERN_ZHOU
  0
POLYLINE
  5
97
  8
EASTERN_ZHOU
 66
     1
 10
0.0
 20
0.0
 30
0.1351351351351351
 70
     1
1001
ADE
1011
-44.176540236803689
1021
0.0
1031
0.0
1021
10.9742939453572
1031
0.0
1001
IRD
1002
{
1000
TPMLINK_Unit_topology-_-ade
1070
   515
1071
        5
1004
0100B1040000B8010000B80100000000000017B2D027E29E7C4017B2D027E29E7C407802000000000000
1002
}
1001
DCO15
1071
        5
1071
        5
1000
unitlink
1004
074132333500
1071
        4
1000
Link
1004
074132333500
  0
VERTEX
  5
2E4
  8
EASTERN_ZHOU
 10
721267.71950668842
 20
3414144.843902688
 30
0.1351351351351351
  0
VERTEX
  5
2E5
  8
EASTERN_ZHOU
 10
721382.54831085366
 20
3414147.0786680002
 30
0.1351351351351351
  0
VERTEX
  5
2E6
  8
EASTERN_ZHOU
 10
721384.7965662257
 20
3414259.6948771421
 30
0.1351351351351351
  0
VERTEX
  5
2E7
  8
EASTERN_ZHOU
 10
721268.79330029711
 20
3414259.2758586458
 30
0.1351351351351351
  0
VERTEX
  5
2E8
  8
EASTERN_ZHOU
 10
721267.71950668842
 20
3414144.843902688
 30
0.1351351351351351
  0
SEQEND
  5
2E9
  8
EASTERN_ZHOU
  0
POLYLINE
  5
98
  8
EASTERN_ZHOU
 66
     1
 10
0.0
 20
0.0
 30
1.399999999999999
 70
     1
1001
ADE
1011
-40.183370249345899
1021
0.0
1031
0.0
1021
3.6564352107234281
1031
0.0
1001
IRD
1002
{
1000
TPMLINK_Unit_topology-_-ade
1070
   515
1071
        5
1004
0100B2040000BE010000BE0100000000000022CF26A569227D4022CF26A569227D407902000000000000
1002
}
1001
DCO15
1071
        5
1071
        5
1000
unitlink
1004
074132333600
1071
        4
1000
Link
1004
074132333600
  0
VERTEX
  5
2EA
  8
EASTERN_ZHOU
 10
721267.45105828706
 20
3414018.1805972941
 30
1.399999999999999
  0
VERTEX
  5
2EB
  8
EASTERN_ZHOU
 10
721382.06174812454
 20
3414011.3964883089
 30
1.399999999999999
  0
VERTEX
  5
2EC
  8
EASTERN_ZHOU
 10
721381.6087414436
 20
3414132.0837918171
 30
1.399999999999999
  0
VERTEX
  5
2ED
  8
EASTERN_ZHOU
 10
721265.32024909183
 20
3414132.522763575
 30
1.399999999999999
  0
VERTEX
  5
2EE
  8
EASTERN_ZHOU
 10
721267.45105828706
 20
3414018.1805972941
 30
1.399999999999999
  0
SEQEND
  5
2EF
  8
EASTERN_ZHOU
  0
POLYLINE
  5
99
  8
EASTERN_ZHOU
 66
     1
 10
0.0
 20
0.0
 30
1.1000000000000001
 70
     1
1001
ADE
1011
-37.993837965768762
1021
0.0
1031
0.0
1021
10.0015724375844
1031
0.0
1001
IRD
1002
{
1000
TPMLINK_Unit_topology-_-ade
1070
   515
1071
        5
1004
0100B3040000C2010000C2010000000000003D6194CDF72F79403D6194CDF72F7940000000007D020000
1002
}
1001
DCO15
1071
        5
1071
        5
1000
unitlink
1004
074132343100
1071
        4
1000
Link
1004
074132343100
  0
VERTEX
  5
2F0
  8
EASTERN_ZHOU
 10
721263.40755422437
 20
3413924.9290286489
 30
1.1000000000000001
  0
VERTEX
  5
2F1
  8
EASTERN_ZHOU
 10
721268.74296622386
 20
3414007.824854461
 30
1.1000000000000001
  0
VERTEX
  5
2F2
  8
EASTERN_ZHOU
 10
721387.31326999865
 20
3414003.0560249109
 30
1.1000000000000001
  0
VERTEX
  5
2F3
  8
EASTERN_ZHOU
 10
721376.10554919392
 20
3413915.5909021641
 30
1.1000000000000001
  0
VERTEX
  5
2F4
  8
EASTERN_ZHOU
 10
721263.40755422437
 20
3413924.9290286489
 30
1.1000000000000001
  0
SEQEND
  5
2F5
  8
EASTERN_ZHOU
  0
POLYLINE
  5
9A
  8
EASTERN_ZHOU
 66
     1
 10
0.0
 20
0.0
 30
9.3719387755102055
 70
     1
1001
ADE
1011
-38.311049125390127
1021
0.0
1031
0.0
1021
18.795334957540032
1031
0.0
1001
IRD
1002
{
1000
TPMLINK_Unit_topology-_-ade
1070
   515
1071
        5
1004
0100B40400006C0100006C01000000000000F908306237957540F9083062379575400000000046020000
1002
}
1001
DCO15
1071
        5
1071
        5
1000
unitlink
1004
074131383100
1071
        4
1000
Link
1004
074131383100
  0
VERTEX
  5
2F6
  8
EASTERN_ZHOU
 10
721180.1854068212
 20
3414515.4869909179
 30
9.3719387755102055
  0
VERTEX
  5
2F7
  8
EASTERN_ZHOU
 10
721277.16553485033
 20
3414514.7574216989
 30
9.3719387755102055
  0
VERTEX
  5
2F8
  8
EASTERN_ZHOU
 10
721287.1484598181
 20
3414509.4099475569
 30
9.3719387755102055
  0
VERTEX
  5
2F9
  8
EASTERN_ZHOU
 10
721281.09159273666
 20
3414429.2676718631
 30
9.3719387755102055
  0
VERTEX
  5
2FA
  8
EASTERN_ZHOU
 10
721253.97830408451
 20
3414444.2226415221
 30
9.3719387755102055
  0
VERTEX
  5
2FB
  8
EASTERN_ZHOU
 10
721232.44134868577
 20
3414456.101853915
 30
9.3719387755102055
  0
VERTEX
  5
2FC
  8
EASTERN_ZHOU
 10
721205.82537189161
 20
3414465.2434027418
 30
9.3719387755102055
  0
VERTEX
  5
2FD
  8
EASTERN_ZHOU
 10
721180.66518385825
 20
3414467.8377781441
 30
9.3719387755102055
  0
VERTEX
  5
2FE
  8
EASTERN_ZHOU
 10
721180.1854068212
 20
3414515.4869909179
 30
9.3719387755102055
  0
SEQEND
  5
2FF
  8
EASTERN_ZHOU
  0
POLYLINE
  5
9B
  8
EASTERN_ZHOU
 66
     1
 10
0.0
 20
0.0
 30
0.1447368421052632
 70
     1
1001
ADE
1011
-39.87297678401228
1021
0.0
1031
0.0
1021
5.551995074376463
1031
0.0
1001
IRD
1002
{
1000
TPMLINK_Unit_topology-_-ade
1070
   515
1071
        5
1004
0100B50400008F0100008F0100000000000053A8B0B96985734053A8B0B9698573400000000045020000
1002
}
1001
DCO15
1071
        5
1071
        5
1000
unitlink
1004
074131383000
1071
        4
1000
Link
1004
074131383000
  0
VERTEX
  5
300
  8
EASTERN_ZHOU
 10
721276.59508199629
 20
3414389.121709283
 30
0.1447368421052632
  0
VERTEX
  5
301
  8
EASTERN_ZHOU
 10
721176.98394664773
 20
3414386.8669907101
 30
0.1447368421052632
  0
VERTEX
  5
302
  8
EASTERN_ZHOU
 10
721180.5576660037
 20
3414465.4728652518
 30
0.1447368421052632
  0
VERTEX
  5
303
  8
EASTERN_ZHOU
 10
721213.17414690903
 20
3414457.8207893842
 30
0.1447368421052632
  0
VERTEX
  5
304
  8
EASTERN_ZHOU
 10
721246.91475549713
 20
3414435.163860702
 30
0.1447368421052632
  0
VERTEX
  5
305
  8
EASTERN_ZHOU
 10
721269.631896607
 20
3414419.9092263728
 30
0.1447368421052632
  0
VERTEX
  5
306
  8
EASTERN_ZHOU
 10
721276.4105237202
 20
3414407.3988970178
 30
0.1447368421052632
  0
VERTEX
  5
307
  8
EASTERN_ZHOU
 10
721276.59508199629
 20
3414389.121709283
 30
0.1447368421052632
  0
SEQEND
  5
308
  8
EASTERN_ZHOU
  0
POLYLINE
  5
9C
  8
EASTERN_ZHOU
 66
     1
 10
0.0
 20
0.0
 30
0.2580645161290322
 70
     1
1001
ADE
1011
-34.185226254048771
1021
0.0
1031
0.0
1021
5.7615043222904188
1031
0.0
1001
IRD
1002
{
1000
TPMLINK_Unit_topology-_-ade
1070
   515
1071
        5
1004
0100B6040000A1010000A101000000000000D31D604E68487640D31D604E684876404402000000000000
1002
}
1001
DCO15
1071
        5
1071
        5
1000
unitlink
1004
074131373900
1071
        4
1000
Link
1004
074131373900
  0
VERTEX
  5
309
  8
EASTERN_ZHOU
 10
721170.39018275973
 20
3414313.9777256488
 30
0.2580645161290322
  0
VERTEX
  5
30A
  8
EASTERN_ZHOU
 10
721279.06145169225
 20
3414308.0915134419
 30
0.2580645161290322
  0
VERTEX
  5
30B
  8
EASTERN_ZHOU
 10
721274.39716070145
 20
3414386.956780388
 30
0.2580645161290322
  0
VERTEX
  5
30C
  8
EASTERN_ZHOU
 10
721176.17860144004
 20
3414384.173300378
 30
0.2580645161290322
  0
VERTEX
  5
30D
  8
EASTERN_ZHOU
 10
721170.39018275973
 20
3414313.9777256488
 30
0.2580645161290322
  0
SEQEND
  5
30E
  8
EASTERN_ZHOU
  0
POLYLINE
  5
9D
  8
EASTERN_ZHOU
 66
     1
 10
0.0
 20
0.0
 30
0.0795454545454546
 70
     1
1001
ADE
1011
-30.35144750576001
1021
0.0
1031
0.0
1021
-2.4887748030014318
1031
0.0
1001
IRD
1002
{
1000
TPMLINK_Unit_topology-_-ade
1070
   515
1071
        5
1004
0100B7040000A6010000A6010000000000007C94954832C376407C94954832C376404302000000000000
1002
}
1001
DCO15
1071
        5
1071
        5
1000
unitlink
1004
074131373800
1071
        4
1000
Link
1004
074131373800
  0
VERTEX
  5
30F
  8
EASTERN_ZHOU
 10
721152.11891336774
 20
3414303.0832447498
 30
0.0795454545454546
  0
VERTEX
  5
310
  8
EASTERN_ZHOU
 10
721150.05521627143
 20
3414225.5049631861
 30
0.0795454545454546
  0
VERTEX
  5
311
  8
EASTERN_ZHOU
 10
721252.01042090484
 20
3414220.2065830091
 30
0.0795454545454546
  0
VERTEX
  5
312
  8
EASTERN_ZHOU
 10
721255.48832634825
 20
3414301.2475446728
 30
0.0795454545454546
  0
VERTEX
  5
313
  8
EASTERN_ZHOU
 10
721152.11891336774
 20
3414303.0832447498
 30
0.0795454545454546
  0
SEQEND
  5
314
  8
EASTERN_ZHOU
  0
POLYLINE
  5
9E
  8
EASTERN_ZHOU
 66
     1
 10
0.0
 20
0.0
 30
0.421875
 70
     1
1001
ADE
1011
-18.50167374452576
1021
0.0
1031
0.0
1021
10.421312349848449
1031
0.0
1001
IRD
1002
{
1000
TPMLINK_Unit_topology-_-ade
1070
   515
1071
        5
1004
0100B8040000B0010000B00100000000000022AD10AEFA6D764022AD10AEFA6D76400000000042020000
1002
}
1001
DCO15
1071
        5
1071
        5
1000
unitlink
1004
074131373700
1071
        4
1000
Link
1004
074131373700
  0
VERTEX
  5
315
  8
EASTERN_ZHOU
 10
721149.50154144294
 20
3414222.6716000228
 30
0.421875
  0
VERTEX
  5
316
  8
EASTERN_ZHOU
 10
721252.03205316875
 20
3414218.321788969
 30
0.421875
  0
VERTEX
  5
317
  8
EASTERN_ZHOU
 10
721252.96264656913
 20
3414137.240267138
 30
0.421875
  0
VERTEX
  5
318
  8
EASTERN_ZHOU
 10
721143.37756226223
 20
3414159.659199514
 30
0.421875
  0
VERTEX
  5
319
  8
EASTERN_ZHOU
 10
721149.50154144294
 20
3414222.6716000228
 30
0.421875
  0
SEQEND
  5
31A
  8
EASTERN_ZHOU
  0
POLYLINE
  5
9F
  8
EASTERN_ZHOU
 66
     1
 10
0.0
 20
0.0
 30
0.3854166666666667
 70
     1
1001
ADE
1011
-28.723979066940959
1021
0.0
1031
0.0
1021
-12.216384486760941
1031
0.0
1001
IRD
1002
{
1000
TPMLINK_Unit_topology-_-ade
1070
   515
1071
        5
1004
0100B9040000B7010000B70100000000000066472B9639A9754066472B9639A975400000000041020000
1002
}
1001
DCO15
1071
        5
1071
        5
1000
unitlink
1004
074131373600
1071
        4
1000
Link
1004
074131373600
  0
VERTEX
  5
31B
  8
EASTERN_ZHOU
 10
721147.3203981705
 20
3414156.0277058799
 30
0.3854166666666667
  0
VERTEX
  5
31C
  8
EASTERN_ZHOU
 10
721252.98840060085
 20
3414133.5204266608
 30
0.3854166666666667
  0
VERTEX
  5
31D
  8
EASTERN_ZHOU
 10
721253.34073913086
 20
3414082.6296326462
 30
0.3854166666666667
  0
VERTEX
  5
31E
  8
EASTERN_ZHOU
 10
721139.28372412187
 20
3414082.8790484178
 30
0.3854166666666667
  0
VERTEX
  5
31F
  8
EASTERN_ZHOU
 10
721147.3203981705
 20
3414156.0277058799
 30
0.3854166666666667
  0
SEQEND
  5
320
  8
EASTERN_ZHOU
  0
POLYLINE
  5
A0
  8
EASTERN_ZHOU
 66
     1
 10
0.0
 20
0.0
 30
1.3
 70
     1
1001
ADE
1011
-26.571954802260741
1021
0.0
1031
0.0
1021
-6.0159084107726812
1031
0.0
1001
IRD
1002
{
1000
TPMLINK_Unit_topology-_-ade
1070
   515
1071
        5
1004
0100BA040000BD010000BD0100000000000064E0E1FA7B8D764064E0E1FA7B8D7640000000007A020000
1002
}
1001
DCO15
1071
        5
1071
        5
1000
unitlink
1004
074132333700
1071
        4
1000
Link
1004
074132333700
  0
VERTEX
  5
321
  8
EASTERN_ZHOU
 10
721143.0163496444
 20
3414073.327202417
 30
1.3
  0
VERTEX
  5
322
  8
EASTERN_ZHOU
 10
721253.29040505365
 20
3414079.8661058992
 30
1.3
  0
VERTEX
  5
323
  8
EASTERN_ZHOU
 10
721260.63918007177
 20
3414007.0766071482
 30
1.3
  0
VERTEX
  5
324
  8
EASTERN_ZHOU
 10
721145.63771364535
 20
3414011.2439750531
 30
1.3
  0
VERTEX
  5
325
  8
EASTERN_ZHOU
 10
721143.0163496444
 20
3414073.327202417
 30
1.3
  0
SEQEND
  5
326
  8
EASTERN_ZHOU
  0
POLYLINE
  5
A1
  8
EASTERN_ZHOU
 66
     1
 10
0.0
 20
0.0
 30
1.599999999999999
 70
     1
1001
ADE
1011
-36.01403099519667
1021
0.0
1031
0.0
1021
5.3125559338368467
1031
0.0
1001
IRD
1002
{
1000
TPMLINK_Unit_topology-_-ade
1070
   515
1071
        5
1004
0100BB040000C1010000C101000000000000906D67AC34217640906D67AC342176407B02000000000000
1002
}
1001
DCO15
1071
        5
1071
        5
1000
unitlink
1004
074132333800
1071
        4
1000
Link
1004
074132333800
  0
VERTEX
  5
327
  8
EASTERN_ZHOU
 10
721148.67941820994
 20
3413939.205587409
 30
1.599999999999999
  0
VERTEX
  5
328
  8
EASTERN_ZHOU
 10
721254.04541618738
 20
3413933.5189078189
 30
1.599999999999999
  0
VERTEX
  5
329
  8
EASTERN_ZHOU
 10
721257.6191355437
 20
3414002.497333583
 30
1.599999999999999
  0
VERTEX
  5
32A
  8
EASTERN_ZHOU
 10
721145.82715393254
 20
3414006.7573549598
 30
1.599999999999999
  0
VERTEX
  5
32B
  8
EASTERN_ZHOU
 10
721148.67941820994
 20
3413939.205587409
 30
1.599999999999999
  0
SEQEND
  5
32C
  8
EASTERN_ZHOU
  0
POLYLINE
  5
A2
  8
EASTERN_ZHOU
 66
     1
 10
0.0
 20
0.0
 30
0.0673076923076923
 70
     1
1001
ADE
1011
-30.152357098879289
1021
0.0
1031
0.0
1021
-0.9270741562359036
1031
0.0
1001
IRD
1002
{
1000
TPMLINK_Unit_topology-_-ade
1070
   515
1071
        5
1004
0100BC040000BC010000BC01000000000000EA97FD5AB8667740EA97FD5AB86677400000000040020000
1002
}
1001
DCO15
1071
        5
1071
        5
1000
unitlink
1004
074131373500
1071
        4
1000
Link
1004
074131373500
  0
VERTEX
  5
32D
  8
EASTERN_ZHOU
 10
721022.25699866191
 20
3414085.6226219051
 30
0.0673076923076923
  0
VERTEX
  5
32E
  8
EASTERN_ZHOU
 10
721032.81993645686
 20
3414168.2276203972
 30
0.0673076923076923
  0
VERTEX
  5
32F
  8
EASTERN_ZHOU
 10
721136.41917361191
 20
3414160.6845026119
 30
0.0673076923076923
  0
VERTEX
  5
330
  8
EASTERN_ZHOU
 10
721132.79062838841
 20
3414084.0463142288
 30
0.0673076923076923
  0
VERTEX
  5
331
  8
EASTERN_ZHOU
 10
721022.25699866191
 20
3414085.6226219051
 30
0.0673076923076923
  0
SEQEND
  5
332
  8
EASTERN_ZHOU
  0
POLYLINE
  5
A3
  8
EASTERN_ZHOU
 66
     1
 10
0.0
 20
0.0
 30
0.25
 70
     1
1001
ADE
1011
-23.840518649434671
1021
0.0
1031
0.0
1021
1.5862843082286411
1031
0.0
1001
IRD
1002
{
1000
TPMLINK_Unit_topology-_-ade
1070
   515
1071
        5
1004
0100BD040000B6010000B6010000000000003616DFD4886974403616DFD4886974403F02000000000000
1002
}
1001
DCO15
1071
        5
1071
        5
1000
unitlink
1004
074131373400
1071
        4
1000
Link
1004
074131373400
  0
VERTEX
  5
333
  8
EASTERN_ZHOU
 10
721033.04526883713
 20
3414172.4791701678
 30
0.25
  0
VERTEX
  5
334
  8
EASTERN_ZHOU
 10
721136.59924009815
 20
3414164.38812254
 30
0.25
  0
VERTEX
  5
335
  8
EASTERN_ZHOU
 10
721139.58361838374
 20
3414225.7710212278
 30
0.25
  0
VERTEX
  5
336
  8
EASTERN_ZHOU
 10
721036.09886941663
 20
3414230.0942133819
 30
0.25
  0
VERTEX
  5
337
  8
EASTERN_ZHOU
 10
721033.04526883713
 20
3414172.4791701678
 30
0.25
  0
SEQEND
  5
338
  8
EASTERN_ZHOU
  0
POLYLINE
  5
A4
  8
EASTERN_ZHOU
 66
     1
 10
0.0
 20
0.0
 30
0.2037037037037037
 70
     1
1001
ADE
1011
-28.212249299394909
1021
0.0
1031
0.0
1021
10.485439034178841
1031
0.0
1001
IRD
1002
{
1000
TPMLINK_Unit_topology-_-ade
1070
   515
1071
        5
1004
0100BE040000A4010000A401000000000000B5AC6C14D0BB7540B5AC6C14D0BB75403E02000000000000
1002
}
1001
DCO15
1071
        5
1071
        5
1000
unitlink
1004
074131373300
1071
        4
1000
Link
1004
074131373300
  0
VERTEX
  5
339
  8
EASTERN_ZHOU
 10
721041.16583301127
 20
3414304.9089681972
 30
0.2037037037037037
  0
VERTEX
  5
33A
  8
EASTERN_ZHOU
 10
721038.41423688841
 20
3414232.3190020639
 30
0.2037037037037037
  0
VERTEX
  5
33B
  8
EASTERN_ZHOU
 10
721139.61928462633
 20
3414228.6476019081
 30
0.2037037037037037
  0
VERTEX
  5
33C
  8
EASTERN_ZHOU
 10
721140.54207601014
 20
3414303.0732681188
 30
0.2037037037037037
  0
VERTEX
  5
33D
  8
EASTERN_ZHOU
 10
721041.16583301127
 20
3414304.9089681972
 30
0.2037037037037037
  0
SEQEND
  5
33E
  8
EASTERN_ZHOU
  0
POLYLINE
  5
A5
  8
EASTERN_ZHOU
 66
     1
 10
0.0
 20
0.0
 30
0.06
 70
     1
1001
ADE
1011
-22.54966580867767
1021
0.0
1031
0.0
1021
-3.3371830238029361
1031
0.0
1001
IRD
1002
{
1000
TPMLINK_Unit_topology-_-ade
1070
   515
1071
        5
1004
0100BF040000A0010000A001000000000000A4A0DFC2F5677140A4A0DFC2F56771400000000049020000
1002
}
1001
DCO15
1071
        5
1071
        5
1000
unitlink
1004
074131383400
1071
        4
1000
Link
1004
074131383400
  0
VERTEX
  5
33F
  8
EASTERN_ZHOU
 10
721077.00369474653
 20
3414314.3468609918
 30
0.06
  0
VERTEX
  5
340
  8
EASTERN_ZHOU
 10
721081.24853510794
 20
3414366.9835654069
 30
0.06
  0
VERTEX
  5
341
  8
EASTERN_ZHOU
 10
721169.04794074979
 20
3414368.0710181701
 30
0.06
  0
VERTEX
  5
342
  8
EASTERN_ZHOU
 10
721161.36360522732
 20
3414315.1050849371
 30
0.06
  0
VERTEX
  5
343
  8
EASTERN_ZHOU
 10
721077.00369474653
 20
3414314.3468609918
 30
0.06
  0
SEQEND
  5
344
  8
EASTERN_ZHOU
  0
POLYLINE
  5
A6
  8
EASTERN_ZHOU
 66
     1
 10
0.0
 20
0.0
 30
0.3
 70
     1
1001
ADE
1011
-25.880103800445792
1021
0.0
1031
0.0
1021
3.287299870047717
1031
0.0
1001
IRD
1002
{
1000
TPMLINK_Unit_topology-_-ade
1070
   515
1071
        5
1004
0100C0040000940100009401000000000000D857D918F7D07140D857D918F7D071400000000048020000
1002
}
1001
DCO15
1071
        5
1071
        5
1000
unitlink
1004
074131383300
1071
        4
1000
Link
1004
074131383300
  0
VERTEX
  5
345
  8
EASTERN_ZHOU
 10
721079.85595902056
 20
3414374.1168564721
 30
0.3
  0
VERTEX
  5
346
  8
EASTERN_ZHOU
 10
721081.71831981454
 20
3414427.0628364421
 30
0.3
  0
VERTEX
  5
347
  8
EASTERN_ZHOU
 10
721172.85655245953
 20
3414427.0628364421
 30
0.3
  0
VERTEX
  5
348
  8
EASTERN_ZHOU
 10
721170.07140028465
 20
3414376.4414114621
 30
0.3
  0
VERTEX
  5
349
  8
EASTERN_ZHOU
 10
721079.85595902056
 20
3414374.1168564721
 30
0.3
  0
SEQEND
  5
34A
  8
EASTERN_ZHOU
  0
POLYLINE
  5
A7
  8
EASTERN_ZHOU
 66
     1
 10
0.0
 20
0.0
 30
10.390909090909091
 70
     1
1001
ADE
1011
-21.02286552300211
1021
0.0
1031
0.0
1021
5.8213641070760769
1031
0.0
1001
IRD
1002
{
1000
TPMLINK_Unit_topology-_-ade
1070
   515
1071
        5
1004
0100C10400006F0100006F0100000000000007189BDCDE14754007189BDCDE1475400000000047020000
1002
}
1001
DCO15
1071
        5
1071
        5
1000
unitlink
1004
074131383200
1071
        4
1000
Link
1004
074131383200
  0
VERTEX
  5
34B
  8
EASTERN_ZHOU
 10
721085.67793374904
 20
3414511.4950634092
 30
10.390909090909091
  0
VERTEX
  5
34C
  8
EASTERN_ZHOU
 10
721178.32618866081
 20
3414512.2532873531
 30
10.390909090909091
  0
VERTEX
  5
34D
  8
EASTERN_ZHOU
 10
721176.04437723744
 20
3414437.1591868741
 30
10.390909090909091
  0
VERTEX
  5
34E
  8
EASTERN_ZHOU
 10
721079.60428864532
 20
3414438.6756347641
 30
10.390909090909091
  0
VERTEX
  5
34F
  8
EASTERN_ZHOU
 10
721085.67793374904
 20
3414511.4950634092
 30
10.390909090909091
  0
SEQEND
  5
350
  8
EASTERN_ZHOU
  0
POLYLINE
  5
A8
  8
EASTERN_ZHOU
 66
     1
 10
0.0
 20
0.0
 30
0.0625
 70
     1
1001
ADE
1011
-19.34506300301291
1021
0.0
1031
0.0
1021
-1.546377783641218
1031
0.0
1001
IRD
1002
{
1000
TPMLINK_Unit_topology-_-ade
1070
   515
1071
        5
1004
0100C2040000560100005601000000000000CF00C442272E7240CF00C442272E72406602000000000000
1002
}
1001
DCO15
1071
        5
1071
        5
1000
unitlink
1004
074132313300
1071
        4
1000
Link
1004
074132313300
  0
VERTEX
  5
351
  8
EASTERN_ZHOU
 10
721092.50658999023
 20
3414653.3428009711
 30
0.0625
  0
VERTEX
  5
352
  8
EASTERN_ZHOU
 10
721091.75157885626
 20
3414569.8982604598
 30
0.0625
  0
VERTEX
  5
353
  8
EASTERN_ZHOU
 10
721152.50480794546
 20
3414566.8653646782
 30
0.0625
  0
VERTEX
  5
354
  8
EASTERN_ZHOU
 10
721155.54163049906
 20
3414650.3099051882
 30
0.0625
  0
VERTEX
  5
355
  8
EASTERN_ZHOU
 10
721092.50658999023
 20
3414653.3428009711
 30
0.0625
  0
SEQEND
  5
356
  8
EASTERN_ZHOU
  0
POLYLINE
  5
A9
  8
EASTERN_ZHOU
 66
     1
 10
0.0
 20
0.0
 30
0.5
 70
     1
1001
ADE
1011
-12.50143807579297
1021
0.0
1031
0.0
1021
-6.9587000231258571
1031
0.0
1001
IRD
1002
{
1000
TPMLINK_Unit_topology-_-ade
1070
   515
1071
        5
1004
0100C3040000420100004201000000000000A25CF597BFB17140A25CF597BFB171406502000000000000
1002
}
1001
DCO15
1071
        5
1071
        5
1000
unitlink
1004
074132313200
1071
        4
1000
Link
1004
074132313200
  0
VERTEX
  5
357
  8
EASTERN_ZHOU
 10
721069.50391750038
 20
3414745.86607556
 30
0.5
  0
VERTEX
  5
358
  8
EASTERN_ZHOU
 10
721135.12639255496
 20
3414750.7085129078
 30
0.5
  0
VERTEX
  5
359
  8
EASTERN_ZHOU
 10
721132.3879557848
 20
3414822.955502212
 30
0.5
  0
VERTEX
  5
35A
  8
EASTERN_ZHOU
 10
721061.73569185287
 20
3414819.7430270761
 30
0.5
  0
VERTEX
  5
35B
  8
EASTERN_ZHOU
 10
721069.50391750038
 20
3414745.86607556
 30
0.5
  0
SEQEND
  5
35C
  8
EASTERN_ZHOU
  0
POLYLINE
  5
AA
  8
EASTERN_ZHOU
 66
     1
 10
0.0
 20
0.0
 30
0.5
 70
     1
1001
ADE
1011
-24.646918954094868
1021
0.0
1031
0.0
1021
-1.4696571878157541
1031
0.0
1001
IRD
1002
{
1000
TPMLINK_Unit_topology-_-ade
1070
   515
1071
        5
1004
0100C40400003701000037010000000000001BD2FF51E8E870401BD2FF51E8E870400000000064020000
1002
}
1001
DCO15
1071
        5
1071
        5
1000
unitlink
1004
074132313100
1071
        4
1000
Link
1004
074132313100
  0
VERTEX
  5
35D
  8
EASTERN_ZHOU
 10
721063.54375248426
 20
3414823.011570272
 30
0.5
  0
VERTEX
  5
35E
  8
EASTERN_ZHOU
 10
721062.33970075846
 20
3414889.4297936298
 30
0.5
  0
VERTEX
  5
35F
  8
EASTERN_ZHOU
 10
721135.15632993344
 20
3414888.1029017251
 30
0.5
  0
VERTEX
  5
360
  8
EASTERN_ZHOU
 10
721132.79062838841
 20
3414826.1679773498
 30
0.5
  0
VERTEX
  5
361
  8
EASTERN_ZHOU
 10
721063.54375248426
 20
3414823.011570272
 30
0.5
  0
SEQEND
  5
362
  8
EASTERN_ZHOU
  0
POLYLINE
  5
AB
  8
EASTERN_ZHOU
 66
     1
 10
0.0
 20
0.0
 30
1.1999999999999991
 70
     1
1001
ADE
1011
-21.165478734299541
1021
0.0
1031
0.0
1021
-0.443960072938353
1031
0.0
1001
IRD
1002
{
1000
TPMLINK_Unit_topology-_-ade
1070
   515
1071
        5
1004
0100C5040000280100002801000000000000385614210B2D7140385614210B2D71407002000000000000
1002
}
1001
DCO15
1071
        5
1071
        5
1000
unitlink
1004
074132323300
1071
        4
1000
Link
1004
074132323300
  0
VERTEX
  5
363
  8
EASTERN_ZHOU
 10
721061.73569185287
 20
3414959.1863966011
 30
1.1999999999999991
  0
VERTEX
  5
364
  8
EASTERN_ZHOU
 10
721062.62492718559
 20
3414892.2132736412
 30
1.1999999999999991
  0
VERTEX
  5
365
  8
EASTERN_ZHOU
 10
721132.37117775914
 20
3414890.876405105
 30
1.1999999999999991
  0
VERTEX
  5
366
  8
EASTERN_ZHOU
 10
721133.26041309151
 20
3414957.400579676
 30
1.1999999999999991
  0
VERTEX
  5
367
  8
EASTERN_ZHOU
 10
721061.73569185287
 20
3414959.1863966011
 30
1.1999999999999991
  0
SEQEND
  5
368
  8
EASTERN_ZHOU
  0
POLYLINE
  5
AC
  8
EASTERN_ZHOU
 66
     1
 10
0.0
 20
0.0
 30
1.5
 70
     1
1001
ADE
1011
-15.603563394513911
1021
0.0
1031
0.0
1021
-2.3744381447322662
1031
0.0
1001
IRD
1002
{
1000
TPMLINK_Unit_topology-_-ade
1070
   515
1071
        5
1004
0100C6040000330100003301000000000000F2F0C2E8D8F97140F2F0C2E8D8F971400000000063020000
1002
}
1001
DCO15
1071
        5
1071
        5
1000
unitlink
1004
074132313000
1071
        4
1000
Link
1004
074132313000
  0
VERTEX
  5
369
  8
EASTERN_ZHOU
 10
720975.27852822852
 20
3414884.5611977722
 30
1.5
  0
VERTEX
  5
36A
  8
EASTERN_ZHOU
 10
721050.34341277194
 20
3414890.2478773608
 30
1.5
  0
VERTEX
  5
36B
  8
EASTERN_ZHOU
 10
721051.28298218187
 20
3414821.997745649
 30
1.5
  0
VERTEX
  5
36C
  8
EASTERN_ZHOU
 10
720971.5202505925
 20
3414820.3715548199
 30
1.5
  0
VERTEX
  5
36D
  8
EASTERN_ZHOU
 10
720975.27852822852
 20
3414884.5611977722
 30
1.5
  0
SEQEND
  5
36E
  8
EASTERN_ZHOU
  0
POLYLINE
  5
AD
  8
EASTERN_ZHOU
 66
     1
 10
0.0
 20
0.0
 30
1.3
 70
     1
1001
ADE
1011
-27.48240520618856
1021
0.0
1031
0.0
1021
6.7990739289671183
1031
0.0
1001
IRD
1002
{
1000
TPMLINK_Unit_topology-_-ade
1070
   515
1071
        5
1004
0100C70400003A0100003A01000000000000F8C702E90FEF7340F8C702E90FEF73406202000000000000
1002
}
1001
DCO15
1071
        5
1071
        5
1000
unitlink
1004
074132303900
1071
        4
1000
Link
1004
074132303900
  0
VERTEX
  5
36F
  8
EASTERN_ZHOU
 10
720971.41958244145
 20
3414818.795247145
 30
1.3
  0
VERTEX
  5
370
  8
EASTERN_ZHOU
 10
720971.82225504552
 20
3414740.917666656
 30
1.3
  0
VERTEX
  5
371
  8
EASTERN_ZHOU
 10
721056.55128208175
 20
3414745.0280385688
 30
1.3
  0
VERTEX
  5
372
  8
EASTERN_ZHOU
 10
721052.6923362948
 20
3414819.8826999092
 30
1.3
  0
VERTEX
  5
373
  8
EASTERN_ZHOU
 10
720971.41958244145
 20
3414818.795247145
 30
1.3
  0
SEQEND
  5
374
  8
EASTERN_ZHOU
  0
POLYLINE
  5
AE
  8
EASTERN_ZHOU
 66
     1
 10
0.0
 20
0.0
 30
1.7
 70
     1
1001
ADE
1011
-24.08485511131585
1021
0.0
1031
0.0
1021
-12.9347019107081
1031
0.0
1001
IRD
1002
{
1000
TPMLINK_Unit_topology-_-ade
1070
   515
1071
        5
1004
0100C8040000470100004701000000000000A770A2B124C77540A770A2B124C775406102000000000000
1002
}
1001
DCO15
1071
        5
1071
        5
1000
unitlink
1004
074132303800
1071
        4
1000
Link
1004
074132303800
  0
VERTEX
  5
375
  8
EASTERN_ZHOU
 10
720974.10406646505
 20
3414736.707528431
 30
1.7
  0
VERTEX
  5
376
  8
EASTERN_ZHOU
 10
720969.55722164735
 20
3414652.2653248371
 30
1.7
  0
VERTEX
  5
377
  8
EASTERN_ZHOU
 10
721058.83309350139
 20
3414653.9314221889
 30
1.7
  0
VERTEX
  5
378
  8
EASTERN_ZHOU
 10
721060.44378391653
 20
3414742.0051194192
 30
1.7
  0
VERTEX
  5
379
  8
EASTERN_ZHOU
 10
720974.10406646505
 20
3414736.707528431
 30
1.7
  0
SEQEND
  5
37A
  8
EASTERN_ZHOU
  0
POLYLINE
  5
AF
  8
EASTERN_ZHOU
 66
     1
 10
0.0
 20
0.0
 30
1.6000000000000001
 70
     1
1001
ADE
1011
-34.009056991199031
1021
0.0
1031
0.0
1021
-6.1406162939965707
1031
0.0
1001
IRD
1002
{
1000
TPMLINK_Unit_topology-_-ade
1070
   515
1071
        5
1004
0100C9040000570100005701000000000000D302716AC6967540D302716AC69675400000000060020000
1002
}
1001
DCO15
1071
        5
1071
        5
1000
unitlink
1004
074132303700
1071
        4
1000
Link
1004
074132303700
  0
VERTEX
  5
37B
  8
EASTERN_ZHOU
 10
720963.61012988165
 20
3414646.0468237582
 30
1.6000000000000001
  0
VERTEX
  5
37C
  8
EASTERN_ZHOU
 10
721079.10094789066
 20
3414652.365091145
 30
1.6000000000000001
  0
VERTEX
  5
37D
  8
EASTERN_ZHOU
 10
721083.48001245409
 20
3414624.6300573559
 30
1.6000000000000001
  0
VERTEX
  5
37E
  8
EASTERN_ZHOU
 10
721051.33331625548
 20
3414616.3594303732
 30
1.6000000000000001
  0
VERTEX
  5
37F
  8
EASTERN_ZHOU
 10
721053.61512767896
 20
3414593.3134130882
 30
1.6000000000000001
  0
VERTEX
  5
380
  8
EASTERN_ZHOU
 10
720961.77221797802
 20
3414592.5950956652
 30
1.6000000000000001
  0
VERTEX
  5
381
  8
EASTERN_ZHOU
 10
720963.61012988165
 20
3414646.0468237582
 30
1.6000000000000001
  0
SEQEND
  5
382
  8
EASTERN_ZHOU
  0
POLYLINE
  5
B0
  8
EASTERN_ZHOU
 66
     1
 10
0.0
 20
0.0
 30
1.1999999999999991
 70
     1
1001
ADE
1011
-24.672085991129279
1021
0.0
1031
0.0
1021
0.1895559877157211
1031
0.0
1001
IRD
1002
{
1000
TPMLINK_Unit_topology-_-ade
1070
   515
1071
        5
1004
0100CA04000060010000600100000000000014D3F99750E3744014D3F99750E374405F02000000000000
1002
}
1001
DCO15
1071
        5
1071
        5
1000
unitlink
1004
074132303600
1071
        4
1000
Link
1004
074132303600
  0
VERTEX
  5
383
  8
EASTERN_ZHOU
 10
720962.84601158649
 20
3414589.5921297758
 30
1.1999999999999991
  0
VERTEX
  5
384
  8
EASTERN_ZHOU
 10
720961.83933007705
 20
3414515.2163467179
 30
1.1999999999999991
  0
VERTEX
  5
385
  8
EASTERN_ZHOU
 10
721054.30302670959
 20
3414517.1218832121
 30
1.1999999999999991
  0
VERTEX
  5
386
  8
EASTERN_ZHOU
 10
721056.68550628051
 20
3414590.579816232
 30
1.1999999999999991
  0
VERTEX
  5
387
  8
EASTERN_ZHOU
 10
720962.84601158649
 20
3414589.5921297758
 30
1.1999999999999991
  0
SEQEND
  5
388
  8
EASTERN_ZHOU
  0
POLYLINE
  5
B1
  8
EASTERN_ZHOU
 66
     1
 10
0.0
 20
0.0
 30
0.5254237288135594
 70
     1
1001
ADE
1011
-31.727245568996299
1021
0.0
1031
0.0
1021
3.392054492142051
1031
0.0
1001
IRD
1002
{
1000
TPMLINK_Unit_topology-_-ade
1070
   515
1071
        5
1004
0100CB0400006D0100006D01000000000000FBC525C948EA7540FBC525C948EA75404C02000000000000
1002
}
1001
DCO15
1071
        5
1071
        5
1000
unitlink
1004
074131383700
1071
        4
1000
Link
1004
074131383700
  0
VERTEX
  5
389
  8
EASTERN_ZHOU
 10
720959.22195815295
 20
3414511.6447128709
 30
0.5254237288135594
  0
VERTEX
  5
38A
  8
EASTERN_ZHOU
 10
720961.99033230555
 20
3414441.0001897542
 30
0.5254237288135594
  0
VERTEX
  5
38B
  8
EASTERN_ZHOU
 10
721062.32292273268
 20
3414441.0001897542
 30
0.5254237288135594
  0
VERTEX
  5
38C
  8
EASTERN_ZHOU
 10
721066.43353889894
 20
3414513.2709037019
 30
0.5254237288135594
  0
VERTEX
  5
38D
  8
EASTERN_ZHOU
 10
720959.22195815295
 20
3414511.6447128709
 30
0.5254237288135594
  0
SEQEND
  5
38E
  8
EASTERN_ZHOU
  0
POLYLINE
  5
B2
  8
EASTERN_ZHOU
 66
     1
 10
0.0
 20
0.0
 30
0.9
 70
     1
1001
ADE
1011
-34.57950984488707
1021
0.0
1031
0.0
1021
-2.065162586979568
1031
0.0
1001
IRD
1002
{
1000
TPMLINK_Unit_topology-_-ade
1070
   515
1071
        5
1004
0100CC040000830100008301000000000000DD67D1341DA07440DD67D1341DA07440000000004B020000
1002
}
1001
DCO15
1071
        5
1071
        5
1000
unitlink
1004
074131383600
1071
        4
1000
Link
1004
074131383600
  0
VERTEX
  5
38F
  8
EASTERN_ZHOU
 10
720962.92990171176
 20
3414439.1445364142
 30
0.9
  0
VERTEX
  5
390
  8
EASTERN_ZHOU
 10
721061.38335332647
 20
3414439.1445364142
 30
0.9
  0
VERTEX
  5
391
  8
EASTERN_ZHOU
 10
721064.16850550089
 20
3414374.525898336
 30
0.9
  0
VERTEX
  5
392
  8
EASTERN_ZHOU
 10
720963.71846889344
 20
3414372.7400814132
 30
0.9
  0
VERTEX
  5
393
  8
EASTERN_ZHOU
 10
720962.92990171176
 20
3414439.1445364142
 30
0.9
  0
SEQEND
  5
394
  8
EASTERN_ZHOU
  0
POLYLINE
  5
B3
  8
EASTERN_ZHOU
 66
     1
 10
0.0
 20
0.0
 30
0.1041666666666667
 70
     1
1001
ADE
1011
-13.90898285235744
1021
0.0
1031
0.0
1021
3.45191427739337
1031
0.0
1001
IRD
1002
{
1000
TPMLINK_Unit_topology-_-ade
1070
   515
1071
        5
1004
0100CD0400009F0100009F01000000000000955EAE4107607340955EAE41076073404A02000000000000
1002
}
1001
DCO15
1071
        5
1071
        5
1000
unitlink
1004
074131383500
1071
        4
1000
Link
1004
074131383500
  0
VERTEX
  5
395
  8
EASTERN_ZHOU
 10
720968.03042136133
 20
3414315.7136594192
 30
0.1041666666666667
  0
VERTEX
  5
396
  8
EASTERN_ZHOU
 10
721065.22552108765
 20
3414316.7512290301
 30
0.1041666666666667
  0
VERTEX
  5
397
  8
EASTERN_ZHOU
 10
721066.26575864479
 20
3414372.3011096548
 30
0.1041666666666667
  0
VERTEX
  5
398
  8
EASTERN_ZHOU
 10
720964.25536569953
 20
3414370.8046150259
 30
0.1041666666666667
  0
VERTEX
  5
399
  8
EASTERN_ZHOU
 10
720968.03042136133
 20
3414315.7136594192
 30
0.1041666666666667
  0
SEQEND
  5
39A
  8
EASTERN_ZHOU
  0
POLYLINE
  5
B4
  8
EASTERN_ZHOU
 66
     1
 10
0.0
 20
0.0
 30
0.03
 70
     1
1001
ADE
1011
-22.717446058755741
1021
0.0
1031
0.0
1021
2.1549522657878679
1031
0.0
1001
IRD
1002
{
1000
TPMLINK_Unit_topology-_-ade
1070
   515
1071
        5
1004
0100CE040000AC010000AC01000000000000ED6E1F9B6F4B7240ED6E1F9B6F4B7240000000003D020000
1002
}
1001
DCO15
1071
        5
1071
        5
1000
unitlink
1004
074131373200
1071
        4
1000
Link
1004
074131373200
  0
VERTEX
  5
39B
  8
EASTERN_ZHOU
 10
720936.37028789136
 20
3414252.3421001998
 30
0.03
  0
VERTEX
  5
39C
  8
EASTERN_ZHOU
 10
720941.85670211562
 20
3414302.7240860411
 30
0.03
  0
VERTEX
  5
39D
  8
EASTERN_ZHOU
 10
721032.29025770735
 20
3414303.5122398771
 30
0.03
  0
VERTEX
  5
39E
  8
EASTERN_ZHOU
 10
721035.86397706345
 20
3414251.5339930989
 30
0.03
  0
VERTEX
  5
39F
  8
EASTERN_ZHOU
 10
720936.37028789136
 20
3414252.3421001998
 30
0.03
  0
SEQEND
  5
3A0
  8
EASTERN_ZHOU
  0
POLYLINE
  5
B5
  8
EASTERN_ZHOU
 66
     1
 10
0.0
 20
0.0
 30
0.0266666666666667
 70
     1
1001
ADE
1011
-34.411729593062773
1021
0.0
1031
0.0
1021
5.6567496969364566
1031
0.0
1001
IRD
1002
{
1000
TPMLINK_Unit_topology-_-ade
1070
   515
1071
        5
1004
0100CF040000B5010000B50100000000000075B8DB8F50EF744075B8DB8F50EF74403C02000000000000
1002
}
1001
DCO15
1071
        5
1071
        5
1000
unitlink
1004
074131373100
1071
        4
1000
Link
1004
074131373100
  0
VERTEX
  5
3A1
  8
EASTERN_ZHOU
 10
720929.57518770185
 20
3414180.9692830299
 30
0.0266666666666667
  0
VERTEX
  5
3A2
  8
EASTERN_ZHOU
 10
721020.79731047514
 20
3414173.3770669461
 30
0.0266666666666667
  0
VERTEX
  5
3A3
  8
EASTERN_ZHOU
 10
721034.60562517855
 20
3414248.5310272099
 30
0.0266666666666667
  0
VERTEX
  5
3A4
  8
EASTERN_ZHOU
 10
720936.10183949012
 20
3414249.1595549551
 30
0.0266666666666667
  0
VERTEX
  5
3A5
  8
EASTERN_ZHOU
 10
720929.57518770185
 20
3414180.9692830299
 30
0.0266666666666667
  0
SEQEND
  5
3A6
  8
EASTERN_ZHOU
  0
POLYLINE
  5
B6
  8
EASTERN_ZHOU
 66
     1
 10
0.0
 20
0.0
 30
0.06
 70
     1
1001
ADE
1011
-29.809207995887849
1021
0.0
1031
0.0
1021
3.8958743512630449
1031
0.0
1001
IRD
1002
{
1000
TPMLINK_Unit_topology-_-ade
1070
   515
1071
        5
1004
0100D0040000BB010000BB010000000000002918BB25B93C76402918BB25B93C76403B02000000000000
1002
}
1001
DCO15
1071
        5
1071
        5
1000
unitlink
1004
074131373000
1071
        4
1000
Link
1004
074131373000
  0
VERTEX
  5
3A7
  8
EASTERN_ZHOU
 10
720923.92708584177
 20
3414088.208830222
 30
0.06
  0
VERTEX
  5
3A8
  8
EASTERN_ZHOU
 10
721016.09946342953
 20
3414082.8291652631
 30
0.06
  0
VERTEX
  5
3A9
  8
EASTERN_ZHOU
 10
721018.96850573272
 20
3414168.1094058519
 30
0.06
  0
VERTEX
  5
3AA
  8
EASTERN_ZHOU
 10
720927.17593010515
 20
3414174.2849403531
 30
0.06
  0
VERTEX
  5
3AB
  8
EASTERN_ZHOU
 10
720923.92708584177
 20
3414088.208830222
 30
0.06
  0
SEQEND
  5
3AC
  8
EASTERN_ZHOU
  0
POLYLINE
  5
B7
  8
EASTERN_ZHOU
 66
     1
 10
0.0
 20
0.0
 30
0.0266666666666667
 70
     1
1001
ADE
1011
-31.584632353740751
1021
0.0
1031
0.0
1021
-0.2444274555891752
1031
0.0
1001
IRD
1002
{
1000
TPMLINK_Unit_topology-_-ade
1070
   515
1071
        5
1004
0100D1040000C0010000C0010000000000007BD181369F597C407BD181369F597C40000000007C020000
1002
}
1001
DCO15
1071
        5
1071
        5
1000
unitlink
1004
074132333900
1071
        4
1000
Link
1004
074132333900
  0
VERTEX
  5
3AD
  8
EASTERN_ZHOU
 10
720880.51624214672
 20
3413974.7323699002
 30
0.0266666666666667
  0
VERTEX
  5
3AE
  8
EASTERN_ZHOU
 10
720880.19745967165
 20
3414080.704142889
 30
0.0266666666666667
  0
VERTEX
  5
3AF
  8
EASTERN_ZHOU
 10
720998.7174293698
 20
3414076.8631400098
 30
0.0266666666666667
  0
VERTEX
  5
3B0
  8
EASTERN_ZHOU
 10
721001.78780797124
 20
3413969.2551995572
 30
0.0266666666666667
  0
VERTEX
  5
3B1
  8
EASTERN_ZHOU
 10
720880.51624214672
 20
3413974.7323699002
 30
0.0266666666666667
  0
SEQEND
  5
3B2
  8
EASTERN_ZHOU
  0
POLYLINE
  5
B8
  8
EASTERN_ZHOU
 66
     1
 10
0.0
 20
0.0
 30
0.06
 70
     1
1001
ADE
1011
-22.591610873234458
1021
0.0
1031
0.0
1021
6.0208967239595932
1031
0.0
1001
IRD
1002
{
1000
TPMLINK_Unit_topology-_-ade
1070
   515
1071
        5
1004
0100D2040000BA010000BA01000000000000AFE1E97BCDD87640AFE1E97BCDD87640000000003A020000
1002
}
1001
DCO15
1071
        5
1071
        5
1000
unitlink
1004
074131363900
1071
        4
1000
Link
1004
074131363900
  0
VERTEX
  5
3B3
  8
EASTERN_ZHOU
 10
720822.88372574002
 20
3414091.6884134668
 30
0.06
  0
VERTEX
  5
3B4
  8
EASTERN_ZHOU
 10
720832.86665070802
 20
3414181.3982781558
 30
0.06
  0
VERTEX
  5
3B5
  8
EASTERN_ZHOU
 10
720924.34044385329
 20
3414175.3025567019
 30
0.06
  0
VERTEX
  5
3B6
  8
EASTERN_ZHOU
 10
720919.35737038415
 20
3414088.36619539
 30
0.06
  0
VERTEX
  5
3B7
  8
EASTERN_ZHOU
 10
720822.88372574002
 20
3414091.6884134668
 30
0.06
  0
SEQEND
  5
3B8
  8
EASTERN_ZHOU
  0
POLYLINE
  5
B9
  8
EASTERN_ZHOU
 66
     1
 10
0.0
 20
0.0
 30
2.5
 70
     1
1001
ADE
1011
-29.520935261272829
1021
0.0
1031
0.0
1021
9.9417126523330808
1031
0.0
1001
IRD
1002
{
1000
TPMLINK_Unit_topology-_-ade
1070
   515
1071
        5
1004
0100D3040000B1010000B10100000000000037C910EC49D0764037C910EC49D076403902000000000000
1002
}
1001
DCO15
1071
        5
1071
        5
1000
unitlink
1004
074131363800
1071
        4
1000
Link
1004
074131363800
  0
VERTEX
  5
3B9
  8
EASTERN_ZHOU
 10
720835.21557422716
 20
3414221.8634929219
 30
2.5
  0
VERTEX
  5
3BA
  8
EASTERN_ZHOU
 10
720926.72292342782
 20
3414202.2594132829
 30
2.5
  0
VERTEX
  5
3BB
  8
EASTERN_ZHOU
 10
720937.94742225471
 20
3414303.4124735682
 30
2.5
  0
VERTEX
  5
3BC
  8
EASTERN_ZHOU
 10
720849.32589338347
 20
3414301.6466099061
 30
2.5
  0
VERTEX
  5
3BD
  8
EASTERN_ZHOU
 10
720835.21557422716
 20
3414221.8634929219
 30
2.5
  0
SEQEND
  5
3BE
  8
EASTERN_ZHOU
  0
POLYLINE
  5
BA
  8
EASTERN_ZHOU
 66
     1
 10
0.0
 20
0.0
 30
0.0952380952380953
 70
     1
1001
ADE
1011
-32.792650165036321
1021
0.0
1031
0.0
1021
3.0029658884741361
1031
0.0
1001
IRD
1002
{
1000
TPMLINK_Unit_topology-_-ade
1070
   515
1071
        5
1004
0100D4040000A3010000A3010000000000008515919C7FF672408515919C7FF672404F02000000000000
1002
}
1001
DCO15
1071
        5
1071
        5
1000
unitlink
1004
074131393000
1071
        4
1000
Link
1004
074131393000
  0
VERTEX
  5
3BF
  8
EASTERN_ZHOU
 10
720857.88268621266
 20
3414309.997049937
 30
0.0952380952380953
  0
VERTEX
  5
3C0
  8
EASTERN_ZHOU
 10
720952.22552166122
 20
3414312.890272886
 30
0.0952380952380953
  0
VERTEX
  5
3C1
  8
EASTERN_ZHOU
 10
720954.57444518432
 20
3414370.3955731601
 30
0.0952380952380953
  0
VERTEX
  5
3C2
  8
EASTERN_ZHOU
 10
720862.88253771164
 20
3414369.557536168
 30
0.0952380952380953
  0
VERTEX
  5
3C3
  8
EASTERN_ZHOU
 10
720857.88268621266
 20
3414309.997049937
 30
0.0952380952380953
  0
SEQEND
  5
3C4
  8
EASTERN_ZHOU
  0
POLYLINE
  5
BB
  8
EASTERN_ZHOU
 66
     1
 10
0.0
 20
0.0
 30
0.02
 70
     1
1001
ADE
1011
-18.464216683292761
1021
0.0
1031
0.0
1021
-3.0528490417636922
1031
0.0
1001
IRD
1002
{
1000
TPMLINK_Unit_topology-_-ade
1070
   515
1071
        5
1004
0100D504000096010000960100000000000010A2B4557A43734010A2B4557A437340000000004E020000
1002
}
1001
DCO15
1071
        5
1071
        5
1000
unitlink
1004
074131383900
1071
        4
1000
Link
1004
074131383900
  0
VERTEX
  5
3C5
  8
EASTERN_ZHOU
 10
720862.09397052613
 20
3414373.6080482979
 30
0.02
  0
VERTEX
  5
3C6
  8
EASTERN_ZHOU
 10
720872.61379230046
 20
3414430.8439795389
 30
0.02
  0
VERTEX
  5
3C7
  8
EASTERN_ZHOU
 10
720956.16835757345
 20
3414441.8581800079
 30
0.02
  0
VERTEX
  5
3C8
  8
EASTERN_ZHOU
 10
720957.94682824262
 20
3414372.001810729
 30
0.02
  0
VERTEX
  5
3C9
  8
EASTERN_ZHOU
 10
720862.09397052613
 20
3414373.6080482979
 30
0.02
  0
SEQEND
  5
3CA
  8
EASTERN_ZHOU
  0
POLYLINE
  5
BC
  8
EASTERN_ZHOU
 66
     1
 10
0.0
 20
0.0
 30
0.1666666666666666
 70
     1
1001
ADE
1011
-23.044617550331171
1021
0.0
1031
0.0
1021
1.227125594858079
1031
0.0
1001
IRD
1002
{
1000
TPMLINK_Unit_topology-_-ade
1070
   515
1071
        5
1004
0100D6040000860100008601000000000000B1094FD303FA7240B1094FD303FA7240000000004D020000
1002
}
1001
DCO15
1071
        5
1071
        5
1000
unitlink
1004
074131383800
1071
        4
1000
Link
1004
074131383800
  0
VERTEX
  5
3CB
  8
EASTERN_ZHOU
 10
720871.15410410985
 20
3414433.777109012
 30
0.1666666666666666
  0
VERTEX
  5
3CC
  8
EASTERN_ZHOU
 10
720868.48639811215
 20
3414501.3987129792
 30
0.1666666666666666
  0
VERTEX
  5
3CD
  8
EASTERN_ZHOU
 10
720954.85967161146
 20
3414507.7837567278
 30
0.1666666666666666
  0
VERTEX
  5
3CE
  8
EASTERN_ZHOU
 10
720956.45358400035
 20
3414444.4221741389
 30
0.1666666666666666
  0
VERTEX
  5
3CF
  8
EASTERN_ZHOU
 10
720871.15410410985
 20
3414433.777109012
 30
0.1666666666666666
  0
SEQEND
  5
3D0
  8
EASTERN_ZHOU
  0
POLYLINE
  5
BD
  8
EASTERN_ZHOU
 66
     1
 10
0.0
 20
0.0
 30
0.4173913043478262
 70
     1
1001
ADE
1011
-25.938826890778731
1021
0.0
1031
0.0
1021
4.7588529200293124
1031
0.0
1001
IRD
1002
{
1000
TPMLINK_Unit_topology-_-ade
1070
   515
1071
        5
1004
0100D7040000710100007101000000000000B794490C9F247240B794490C9F2472405E02000000000000
1002
}
1001
DCO15
1071
        5
1071
        5
1000
unitlink
1004
074132303500
1071
        4
1000
Link
1004
074132303500
  0
VERTEX
  5
3D1
  8
EASTERN_ZHOU
 10
720865.3321293816
 20
3414508.5419806731
 30
0.4173913043478262
  0
VERTEX
  5
3D2
  8
EASTERN_ZHOU
 10
720916.25343573105
 20
3414509.0108823241
 30
0.4173913043478262
  0
VERTEX
  5
3D3
  8
EASTERN_ZHOU
 10
720946.83977558813
 20
3414517.3712989842
 30
0.4173913043478262
  0
VERTEX
  5
3D4
  8
EASTERN_ZHOU
 10
720953.11475699767
 20
3414574.9663889352
 30
0.4173913043478262
  0
VERTEX
  5
3D5
  8
EASTERN_ZHOU
 10
720901.94178027264
 20
3414570.6265545129
 30
0.4173913043478262
  0
VERTEX
  5
3D6
  8
EASTERN_ZHOU
 10
720867.41260450345
 20
3414572.3026284971
 30
0.4173913043478262
  0
VERTEX
  5
3D7
  8
EASTERN_ZHOU
 10
720865.3321293816
 20
3414508.5419806731
 30
0.4173913043478262
  0
SEQEND
  5
3D8
  8
EASTERN_ZHOU
  0
POLYLINE
  5
BE
  8
EASTERN_ZHOU
 66
     1
 10
0.0
 20
0.0
 30
0.8
 70
     1
1001
ADE
1011
-30.752465343219232
1021
0.0
1031
0.0
1021
0.0798130468465388
1031
0.0
1001
IRD
1002
{
1000
TPMLINK_Unit_topology-_-ade
1070
   515
1071
        5
1004
0100D8040000630100006301000000000000C483A2D7235D7140C483A2D7235D71405D02000000000000
1002
}
1001
DCO15
1071
        5
1071
        5
1000
unitlink
1004
074132303400
1071
        4
1000
Link
1004
074132303400
  0
VERTEX
  5
3D9
  8
EASTERN_ZHOU
 10
720868.30183983583
 20
3414574.1582818371
 30
0.8
  0
VERTEX
  5
3DA
  8
EASTERN_ZHOU
 10
720898.75395549065
 20
3414572.9511095029
 30
0.8
  0
VERTEX
  5
3DB
  8
EASTERN_ZHOU
 10
720925.56523969024
 20
3414575.1160383988
 30
0.8
  0
VERTEX
  5
3DC
  8
EASTERN_ZHOU
 10
720953.49734203925
 20
3414577.371469921
 30
0.8
  0
VERTEX
  5
3DD
  8
EASTERN_ZHOU
 10
720953.11475699767
 20
3414630.3765967311
 30
0.8
  0
VERTEX
  5
3DE
  8
EASTERN_ZHOU
 10
720868.99012991064
 20
3414629.4413190419
 30
0.8
  0
VERTEX
  5
3DF
  8
EASTERN_ZHOU
 10
720868.30183983583
 20
3414574.1582818371
 30
0.8
  0
SEQEND
  5
3E0
  8
EASTERN_ZHOU
  0
POLYLINE
  5
BF
  8
EASTERN_ZHOU
 66
     1
 10
0.0
 20
0.0
 30
0.1341463414634146
 70
     1
1001
ADE
1011
-24.45397166558541
1021
0.0
1031
0.0
1021
-0.8779435153119266
1031
0.0
1001
IRD
1002
{
1000
TPMLINK_Unit_topology-_-ade
1070
   515
1071
        5
1004
0100D90400005C0100005C01000000000000288611FD52FA7340288611FD52FA73405C02000000000000
1002
}
1001
DCO15
1071
        5
1071
        5
1000
unitlink
1004
074132303300
1071
        4
1000
Link
1004
074132303300
  0
VERTEX
  5
3E1
  8
EASTERN_ZHOU
 10
720869.14074109145
 20
3414631.8531380971
 30
0.1341463414634146
  0
VERTEX
  5
3E2
  8
EASTERN_ZHOU
 10
720952.52752611425
 20
3414632.9705207539
 30
0.1341463414634146
  0
VERTEX
  5
3E3
  8
EASTERN_ZHOU
 10
720960.93331671914
 20
3414710.9279142912
 30
0.1341463414634146
  0
VERTEX
  5
3E4
  8
EASTERN_ZHOU
 10
720911.77370301262
 20
3414702.9565862352
 30
0.1341463414634146
  0
VERTEX
  5
3E5
  8
EASTERN_ZHOU
 10
720873.48624960706
 20
3414701.4401383442
 30
0.1341463414634146
  0
VERTEX
  5
3E6
  8
EASTERN_ZHOU
 10
720869.14074109145
 20
3414631.8531380971
 30
0.1341463414634146
  0
SEQEND
  5
3E7
  8
EASTERN_ZHOU
  0
POLYLINE
  5
C0
  8
EASTERN_ZHOU
 66
     1
 10
0.0
 20
0.0
 30
0.1363636363636363
 70
     1
1001
ADE
1011
-33.505716236191802
1021
0.0
1031
0.0
1021
-1.0425579254515449
1031
0.0
1001
IRD
1002
{
1000
TPMLINK_Unit_topology-_-ade
1070
   515
1071
        5
1004
0100DA0400004C0100004C010000000000008C67003EC06A74408C67003EC06A74405B02000000000000
1002
}
1001
DCO15
1071
        5
1071
        5
1000
unitlink
1004
074132303200
1071
        4
1000
Link
1004
074132303200
  0
VERTEX
  5
3E8
  8
EASTERN_ZHOU
 10
720873.68758590915
 20
3414703.2259552679
 30
0.1363636363636363
  0
VERTEX
  5
3E9
  8
EASTERN_ZHOU
 10
720911.45492053416
 20
3414704.5528471721
 30
0.1363636363636363
  0
VERTEX
  5
3EA
  8
EASTERN_ZHOU
 10
720961.78899600345
 20
3414713.1527029718
 30
0.1363636363636363
  0
VERTEX
  5
3EB
  8
EASTERN_ZHOU
 10
720964.05402939743
 20
3414785.7626223681
 30
0.1363636363636363
  0
VERTEX
  5
3EC
  8
EASTERN_ZHOU
 10
720875.58350275061
 20
3414779.6968308059
 30
0.1363636363636363
  0
VERTEX
  5
3ED
  8
EASTERN_ZHOU
 10
720873.68758590915
 20
3414703.2259552679
 30
0.1363636363636363
  0
SEQEND
  5
3EE
  8
EASTERN_ZHOU
  0
POLYLINE
  5
C1
  8
EASTERN_ZHOU
 66
     1
 10
0.0
 20
0.0
 30
1.5
 70
     1
1001
ADE
1011
-28.447141651180569
1021
0.0
1031
0.0
1021
-11.542961904779069
1031
0.0
1001
IRD
1002
{
1000
TPMLINK_Unit_topology-_-ade
1070
   515
1071
        5
1004
0100DC0400002C0100002C01000000000000B26EC76770A07340B26EC76770A073400000000059020000
1002
}
1001
DCO15
1071
        5
1071
        5
1000
unitlink
1004
074132303000
1071
        4
1000
Link
1004
074132303000
  0
VERTEX
  5
3EF
  8
EASTERN_ZHOU
 10
720891.8246311025
 20
3414932.5388155752
 30
1.5
  0
VERTEX
  5
3F0
  8
EASTERN_ZHOU
 10
720935.78305701155
 20
3414929.7353823041
 30
1.5
  0
VERTEX
  5
3F1
  8
EASTERN_ZHOU
 10
720934.54148314905
 20
3414894.5577818919
 30
1.5
  0
VERTEX
  5
3F2
  8
EASTERN_ZHOU
 10
720937.96420028072
 20
3414886.4567576349
 30
1.5
  0
VERTEX
  5
3F3
  8
EASTERN_ZHOU
 10
720969.13777102134
 20
3414883.3440488069
 30
1.5
  0
VERTEX
  5
3F4
  8
EASTERN_ZHOU
 10
720969.13777102134
 20
3414857.1952993241
 30
1.5
  0
VERTEX
  5
3F5
  8
EASTERN_ZHOU
 10
720924.55855818104
 20
3414852.526236082
 30
1.5
  0
VERTEX
  5
3F6
  8
EASTERN_ZHOU
 10
720879.35855841264
 20
3414855.638944909
 30
1.5
  0
VERTEX
  5
3F7
  8
EASTERN_ZHOU
 10
720882.47927109152
 20
3414901.4017506619
 30
1.5
  0
VERTEX
  5
3F8
  8
EASTERN_ZHOU
 10
720891.8246311025
 20
3414932.5388155752
 30
1.5
  0
SEQEND
  5
3F9
  8
EASTERN_ZHOU
  0
POLYLINE
  5
C2
  8
EASTERN_ZHOU
 66
     1
 10
0.0
 20
0.0
 30
0.1153846153846154
 70
     1
1001
ADE
1011
-3.2557089640758918
1021
0.0
1031
0.0
1021
-3.6530679450370358
1031
0.0
1001
IRD
1002
{
1000
TPMLINK_Unit_topology-_-ade
1070
   515
1071
        5
1004
0100DD040000250100002501000000000000BE95390060207040BE953900602070405802000000000000
1002
}
1001
DCO15
1071
        5
1071
        5
1000
unitlink
1004
074131393900
1071
        4
1000
Link
1004
074131393900
  0
VERTEX
  5
3FA
  8
EASTERN_ZHOU
 10
720852.48439196218
 20
3414966.5279348739
 30
0.1153846153846154
  0
VERTEX
  5
3FB
  8
EASTERN_ZHOU
 10
720837.54807640193
 20
3414933.972840549
 30
0.1153846153846154
  0
VERTEX
  5
3FC
  8
EASTERN_ZHOU
 10
720825.26234352461
 20
3414919.523188903
 30
0.1153846153846154
  0
VERTEX
  5
3FD
  8
EASTERN_ZHOU
 10
720805.46813562862
 20
3414900.2644147449
 30
0.1153846153846154
  0
VERTEX
  5
3FE
  8
EASTERN_ZHOU
 10
720876.25462375954
 20
3414907.3977058078
 30
0.1153846153846154
  0
VERTEX
  5
3FF
  8
EASTERN_ZHOU
 10
720892.8313126117
 20
3414969.2528171381
 30
0.1153846153846154
  0
VERTEX
  5
400
  8
EASTERN_ZHOU
 10
720852.48439196218
 20
3414966.5279348739
 30
0.1153846153846154
  0
SEQEND
  5
401
  8
EASTERN_ZHOU
  0
POLYLINE
  5
C3
  8
EASTERN_ZHOU
 66
     1
 10
0.0
 20
0.0
 30
3.8999999999999999
 70
     1
1001
ADE
1011
-19.219227816793129
1021
0.0
1031
0.0
1021
-3.2424050294794129
1031
0.0
1001
IRD
1002
{
1000
TPMLINK_Unit_topology-_-ade
1070
   515
1071
        5
1004
0100DE040000320100003201000000000000582B5AC7B5997440582B5AC7B59974405702000000000000
1002
}
1001
DCO15
1071
        5
1071
        5
1000
unitlink
1004
074131393800
1071
        4
1000
Link
1004
074131393800
  0
VERTEX
  5
402
  8
EASTERN_ZHOU
 10
720808.28684385482
 20
3414895.405795515
 30
3.8999999999999999
  0
VERTEX
  5
403
  8
EASTERN_ZHOU
 10
720797.76702208095
 20
3414881.608115036
 30
3.8999999999999999
  0
VERTEX
  5
404
  8
EASTERN_ZHOU
 10
720787.71243996033
 20
3414868.4206376802
 30
3.8999999999999999
  0
VERTEX
  5
405
  8
EASTERN_ZHOU
 10
720780.93866284937
 20
3414857.6143178199
 30
3.8999999999999999
  0
VERTEX
  5
406
  8
EASTERN_ZHOU
 10
720780.13331764191
 20
3414845.8119635121
 30
3.8999999999999999
  0
VERTEX
  5
407
  8
EASTERN_ZHOU
 10
720781.27422335371
 20
3414834.9773423988
 30
3.8999999999999999
  0
VERTEX
  5
408
  8
EASTERN_ZHOU
 10
720784.66338443395
 20
3414825.270080572
 30
3.8999999999999999
  0
VERTEX
  5
409
  8
EASTERN_ZHOU
 10
720785.83784619346
 20
3414817.1790329469
 30
3.8999999999999999
  0
VERTEX
  5
40A
  8
EASTERN_ZHOU
 10
720872.83190662763
 20
3414820.880362995
 30
3.8999999999999999
  0
VERTEX
  5
40B
  8
EASTERN_ZHOU
 10
720876.72440846264
 20
3414905.4323095288
 30
3.8999999999999999
  0
VERTEX
  5
40C
  8
EASTERN_ZHOU
 10
720812.26323581464
 20
3414898.7878733771
 30
3.8999999999999999
  0
VERTEX
  5
40D
  8
EASTERN_ZHOU
 10
720808.28684385482
 20
3414895.405795515
 30
3.8999999999999999
  0
SEQEND
  5
40E
  8
EASTERN_ZHOU
  0
POLYLINE
  5
C4
  8
EASTERN_ZHOU
 66
     1
 10
0.0
 20
0.0
 30
0.0520833333333334
 70
     1
1001
ADE
1011
-29.0427615417866
1021
0.0
1031
0.0
1021
-1.047546240501104
1031
0.0
1001
IRD
1002
{
1000
TPMLINK_Unit_topology-_-ade
1070
   515
1071
        5
1004
0100DF040000430100004301000000000000420967AEF07E7440420967AEF07E74405602000000000000
1002
}
1001
DCO15
1071
        5
1071
        5
1000
unitlink
1004
074131393700
1071
        4
1000
Link
1004
074131393700
  0
VERTEX
  5
40F
  8
EASTERN_ZHOU
 10
720777.3984995411
 20
3414744.030375483
 30
0.0520833333333334
  0
VERTEX
  5
410
  8
EASTERN_ZHOU
 10
720868.87229268998
 20
3414743.5115906792
 30
0.0520833333333334
  0
VERTEX
  5
411
  8
EASTERN_ZHOU
 10
720873.46947158093
 20
3414819.5534710898
 30
0.0520833333333334
  0
VERTEX
  5
412
  8
EASTERN_ZHOU
 10
720785.31772741664
 20
3414815.6326551619
 30
0.0520833333333334
  0
VERTEX
  5
413
  8
EASTERN_ZHOU
 10
720777.3984995411
 20
3414744.030375483
 30
0.0520833333333334
  0
SEQEND
  5
414
  8
EASTERN_ZHOU
  0
POLYLINE
  5
C5
  8
EASTERN_ZHOU
 66
     1
 10
0.0
 20
0.0
 30
1.0999999999999981
 70
     1
1001
ADE
1011
-28.119970161351372
1021
0.0
1031
0.0
1021
4.304916215594857
1031
0.0
1001
IRD
1002
{
1000
TPMLINK_Unit_topology-_-ade
1070
   515
1071
        5
1004
0100E00400004501000045010000000000001E8471373BC675401E8471373BC675400000000055020000
1002
}
1001
DCO15
1071
        5
1071
        5
1000
unitlink
1004
074131393600
1071
        4
1000
Link
1004
074131393600
  0
VERTEX
  5
415
  8
EASTERN_ZHOU
 10
720776.22403778124
 20
3414741.5362177691
 30
1.0999999999999981
  0
VERTEX
  5
416
  8
EASTERN_ZHOU
 10
720868.87229268998
 20
3414741.5362177691
 30
1.0999999999999981
  0
VERTEX
  5
417
  8
EASTERN_ZHOU
 10
720862.54697720695
 20
3414659.9872371228
 30
1.0999999999999981
  0
VERTEX
  5
418
  8
EASTERN_ZHOU
 10
720772.23086779541
 20
3414658.0218408429
 30
1.0999999999999981
  0
VERTEX
  5
419
  8
EASTERN_ZHOU
 10
720776.22403778124
 20
3414741.5362177691
 30
1.0999999999999981
  0
SEQEND
  5
41A
  8
EASTERN_ZHOU
  0
POLYLINE
  5
C6
  8
EASTERN_ZHOU
 66
     1
 10
0.0
 20
0.0
 30
2.1000000000000001
 70
     1
1001
ADE
1011
-29.440872337319892
1021
0.0
1031
0.0
1021
-3.611540371086448
1031
0.0
1001
IRD
1002
{
1000
TPMLINK_Unit_topology-_-ade
1070
   515
1071
        5
1004
0100E10400005401000054010000000000009C140744765774409C140744765774400000000054020000
1002
}
1001
DCO15
1071
        5
1071
        5
1000
unitlink
1004
074131393500
1071
        4
1000
Link
1004
074131393500
  0
VERTEX
  5
41B
  8
EASTERN_ZHOU
 10
720774.56301328936
 20
3414655.7571456381
 30
2.1000000000000001
  0
VERTEX
  5
41C
  8
EASTERN_ZHOU
 10
720861.75841002574
 20
3414657.0640842812
 30
2.1000000000000001
  0
VERTEX
  5
41D
  8
EASTERN_ZHOU
 10
720861.10406704224
 20
3414583.735847462
 30
2.1000000000000001
  0
VERTEX
  5
41E
  8
EASTERN_ZHOU
 10
720769.20169964014
 20
3414585.4526799251
 30
2.1000000000000001
  0
VERTEX
  5
41F
  8
EASTERN_ZHOU
 10
720772.04630951583
 20
3414655.8868418401
 30
2.1000000000000001
  0
VERTEX
  5
420
  8
EASTERN_ZHOU
 10
720774.56301328936
 20
3414655.7571456381
 30
2.1000000000000001
  0
SEQEND
  5
421
  8
EASTERN_ZHOU
  0
POLYLINE
  5
C7
  8
EASTERN_ZHOU
 66
     1
 10
0.0
 20
0.0
 30
0.05
 70
     1
1001
ADE
1011
-22.063103077933189
1021
0.0
1031
0.0
1021
4.459553992841391
1031
0.0
1001
IRD
1002
{
1000
TPMLINK_Unit_topology-_-ade
1070
   515
1071
        5
1004
0100E204000072010000720100000000000018F07B7BA64D754018F07B7BA64D75405302000000000000
1002
}
1001
DCO15
1071
        5
1071
        5
1000
unitlink
1004
074131393400
1071
        4
1000
Link
1004
074131393400
  0
VERTEX
  5
422
  8
EASTERN_ZHOU
 10
720762.78483963024
 20
3414505.748524033
 30
0.05
  0
VERTEX
  5
423
  8
EASTERN_ZHOU
 10
720858.36924894154
 20
3414508.3324714261
 30
0.05
  0
VERTEX
  5
424
  8
EASTERN_ZHOU
 10
720864.05699947104
 20
3414581.1020169151
 30
0.05
  0
VERTEX
  5
425
  8
EASTERN_ZHOU
 10
720768.97593091405
 20
3414582.6483946992
 30
0.05
  0
VERTEX
  5
426
  8
EASTERN_ZHOU
 10
720762.78483963024
 20
3414505.748524033
 30
0.05
  0
SEQEND
  5
427
  8
EASTERN_ZHOU
  0
POLYLINE
  5
C8
  8
EASTERN_ZHOU
 66
     1
 10
0.0
 20
0.0
 30
0.0454545454545455
 70
     1
1001
ADE
1011
-34.831180222332492
1021
0.0
1031
0.0
1021
1.501482943538575
1031
0.0
1001
IRD
1002
{
1000
TPMLINK_Unit_topology-_-ade
1070
   515
1071
        5
1004
0100E3040000770100007701000000000000769E0B5239757440769E0B52397574400000000052020000
1002
}
1001
DCO15
1071
        5
1071
        5
1000
unitlink
1004
074131393300
1071
        4
1000
Link
1004
074131393300
  0
VERTEX
  5
428
  8
EASTERN_ZHOU
 10
720760.93925686553
 20
3414498.1762612108
 30
0.0454545454545455
  0
VERTEX
  5
429
  8
EASTERN_ZHOU
 10
720859.14103810105
 20
3414500.879928174
 30
0.0454545454545455
  0
VERTEX
  5
42A
  8
EASTERN_ZHOU
 10
720855.36598243925
 20
3414437.3786727511
 30
0.0454545454545455
  0
VERTEX
  5
42B
  8
EASTERN_ZHOU
 10
720752.73480256274
 20
3414435.8821781231
 30
0.0454545454545455
  0
VERTEX
  5
42C
  8
EASTERN_ZHOU
 10
720760.93925686553
 20
3414498.1762612108
 30
0.0454545454545455
  0
SEQEND
  5
42D
  8
EASTERN_ZHOU
  0
POLYLINE
  5
C9
  8
EASTERN_ZHOU
 66
     1
 10
0.0
 20
0.0
 30
0.02
 70
     1
1001
ADE
1011
-28.908537343377251
1021
0.0
1031
0.0
1021
-6.3950203796848637
1031
0.0
1001
IRD
1002
{
1000
TPMLINK_Unit_topology-_-ade
1070
   515
1071
        5
1004
0100E4040000850100008501000000000000EE1B9BA4B4307540EE1B9BA4B43075400000000051020000
1002
}
1001
DCO15
1071
        5
1071
        5
1000
unitlink
1004
074131393200
1071
        4
1000
Link
1004
074131393200
  0
VERTEX
  5
42E
  8
EASTERN_ZHOU
 10
720752.01334748033
 20
3414433.9167818441
 30
0.02
  0
VERTEX
  5
42F
  8
EASTERN_ZHOU
 10
720855.63443084073
 20
3414435.0341645
 30
0.02
  0
VERTEX
  5
430
  8
EASTERN_ZHOU
 10
720847.98365136993
 20
3414366.3550376608
 30
0.02
  0
VERTEX
  5
431
  8
EASTERN_ZHOU
 10
720746.5437112822
 20
3414369.3180970279
 30
0.02
  0
VERTEX
  5
432
  8
EASTERN_ZHOU
 10
720752.01334748033
 20
3414433.9167818441
 30
0.02
  0
SEQEND
  5
433
  8
EASTERN_ZHOU
  0
POLYLINE
  5
CA
  8
EASTERN_ZHOU
 66
     1
 10
0.0
 20
0.0
 30
0.0520833333333334
 70
     1
1001
ADE
1011
-33.715441551059492
1021
0.0
1031
0.0
1021
2.583947392180562
1031
0.0
1001
IRD
1002
{
1000
TPMLINK_Unit_topology-_-ade
1070
   515
1071
        5
1004
0100E50400009901000099010000000000004D1C0D79BBB573404D1C0D79BBB573400000000050020000
1002
}
1001
DCO15
1071
        5
1071
        5
1000
unitlink
1004
074131393100
1071
        4
1000
Link
1004
074131393100
  0
VERTEX
  5
434
  8
EASTERN_ZHOU
 10
720748.60740837455
 20
3414366.7541028969
 30
0.0520833333333334
  0
VERTEX
  5
435
  8
EASTERN_ZHOU
 10
720845.81928612641
 20
3414364.9583093412
 30
0.0520833333333334
  0
VERTEX
  5
436
  8
EASTERN_ZHOU
 10
720835.92025128379
 20
3414303.821515434
 30
0.0520833333333334
  0
VERTEX
  5
437
  8
EASTERN_ZHOU
 10
720740.40295407549
 20
3414306.6748318598
 30
0.0520833333333334
  0
VERTEX
  5
438
  8
EASTERN_ZHOU
 10
720748.60740837455
 20
3414366.7541028969
 30
0.0520833333333334
  0
SEQEND
  5
439
  8
EASTERN_ZHOU
  0
POLYLINE
  5
CB
  8
EASTERN_ZHOU
 66
     1
 10
0.0
 20
0.0
 30
0.06
 70
     1
1001
ADE
1011
-31.324572965502739
1021
0.0
1031
0.0
1021
-5.68169127544388
1031
0.0
1001
IRD
1002
{
1000
TPMLINK_Unit_topology-_-ade
1070
   515
1071
        5
1004
0100E6040000B3010000B30100000000000054509CAF418C784054509CAF418C78403802000000000000
1002
}
1001
DCO15
1071
        5
1071
        5
1000
unitlink
1004
074131363700
1071
        4
1000
Link
1004
074131363700
  0
VERTEX
  5
43A
  8
EASTERN_ZHOU
 10
720826.94400782511
 20
3414199.4659566432
 30
0.06
  0
VERTEX
  5
43B
  8
EASTERN_ZHOU
 10
720842.6817954221
 20
3414293.1265671528
 30
0.06
  0
VERTEX
  5
43C
  8
EASTERN_ZHOU
 10
720742.4666511676
 20
3414298.843176635
 30
0.06
  0
VERTEX
  5
43D
  8
EASTERN_ZHOU
 10
720723.85982127103
 20
3414206.6192009691
 30
0.06
  0
VERTEX
  5
43E
  8
EASTERN_ZHOU
 10
720826.94400782511
 20
3414199.4659566432
 30
0.06
  0
SEQEND
  5
43F
  8
EASTERN_ZHOU
  0
POLYLINE
  5
CC
  8
EASTERN_ZHOU
 66
     1
 10
0.0
 20
0.0
 30
0.06
 70
     1
1001
ADE
1011
-24.881811305996958
1021
0.0
1031
0.0
1021
6.1356279803439957
1031
0.0
1001
IRD
1002
{
1000
TPMLINK_Unit_topology-_-ade
1070
   515
1071
        5
1004
0100E7040000B9010000B9010000000000005B50E4798E2F77405B50E4798E2F77400000000037020000
1002
}
1001
DCO15
1071
        5
1071
        5
1000
unitlink
1004
074131363600
1071
        4
1000
Link
1004
074131363600
  0
VERTEX
  5
440
  8
EASTERN_ZHOU
 10
720715.26947239065
 20
3414101.5153948632
 30
0.06
  0
VERTEX
  5
441
  8
EASTERN_ZHOU
 10
720726.71208554879
 20
3414193.7493471592
 30
0.06
  0
VERTEX
  5
442
  8
EASTERN_ZHOU
 10
720819.05833600461
 20
3414185.8877620441
 30
0.06
  0
VERTEX
  5
443
  8
EASTERN_ZHOU
 10
720809.04185498494
 20
3414095.0804679599
 30
0.06
  0
VERTEX
  5
444
  8
EASTERN_ZHOU
 10
720715.26947239065
 20
3414101.5153948632
 30
0.06
  0
SEQEND
  5
445
  8
EASTERN_ZHOU
  0
POLYLINE
  5
CD
  8
EASTERN_ZHOU
 66
     1
 10
0.0
 20
0.0
 30
0.0266666666666667
 70
     1
1001
ADE
1011
-40.846102241426713
1021
0.0
1031
0.0
1021
7.0073076812550408
1031
0.0
1001
IRD
1002
{
1000
TPMLINK_Unit_topology-_-ade
1070
   515
1071
        5
1004
0100E8040000AA010000AA0100000000000020F04789BBAB7E4020F04789BBAB7E403602000000000000
1002
}
1001
DCO15
1071
        5
1071
        5
1000
unitlink
1004
074132353300
1071
        4
1000
Link
1004
074132353300
  0
VERTEX
  5
446
  8
EASTERN_ZHOU
 10
720528.30485032802
 20
3414268.0378915351
 30
0.0266666666666667
  0
VERTEX
  5
447
  8
EASTERN_ZHOU
 10
720520.84571688622
 20
3414209.5423538121
 30
0.0266666666666667
  0
VERTEX
  5
448
  8
EASTERN_ZHOU
 10
720695.57207085926
 20
3414149.3832697282
 30
0.0266666666666667
  0
VERTEX
  5
449
  8
EASTERN_ZHOU
 10
720709.51460976165
 20
3414201.471259445
 30
0.0266666666666667
  0
VERTEX
  5
44A
  8
EASTERN_ZHOU
 10
720528.30485032802
 20
3414268.0378915351
 30
0.0266666666666667
  0
SEQEND
  5
44B
  8
EASTERN_ZHOU
  0
POLYLINE
  5
CE
  8
EASTERN_ZHOU
 66
     1
 10
0.0
 20
0.0
 30
0.4
 70
     1
1001
ADE
1011
-17.45753517374396
1021
0.0
1031
0.0
1021
5.6467730673030001
1031
0.0
1001
IRD
1002
{
1000
TPMLINK_Unit_topology-_-ade
1070
   515
1071
        5
1004
0100E9040000B2010000B201000000000000B9736F97BD108040B9736F97BD1080400000000035020000
1002
}
1001
DCO15
1071
        5
1071
        5
1000
unitlink
1004
074132343000
1071
        4
1000
Link
1004
074132343000
  0
VERTEX
  5
44C
  8
EASTERN_ZHOU
 10
720467.27348256484
 20
3414213.5330061559
 30
0.4
  0
VERTEX
  5
44D
  8
EASTERN_ZHOU
 10
720549.16702334955
 20
3414181.8372499142
 30
0.4
  0
VERTEX
  5
44E
  8
EASTERN_ZHOU
 10
720512.27214603499
 20
3414080.1055450388
 30
0.4
  0
VERTEX
  5
44F
  8
EASTERN_ZHOU
 10
720366.20265902951
 20
3414130.2281384771
 30
0.4
  0
VERTEX
  5
450
  8
EASTERN_ZHOU
 10
720417.10718734935
 20
3414229.0167372492
 30
0.4
  0
VERTEX
  5
451
  8
EASTERN_ZHOU
 10
720467.27348256484
 20
3414213.5330061559
 30
0.4
  0
SEQEND
  5
452
  8
EASTERN_ZHOU
  0
POLYLINE
  5
CF
  8
EASTERN_ZHOU
 66
     1
 10
0.0
 20
0.0
 30
0.3380281690140845
 70
     1
1001
ADE
1011
-21.232590835657891
1021
0.0
1031
0.0
1021
5.5819249670021218
1031
0.0
1001
IRD
1002
{
1000
TPMLINK_Unit_topology-_-ade
1070
   515
1071
        5
1004
0100EA040000C3010000C301000000000000C35E10E27E1F7540C35E10E27E1F75403402000000000000
1002
}
1001
DCO15
1071
        5
1071
        5
1000
unitlink
1004
074132313800
1071
        4
1000
Link
1004
074132313800
  0
VERTEX
  5
453
  8
EASTERN_ZHOU
 10
721876.07392080501
 20
3413784.4680427769
 30
0.3380281690140845
  0
VERTEX
  5
454
  8
EASTERN_ZHOU
 10
721935.95469258376
 20
3413780.886432298
 30
0.3380281690140845
  0
VERTEX
  5
455
  8
EASTERN_ZHOU
 10
721967.84971840691
 20
3413867.7729104548
 30
0.3380281690140845
  0
VERTEX
  5
456
  8
EASTERN_ZHOU
 10
721870.050609775
 20
3413871.8034693212
 30
0.3380281690140845
  0
VERTEX
  5
457
  8
EASTERN_ZHOU
 10
721876.07392080501
 20
3413784.4680427769
 30
0.3380281690140845
  0
SEQEND
  5
458
  8
EASTERN_ZHOU
  0
POLYLINE
  5
D0
  8
EASTERN_ZHOU
 66
     1
 10
0.0
 20
0.0
 30
0.9
 70
     1
1001
ADE
1011
-16.794803181663148
1021
0.0
1031
0.0
1021
1.4665647363290191
1031
0.0
1001
IRD
1002
{
1000
TPMLINK_Unit_topology-_-ade
1070
   515
1071
        5
1004
0100EB040000C4010000C4010000000000006FE357D3BC4876406FE357D3BC4876403302000000000000
1002
}
1001
DCO15
1071
        5
1071
        5
1000
unitlink
1004
074132313900
1071
        4
1000
Link
1004
074132313900
  0
VERTEX
  5
459
  8
EASTERN_ZHOU
 10
721782.83843501657
 20
3413782.1833943091
 30
0.9
  0
VERTEX
  5
45A
  8
EASTERN_ZHOU
 10
721873.35588072985
 20
3413784.0290710181
 30
0.9
  0
VERTEX
  5
45B
  8
EASTERN_ZHOU
 10
721868.22180503234
 20
3413872.112744879
 30
0.9
  0
VERTEX
  5
45C
  8
EASTERN_ZHOU
 10
721781.94919968024
 20
3413873.6690992918
 30
0.9
  0
VERTEX
  5
45D
  8
EASTERN_ZHOU
 10
721782.83843501657
 20
3413782.1833943091
 30
0.9
  0
SEQEND
  5
45E
  8
EASTERN_ZHOU
  0
POLYLINE
  5
D1
  8
EASTERN_ZHOU
 66
     1
 10
0.0
 20
0.0
 30
0.03
 70
     1
1001
ADE
1011
-19.323178071645081
1021
0.0
1031
0.0
1021
4.6703320839442313
1031
0.0
1001
IRD
1002
{
1000
TPMLINK_Unit_topology-_-ade
1070
   515
1071
        5
1004
0100ED040000E8000000E80000000000000086597439435C744086597439435C74403102000000000000
1002
}
1001
DCO15
1071
        5
1071
        5
1000
unitlink
1004
074231323300
1071
        4
1000
Link
1004
074231323300
  0
VERTEX
  5
45F
  8
EASTERN_ZHOU
 10
721143.86386876192
 20
3416139.8016378041
 30
0.03
  0
VERTEX
  5
460
  8
EASTERN_ZHOU
 10
721132.14005820081
 20
3416106.0303054638
 30
0.03
  0
VERTEX
  5
461
  8
EASTERN_ZHOU
 10
721129.81802923966
 20
3416060.3576786071
 30
0.03
  0
VERTEX
  5
462
  8
EASTERN_ZHOU
 10
721138.99247933156
 20
3416054.9304306339
 30
0.03
  0
VERTEX
  5
463
  8
EASTERN_ZHOU
 10
721211.88470315945
 20
3416055.9852815019
 30
0.03
  0
VERTEX
  5
464
  8
EASTERN_ZHOU
 10
721220.40963466093
 20
3416070.4713632572
 30
0.03
  0
VERTEX
  5
465
  8
EASTERN_ZHOU
 10
721221.91976538301
 20
3416132.8364011631
 30
0.03
  0
VERTEX
  5
466
  8
EASTERN_ZHOU
 10
721217.16204170883
 20
3416139.560068903
 30
0.03
  0
VERTEX
  5
467
  8
EASTERN_ZHOU
 10
721143.86386876192
 20
3416139.8016378041
 30
0.03
  0
SEQEND
  5
468
  8
EASTERN_ZHOU
  0
POLYLINE
  5
D2
  8
EASTERN_ZHOU
 66
     1
 10
0.0
 20
0.0
 30
0.03
 70
     1
1001
ADE
1011
-28.692483739810999
1021
0.0
1031
0.0
1021
3.0397420017980021
1031
0.0
1001
IRD
1002
{
1000
TPMLINK_Unit_topology-_-ade
1070
   515
1071
        5
1004
0100EE040000E7000000E70000000000000068EBEAA31FB6744068EBEAA31FB674400000000030020000
1002
}
1001
DCO15
1071
        5
1071
        5
1000
unitlink
1004
074231333000
1071
        4
1000
Link
1004
074231333000
  0
VERTEX
  5
469
  8
EASTERN_ZHOU
 10
719723.22056945786
 20
3416267.631847844
 30
0.03
  0
VERTEX
  5
46A
  8
EASTERN_ZHOU
 10
719715.3613945134
 20
3416345.1674127248
 30
0.03
  0
VERTEX
  5
46B
  8
EASTERN_ZHOU
 10
719794.00185786944
 20
3416342.856403573
 30
0.03
  0
VERTEX
  5
46C
  8
EASTERN_ZHOU
 10
719810.9542930834
 20
3416297.1596198268
 30
0.03
  0
VERTEX
  5
46D
  8
EASTERN_ZHOU
 10
719815.06249816716
 20
3416263.3158168159
 30
0.03
  0
VERTEX
  5
46E
  8
EASTERN_ZHOU
 10
719723.22056945786
 20
3416267.631847844
 30
0.03
  0
SEQEND
  5
46F
  8
EASTERN_ZHOU
  0
POLYLINE
  5
D3
  8
EASTERN_ZHOU
 66
     1
 10
0.0
 20
0.0
 30
4.5
 70
     1
1001
ADE
1011
-11.4396461751312
1021
0.0
1031
0.0
1021
-5.886228883638978
1031
0.0
1001
IRD
1002
{
1000
TPMLINK_Unit_topology-_-ade
1070
   515
1071
        5
1004
0100EF0400009E0100009E01000000000000B88DBA77E4286440B88DBA77E42864402F02000000000000
1002
}
1001
DCO15
1071
        5
1071
        5
1000
unitlink
1004
074332333400
1071
        4
1000
Link
1004
074332333400
  0
VERTEX
  5
470
  8
EASTERN_ZHOU
 10
720633.04997318971
 20
3414344.4937757761
 30
4.5
  0
VERTEX
  5
471
  8
EASTERN_ZHOU
 10
720624.20028239465
 20
3414320.0792121948
 30
4.5
  0
VERTEX
  5
472
  8
EASTERN_ZHOU
 10
720661.27155595284
 20
3414335.7409292678
 30
4.5
  0
VERTEX
  5
473
  8
EASTERN_ZHOU
 10
720674.99263617792
 20
3414345.8546139169
 30
4.5
  0
VERTEX
  5
474
  8
EASTERN_ZHOU
 10
720682.26724439475
 20
3414360.5339507931
 30
4.5
  0
VERTEX
  5
475
  8
EASTERN_ZHOU
 10
720682.73814537015
 20
3414364.1333274161
 30
4.5
  0
VERTEX
  5
476
  8
EASTERN_ZHOU
 10
720669.82896338403
 20
3414366.6053825002
 30
4.5
  0
VERTEX
  5
477
  8
EASTERN_ZHOU
 10
720662.7004968524
 20
3414358.528928915
 30
4.5
  0
VERTEX
  5
478
  8
EASTERN_ZHOU
 10
720655.49084049452
 20
3414351.0563975819
 30
4.5
  0
VERTEX
  5
479
  8
EASTERN_ZHOU
 10
720646.47877005104
 20
3414346.4021700919
 30
4.5
  0
VERTEX
  5
47A
  8
EASTERN_ZHOU
 10
720633.04997318971
 20
3414344.4937757761
 30
4.5
  0
SEQEND
  5
47B
  8
EASTERN_ZHOU
  0
POLYLINE
  5
D4
  8
EASTERN_ZHOU
 66
     1
 10
0.0
 20
0.0
 30
3.1000000000000001
 70
     1
1001
ADE
1011
-17.082338931038962
1021
0.0
1031
0.0
1021
-5.1574960341677052
1031
0.0
1001
IRD
1002
{
1000
TPMLINK_Unit_topology-_-ade
1070
   515
1071
        5
1004
0100F00400006B0100006B01000000000000F506436BBFC46B40F506436BBFC46B40000000002B020000
1002
}
1001
DCO15
1071
        5
1071
        5
1000
unitlink
1004
074332323400
1071
        4
1000
Link
1004
074332323400
  0
VERTEX
  5
47C
  8
EASTERN_ZHOU
 10
720547.80065817782
 20
3414520.066052923
 30
3.1000000000000001
  0
VERTEX
  5
47D
  8
EASTERN_ZHOU
 10
720504.85124137253
 20
3414521.6201461852
 30
3.1000000000000001
  0
VERTEX
  5
47E
  8
EASTERN_ZHOU
 10
720504.85124137253
 20
3414540.3578405962
 30
3.1000000000000001
  0
VERTEX
  5
47F
  8
EASTERN_ZHOU
 10
720509.02247121476
 20
3414591.495095097
 30
3.1000000000000001
  0
VERTEX
  5
480
  8
EASTERN_ZHOU
 10
720545.21882177889
 20
3414592.4159387308
 30
3.1000000000000001
  0
VERTEX
  5
481
  8
EASTERN_ZHOU
 10
720543.62750123057
 20
3414555.1901711081
 30
3.1000000000000001
  0
VERTEX
  5
482
  8
EASTERN_ZHOU
 10
720548.72622216865
 20
3414528.5692782318
 30
3.1000000000000001
  0
VERTEX
  5
483
  8
EASTERN_ZHOU
 10
720547.80065817782
 20
3414520.066052923
 30
3.1000000000000001
  0
SEQEND
  5
484
  8
EASTERN_ZHOU
  0
POLYLINE
  5
D5
  8
EASTERN_ZHOU
 66
     1
 10
0.0
 20
0.0
 30
0.1553398058252427
 70
     1
1001
ADE
1011
0.089308807742782
1021
0.0
1031
0.0
1021
-0.2254643091000616
1031
0.0
1001
IRD
1002
{
1000
TPMLINK_Unit_topology-_-ade
1070
   515
1071
        5
1004
0100F10400007A0100007A01000000000000A65ECD9FD5B97040A65ECD9FD5B97040000000002A020000
1002
}
1001
DCO15
1071
        5
1071
        5
1000
unitlink
1004
074332323500
1071
        4
1000
Link
1004
074332323500
  0
VERTEX
  5
485
  8
EASTERN_ZHOU
 10
720506.23866397282
 20
3414486.0850153249
 30
0.1553398058252427
  0
VERTEX
  5
486
  8
EASTERN_ZHOU
 10
720506.16651651997
 20
3414519.4218691872
 30
0.1553398058252427
  0
VERTEX
  5
487
  8
EASTERN_ZHOU
 10
720549.87911766768
 20
3414517.4168473091
 30
0.1553398058252427
  0
VERTEX
  5
488
  8
EASTERN_ZHOU
 10
720553.71127735102
 20
3414488.34805624
 30
0.1553398058252427
  0
VERTEX
  5
489
  8
EASTERN_ZHOU
 10
720556.61787304282
 20
3414460.0522856512
 30
0.1553398058252427
  0
VERTEX
  5
48A
  8
EASTERN_ZHOU
 10
720533.15401395794
 20
3414457.8459563572
 30
0.1553398058252427
  0
VERTEX
  5
48B
  8
EASTERN_ZHOU
 10
720506.45879988733
 20
3414459.2228990928
 30
0.1553398058252427
  0
VERTEX
  5
48C
  8
EASTERN_ZHOU
 10
720499.05428795144
 20
3414454.7780313161
 30
0.1553398058252427
  0
VERTEX
  5
48D
  8
EASTERN_ZHOU
 10
720484.74864099536
 20
3414475.6898458339
 30
0.1553398058252427
  0
VERTEX
  5
48E
  8
EASTERN_ZHOU
 10
720472.48897760001
 20
3414483.7099333429
 30
0.1553398058252427
  0
SEQEND
  5
48F
  8
EASTERN_ZHOU
  0
POLYLINE
  5
D6
  8
EASTERN_ZHOU
 66
     1
 10
0.0
 20
0.0
 30
0.4615384615384616
 70
     1
1001
ADE
1011
-17.106695877271701
1021
0.0
1031
0.0
1021
12.114680378232141
1031
0.0
1001
IRD
1002
{
1000
TPMLINK_Unit_topology-_-ade
1070
   515
1071
        5
1004
0100F20400009001000090010000000000009EDEC5F5A07C6E409EDEC5F5A07C6E401E02000000000000
1002
}
1001
DCO15
1071
        5
1071
        5
1000
unitlink
1004
074332343000
1071
        4
1000
Link
1004
074332343000
  0
VERTEX
  5
490
  8
EASTERN_ZHOU
 10
720510.33967346326
 20
3414385.4235998779
 30
0.4615384615384616
  0
VERTEX
  5
491
  8
EASTERN_ZHOU
 10
720520.43968755007
 20
3414393.7979884408
 30
0.4615384615384616
  0
VERTEX
  5
492
  8
EASTERN_ZHOU
 10
720532.69935094565
 20
3414397.6630908549
 30
0.4615384615384616
  0
VERTEX
  5
493
  8
EASTERN_ZHOU
 10
720545.15386991925
 20
3414405.1758836708
 30
0.4615384615384616
  0
VERTEX
  5
494
  8
EASTERN_ZHOU
 10
720555.69230905187
 20
3414415.4828234431
 30
0.4615384615384616
  0
VERTEX
  5
495
  8
EASTERN_ZHOU
 10
720559.13475758233
 20
3414427.2874903982
 30
0.4615384615384616
  0
VERTEX
  5
496
  8
EASTERN_ZHOU
 10
720558.76128439244
 20
3414458.0150545882
 30
0.4615384615384616
  0
VERTEX
  5
497
  8
EASTERN_ZHOU
 10
720532.99163431313
 20
3414456.0986079751
 30
0.4615384615384616
  0
VERTEX
  5
498
  8
EASTERN_ZHOU
 10
720516.57505193364
 20
3414458.4418263119
 30
0.4615384615384616
  0
VERTEX
  5
499
  8
EASTERN_ZHOU
 10
720500.8891779707
 20
3414453.634605187
 30
0.4615384615384616
  0
VERTEX
  5
49A
  8
EASTERN_ZHOU
 10
720502.17197718855
 20
3414377.9430162478
 30
0.4615384615384616
  0
VERTEX
  5
49B
  8
EASTERN_ZHOU
 10
720510.33967346326
 20
3414385.4235998779
 30
0.4615384615384616
  0
SEQEND
  5
49C
  8
EASTERN_ZHOU
  0
POLYLINE
  5
D7
  8
EASTERN_ZHOU
 66
     1
 10
0.0
 20
0.0
 30
0.3283582089552239
 70
     1
1001
ADE
1011
-8.6698652381310222
1021
0.0
1031
0.0
1021
-4.0140699027106148
1031
0.0
1001
IRD
1002
{
1000
TPMLINK_Unit_topology-_-ade
1070
   515
1071
        5
1004
0100F304000070010000700100000000000004E435561074654004E43556107465402802000000000000
1002
}
1001
DCO15
1071
        5
1071
        5
1000
unitlink
1004
074332333600
1071
        4
1000
Link
1004
074332333600
  0
VERTEX
  5
49D
  8
EASTERN_ZHOU
 10
720636.18390038982
 20
3414509.3887075041
 30
0.3283582089552239
  0
VERTEX
  5
49E
  8
EASTERN_ZHOU
 10
720644.6114041023
 20
3414506.7797633749
 30
0.3283582089552239
  0
VERTEX
  5
49F
  8
EASTERN_ZHOU
 10
720661.32026984554
 20
3414505.7651739921
 30
0.3283582089552239
  0
VERTEX
  5
4A0
  8
EASTERN_ZHOU
 10
720669.86143931374
 20
3414506.3771485412
 30
0.3283582089552239
  0
VERTEX
  5
4A1
  8
EASTERN_ZHOU
 10
720670.90066905704
 20
3414508.1567061101
 30
0.3283582089552239
  0
VERTEX
  5
4A2
  8
EASTERN_ZHOU
 10
720670.83571719751
 20
3414529.752965847
 30
0.3283582089552239
  0
VERTEX
  5
4A3
  8
EASTERN_ZHOU
 10
720671.75886530185
 20
3414536.4225197788
 30
0.3283582089552239
  0
VERTEX
  5
4A4
  8
EASTERN_ZHOU
 10
720662.96030429017
 20
3414549.1509485859
 30
0.3283582089552239
  0
VERTEX
  5
4A5
  8
EASTERN_ZHOU
 10
720640.7630064562
 20
3414563.1941540251
 30
0.3283582089552239
  0
VERTEX
  5
4A6
  8
EASTERN_ZHOU
 10
720633.3747324869
 20
3414566.5680663381
 30
0.3283582089552239
  0
VERTEX
  5
4A7
  8
EASTERN_ZHOU
 10
720633.97553718463
 20
3414557.3481866228
 30
0.3283582089552239
  0
VERTEX
  5
4A8
  8
EASTERN_ZHOU
 10
720636.18390038982
 20
3414509.3887075041
 30
0.3283582089552239
  0
SEQEND
  5
4A9
  8
EASTERN_ZHOU
  0
POLYLINE
  5
D8
  8
EASTERN_ZHOU
 66
     1
 10
0.0
 20
0.0
 30
0.4528985507246377
 70
     1
1001
ADE
1011
-8.7360250429483131
1021
0.0
1031
0.0
1021
-6.6834062566049379
1031
0.0
1001
IRD
1002
{
1000
TPMLINK_Unit_topology-_-ade
1070
   515
1071
        5
1004
0100F4040000740100007401000000000000267EA2C9E6256940267EA2C9E62569402902000000000000
1002
}
1001
DCO15
1071
        5
1071
        5
1000
unitlink
1004
074332333500
1071
        4
1000
Link
1004
074332333500
  0
VERTEX
  5
4AA
  8
EASTERN_ZHOU
 10
720600.83385109901
 20
3414505.104885662
 30
0.4528985507246377
  0
VERTEX
  5
4AB
  8
EASTERN_ZHOU
 10
720634.18663072574
 20
3414510.282512438
 30
0.4528985507246377
  0
VERTEX
  5
4AC
  8
EASTERN_ZHOU
 10
720633.00125929702
 20
3414563.2827292858
 30
0.4528985507246377
  0
VERTEX
  5
4AD
  8
EASTERN_ZHOU
 10
720630.56556458422
 20
3414566.9062628001
 30
0.4528985507246377
  0
VERTEX
  5
4AE
  8
EASTERN_ZHOU
 10
720604.0164921917
 20
3414577.4628237681
 30
0.4528985507246377
  0
VERTEX
  5
4AF
  8
EASTERN_ZHOU
 10
720595.11808750033
 20
3414577.4628237681
 30
0.4528985507246377
  0
VERTEX
  5
4B0
  8
EASTERN_ZHOU
 10
720600.83385109901
 20
3414505.104885662
 30
0.4528985507246377
  0
SEQEND
  5
4B1
  8
EASTERN_ZHOU
  0
POLYLINE
  5
D9
  8
EASTERN_ZHOU
 66
     1
 10
0.0
 20
0.0
 30
4.3999999999999986
 70
     1
1001
ADE
1011
-10.25512006622739
1021
0.0
1031
0.0
1021
-7.1919096419587731
1031
0.0
1001
IRD
1002
{
1000
TPMLINK_Unit_topology-_-ade
1070
   515
1071
        5
1004
0100F50400007C0100007C010000000000003022C4B84FEE70403022C4B84FEE70408003000000000000
1002
}
1001
DCO15
1071
        5
1071
        5
1000
unitlink
1004
074332323700
1071
        4
1000
Link
1004
074332323700
  0
VERTEX
  5
4B2
  8
EASTERN_ZHOU
 10
720556.27687578276
 20
3414483.8226654958
 30
4.3999999999999986
  0
VERTEX
  5
4B3
  8
EASTERN_ZHOU
 10
720562.99939319503
 20
3414482.20415386
 30
4.3999999999999986
  0
VERTEX
  5
4B4
  8
EASTERN_ZHOU
 10
720597.37516460195
 20
3414490.3369735242
 30
4.3999999999999986
  0
VERTEX
  5
4B5
  8
EASTERN_ZHOU
 10
720596.18979317695
 20
3414516.5874607512
 30
4.3999999999999986
  0
VERTEX
  5
4B6
  8
EASTERN_ZHOU
 10
720595.27281407826
 20
3414536.8943009698
 30
4.3999999999999986
  0
VERTEX
  5
4B7
  8
EASTERN_ZHOU
 10
720592.71486871701
 20
3414576.8427969231
 30
4.3999999999999986
  0
VERTEX
  5
4B8
  8
EASTERN_ZHOU
 10
720579.61083115276
 20
3414583.751667487
 30
4.3999999999999986
  0
VERTEX
  5
4B9
  8
EASTERN_ZHOU
 10
720568.92625033483
 20
3414583.969079501
 30
4.3999999999999986
  0
VERTEX
  5
4BA
  8
EASTERN_ZHOU
 10
720553.41899398714
 20
3414581.9399007298
 30
4.3999999999999986
  0
VERTEX
  5
4BB
  8
EASTERN_ZHOU
 10
720547.4434229508
 20
3414575.208180692
 30
4.3999999999999986
  0
VERTEX
  5
4BC
  8
EASTERN_ZHOU
 10
720547.91432392993
 20
3414555.3351124488
 30
4.3999999999999986
  0
VERTEX
  5
4BD
  8
EASTERN_ZHOU
 10
720551.37301042688
 20
3414526.6689362139
 30
4.3999999999999986
  0
VERTEX
  5
4BE
  8
EASTERN_ZHOU
 10
720556.27687578276
 20
3414483.8226654958
 30
4.3999999999999986
  0
SEQEND
  5
4BF
  8
EASTERN_ZHOU
  0
POLYLINE
  5
DA
  8
EASTERN_ZHOU
 66
     1
 10
0.0
 20
0.0
 30
0.5796178343949046
 70
     1
1001
ADE
1011
-7.5506536159664384
1021
0.0
1031
0.0
1021
-2.411662860307842
1031
0.0
1001
IRD
1002
{
1000
TPMLINK_Unit_topology-_-ade
1070
   515
1071
        5
1004
0100F60400007D0100007D01000000000000981BAFA57FF96640981BAFA57FF966402202000000000000
1002
}
1001
DCO15
1071
        5
1071
        5
1000
unitlink
1004
074332323800
1071
        4
1000
Link
1004
074332323800
  0
VERTEX
  5
4C0
  8
EASTERN_ZHOU
 10
720564.18476462376
 20
3414481.3667150051
 30
0.5796178343949046
  0
VERTEX
  5
4C1
  8
EASTERN_ZHOU
 10
720567.04264642298
 20
3414426.5547313988
 30
0.5796178343949046
  0
VERTEX
  5
4C2
  8
EASTERN_ZHOU
 10
720603.30202174175
 20
3414433.2622945458
 30
0.5796178343949046
  0
VERTEX
  5
4C3
  8
EASTERN_ZHOU
 10
720605.26681547984
 20
3414440.2436357811
 30
0.5796178343949046
  0
VERTEX
  5
4C4
  8
EASTERN_ZHOU
 10
720601.98674659815
 20
3414472.0904692118
 30
0.5796178343949046
  0
VERTEX
  5
4C5
  8
EASTERN_ZHOU
 10
720598.17082487815
 20
3414489.499534667
 30
0.5796178343949046
  0
VERTEX
  5
4C6
  8
EASTERN_ZHOU
 10
720564.18476462376
 20
3414481.3667150051
 30
0.5796178343949046
  0
SEQEND
  5
4C7
  8
EASTERN_ZHOU
  0
POLYLINE
  5
DB
  8
EASTERN_ZHOU
 66
     1
 10
0.0
 20
0.0
 30
0.6600000000000003
 70
     1
1001
ADE
1011
-10.782008605077859
1021
0.0
1031
0.0
1021
1.1447435533627861
1031
0.0
1001
IRD
1002
{
1000
TPMLINK_Unit_topology-_-ade
1070
   515
1071
        5
1004
0100F70400008A0100008A010000000000008F0C6816F1A865408F0C6816F1A865401F02000000000000
1002
}
1001
DCO15
1071
        5
1071
        5
1000
unitlink
1004
074332333100
1071
        4
1000
Link
1004
074332333100
  0
VERTEX
  5
4C8
  8
EASTERN_ZHOU
 10
720566.26322411373
 20
3414424.6946508628
 30
0.6600000000000003
  0
VERTEX
  5
4C9
  8
EASTERN_ZHOU
 10
720566.08460650221
 20
3414397.445678845
 30
0.6600000000000003
  0
VERTEX
  5
4CA
  8
EASTERN_ZHOU
 10
720570.46885698661
 20
3414371.7024863078
 30
0.6600000000000003
  0
VERTEX
  5
4CB
  8
EASTERN_ZHOU
 10
720603.62678103894
 20
3414381.3974515311
 30
0.6600000000000003
  0
VERTEX
  5
4CC
  8
EASTERN_ZHOU
 10
720600.2005704717
 20
3414394.7723163432
 30
0.6600000000000003
  0
VERTEX
  5
4CD
  8
EASTERN_ZHOU
 10
720600.95002938143
 20
3414431.0613827058
 30
0.6600000000000003
  0
VERTEX
  5
4CE
  8
EASTERN_ZHOU
 10
720566.26322411373
 20
3414424.6946508628
 30
0.6600000000000003
  0
SEQEND
  5
4CF
  8
EASTERN_ZHOU
  0
POLYLINE
  5
DC
  8
EASTERN_ZHOU
 66
     1
 10
0.0
 20
0.0
 30
0.5348837209302327
 70
     1
1001
ADE
1011
-10.538439132273201
1021
0.0
1031
0.0
1021
1.888263576198369
1031
0.0
1001
IRD
1002
{
1000
TPMLINK_Unit_topology-_-ade
1070
   515
1071
        5
1004
0100F80400009201000092010000000000005BFE2719B1EB64405BFE2719B1EB64402102000000000000
1002
}
1001
DCO15
1071
        5
1071
        5
1000
unitlink
1004
074332333000
1071
        4
1000
Link
1004
074332333000
  0
VERTEX
  5
4D0
  8
EASTERN_ZHOU
 10
720605.44543309137
 20
3414382.0899490449
 30
0.5348837209302327
  0
VERTEX
  5
4D1
  8
EASTERN_ZHOU
 10
720623.82680920523
 20
3414382.4361978061
 30
0.5348837209302327
  0
VERTEX
  5
4D2
  8
EASTERN_ZHOU
 10
720639.39901741594
 20
3414387.2192620412
 30
0.5348837209302327
  0
VERTEX
  5
4D3
  8
EASTERN_ZHOU
 10
720639.38277944946
 20
3414426.425894652
 30
0.5348837209302327
  0
VERTEX
  5
4D4
  8
EASTERN_ZHOU
 10
720636.94708473585
 20
3414435.243159533
 30
0.5348837209302327
  0
VERTEX
  5
4D5
  8
EASTERN_ZHOU
 10
720602.63626518846
 20
3414431.2572726682
 30
0.5348837209302327
  0
VERTEX
  5
4D6
  8
EASTERN_ZHOU
 10
720602.53883739933
 20
3414408.6142143612
 30
0.5348837209302327
  0
VERTEX
  5
4D7
  8
EASTERN_ZHOU
 10
720601.49960765254
 20
3414395.0460944292
 30
0.5348837209302327
  0
VERTEX
  5
4D8
  8
EASTERN_ZHOU
 10
720605.44543309137
 20
3414382.0899490449
 30
0.5348837209302327
  0
SEQEND
  5
4D9
  8
EASTERN_ZHOU
  0
POLYLINE
  5
DD
  8
EASTERN_ZHOU
 66
     1
 10
0.0
 20
0.0
 30
0.7413793103448276
 70
     1
1001
ADE
1011
-8.8307209505001083
1021
0.0
1031
0.0
1021
-5.1483884528279287
1031
0.0
1001
IRD
1002
{
1000
TPMLINK_Unit_topology-_-ade
1070
   515
1071
        5
1004
0100F9040000840100008401000000000000BCCD7700391D6A40BCCD7700391D6A402302000000000000
1002
}
1001
DCO15
1071
        5
1071
        5
1000
unitlink
1004
074332323900
1071
        4
1000
Link
1004
074332323900
  0
VERTEX
  5
4DA
  8
EASTERN_ZHOU
 10
720636.3949939349
 20
3414436.6039976738
 30
0.7413793103448276
  0
VERTEX
  5
4DB
  8
EASTERN_ZHOU
 10
720639.99982211005
 20
3414449.8419734412
 30
0.7413793103448276
  0
VERTEX
  5
4DC
  8
EASTERN_ZHOU
 10
720638.97683032986
 20
3414494.4275402441
 30
0.7413793103448276
  0
VERTEX
  5
4DD
  8
EASTERN_ZHOU
 10
720634.83614931616
 20
3414508.5754255368
 30
0.7413793103448276
  0
VERTEX
  5
4DE
  8
EASTERN_ZHOU
 10
720601.09365853295
 20
3414503.2125959401
 30
0.7413793103448276
  0
VERTEX
  5
4DF
  8
EASTERN_ZHOU
 10
720599.8433352483
 20
3414489.0486060511
 30
0.7413793103448276
  0
VERTEX
  5
4E0
  8
EASTERN_ZHOU
 10
720603.69173289812
 20
3414471.8489003112
 30
0.7413793103448276
  0
VERTEX
  5
4E1
  8
EASTERN_ZHOU
 10
720605.16938769072
 20
3414456.64616415
 30
0.7413793103448276
  0
VERTEX
  5
4E2
  8
EASTERN_ZHOU
 10
720606.61456655315
 20
3414439.9537530988
 30
0.7413793103448276
  0
VERTEX
  5
4E3
  8
EASTERN_ZHOU
 10
720604.9907700792
 20
3414433.8742690948
 30
0.7413793103448276
  0
VERTEX
  5
4E4
  8
EASTERN_ZHOU
 10
720636.3949939349
 20
3414436.6039976738
 30
0.7413793103448276
  0
SEQEND
  5
4E5
  8
EASTERN_ZHOU
  0
POLYLINE
  5
DE
  8
EASTERN_ZHOU
 66
     1
 10
0.0
 20
0.0
 30
0.5600000000000001
 70
     1
1001
ADE
1011
-9.1500931436894462
1021
0.0
1031
0.0
1021
-3.0069374484010041
1031
0.0
1001
IRD
1002
{
1000
TPMLINK_Unit_topology-_-ade
1070
   515
1071
        5
1004
0100FA04000073010000730100000000000084843099A0D86A4084843099A0D86A400000000026020000
1002
}
1001
DCO15
1071
        5
1071
        5
1000
unitlink
1004
074332333700
1071
        4
1000
Link
1004
074332333700
  0
VERTEX
  5
4E6
  8
EASTERN_ZHOU
 10
720638.50592935074
 20
3414505.5638665748
 30
0.5600000000000001
  0
VERTEX
  5
4E7
  8
EASTERN_ZHOU
 10
720670.4784819741
 20
3414504.47680652
 30
0.5600000000000001
  0
VERTEX
  5
4E8
  8
EASTERN_ZHOU
 10
720670.80324126745
 20
3414490.9811572582
 30
0.5600000000000001
  0
VERTEX
  5
4E9
  8
EASTERN_ZHOU
 10
720672.03732659295
 20
3414481.415028784
 30
0.5600000000000001
  0
VERTEX
  5
4EA
  8
EASTERN_ZHOU
 10
720674.63540095452
 20
3414451.7342631649
 30
0.5600000000000001
  0
VERTEX
  5
4EB
  8
EASTERN_ZHOU
 10
720671.72880526271
 20
3414431.1606451091
 30
0.5600000000000001
  0
VERTEX
  5
4EC
  8
EASTERN_ZHOU
 10
720659.22557239234
 20
3414430.8385532401
 30
0.5600000000000001
  0
VERTEX
  5
4ED
  8
EASTERN_ZHOU
 10
720643.39355674793
 20
3414429.7353885951
 30
0.5600000000000001
  0
VERTEX
  5
4EE
  8
EASTERN_ZHOU
 10
720639.67847893585
 20
3414429.4765243661
 30
0.5600000000000001
  0
VERTEX
  5
4EF
  8
EASTERN_ZHOU
 10
720638.27859784651
 20
3414437.1354492572
 30
0.5600000000000001
  0
VERTEX
  5
4F0
  8
EASTERN_ZHOU
 10
720641.52619079885
 20
3414449.7292412878
 30
0.5600000000000001
  0
VERTEX
  5
4F1
  8
EASTERN_ZHOU
 10
720641.26638336095
 20
3414494.2745466079
 30
0.5600000000000001
  0
VERTEX
  5
4F2
  8
EASTERN_ZHOU
 10
720638.50592935074
 20
3414505.5638665748
 30
0.5600000000000001
  0
SEQEND
  5
4F3
  8
EASTERN_ZHOU
  0
POLYLINE
  5
DF
  8
EASTERN_ZHOU
 66
     1
 10
0.0
 20
0.0
 30
0.8295454545454546
 70
     1
1001
ADE
1011
-2.8010489234002289
1021
0.0
1031
0.0
1021
11.98181748297065
1031
0.0
1001
IRD
1002
{
1000
TPMLINK_Unit_topology-_-ade
1070
   515
1071
        5
1004
0100FB0400008701000087010000000000009E7035F73AA46F409E7035F73AA46F400000000027020000
1002
}
1001
DCO15
1071
        5
1071
        5
1000
unitlink
1004
074332333800
1071
        4
1000
Link
1004
074332333800
  0
VERTEX
  5
4F4
  8
EASTERN_ZHOU
 10
720673.0116044766
 20
3414430.041375868
 30
0.8295454545454546
  0
VERTEX
  5
4F5
  8
EASTERN_ZHOU
 10
720674.53797316563
 20
3414439.9698576932
 30
0.8295454545454546
  0
VERTEX
  5
4F6
  8
EASTERN_ZHOU
 10
720676.1882280201
 20
3414450.7041746709
 30
0.8295454545454546
  0
VERTEX
  5
4F7
  8
EASTERN_ZHOU
 10
720671.84247101482
 20
3414500.6278086998
 30
0.8295454545454546
  0
VERTEX
  5
4F8
  8
EASTERN_ZHOU
 10
720672.55694146454
 20
3414516.8612388368
 30
0.8295454545454546
  0
VERTEX
  5
4F9
  8
EASTERN_ZHOU
 10
720672.11851641547
 20
3414529.3503510128
 30
0.8295454545454546
  0
VERTEX
  5
4FA
  8
EASTERN_ZHOU
 10
720673.10903226573
 20
3414534.9305926231
 30
0.8295454545454546
  0
VERTEX
  5
4FB
  8
EASTERN_ZHOU
 10
720684.70293910825
 20
3414522.1193885808
 30
0.8295454545454546
  0
VERTEX
  5
4FC
  8
EASTERN_ZHOU
 10
720693.55262990657
 20
3414475.496590713
 30
0.8295454545454546
  0
VERTEX
  5
4FD
  8
EASTERN_ZHOU
 10
720692.74073166784
 20
3414456.8635761612
 30
0.8295454545454546
  0
VERTEX
  5
4FE
  8
EASTERN_ZHOU
 10
720689.75294614921
 20
3414436.8616711688
 30
0.8295454545454546
  0
VERTEX
  5
4FF
  8
EASTERN_ZHOU
 10
720679.55550427735
 20
3414415.8371244972
 30
0.8295454545454546
  0
VERTEX
  5
500
  8
EASTERN_ZHOU
 10
720672.44327571231
 20
3414416.5618311991
 30
0.8295454545454546
  0
VERTEX
  5
501
  8
EASTERN_ZHOU
 10
720672.15099234495
 20
3414426.0796458931
 30
0.8295454545454546
  0
VERTEX
  5
502
  8
EASTERN_ZHOU
 10
720673.0116044766
 20
3414430.041375868
 30
0.8295454545454546
  0
SEQEND
  5
503
  8
EASTERN_ZHOU
  0
POLYLINE
  5
E0
  8
EASTERN_ZHOU
 66
     1
 10
0.0
 20
0.0
 30
8.8000000000000007
 70
     1
1001
ADE
1011
-15.59893630014267
1021
0.0
1031
0.0
1021
-1.4827083507552741
1031
0.0
1001
IRD
1002
{
1000
TPMLINK_Unit_topology-_-ade
1070
   515
1071
        5
1004
0100FC04000088010000880100000000000010564852E2E45E4010564852E2E45E400000000025020000
1002
}
1001
DCO15
1071
        5
1071
        5
1000
unitlink
1004
074332333900
1071
        4
1000
Link
1004
074332333900
  0
VERTEX
  5
504
  8
EASTERN_ZHOU
 10
720647.25819236052
 20
3414428.3342889678
 30
8.8000000000000007
  0
VERTEX
  5
505
  8
EASTERN_ZHOU
 10
720666.88989176229
 20
3414429.3166691642
 30
8.8000000000000007
  0
VERTEX
  5
506
  8
EASTERN_ZHOU
 10
720670.94938295323
 20
3414425.9588614432
 30
8.8000000000000007
  0
VERTEX
  5
507
  8
EASTERN_ZHOU
 10
720670.81947923452
 20
3414416.0142750242
 30
8.8000000000000007
  0
VERTEX
  5
508
  8
EASTERN_ZHOU
 10
720680.02640525636
 20
3414413.663004389
 30
8.8000000000000007
  0
VERTEX
  5
509
  8
EASTERN_ZHOU
 10
720683.89104086906
 20
3414409.902581831
 30
8.8000000000000007
  0
VERTEX
  5
50A
  8
EASTERN_ZHOU
 10
720684.10213441076
 20
3414404.427020079
 30
8.8000000000000007
  0
VERTEX
  5
50B
  8
EASTERN_ZHOU
 10
720674.08331015345
 20
3414404.1693465859
 30
8.8000000000000007
  0
VERTEX
  5
50C
  8
EASTERN_ZHOU
 10
720673.09279430262
 20
3414405.3208250129
 30
8.8000000000000007
  0
VERTEX
  5
50D
  8
EASTERN_ZHOU
 10
720642.19194735587
 20
3414406.8185521979
 30
8.8000000000000007
  0
VERTEX
  5
50E
  8
EASTERN_ZHOU
 10
720642.19194735587
 20
3414427.5451638931
 30
8.8000000000000007
  0
VERTEX
  5
50F
  8
EASTERN_ZHOU
 10
720647.25819236052
 20
3414428.3342889678
 30
8.8000000000000007
  0
SEQEND
  5
510
  8
EASTERN_ZHOU
  0
POLYLINE
  5
E1
  8
EASTERN_ZHOU
 66
     1
 10
0.0
 20
0.0
 30
0.7835051546391753
 70
     1
1001
ADE
1011
-11.68321564781945
1021
0.0
1031
0.0
1021
-1.4131780704483381
1031
0.0
1001
IRD
1002
{
1000
TPMLINK_Unit_topology-_-ade
1070
   515
1071
        5
1004
0100FD0400009D0100009D01000000000000DAA381C21ED46640DAA381C21ED466402402000000000000
1002
}
1001
DCO15
1071
        5
1071
        5
1000
unitlink
1004
074332333200
1071
        4
1000
Link
1004
074332333200
  0
VERTEX
  5
511
  8
EASTERN_ZHOU
 10
720631.60479432705
 20
3414345.9834506642
 30
0.7835051546391753
  0
VERTEX
  5
512
  8
EASTERN_ZHOU
 10
720646.30015243974
 20
3414347.521439333
 30
0.7835051546391753
  0
VERTEX
  5
513
  8
EASTERN_ZHOU
 10
720655.2797469534
 20
3414351.7730519888
 30
0.7835051546391753
  0
VERTEX
  5
514
  8
EASTERN_ZHOU
 10
720659.68023540452
 20
3414355.5093176551
 30
0.7835051546391753
  0
VERTEX
  5
515
  8
EASTERN_ZHOU
 10
720667.06850937381
 20
3414366.5651210179
 30
0.7835051546391753
  0
VERTEX
  5
516
  8
EASTERN_ZHOU
 10
720671.71256729623
 20
3414376.5258120289
 30
0.7835051546391753
  0
VERTEX
  5
517
  8
EASTERN_ZHOU
 10
720675.10630193364
 20
3414395.2876633289
 30
0.7835051546391753
  0
VERTEX
  5
518
  8
EASTERN_ZHOU
 10
720672.34584792354
 20
3414405.111465299
 30
0.7835051546391753
  0
VERTEX
  5
519
  8
EASTERN_ZHOU
 10
720641.98085381091
 20
3414404.427020079
 30
0.7835051546391753
  0
VERTEX
  5
51A
  8
EASTERN_ZHOU
 10
720642.33808903769
 20
3414385.5926981089
 30
0.7835051546391753
  0
VERTEX
  5
51B
  8
EASTERN_ZHOU
 10
720628.64948473871
 20
3414380.6969017182
 30
0.7835051546391753
  0
VERTEX
  5
51C
  8
EASTERN_ZHOU
 10
720631.60479432705
 20
3414345.9834506642
 30
0.7835051546391753
  0
SEQEND
  5
51D
  8
EASTERN_ZHOU
  0
POLYLINE
  5
E2
  8
EASTERN_ZHOU
 66
     1
 10
0.0
 20
0.0
 30
0.0982142857142857
 70
     1
1001
ADE
1011
-11.675096664577721
1021
0.0
1031
0.0
1021
-0.173124379478395
1031
0.0
1001
IRD
1002
{
1000
TPMLINK_Unit_topology-_-ade
1070
   515
1071
        5
1004
0100FE040000980100009801000000000000C8FC760A33396940C8FC760A333969402002000000000000
1002
}
1001
DCO15
1071
        5
1071
        5
1000
unitlink
1004
074332333300
1071
        4
1000
Link
1004
074332333300
  0
VERTEX
  5
51E
  8
EASTERN_ZHOU
 10
720570.89104407281
 20
3414369.955137928
 30
0.0982142857142857
  0
VERTEX
  5
51F
  8
EASTERN_ZHOU
 10
720577.38622997701
 20
3414323.3967584339
 30
0.0982142857142857
  0
VERTEX
  5
520
  8
EASTERN_ZHOU
 10
720612.26537829265
 20
3414328.6468558782
 30
0.0982142857142857
  0
VERTEX
  5
521
  8
EASTERN_ZHOU
 10
720624.60623151425
 20
3414333.373554037
 30
0.0982142857142857
  0
VERTEX
  5
522
  8
EASTERN_ZHOU
 10
720629.02295792813
 20
3414339.7992868018
 30
0.0982142857142857
  0
VERTEX
  5
523
  8
EASTERN_ZHOU
 10
720627.33420959488
 20
3414380.7854769812
 30
0.0982142857142857
  0
VERTEX
  5
524
  8
EASTERN_ZHOU
 10
720570.89104407281
 20
3414369.955137928
 30
0.0982142857142857
  0
SEQEND
  5
525
  8
EASTERN_ZHOU
  0
POLYLINE
  5
E3
  8
EASTERN_ZHOU
 66
     1
 10
0.0
 20
0.0
 30
0.4635761589403974
 70
     1
1001
ADE
1011
-20.50043051503599
1021
0.0
1031
0.0
1021
-7.5812373380176723
1031
0.0
1001
IRD
1002
{
1000
TPMLINK_Unit_topology-_-ade
1070
   515
1071
        5
1004
0100FF0400008B0100008B0100000000000054A5FDD88438724054A5FDD884387240000000001D020000
1002
}
1001
DCO15
1071
        5
1071
        5
1000
unitlink
1004
074332323600
1071
        4
1000
Link
1004
074332323600
  0
VERTEX
  5
526
  8
EASTERN_ZHOU
 10
720555.28635993216
 20
3414409.5563330748
 30
0.4635761589403974
  0
VERTEX
  5
527
  8
EASTERN_ZHOU
 10
720561.44054858026
 20
3414413.3328602239
 30
0.4635761589403974
  0
VERTEX
  5
528
  8
EASTERN_ZHOU
 10
720563.89248126012
 20
3414383.2494797711
 30
0.4635761589403974
  0
VERTEX
  5
529
  8
EASTERN_ZHOU
 10
720568.99120219424
 20
3414352.5138632841
 30
0.4635761589403974
  0
VERTEX
  5
52A
  8
EASTERN_ZHOU
 10
720572.19008125376
 20
3414334.5008755769
 30
0.4635761589403974
  0
VERTEX
  5
52B
  8
EASTERN_ZHOU
 10
720571.18332743645
 20
3414323.8718439369
 30
0.4635761589403974
  0
VERTEX
  5
52C
  8
EASTERN_ZHOU
 10
720561.09955132031
 20
3414315.9564362862
 30
0.4635761589403974
  0
VERTEX
  5
52D
  8
EASTERN_ZHOU
 10
720549.29455093667
 20
3414309.909161469
 30
0.4635761589403974
  0
VERTEX
  5
52E
  8
EASTERN_ZHOU
 10
720522.51814703655
 20
3414308.1296039
 30
0.4635761589403974
  0
VERTEX
  5
52F
  8
EASTERN_ZHOU
 10
720508.81330477796
 20
3414312.091333874
 30
0.4635761589403974
  0
VERTEX
  5
530
  8
EASTERN_ZHOU
 10
720500.79175018158
 20
3414355.4690561709
 30
0.4635761589403974
  0
VERTEX
  5
531
  8
EASTERN_ZHOU
 10
720500.9216539003
 20
3414368.3285739948
 30
0.4635761589403974
  0
VERTEX
  5
532
  8
EASTERN_ZHOU
 10
720503.71458384022
 20
3414376.3647660948
 30
0.4635761589403974
  0
VERTEX
  5
533
  8
EASTERN_ZHOU
 10
720514.91877952975
 20
3414383.1447999151
 30
0.4635761589403974
  0
SEQEND
  5
534
  8
EASTERN_ZHOU
  0
POLYLINE
  5
E4
  8
EASTERN_ZHOU
 66
     1
 10
0.0
 20
0.0
 30
4.5999999999999979
 70
     1
1001
ADE
1011
-13.28265517961699
1021
0.0
1031
0.0
1021
7.4483744413591921
1031
0.0
1001
IRD
1002
{
1000
TPMLINK_Unit_topology-_-ade
1070
   515
1071
        5
1004
0100000500009A0100009A010000000000004D59CEA40AFA70404D59CEA40AFA7040000000002E020000
1002
}
1001
DCO15
1071
        5
1071
        5
1000
unitlink
1004
074332323000
1071
        4
1000
Link
1004
074332323000
  0
VERTEX
  5
535
  8
EASTERN_ZHOU
 10
720483.61198346305
 20
3414365.8967803922
 30
4.5999999999999979
  0
VERTEX
  5
536
  8
EASTERN_ZHOU
 10
720469.63109580067
 20
3414390.7300634021
 30
4.5999999999999979
  0
VERTEX
  5
537
  8
EASTERN_ZHOU
 10
720458.52432790014
 20
3414404.257921848
 30
4.5999999999999979
  0
VERTEX
  5
538
  8
EASTERN_ZHOU
 10
720446.97913495451
 20
3414412.898036202
 30
4.5999999999999979
  0
VERTEX
  5
539
  8
EASTERN_ZHOU
 10
720438.95758035779
 20
3414477.952541206
 30
4.5999999999999979
  0
VERTEX
  5
53A
  8
EASTERN_ZHOU
 10
720448.06707859051
 20
3414477.348618953
 30
4.5999999999999979
  0
VERTEX
  5
53B
  8
EASTERN_ZHOU
 10
720472.47273963317
 20
3414469.6828325
 30
4.5999999999999979
  0
VERTEX
  5
53C
  8
EASTERN_ZHOU
 10
720485.59301516425
 20
3414451.444380485
 30
4.5999999999999979
  0
VERTEX
  5
53D
  8
EASTERN_ZHOU
 10
720489.81488600385
 20
3414422.4319554898
 30
4.5999999999999979
  0
VERTEX
  5
53E
  8
EASTERN_ZHOU
 10
720489.76617210743
 20
3414371.7910615732
 30
4.5999999999999979
  0
VERTEX
  5
53F
  8
EASTERN_ZHOU
 10
720483.61198346305
 20
3414365.8967803922
 30
4.5999999999999979
  0
SEQEND
  5
540
  8
EASTERN_ZHOU
  0
POLYLINE
  5
E5
  8
EASTERN_ZHOU
 66
     1
 10
0.0
 20
0.0
 30
0.308641975308642
 70
     1
1001
ADE
1011
-12.357091184705491
1021
0.0
1031
0.0
1021
-2.8746699197217822
1031
0.0
1001
IRD
1002
{
1000
TPMLINK_Unit_topology-_-ade
1070
   515
1071
        5
1004
010001050000690100006901000000000000F7B1837AC67C6A40F7B1837AC67C6A40000000002D020000
1002
}
1001
DCO15
1071
        5
1071
        5
1000
unitlink
1004
074332323200
1071
        4
1000
Link
1004
074332323200
  0
VERTEX
  5
541
  8
EASTERN_ZHOU
 10
720452.37013925612
 20
3414541.4126914628
 30
0.308641975308642
  0
VERTEX
  5
542
  8
EASTERN_ZHOU
 10
720502.24635357095
 20
3414540.6778866109
 30
0.308641975308642
  0
VERTEX
  5
543
  8
EASTERN_ZHOU
 10
720504.21796074871
 20
3414487.5186696812
 30
0.308641975308642
  0
VERTEX
  5
544
  8
EASTERN_ZHOU
 10
720450.47029737767
 20
3414486.3832958448
 30
0.308641975308642
  0
VERTEX
  5
545
  8
EASTERN_ZHOU
 10
720452.37013925612
 20
3414541.4126914628
 30
0.308641975308642
  0
SEQEND
  5
546
  8
EASTERN_ZHOU
  0
POLYLINE
  5
E6
  8
EASTERN_ZHOU
 66
     1
 10
0.0
 20
0.0
 30
0.1166666666666667
 70
     1
1001
ADE
1011
-13.62365243781823
1021
0.0
1031
0.0
1021
-3.9053638977929932
1031
0.0
1001
IRD
1002
{
1000
TPMLINK_Unit_topology-_-ade
1070
   515
1071
        5
1004
0100020500006801000068010000000000004FFC8F590AE068404FFC8F590AE068402C02000000000000
1002
}
1001
DCO15
1071
        5
1071
        5
1000
unitlink
1004
074332323300
1071
        4
1000
Link
1004
074332323300
  0
VERTEX
  5
547
  8
EASTERN_ZHOU
 10
720453.16579952859
 20
3414543.4418702298
 30
0.1166666666666667
  0
VERTEX
  5
548
  8
EASTERN_ZHOU
 10
720502.48049851891
 20
3414543.1036737692
 30
0.1166666666666667
  0
VERTEX
  5
549
  8
EASTERN_ZHOU
 10
720507.14079440758
 20
3414591.3852447541
 30
0.1166666666666667
  0
VERTEX
  5
54A
  8
EASTERN_ZHOU
 10
720470.31309032056
 20
3414589.2352815368
 30
0.1166666666666667
  0
VERTEX
  5
54B
  8
EASTERN_ZHOU
 10
720454.26998113096
 20
3414591.5140815009
 30
0.1166666666666667
  0
VERTEX
  5
54C
  8
EASTERN_ZHOU
 10
720453.16579952859
 20
3414543.4418702298
 30
0.1166666666666667
  0
SEQEND
  5
54D
  8
EASTERN_ZHOU
  0
POLYLINE
  5
E7
  8
EASTERN_ZHOU
 66
     1
 10
0.0
 20
0.0
 30
0.3194444444444444
 70
     1
1001
ADE
1011
-23.561286875978109
1021
0.0
1031
0.0
1021
29.859610978048298
1031
0.0
1001
IRD
1002
{
1000
TPMLINK_Unit_topology-_-ade
1070
   515
1071
        5
1004
0100030500006E0100006E010000000000006628D367FCA67A406628D367FCA67A40EE01000000000000
1002
}
1001
DCO15
1071
        5
1071
        5
1000
unitlink
1004
074332343600
1071
        4
1000
Link
1004
074332343600
  0
VERTEX
  5
54E
  8
EASTERN_ZHOU
 10
720333.50823717564
 20
3414511.6191936899
 30
0.3194444444444444
  0
VERTEX
  5
54F
  8
EASTERN_ZHOU
 10
720336.64216437575
 20
3414529.7851750348
 30
0.3194444444444444
  0
VERTEX
  5
550
  8
EASTERN_ZHOU
 10
720341.26318032423
 20
3414556.571148084
 30
0.3194444444444444
  0
VERTEX
  5
551
  8
EASTERN_ZHOU
 10
720353.75697923813
 20
3414584.7984660561
 30
0.3194444444444444
  0
VERTEX
  5
552
  8
EASTERN_ZHOU
 10
720369.31294948235
 20
3414602.602094051
 30
0.3194444444444444
  0
VERTEX
  5
553
  8
EASTERN_ZHOU
 10
720389.31812207412
 20
3414619.2381390249
 30
0.3194444444444444
  0
VERTEX
  5
554
  8
EASTERN_ZHOU
 10
720401.22055024654
 20
3414625.8732314999
 30
0.3194444444444444
  0
VERTEX
  5
555
  8
EASTERN_ZHOU
 10
720314.83181819716
 20
3414650.5340266158
 30
0.3194444444444444
  0
VERTEX
  5
556
  8
EASTERN_ZHOU
 10
720287.06765795138
 20
3414592.729978303
 30
0.3194444444444444
  0
VERTEX
  5
557
  8
EASTERN_ZHOU
 10
720324.78845009964
 20
3414578.4210470752
 30
0.3194444444444444
  0
VERTEX
  5
558
  8
EASTERN_ZHOU
 10
720306.24469433737
 20
3414516.4747285978
 30
0.3194444444444444
  0
VERTEX
  5
559
  8
EASTERN_ZHOU
 10
720333.50823717564
 20
3414511.6191936899
 30
0.3194444444444444
  0
SEQEND
  5
55A
  8
EASTERN_ZHOU
  0
POLYLINE
  5
E8
  8
EASTERN_ZHOU
 66
     1
 10
0.0
 20
0.0
 30
0.06
 70
     1
1001
ADE
1011
-15.44230449211318
1021
0.0
1031
0.0
1021
-2.8827222157269712
1031
0.0
1001
IRD
1002
{
1000
TPMLINK_Unit_topology-_-ade
1070
   515
1071
        5
1004
0100040500003C0100003C010000000000002683F8B7641874402683F8B7641874400502000000000000
1002
}
1001
DCO15
1071
        5
1071
        5
1000
unitlink
1004
074331373500
1071
        4
1000
Link
1004
074331373500
  0
VERTEX
  5
55B
  8
EASTERN_ZHOU
 10
720038.26956182346
 20
3414808.6684187842
 30
0.06
  0
VERTEX
  5
55C
  8
EASTERN_ZHOU
 10
720109.86274847377
 20
3414810.8586434848
 30
0.06
  0
VERTEX
  5
55D
  8
EASTERN_ZHOU
 10
720109.86274847377
 20
3414900.6095424518
 30
0.06
  0
VERTEX
  5
55E
  8
EASTERN_ZHOU
 10
720036.07743658125
 20
3414894.7716273488
 30
0.06
  0
VERTEX
  5
55F
  8
EASTERN_ZHOU
 10
720038.26956182346
 20
3414808.6684187842
 30
0.06
  0
SEQEND
  5
560
  8
EASTERN_ZHOU
  0
POLYLINE
  5
E9
  8
EASTERN_ZHOU
 66
     1
 10
0.0
 20
0.0
 30
0.1875
 70
     1
1001
ADE
1011
-27.59642111719586
1021
0.0
1031
0.0
1021
11.587254945188761
1031
0.0
1001
IRD
1002
{
1000
TPMLINK_Unit_topology-_-ade
1070
   515
1071
        5
1004
010006050000F7000000F7000000000000006AFA356BAA2D79406AFA356BAA2D79400000000017020000
1002
}
1001
DCO15
1071
        5
1071
        5
1000
unitlink
1004
074331353000
1071
        4
1000
Link
1004
074331353000
  0
VERTEX
  5
561
  8
EASTERN_ZHOU
 10
720298.9863240869
 20
3415334.9021124239
 30
0.1875
  0
VERTEX
  5
562
  8
EASTERN_ZHOU
 10
720306.11479061865
 20
3415420.5141308899
 30
0.1875
  0
VERTEX
  5
563
  8
EASTERN_ZHOU
 10
720393.86475220707
 20
3415395.02861185
 30
0.1875
  0
VERTEX
  5
564
  8
EASTERN_ZHOU
 10
720375.49961406016
 20
3415270.6930985749
 30
0.1875
  0
VERTEX
  5
565
  8
EASTERN_ZHOU
 10
720298.9863240869
 20
3415334.9021124239
 30
0.1875
  0
SEQEND
  5
566
  8
EASTERN_ZHOU
  0
POLYLINE
  5
EA
  8
EASTERN_ZHOU
 66
     1
 10
0.0
 20
0.0
 30
4.6999999999999993
 70
     1
1001
ADE
1011
-19.160798422759399
1021
0.0
1031
0.0
1021
-0.7408112948760393
1031
0.0
1001
IRD
1002
{
1000
TPMLINK_Unit_topology-_-ade
1070
   515
1071
        5
1004
010007050000030100000301000000000000BB17560DFC817340BB17560DFC8173400000000011020000
1002
}
1001
DCO15
1071
        5
1071
        5
1000
unitlink
1004
074332363000
1071
        4
1000
Link
1004
074332363000
  0
VERTEX
  5
567
  8
EASTERN_ZHOU
 10
720800.04120283201
 20
3415195.170607869
 30
4.6999999999999993
  0
VERTEX
  5
568
  8
EASTERN_ZHOU
 10
720836.72276523698
 20
3415202.2968904441
 30
4.6999999999999993
  0
VERTEX
  5
569
  8
EASTERN_ZHOU
 10
720838.76874879736
 20
3415163.0983101288
 30
4.6999999999999993
  0
VERTEX
  5
56A
  8
EASTERN_ZHOU
 10
720834.6930196397
 20
3415131.0340646901
 30
4.6999999999999993
  0
VERTEX
  5
56B
  8
EASTERN_ZHOU
 10
720831.28304703895
 20
3415096.095149328
 30
4.6999999999999993
  0
VERTEX
  5
56C
  8
EASTERN_ZHOU
 10
720826.55779929459
 20
3415089.1299126861
 30
4.6999999999999993
  0
VERTEX
  5
56D
  8
EASTERN_ZHOU
 10
720778.81818288565
 20
3415091.9401642331
 30
4.6999999999999993
  0
VERTEX
  5
56E
  8
EASTERN_ZHOU
 10
720780.52316918597
 20
3415177.2945092041
 30
4.6999999999999993
  0
VERTEX
  5
56F
  8
EASTERN_ZHOU
 10
720800.04120283201
 20
3415195.170607869
 30
4.6999999999999993
  0
SEQEND
  5
570
  8
EASTERN_ZHOU
  0
POLYLINE
  5
EB
  8
EASTERN_ZHOU
 66
     1
 10
0.0
 20
0.0
 30
0.1574074074074074
 70
     1
1001
ADE
1011
-27.352851645788181
1021
0.0
1031
0.0
1021
-6.7800338179804367
1031
0.0
1001
IRD
1002
{
1000
TPMLINK_Unit_topology-_-ade
1070
   515
1071
        5
1004
0100080500000A0100000A01000000000000800B654BF8107940800B654BF81079401002000000000000
1002
}
1001
DCO15
1071
        5
1071
        5
1000
unitlink
1004
074331363100
1071
        4
1000
Link
1004
074331363100
  0
VERTEX
  5
571
  8
EASTERN_ZHOU
 10
720645.30963658914
 20
3415137.2906992212
 30
0.1574074074074074
  0
VERTEX
  5
572
  8
EASTERN_ZHOU
 10
720646.17024872068
 20
3415095.660325306
 30
0.1574074074074074
  0
VERTEX
  5
573
  8
EASTERN_ZHOU
 10
720669.69905966532
 20
3415089.580841301
 30
0.1574074074074074
  0
VERTEX
  5
574
  8
EASTERN_ZHOU
 10
720711.36567725264
 20
3415090.8692087722
 30
0.1574074074074074
  0
VERTEX
  5
575
  8
EASTERN_ZHOU
 10
720729.80596869683
 20
3415091.4393983632
 30
0.1574074074074074
  0
VERTEX
  5
576
  8
EASTERN_ZHOU
 10
720773.84853740095
 20
3415094.6415236071
 30
0.1574074074074074
  0
VERTEX
  5
577
  8
EASTERN_ZHOU
 10
720775.32702045876
 20
3415177.0690448969
 30
0.1574074074074074
  0
VERTEX
  5
578
  8
EASTERN_ZHOU
 10
720742.33147605893
 20
3415180.6845261138
 30
0.1574074074074074
  0
VERTEX
  5
579
  8
EASTERN_ZHOU
 10
720711.13834574434
 20
3415176.344338194
 30
0.1574074074074074
  0
VERTEX
  5
57A
  8
EASTERN_ZHOU
 10
720685.27126787603
 20
3415174.1702180859
 30
0.1574074074074074
  0
VERTEX
  5
57B
  8
EASTERN_ZHOU
 10
720681.34168039996
 20
3415160.2558493968
 30
0.1574074074074074
  0
VERTEX
  5
57C
  8
EASTERN_ZHOU
 10
720669.37430037186
 20
3415148.652489861
 30
0.1574074074074074
  0
VERTEX
  5
57D
  8
EASTERN_ZHOU
 10
720645.30963658914
 20
3415137.2906992212
 30
0.1574074074074074
  0
SEQEND
  5
57E
  8
EASTERN_ZHOU
  0
POLYLINE
  5
EC
  8
EASTERN_ZHOU
 66
     1
 10
0.0
 20
0.0
 30
4.5999999999999979
 70
     1
1001
ADE
1011
-30.31628021597863
1021
0.0
1031
0.0
1021
4.557599929161368
1031
0.0
1001
IRD
1002
{
1000
TPMLINK_Unit_topology-_-ade
1070
   515
1071
        5
1004
010009050000190100001901000000000000640DBBEE55B27940640DBBEE55B27940000000000F020000
1002
}
1001
DCO15
1071
        5
1071
        5
1000
unitlink
1004
074331363200
1071
        4
1000
Link
1004
074331363200
  0
VERTEX
  5
57F
  8
EASTERN_ZHOU
 10
720518.19884841167
 20
3415057.3233407401
 30
4.5999999999999979
  0
VERTEX
  5
580
  8
EASTERN_ZHOU
 10
720514.07440536085
 20
3415147.2352856402
 30
4.5999999999999979
  0
VERTEX
  5
581
  8
EASTERN_ZHOU
 10
720630.66299236938
 20
3415151.164806427
 30
4.5999999999999979
  0
VERTEX
  5
582
  8
EASTERN_ZHOU
 10
720629.34771722555
 20
3415106.3457230218
 30
4.5999999999999979
  0
VERTEX
  5
583
  8
EASTERN_ZHOU
 10
720617.55895480525
 20
3415102.4162022341
 30
4.5999999999999979
  0
VERTEX
  5
584
  8
EASTERN_ZHOU
 10
720623.128576722
 20
3415060.5442594169
 30
4.5999999999999979
  0
VERTEX
  5
585
  8
EASTERN_ZHOU
 10
720518.19884841167
 20
3415057.3233407401
 30
4.5999999999999979
  0
SEQEND
  5
586
  8
EASTERN_ZHOU
  0
POLYLINE
  5
ED
  8
EASTERN_ZHOU
 66
     1
 10
0.0
 20
0.0
 30
0.06
 70
     1
1001
ADE
1011
-15.832015644526111
1021
0.0
1031
0.0
1021
6.0875363019295019
1031
0.0
1001
IRD
1002
{
1000
TPMLINK_Unit_topology-_-ade
1070
   515
1071
        5
1004
01000A050000020100000201000000000000BDE2A4186FD17440BDE2A4186FD174401402000000000000
1002
}
1001
DCO15
1071
        5
1071
        5
1000
unitlink
1004
074332363100
1071
        4
1000
Link
1004
074332363100
  0
VERTEX
  5
587
  8
EASTERN_ZHOU
 10
720688.63252658024
 20
3415197.0951067801
 30
0.06
  0
VERTEX
  5
588
  8
EASTERN_ZHOU
 10
720766.21752222639
 20
3415227.5569451768
 30
0.06
  0
VERTEX
  5
589
  8
EASTERN_ZHOU
 10
720773.16737114626
 20
3415244.684180249
 30
0.06
  0
VERTEX
  5
58A
  8
EASTERN_ZHOU
 10
720773.55708229903
 20
3415293.7307194211
 30
0.06
  0
VERTEX
  5
58B
  8
EASTERN_ZHOU
 10
720762.51526626211
 20
3415305.5112294862
 30
0.06
  0
VERTEX
  5
58C
  8
EASTERN_ZHOU
 10
720706.34814614081
 20
3415304.6818429269
 30
0.06
  0
VERTEX
  5
58D
  8
EASTERN_ZHOU
 10
720699.41453518346
 20
3415283.7136623319
 30
0.06
  0
VERTEX
  5
58E
  8
EASTERN_ZHOU
 10
720697.17369604832
 20
3415258.8079086519
 30
0.06
  0
VERTEX
  5
58F
  8
EASTERN_ZHOU
 10
720691.01950740092
 20
3415240.722450275
 30
0.06
  0
VERTEX
  5
590
  8
EASTERN_ZHOU
 10
720688.63252658024
 20
3415197.0951067801
 30
0.06
  0
SEQEND
  5
591
  8
EASTERN_ZHOU
  0
POLYLINE
  5
EE
  8
EASTERN_ZHOU
 66
     1
 10
0.0
 20
0.0
 30
0.045
 70
     1
1001
ADE
1011
-30.819657122716311
1021
0.0
1031
0.0
1021
-3.7282133698463431
1031
0.0
1001
IRD
1002
{
1000
TPMLINK_Unit_topology-_-ade
1070
   515
1071
        5
1004
01000B050000F8000000F800000000000000897CEA59118E7640897CEA59118E76401502000000000000
1002
}
1001
DCO15
1071
        5
1071
        5
1000
unitlink
1004
074331353300
1071
        4
1000
Link
1004
074331353300
  0
VERTEX
  5
592
  8
EASTERN_ZHOU
 10
720592.61744092766
 20
3415334.265980985
 30
0.045
  0
VERTEX
  5
593
  8
EASTERN_ZHOU
 10
720583.81646402541
 20
3415316.6958695971
 30
0.045
  0
VERTEX
  5
594
  8
EASTERN_ZHOU
 10
720583.81646402541
 20
3415258.4858167842
 30
0.045
  0
VERTEX
  5
595
  8
EASTERN_ZHOU
 10
720693.27658450219
 20
3415255.8446634691
 30
0.045
  0
VERTEX
  5
596
  8
EASTERN_ZHOU
 10
720697.06003029284
 20
3415288.3034714479
 30
0.045
  0
VERTEX
  5
597
  8
EASTERN_ZHOU
 10
720702.74331796204
 20
3415304.5369015872
 30
0.045
  0
VERTEX
  5
598
  8
EASTERN_ZHOU
 10
720681.91000916809
 20
3415329.1286156941
 30
0.045
  0
VERTEX
  5
599
  8
EASTERN_ZHOU
 10
720640.8441962786
 20
3415339.7334904419
 30
0.045
  0
VERTEX
  5
59A
  8
EASTERN_ZHOU
 10
720611.43724209059
 20
3415339.7334904419
 30
0.045
  0
VERTEX
  5
59B
  8
EASTERN_ZHOU
 10
720592.61744092766
 20
3415334.265980985
 30
0.045
  0
SEQEND
  5
59C
  8
EASTERN_ZHOU
  0
POLYLINE
  5
EF
  8
EASTERN_ZHOU
 66
     1
 10
0.0
 20
0.0
 30
3.6000000000000001
 70
     1
1001
ADE
1011
-14.28129000950139
1021
0.0
1031
0.0
1021
-5.2702281880192441
1031
0.0
1001
IRD
1002
{
1000
TPMLINK_Unit_topology-_-ade
1070
   515
1071
        5
1004
01000C050000070100000701000000000000149F3B5944867740149F3B59448677400000000012020000
1002
}
1001
DCO15
1071
        5
1071
        5
1000
unitlink
1004
074332353400
1071
        4
1000
Link
1004
074332353400
  0
VERTEX
  5
59D
  8
EASTERN_ZHOU
 10
720603.54559121281
 20
3415156.5356883239
 30
3.6000000000000001
  0
VERTEX
  5
59E
  8
EASTERN_ZHOU
 10
720601.67822526745
 20
3415234.836221389
 30
3.6000000000000001
  0
VERTEX
  5
59F
  8
EASTERN_ZHOU
 10
720587.29138848546
 20
3415240.0621619448
 30
3.6000000000000001
  0
VERTEX
  5
5A0
  8
EASTERN_ZHOU
 10
720586.41453838721
 20
3415252.2613914381
 30
3.6000000000000001
  0
VERTEX
  5
5A1
  8
EASTERN_ZHOU
 10
720686.71644673892
 20
3415252.696215461
 30
3.6000000000000001
  0
VERTEX
  5
5A2
  8
EASTERN_ZHOU
 10
720686.71644673892
 20
3415226.993284408
 30
3.6000000000000001
  0
VERTEX
  5
5A3
  8
EASTERN_ZHOU
 10
720679.31193480641
 20
3415162.5185447689
 30
3.6000000000000001
  0
VERTEX
  5
5A4
  8
EASTERN_ZHOU
 10
720670.15372267738
 20
3415153.3711357219
 30
3.6000000000000001
  0
VERTEX
  5
5A5
  8
EASTERN_ZHOU
 10
720603.54559121281
 20
3415156.5356883239
 30
3.6000000000000001
  0
SEQEND
  5
5A6
  8
EASTERN_ZHOU
  0
POLYLINE
  5
F0
  8
EASTERN_ZHOU
 66
     1
 10
0.0
 20
0.0
 30
2.699999999999998
 70
     1
1001
ADE
1011
-23.073254888993691
1021
0.0
1031
0.0
1021
4.5988194788806132
1031
0.0
1001
IRD
1002
{
1000
TPMLINK_Unit_topology-_-ade
1070
   515
1071
        5
1004
01000D050000010100000101000000000000E59F4AABA75C7540E59F4AABA75C75400000000013020000
1002
}
1001
DCO15
1071
        5
1071
        5
1000
unitlink
1004
074332353300
1071
        4
1000
Link
1004
074332353300
  0
VERTEX
  5
5A7
  8
EASTERN_ZHOU
 10
720507.25446015969
 20
3415231.2690539551
 30
2.699999999999998
  0
VERTEX
  5
5A8
  8
EASTERN_ZHOU
 10
720595.26422918611
 20
3415233.6122722928
 30
2.699999999999998
  0
VERTEX
  5
5A9
  8
EASTERN_ZHOU
 10
720599.97323896736
 20
3415155.8512431048
 30
2.699999999999998
  0
VERTEX
  5
5AA
  8
EASTERN_ZHOU
 10
720504.8169793603
 20
3415150.7522231662
 30
2.699999999999998
  0
VERTEX
  5
5AB
  8
EASTERN_ZHOU
 10
720507.25446015969
 20
3415231.2690539551
 30
2.699999999999998
  0
SEQEND
  5
5AC
  8
EASTERN_ZHOU
  0
POLYLINE
  5
F1
  8
EASTERN_ZHOU
 66
     1
 10
0.0
 20
0.0
 30
0.06
 70
     1
1001
ADE
1011
-30.844014069065452
1021
0.0
1031
0.0
1021
11.15243092458695
1031
0.0
1001
IRD
1002
{
1000
TPMLINK_Unit_topology-_-ade
1070
   515
1071
        5
1004
01000E050000F9000000F9000000000000006F2C07188FBF78406F2C07188FBF78401602000000000000
1002
}
1001
DCO15
1071
        5
1071
        5
1000
unitlink
1004
074331353200
1071
        4
1000
Link
1004
074331353200
  0
VERTEX
  5
5AD
  8
EASTERN_ZHOU
 10
720399.85656120651
 20
3415331.9147103499
 30
0.06
  0
VERTEX
  5
5AE
  8
EASTERN_ZHOU
 10
720391.29915377498
 20
3415254.37914547
 30
0.06
  0
VERTEX
  5
5AF
  8
EASTERN_ZHOU
 10
720429.16608760494
 20
3415239.7078608908
 30
0.06
  0
VERTEX
  5
5B0
  8
EASTERN_ZHOU
 10
720497.70653687802
 20
3415222.8946653912
 30
0.06
  0
VERTEX
  5
5B1
  8
EASTERN_ZHOU
 10
720491.81215566769
 20
3415334.4994975892
 30
0.06
  0
VERTEX
  5
5B2
  8
EASTERN_ZHOU
 10
720409.1284390873
 20
3415339.7979088142
 30
0.06
  0
VERTEX
  5
5B3
  8
EASTERN_ZHOU
 10
720399.85656120651
 20
3415331.9147103499
 30
0.06
  0
SEQEND
  5
5B4
  8
EASTERN_ZHOU
  0
POLYLINE
  5
F2
  8
EASTERN_ZHOU
 66
     1
 10
0.0
 20
0.0
 30
0.7413793103448276
 70
     1
1001
ADE
1011
-27.921180412173271
1021
0.0
1031
0.0
1021
1.8238451997749501
1031
0.0
1001
IRD
1002
{
1000
TPMLINK_Unit_topology-_-ade
1070
   515
1071
        5
1004
01000F050000FF000000FF00000000000000BB2B76EC6CDF7540BB2B76EC6CDF75401B02000000000000
1002
}
1001
DCO15
1071
        5
1071
        5
1000
unitlink
1004
074332353100
1071
        4
1000
Link
1004
074332353100
  0
VERTEX
  5
5B5
  8
EASTERN_ZHOU
 10
720401.02569466841
 20
3415235.0375288082
 30
0.7413793103448276
  0
VERTEX
  5
5B6
  8
EASTERN_ZHOU
 10
720405.63727666065
 20
3415199.1323378421
 30
0.7413793103448276
  0
VERTEX
  5
5B7
  8
EASTERN_ZHOU
 10
720408.98229740188
 20
3415172.7530138688
 30
0.7413793103448276
  0
VERTEX
  5
5B8
  8
EASTERN_ZHOU
 10
720408.72248996794
 20
3415155.4164190828
 30
0.7413793103448276
  0
VERTEX
  5
5B9
  8
EASTERN_ZHOU
 10
720421.09581911936
 20
3415148.0727244969
 30
0.7413793103448276
  0
VERTEX
  5
5BA
  8
EASTERN_ZHOU
 10
720467.99106135964
 20
3415143.9821577761
 30
0.7413793103448276
  0
VERTEX
  5
5BB
  8
EASTERN_ZHOU
 10
720500.27213530999
 20
3415149.9167004391
 30
0.7413793103448276
  0
VERTEX
  5
5BC
  8
EASTERN_ZHOU
 10
720501.68483824667
 20
3415209.6808465142
 30
0.7413793103448276
  0
VERTEX
  5
5BD
  8
EASTERN_ZHOU
 10
720501.23017523065
 20
3415217.3385806722
 30
0.7413793103448276
  0
VERTEX
  5
5BE
  8
EASTERN_ZHOU
 10
720400.24627235904
 20
3415239.6514948141
 30
0.7413793103448276
  0
VERTEX
  5
5BF
  8
EASTERN_ZHOU
 10
720401.02569466841
 20
3415235.0375288082
 30
0.7413793103448276
  0
SEQEND
  5
5C0
  8
EASTERN_ZHOU
  0
POLYLINE
  5
F3
  8
EASTERN_ZHOU
 66
     1
 10
0.0
 20
0.0
 30
1.8
 70
     1
1001
ADE
1011
-32.833164753508761
1021
0.0
1031
0.0
1021
5.1822036341764033
1031
0.0
1001
IRD
1002
{
1000
TPMLINK_Unit_topology-_-ade
1070
   515
1071
        5
1004
01001005000018010000180100000000000020C526D872A3764020C526D872A37640000000001A020000
1002
}
1001
DCO15
1071
        5
1071
        5
1000
unitlink
1004
074332353200
1071
        4
1000
Link
1004
074332353200
  0
VERTEX
  5
5C1
  8
EASTERN_ZHOU
 10
720512.7266542837
 20
3415059.2156304619
 30
1.8
  0
VERTEX
  5
5C2
  8
EASTERN_ZHOU
 10
720484.18031222746
 20
3415059.2639442431
 30
1.8
  0
VERTEX
  5
5C3
  8
EASTERN_ZHOU
 10
720463.88285627204
 20
3415064.465727909
 30
1.8
  0
VERTEX
  5
5C4
  8
EASTERN_ZHOU
 10
720447.23894238845
 20
3415072.2603511089
 30
1.8
  0
VERTEX
  5
5C5
  8
EASTERN_ZHOU
 10
720437.87213834818
 20
3415076.646982078
 30
1.8
  0
VERTEX
  5
5C6
  8
EASTERN_ZHOU
 10
720434.7194715552
 20
3415078.5975086112
 30
1.8
  0
VERTEX
  5
5C7
  8
EASTERN_ZHOU
 10
720412.81445708871
 20
3415079.1048033
 30
1.8
  0
VERTEX
  5
5C8
  8
EASTERN_ZHOU
 10
720408.44644456718
 20
3415147.4124361668
 30
1.8
  0
VERTEX
  5
5C9
  8
EASTERN_ZHOU
 10
720468.6405799503
 20
3415141.1638539322
 30
1.8
  0
VERTEX
  5
5CA
  8
EASTERN_ZHOU
 10
720495.5956014581
 20
3415146.035493433
 30
1.8
  0
VERTEX
  5
5CB
  8
EASTERN_ZHOU
 10
720508.19821978151
 20
3415148.3131919769
 30
1.8
  0
VERTEX
  5
5CC
  8
EASTERN_ZHOU
 10
720512.7266542837
 20
3415059.2156304619
 30
1.8
  0
SEQEND
  5
5CD
  8
EASTERN_ZHOU
  0
POLYLINE
  5
F4
  8
EASTERN_ZHOU
 66
     1
 10
0.0
 20
0.0
 30
0.03
 70
     1
1001
ADE
1011
-20.662810163572441
1021
0.0
1031
0.0
1021
-15.10610860027373
1031
0.0
1001
IRD
1002
{
1000
TPMLINK_Unit_topology-_-ade
1070
   515
1071
        5
1004
010011050000080100000801000000000000891D074B99647540891D074B996475401C02000000000000
1002
}
1001
DCO15
1071
        5
1071
        5
1000
unitlink
1004
074331363300
1071
        4
1000
Link
1004
074331363300
  0
VERTEX
  5
5CE
  8
EASTERN_ZHOU
 10
720320.90757652
 20
3415144.2559358631
 30
0.03
  0
VERTEX
  5
5CF
  8
EASTERN_ZHOU
 10
720327.24038277951
 20
3415124.447285993
 30
0.03
  0
VERTEX
  5
5D0
  8
EASTERN_ZHOU
 10
720322.98603600997
 20
3415075.746995579
 30
0.03
  0
VERTEX
  5
5D1
  8
EASTERN_ZHOU
 10
720409.0310112983
 20
3415079.2819538298
 30
0.03
  0
VERTEX
  5
5D2
  8
EASTERN_ZHOU
 10
720405.06894789648
 20
3415143.9982623691
 30
0.03
  0
VERTEX
  5
5D3
  8
EASTERN_ZHOU
 10
720404.17585983139
 20
3415176.3845996782
 30
0.03
  0
VERTEX
  5
5D4
  8
EASTERN_ZHOU
 10
720320.90757652
 20
3415144.2559358631
 30
0.03
  0
SEQEND
  5
5D5
  8
EASTERN_ZHOU
  0
POLYLINE
  5
F5
  8
EASTERN_ZHOU
 66
     1
 10
0.0
 20
0.0
 30
0.6000000000000001
 70
     1
1001
ADE
1011
-29.885974148288369
1021
0.0
1031
0.0
1021
-1.5782501529902211
1031
0.0
1001
IRD
1002
{
1000
TPMLINK_Unit_topology-_-ade
1070
   515
1071
        5
1004
010012050000150100001501000000000000644E9F4022887440644E9F40228874400000000019020000
1002
}
1001
DCO15
1071
        5
1071
        5
1000
unitlink
1004
074332353000
1071
        4
1000
Link
1004
074332353000
  0
VERTEX
  5
5D6
  8
EASTERN_ZHOU
 10
720326.02253542095
 20
3415073.4359864262
 30
0.6000000000000001
  0
VERTEX
  5
5D7
  8
EASTERN_ZHOU
 10
720435.41770404205
 20
3415076.8260033359
 30
0.6000000000000001
  0
VERTEX
  5
5D8
  8
EASTERN_ZHOU
 10
720441.55565471936
 20
3415069.6191977938
 30
0.6000000000000001
  0
VERTEX
  5
5D9
  8
EASTERN_ZHOU
 10
720443.89392164734
 20
3415024.8081666832
 30
0.6000000000000001
  0
VERTEX
  5
5DA
  8
EASTERN_ZHOU
 10
720328.08475694456
 20
3415024.5665977821
 30
0.6000000000000001
  0
VERTEX
  5
5DB
  8
EASTERN_ZHOU
 10
720326.02253542095
 20
3415073.4359864262
 30
0.6000000000000001
  0
SEQEND
  5
5DC
  8
EASTERN_ZHOU
  0
POLYLINE
  5
F6
  8
EASTERN_ZHOU
 66
     1
 10
0.0
 20
0.0
 30
0.1428571428571428
 70
     1
1001
ADE
1011
-15.23121095076203
1021
0.0
1031
0.0
1021
3.760422555729745
1031
0.0
1001
IRD
1002
{
1000
TPMLINK_Unit_topology-_-ade
1070
   515
1071
        5
1004
0100130500000F0100000F01000000000000F2131C8DE2F17040F2131C8DE2F17040000000000D020000
1002
}
1001
DCO15
1071
        5
1071
        5
1000
unitlink
1004
07433235366200
1071
        4
1000
Link
1004
07433235363100
  0
VERTEX
  5
5DD
  8
EASTERN_ZHOU
 10
720777.81142906845
 20
3415090.0237176199
 30
0.1428571428571428
  0
VERTEX
  5
5DE
  8
EASTERN_ZHOU
 10
720841.69158245262
 20
3415084.9024569211
 30
0.1428571428571428
  0
VERTEX
  5
5DF
  8
EASTERN_ZHOU
 10
720831.60780633625
 20
3415012.6250417829
 30
0.1428571428571428
  0
VERTEX
  5
5E0
  8
EASTERN_ZHOU
 10
720770.60177271464
 20
3415017.52889047
 30
0.1428571428571428
  0
VERTEX
  5
5E1
  8
EASTERN_ZHOU
 10
720777.81142906845
 20
3415090.0237176199
 30
0.1428571428571428
  0
SEQEND
  5
5E2
  8
EASTERN_ZHOU
  0
POLYLINE
  5
F7
  8
EASTERN_ZHOU
 66
     1
 10
0.0
 20
0.0
 30
0.5
 70
     1
1001
ADE
1011
-23.1959326636279
1021
0.0
1031
0.0
1021
0.6562621793709696
1031
0.0
1001
IRD
1002
{
1000
TPMLINK_Unit_topology-_-ade
1070
   515
1071
        5
1004
01001405000011010000110100000000000082627CE026B8744082627CE026B874400E02000000000000
1002
}
1001
DCO15
1071
        5
1071
        5
1000
unitlink
1004
074332353500
1071
        4
1000
Link
1004
074332353500
  0
VERTEX
  5
5E3
  8
EASTERN_ZHOU
 10
720673.28764987714
 20
3415087.0685247309
 30
0.5
  0
VERTEX
  5
5E4
  8
EASTERN_ZHOU
 10
720673.9696443975
 20
3415022.1106472891
 30
0.5
  0
VERTEX
  5
5E5
  8
EASTERN_ZHOU
 10
720768.08488817525
 20
3415018.4951660759
 30
0.5
  0
VERTEX
  5
5E6
  8
EASTERN_ZHOU
 10
720773.52460636932
 20
3415090.3619140801
 30
0.5
  0
VERTEX
  5
5E7
  8
EASTERN_ZHOU
 10
720673.28764987714
 20
3415087.0685247309
 30
0.5
  0
SEQEND
  5
5E8
  8
EASTERN_ZHOU
  0
POLYLINE
  5
F8
  8
EASTERN_ZHOU
 66
     1
 10
0.0
 20
0.0
 30
2.8999999999999999
 70
     1
1001
ADE
1011
-6.6007326765684411
1021
0.0
1031
0.0
1021
0.3663794989697635
1031
0.0
1001
IRD
1002
{
1000
TPMLINK_Unit_topology-_-ade
1070
   515
1071
        5
1004
0100150500002F0100002F010000000000008968EBF3545073408968EBF3545073400C02000000000000
1002
}
1001
DCO15
1071
        5
1071
        5
1000
unitlink
1004
074332353900
1071
        4
1000
Link
1004
074332353900
  0
VERTEX
  5
5E9
  8
EASTERN_ZHOU
 10
720766.88327878353
 20
3414908.0498645999
 30
2.8999999999999999
  0
VERTEX
  5
5EA
  8
EASTERN_ZHOU
 10
720797.73541183374
 20
3414908.3558518742
 30
2.8999999999999999
  0
VERTEX
  5
5EB
  8
EASTERN_ZHOU
 10
720818.11405761552
 20
3414919.4599690158
 30
2.8999999999999999
  0
VERTEX
  5
5EC
  8
EASTERN_ZHOU
 10
720835.08273079235
 20
3414937.642054955
 30
2.8999999999999999
  0
VERTEX
  5
5ED
  8
EASTERN_ZHOU
 10
720852.06764193985
 20
3414988.6211453341
 30
2.8999999999999999
  0
VERTEX
  5
5EE
  8
EASTERN_ZHOU
 10
720854.71443019435
 20
3415005.8852694491
 30
2.8999999999999999
  0
VERTEX
  5
5EF
  8
EASTERN_ZHOU
 10
720806.87738599628
 20
3415011.3205697192
 30
2.8999999999999999
  0
VERTEX
  5
5F0
  8
EASTERN_ZHOU
 10
720766.88327878353
 20
3414908.0498645999
 30
2.8999999999999999
  0
SEQEND
  5
5F1
  8
EASTERN_ZHOU
  0
POLYLINE
  5
F9
  8
EASTERN_ZHOU
 66
     1
 10
0.0
 20
0.0
 30
0.8163265306122449
 70
     1
1001
ADE
1011
-40.440651247161433
1021
0.0
1031
0.0
1021
-1.4212303673848501
1031
0.0
1001
IRD
1002
{
1000
TPMLINK_Unit_topology-_-ade
1070
   515
1071
        5
1004
0100160500002201000022010000000000002DA4A93B345879402DA4A93B34587940000000000B020000
1002
}
1001
DCO15
1071
        5
1071
        5
1000
unitlink
1004
074331353700
1071
        4
1000
Link
1004
074331353700
  0
VERTEX
  5
5F2
  8
EASTERN_ZHOU
 10
720672.96289058402
 20
3415016.5223533828
 30
0.8163265306122449
  0
VERTEX
  5
5F3
  8
EASTERN_ZHOU
 10
720802.55808737152
 20
3415012.6653032661
 30
0.8163265306122449
  0
VERTEX
  5
5F4
  8
EASTERN_ZHOU
 10
720772.03071361408
 20
3414938.1412973511
 30
0.8163265306122449
  0
VERTEX
  5
5F5
  8
EASTERN_ZHOU
 10
720665.46095086273
 20
3414928.5188028002
 30
0.8163265306122449
  0
VERTEX
  5
5F6
  8
EASTERN_ZHOU
 10
720672.96289058402
 20
3415016.5223533828
 30
0.8163265306122449
  0
SEQEND
  5
5F7
  8
EASTERN_ZHOU
  0
POLYLINE
  5
FA
  8
EASTERN_ZHOU
 66
     1
 10
0.0
 20
0.0
 30
0.146551724137931
 70
     1
1001
ADE
1011
-12.60877964098472
1021
0.0
1031
0.0
1021
-2.1942508490756141
1031
0.0
1001
IRD
1002
{
1000
TPMLINK_Unit_topology-_-ade
1070
   515
1071
        5
1004
0100170500001B0100001B010000000000009E3B8B8DAF4679409E3B8B8DAF4679400000000009020000
1002
}
1001
DCO15
1071
        5
1071
        5
1000
unitlink
1004
074331363000
1071
        4
1000
Link
1004
074331363000
  0
VERTEX
  5
5F8
  8
EASTERN_ZHOU
 10
720598.80410550139
 20
3415053.3374538771
 30
0.146551724137931
  0
VERTEX
  5
5F9
  8
EASTERN_ZHOU
 10
720668.46497434378
 20
3415057.9353152891
 30
0.146551724137931
  0
VERTEX
  5
5FA
  8
EASTERN_ZHOU
 10
720660.05370859441
 20
3414926.7392452289
 30
0.146551724137931
  0
VERTEX
  5
5FB
  8
EASTERN_ZHOU
 10
720586.8367254698
 20
3414924.017568945
 30
0.146551724137931
  0
VERTEX
  5
5FC
  8
EASTERN_ZHOU
 10
720598.80410550139
 20
3415053.3374538771
 30
0.146551724137931
  0
SEQEND
  5
5FD
  8
EASTERN_ZHOU
  0
POLYLINE
  5
FB
  8
EASTERN_ZHOU
 66
     1
 10
0.0
 20
0.0
 30
0.06
 70
     1
1001
ADE
1011
-24.89279998280108
1021
0.0
1031
0.0
1021
6.333131349645555
1031
0.0
1001
IRD
1002
{
1000
TPMLINK_Unit_topology-_-ade
1070
   515
1071
        5
1004
0100180500001C0100001C010000000000009C97A352937B79409C97A352937B79400000000008020000
1002
}
1001
DCO15
1071
        5
1071
        5
1000
unitlink
1004
074331363800
1071
        4
1000
Link
1004
074331363800
  0
VERTEX
  5
5FE
  8
EASTERN_ZHOU
 10
720514.74016191426
 20
3415052.5885902829
 30
0.06
  0
VERTEX
  5
5FF
  8
EASTERN_ZHOU
 10
720593.41310120001
 20
3415052.5885902829
 30
0.06
  0
VERTEX
  5
600
  8
EASTERN_ZHOU
 10
720583.13446950552
 20
3414924.6939618681
 30
0.06
  0
VERTEX
  5
601
  8
EASTERN_ZHOU
 10
720511.67118657392
 20
3414923.357280618
 30
0.06
  0
VERTEX
  5
602
  8
EASTERN_ZHOU
 10
720514.74016191426
 20
3415052.5885902829
 30
0.06
  0
SEQEND
  5
603
  8
EASTERN_ZHOU
  0
POLYLINE
  5
FC
  8
EASTERN_ZHOU
 66
     1
 10
0.0
 20
0.0
 30
0.2916666666666667
 70
     1
1001
ADE
1011
-26.524715444073081
1021
0.0
1031
0.0
1021
3.4665137263946231
1031
0.0
1001
IRD
1002
{
1000
TPMLINK_Unit_topology-_-ade
1070
   515
1071
        5
1004
0100190500002101000021010000000000007B02B4391C9776407B02B4391C9776400000000007020000
1002
}
1001
DCO15
1071
        5
1071
        5
1000
unitlink
1004
074331363700
1071
        4
1000
Link
1004
074331363700
  0
VERTEX
  5
604
  8
EASTERN_ZHOU
 10
720425.1228343806
 20
3415016.643137834
 30
0.2916666666666667
  0
VERTEX
  5
605
  8
EASTERN_ZHOU
 10
720509.5440131909
 20
3415018.060342053
 30
0.2916666666666667
  0
VERTEX
  5
606
  8
EASTERN_ZHOU
 10
720507.83902689093
 20
3414924.6375957918
 30
0.2916666666666667
  0
VERTEX
  5
607
  8
EASTERN_ZHOU
 10
720417.39356315124
 20
3414923.8404184189
 30
0.2916666666666667
  0
VERTEX
  5
608
  8
EASTERN_ZHOU
 10
720425.1228343806
 20
3415016.643137834
 30
0.2916666666666667
  0
SEQEND
  5
609
  8
EASTERN_ZHOU
  0
POLYLINE
  5
FD
  8
EASTERN_ZHOU
 66
     1
 10
0.0
 20
0.0
 30
0.06
 70
     1
1001
ADE
1011
-18.227115446585231
1021
0.0
1031
0.0
1021
-2.1982769975438701
1031
0.0
1001
IRD
1002
{
1000
TPMLINK_Unit_topology-_-ade
1070
   515
1071
        5
1004
01001A0500002001000020010000000000000828A72E763977400828A72E763977400602000000000000
1002
}
1001
DCO15
1071
        5
1071
        5
1000
unitlink
1004
074331363600
1071
        4
1000
Link
1004
074331363600
  0
VERTEX
  5
60A
  8
EASTERN_ZHOU
 10
720331.10501839221
 20
3415019.0829837322
 30
0.06
  0
VERTEX
  5
60B
  8
EASTERN_ZHOU
 10
720319.8521088101
 20
3414923.2123392769
 30
0.06
  0
VERTEX
  5
60C
  8
EASTERN_ZHOU
 10
720412.40850796923
 20
3414923.0996071231
 30
0.06
  0
VERTEX
  5
60D
  8
EASTERN_ZHOU
 10
720420.12154123175
 20
3415016.224418405
 30
0.06
  0
VERTEX
  5
60E
  8
EASTERN_ZHOU
 10
720331.10501839221
 20
3415019.0829837322
 30
0.06
  0
SEQEND
  5
60F
  8
EASTERN_ZHOU
  0
POLYLINE
  5
FE
  8
EASTERN_ZHOU
 66
     1
 10
0.0
 20
0.0
 30
0.1447368421052632
 70
     1
1001
ADE
1011
-18.048497835174199
1021
0.0
1031
0.0
1021
8.3542578225024027
1031
0.0
1001
IRD
1002
{
1000
TPMLINK_Unit_topology-_-ade
1070
   515
1071
        5
1004
01001B0500001D0100001D01000000000000EB95F766F1A67840EB95F766F1A678400402000000000000
1002
}
1001
DCO15
1071
        5
1071
        5
1000
unitlink
1004
074331363500
1071
        4
1000
Link
1004
074331363500
  0
VERTEX
  5
610
  8
EASTERN_ZHOU
 10
720237.98029046506
 20
3415044.6007119608
 30
0.1447368421052632
  0
VERTEX
  5
611
  8
EASTERN_ZHOU
 10
720145.65122281411
 20
3415044.6007119608
 30
0.1447368421052632
  0
VERTEX
  5
612
  8
EASTERN_ZHOU
 10
720124.33077507827
 20
3414948.0939360652
 30
0.1447368421052632
  0
VERTEX
  5
613
  8
EASTERN_ZHOU
 10
720226.72738088295
 20
3414944.4220887721
 30
0.1447368421052632
  0
VERTEX
  5
614
  8
EASTERN_ZHOU
 10
720237.98029046506
 20
3415044.6007119608
 30
0.1447368421052632
  0
SEQEND
  5
615
  8
EASTERN_ZHOU
  0
POLYLINE
  5
FF
  8
EASTERN_ZHOU
 66
     1
 10
0.0
 20
0.0
 30
0.0288461538461539
 70
     1
1001
ADE
1011
-14.735953023773609
1021
0.0
1031
0.0
1021
8.1569765522144735
1031
0.0
1001
IRD
1002
{
1000
TPMLINK_Unit_topology-_-ade
1070
   515
1071
        5
1004
01001C050000A5010000A501000000000000F776B9D648F17140F776B9D648F171400002000000000000
1002
}
1001
DCO15
1071
        5
1071
        5
1000
unitlink
1004
07433235366100
1071
        4
1000
Link
1004
07433235363200
  0
VERTEX
  5
616
  8
EASTERN_ZHOU
 10
720725.03804358479
 20
3414304.0470894738
 30
0.0288461538461539
  0
VERTEX
  5
617
  8
EASTERN_ZHOU
 10
720669.87767727685
 20
3414310.3117763042
 30
0.0288461538461539
  0
VERTEX
  5
618
  8
EASTERN_ZHOU
 10
720679.14955515787
 20
3414215.5201396048
 30
0.0288461538461539
  0
VERTEX
  5
619
  8
EASTERN_ZHOU
 10
720714.69446002692
 20
3414205.261513615
 30
0.0288461538461539
  0
VERTEX
  5
61A
  8
EASTERN_ZHOU
 10
720725.03804358479
 20
3414304.0470894738
 30
0.0288461538461539
  0
SEQEND
  5
61B
  8
EASTERN_ZHOU
  0
POLYLINE
  5
100
  8
EASTERN_ZHOU
 66
     1
 10
0.0
 20
0.0
 30
0.03
 70
     1
1001
ADE
1011
-14.656718621379691
1021
0.0
1031
0.0
1021
7.755837100557982
1031
0.0
1001
IRD
1002
{
1000
TPMLINK_Unit_topology-_-ade
1070
   515
1071
        5
1004
01001D050000AF010000AF01000000000000D445C60BFD277340D445C60BFD2773400102000000000000
1002
}
1001
DCO15
1071
        5
1071
        5
1000
unitlink
1004
074331383600
1071
        4
1000
Link
1004
074331383600
  0
VERTEX
  5
61C
  8
EASTERN_ZHOU
 10
720618.08219681075
 20
3414236.4002023628
 30
0.03
  0
VERTEX
  5
61D
  8
EASTERN_ZHOU
 10
720677.91938067705
 20
3414217.9087209571
 30
0.03
  0
VERTEX
  5
61E
  8
EASTERN_ZHOU
 10
720665.93185184163
 20
3414331.8516699639
 30
0.03
  0
VERTEX
  5
61F
  8
EASTERN_ZHOU
 10
720615.25316381094
 20
3414309.305239216
 30
0.03
  0
VERTEX
  5
620
  8
EASTERN_ZHOU
 10
720610.9988170414
 20
3414289.738158247
 30
0.03
  0
VERTEX
  5
621
  8
EASTERN_ZHOU
 10
720618.08219681075
 20
3414236.4002023628
 30
0.03
  0
SEQEND
  5
622
  8
EASTERN_ZHOU
  0
POLYLINE
  5
101
  8
EASTERN_ZHOU
 66
     1
 10
0.0
 20
0.0
 30
0.06
 70
     1
1001
ADE
1011
-7.972840696689671
1021
0.0
1031
0.0
1021
-6.6874324046075344
1031
0.0
1001
IRD
1002
{
1000
TPMLINK_Unit_topology-_-ade
1070
   515
1071
        5
1004
01001E050000A2010000A201000000000000C8A6C1427E1D7240C8A6C1427E1D7240FF01000000000000
1002
}
1001
DCO15
1071
        5
1071
        5
1000
unitlink
1004
074331383700
1071
        4
1000
Link
1004
074331383700
  0
VERTEX
  5
623
  8
EASTERN_ZHOU
 10
720669.26063461625
 20
3414311.841712676
 30
0.06
  0
VERTEX
  5
624
  8
EASTERN_ZHOU
 10
720725.29785101872
 20
3414305.8588562319
 30
0.06
  0
VERTEX
  5
625
  8
EASTERN_ZHOU
 10
720737.81732185185
 20
3414394.4663290679
 30
0.06
  0
VERTEX
  5
626
  8
EASTERN_ZHOU
 10
720689.00599977002
 20
3414402.317318344
 30
0.06
  0
VERTEX
  5
627
  8
EASTERN_ZHOU
 10
720687.49586904806
 20
3414372.5399251659
 30
0.06
  0
VERTEX
  5
628
  8
EASTERN_ZHOU
 10
720686.11003908631
 20
3414345.2135466952
 30
0.06
  0
VERTEX
  5
629
  8
EASTERN_ZHOU
 10
720669.26063461625
 20
3414311.841712676
 30
0.06
  0
SEQEND
  5
62A
  8
EASTERN_ZHOU
  0
POLYLINE
  5
102
  8
EASTERN_ZHOU
 66
     1
 10
0.0
 20
0.0
 30
0.4
 70
     1
1001
ADE
1011
-13.77791310288012
1021
0.0
1031
0.0
1021
-9.4453440238721686
1031
0.0
1001
IRD
1002
{
1000
TPMLINK_Unit_topology-_-ade
1070
   515
1071
        5
1004
01001F0500008901000089010000000000007C541CE4F19470407C541CE4F1947040FE01000000000000
1002
}
1001
DCO15
1071
        5
1071
        5
1000
unitlink
1004
074331383800
1071
        4
1000
Link
1004
074331383800
  0
VERTEX
  5
62B
  8
EASTERN_ZHOU
 10
720697.57964516827
 20
3414424.7832261249
 30
0.4
  0
VERTEX
  5
62C
  8
EASTERN_ZHOU
 10
720737.21651715785
 20
3414419.831063658
 30
0.4
  0
VERTEX
  5
62D
  8
EASTERN_ZHOU
 10
720751.47345022112
 20
3414512.6337830718
 30
0.4
  0
VERTEX
  5
62E
  8
EASTERN_ZHOU
 10
720710.65120680269
 20
3414514.4455498289
 30
0.4
  0
VERTEX
  5
62F
  8
EASTERN_ZHOU
 10
720697.57964516827
 20
3414424.7832261249
 30
0.4
  0
SEQEND
  5
630
  8
EASTERN_ZHOU
  0
POLYLINE
  5
103
  8
EASTERN_ZHOU
 66
     1
 10
0.0
 20
0.0
 30
1.3
 70
     1
1001
ADE
1011
0.2435694726882502
1021
0.0
1031
0.0
1021
-16.044201166369021
1031
0.0
1001
IRD
1002
{
1000
TPMLINK_Unit_topology-_-ade
1070
   515
1071
        5
1004
010020050000650100006501000000000000C66C80C16FCB7440C66C80C16FCB7440FD01000000000000
1002
}
1001
DCO15
1071
        5
1071
        5
1000
unitlink
1004
074332353700
1071
        4
1000
Link
1004
074332353700
  0
VERTEX
  5
631
  8
EASTERN_ZHOU
 10
720678.74360603839
 20
3414561.6159038711
 30
1.3
  0
VERTEX
  5
632
  8
EASTERN_ZHOU
 10
720704.00987921306
 20
3414516.708245201
 30
1.3
  0
VERTEX
  5
633
  8
EASTERN_ZHOU
 10
720748.45318877324
 20
3414521.2497405368
 30
1.3
  0
VERTEX
  5
634
  8
EASTERN_ZHOU
 10
720753.32457820303
 20
3414536.613522632
 30
1.3
  0
VERTEX
  5
635
  8
EASTERN_ZHOU
 10
720755.84146274265
 20
3414612.4339483161
 30
1.3
  0
VERTEX
  5
636
  8
EASTERN_ZHOU
 10
720753.66557546344
 20
3414619.4555510338
 30
1.3
  0
VERTEX
  5
637
  8
EASTERN_ZHOU
 10
720711.15458371094
 20
3414620.9613305172
 30
1.3
  0
VERTEX
  5
638
  8
EASTERN_ZHOU
 10
720710.16406786081
 20
3414561.7447406189
 30
1.3
  0
VERTEX
  5
639
  8
EASTERN_ZHOU
 10
720706.86776101228
 20
3414555.8907209211
 30
1.3
  0
VERTEX
  5
63A
  8
EASTERN_ZHOU
 10
720678.74360603839
 20
3414561.6159038711
 30
1.3
  0
SEQEND
  5
63B
  8
EASTERN_ZHOU
  0
POLYLINE
  5
104
  8
EASTERN_ZHOU
 66
     1
 10
0.0
 20
0.0
 30
1.0999999999999981
 70
     1
1001
ADE
1011
-17.846026326413259
1021
0.0
1031
0.0
1021
10.6844802936539
1031
0.0
1001
IRD
1002
{
1000
TPMLINK_Unit_topology-_-ade
1070
   515
1071
        5
1004
010021050000490100004901000000000000CDADEC5211887640CDADEC5211887640FC01000000000000
1002
}
1001
DCO15
1071
        5
1071
        5
1000
unitlink
1004
074332353800
1071
        4
1000
Link
1004
074332353800
  0
VERTEX
  5
63C
  8
EASTERN_ZHOU
 10
720682.9654768781
 20
3414728.29039317
 30
1.0999999999999981
  0
VERTEX
  5
63D
  8
EASTERN_ZHOU
 10
720673.61341527232
 20
3414635.744213569
 30
1.0999999999999981
  0
VERTEX
  5
63E
  8
EASTERN_ZHOU
 10
720750.41381134698
 20
3414621.6637151712
 30
1.0999999999999981
  0
VERTEX
  5
63F
  8
EASTERN_ZHOU
 10
720762.04436528322
 20
3414731.3180567268
 30
1.0999999999999981
  0
VERTEX
  5
640
  8
EASTERN_ZHOU
 10
720682.9654768781
 20
3414728.29039317
 30
1.0999999999999981
  0
SEQEND
  5
641
  8
EASTERN_ZHOU
  0
POLYLINE
  5
105
  8
EASTERN_ZHOU
 66
     1
 10
0.0
 20
0.0
 30
0.1377245508982036
 70
     1
1001
ADE
1011
-25.404295874759551
1021
0.0
1031
0.0
1021
19.690585802774869
1031
0.0
1001
IRD
1002
{
1000
TPMLINK_Unit_topology-_-ade
1070
   515
1071
        5
1004
010022050000640100006401000000000000BB5D707CD1437640BB5D707CD1437640FB01000000000000
1002
}
1001
DCO15
1071
        5
1071
        5
1000
unitlink
1004
074332343200
1071
        4
1000
Link
1004
074332343200
  0
VERTEX
  5
642
  8
EASTERN_ZHOU
 10
720670.51095790439
 20
3414568.3073624242
 30
0.1377245508982036
  0
VERTEX
  5
643
  8
EASTERN_ZHOU
 10
720668.04278726154
 20
3414648.9913753141
 30
0.1377245508982036
  0
VERTEX
  5
644
  8
EASTERN_ZHOU
 10
720571.30063990189
 20
3414650.5561324041
 30
0.1377245508982036
  0
VERTEX
  5
645
  8
EASTERN_ZHOU
 10
720558.84247421846
 20
3414602.6101463479
 30
0.1377245508982036
  0
VERTEX
  5
646
  8
EASTERN_ZHOU
 10
720585.09926323965
 20
3414603.8743569301
 30
0.1377245508982036
  0
VERTEX
  5
647
  8
EASTERN_ZHOU
 10
720609.06649923325
 20
3414599.7354764268
 30
0.1377245508982036
  0
VERTEX
  5
648
  8
EASTERN_ZHOU
 10
720635.66428551811
 20
3414591.4335585348
 30
0.1377245508982036
  0
VERTEX
  5
649
  8
EASTERN_ZHOU
 10
720658.90081309516
 20
3414576.0134103638
 30
0.1377245508982036
  0
VERTEX
  5
64A
  8
EASTERN_ZHOU
 10
720668.90339939308
 20
3414562.4855519151
 30
0.1377245508982036
  0
VERTEX
  5
64B
  8
EASTERN_ZHOU
 10
720670.51095790439
 20
3414568.3073624242
 30
0.1377245508982036
  0
SEQEND
  5
64C
  8
EASTERN_ZHOU
  0
POLYLINE
  5
106
  8
EASTERN_ZHOU
 66
     1
 10
0.0
 20
0.0
 30
0.0769230769230769
 70
     1
1001
ADE
1011
-15.65339803334791
1021
0.0
1031
0.0
1021
2.5082904212176791
1031
0.0
1001
IRD
1002
{
1000
TPMLINK_Unit_topology-_-ade
1070
   515
1071
        5
1004
0100230500004A0100004A01000000000000157C44D512A87340157C44D512A8734000000000FA010000
1002
}
1001
DCO15
1071
        5
1071
        5
1000
unitlink
1004
074331383900
1071
        4
1000
Link
1004
074331383900
  0
VERTEX
  5
64D
  8
EASTERN_ZHOU
 10
720606.90684992075
 20
3414725.810285788
 30
0.0769230769230769
  0
VERTEX
  5
64E
  8
EASTERN_ZHOU
 10
720679.01965143904
 20
3414728.9667860921
 30
0.0769230769230769
  0
VERTEX
  5
64F
  8
EASTERN_ZHOU
 10
720671.12800056487
 20
3414662.1890895972
 30
0.0769230769230769
  0
VERTEX
  5
650
  8
EASTERN_ZHOU
 10
720573.83011569455
 20
3414658.0663136919
 30
0.0769230769230769
  0
VERTEX
  5
651
  8
EASTERN_ZHOU
 10
720593.02339004702
 20
3414715.0524174031
 30
0.0769230769230769
  0
VERTEX
  5
652
  8
EASTERN_ZHOU
 10
720606.90684992075
 20
3414725.810285788
 30
0.0769230769230769
  0
SEQEND
  5
653
  8
EASTERN_ZHOU
  0
POLYLINE
  5
107
  8
EASTERN_ZHOU
 66
     1
 10
0.0
 20
0.0
 30
0.0833333333333333
 70
     1
1001
ADE
1011
-13.79087979963515
1021
0.0
1031
0.0
1021
3.36183387087658
1031
0.0
1001
IRD
1002
{
1000
TPMLINK_Unit_topology-_-ade
1070
   515
1071
        5
1004
0100240500005E0100005E0100000000000054014C694E566C4054014C694E566C40F901000000000000
1002
}
1001
DCO15
1071
        5
1071
        5
1000
unitlink
1004
074332343300
1071
        4
1000
Link
1004
074332343300
  0
VERTEX
  5
654
  8
EASTERN_ZHOU
 10
720511.02166798338
 20
3414607.3126876168
 30
0.0833333333333333
  0
VERTEX
  5
655
  8
EASTERN_ZHOU
 10
720549.52188244089
 20
3414600.669542843
 30
0.0833333333333333
  0
VERTEX
  5
656
  8
EASTERN_ZHOU
 10
720570.9072820358
 20
3414669.516679591
 30
0.0833333333333333
  0
VERTEX
  5
657
  8
EASTERN_ZHOU
 10
720537.26221904543
 20
3414677.2549367142
 30
0.0833333333333333
  0
VERTEX
  5
658
  8
EASTERN_ZHOU
 10
720519.17312629544
 20
3414645.7060382608
 30
0.0833333333333333
  0
VERTEX
  5
659
  8
EASTERN_ZHOU
 10
720512.30446720135
 20
3414628.6190646738
 30
0.0833333333333333
  0
VERTEX
  5
65A
  8
EASTERN_ZHOU
 10
720506.22492584737
 20
3414608.1403570962
 30
0.0833333333333333
  0
VERTEX
  5
65B
  8
EASTERN_ZHOU
 10
720511.02166798338
 20
3414607.3126876168
 30
0.0833333333333333
  0
SEQEND
  5
65C
  8
EASTERN_ZHOU
  0
POLYLINE
  5
108
  8
EASTERN_ZHOU
 66
     1
 10
0.0
 20
0.0
 30
0.6
 70
     1
1001
ADE
1011
-38.96299645293039
1021
0.0
1031
0.0
1021
15.428200467024
1031
0.0
1001
IRD
1002
{
1000
TPMLINK_Unit_topology-_-ade
1070
   515
1071
        5
1004
010025050000390100003901000000000000A379ABF961EE7A40A379ABF961EE7A400A02000000000000
1002
}
1001
DCO15
1071
        5
1071
        5
1000
unitlink
1004
074331353800
1071
        4
1000
Link
1004
074331353800
  0
VERTEX
  5
65D
  8
EASTERN_ZHOU
 10
720641.00657592702
 20
3414820.835439092
 30
0.6
  0
VERTEX
  5
65E
  8
EASTERN_ZHOU
 10
720674.58668705809
 20
3414825.7392877778
 30
0.6
  0
VERTEX
  5
65F
  8
EASTERN_ZHOU
 10
720680.88701738801
 20
3414874.8019315442
 30
0.6
  0
VERTEX
  5
660
  8
EASTERN_ZHOU
 10
720745.87135237816
 20
3414877.0726792119
 30
0.6
  0
VERTEX
  5
661
  8
EASTERN_ZHOU
 10
720773.16737114626
 20
3414933.599802014
 30
0.6
  0
VERTEX
  5
662
  8
EASTERN_ZHOU
 10
720657.1633508692
 20
3414922.7533583641
 30
0.6
  0
VERTEX
  5
663
  8
EASTERN_ZHOU
 10
720641.00657592702
 20
3414820.835439092
 30
0.6
  0
SEQEND
  5
664
  8
EASTERN_ZHOU
  0
POLYLINE
  5
109
  8
EASTERN_ZHOU
 66
     1
 10
0.0
 20
0.0
 30
2.0
 70
     1
1001
ADE
1011
-32.143051251652643
1021
0.0
1031
0.0
1021
6.2123469007201484
1031
0.0
1001
IRD
1002
{
1000
TPMLINK_Unit_topology-_-ade
1070
   515
1071
        5
1004
0100260500003801000038010000000000009C95771BE57B78409C95771BE57B78400202000000000000
1002
}
1001
DCO15
1071
        5
1071
        5
1000
unitlink
1004
074331353900
1071
        4
1000
Link
1004
074331353900
  0
VERTEX
  5
665
  8
EASTERN_ZHOU
 10
720548.20660729706
 20
3414821.1816878491
 30
2.0
  0
VERTEX
  5
666
  8
EASTERN_ZHOU
 10
720635.85914109624
 20
3414820.4247719599
 30
2.0
  0
VERTEX
  5
667
  8
EASTERN_ZHOU
 10
720654.27299313981
 20
3414923.2606530562
 30
2.0
  0
VERTEX
  5
668
  8
EASTERN_ZHOU
 10
720554.29584408191
 20
3414920.4020877299
 30
2.0
  0
VERTEX
  5
669
  8
EASTERN_ZHOU
 10
720547.63827852905
 20
3414861.290177688
 30
2.0
  0
VERTEX
  5
66A
  8
EASTERN_ZHOU
 10
720548.20660729706
 20
3414821.1816878491
 30
2.0
  0
SEQEND
  5
66B
  8
EASTERN_ZHOU
  0
POLYLINE
  5
10A
  8
EASTERN_ZHOU
 66
     1
 10
0.0
 20
0.0
 30
2.7000000000000002
 70
     1
1001
ADE
1011
-27.385327573865649
1021
0.0
1031
0.0
1021
8.9179185894317925
1031
0.0
1001
IRD
1002
{
1000
TPMLINK_Unit_topology-_-ade
1070
   515
1071
        5
1004
010027050000360100003601000000000000D6AD28D086077A40D6AD28D086077A400302000000000000
1002
}
1001
DCO15
1071
        5
1071
        5
1000
unitlink
1004
074332343900
1071
        4
1000
Link
1004
074332343900
  0
VERTEX
  5
66C
  8
EASTERN_ZHOU
 10
720434.75194748503
 20
3414823.6215337482
 30
2.7000000000000002
  0
VERTEX
  5
66D
  8
EASTERN_ZHOU
 10
720534.90771415445
 20
3414819.3216073108
 30
2.7000000000000002
  0
VERTEX
  5
66E
  8
EASTERN_ZHOU
 10
720543.5354984178
 20
3414862.2303282288
 30
2.7000000000000002
  0
VERTEX
  5
66F
  8
EASTERN_ZHOU
 10
720548.80741199106
 20
3414920.4987152908
 30
2.7000000000000002
  0
VERTEX
  5
670
  8
EASTERN_ZHOU
 10
720433.014485255
 20
3414921.7548735738
 30
2.7000000000000002
  0
VERTEX
  5
671
  8
EASTERN_ZHOU
 10
720434.75194748503
 20
3414823.6215337482
 30
2.7000000000000002
  0
SEQEND
  5
672
  8
EASTERN_ZHOU
  0
POLYLINE
  5
10B
  8
EASTERN_ZHOU
 66
     1
 10
0.0
 20
0.0
 30
0.7941176470588235
 70
     1
1001
ADE
1011
-25.95809982100036
1021
0.0
1031
0.0
1021
6.95718434313312
1031
0.0
1001
IRD
1002
{
1000
TPMLINK_Unit_topology-_-ade
1070
   515
1071
        5
1004
0100280500004B0100004B0100000000000006154F77B0EA734006154F77B0EA7340F801000000000000
1002
}
1001
DCO15
1071
        5
1071
        5
1000
unitlink
1004
074332343800
1071
        4
1000
Link
1004
074332343800
  0
VERTEX
  5
673
  8
EASTERN_ZHOU
 10
720447.40132203687
 20
3414724.4494476481
 30
0.7941176470588235
  0
VERTEX
  5
674
  8
EASTERN_ZHOU
 10
720527.50320222229
 20
3414726.4705741168
 30
0.7941176470588235
  0
VERTEX
  5
675
  8
EASTERN_ZHOU
 10
720524.82393803436
 20
3414805.8259580508
 30
0.7941176470588235
  0
VERTEX
  5
676
  8
EASTERN_ZHOU
 10
720443.15040155768
 20
3414801.6947225239
 30
0.7941176470588235
  0
VERTEX
  5
677
  8
EASTERN_ZHOU
 10
720447.40132203687
 20
3414724.4494476481
 30
0.7941176470588235
  0
SEQEND
  5
678
  8
EASTERN_ZHOU
  0
POLYLINE
  5
10C
  8
EASTERN_ZHOU
 66
     1
 10
0.0
 20
0.0
 30
4.7798780487804873
 70
     1
1001
ADE
1011
-6.4954707355936971
1021
0.0
1031
0.0
1021
0.7567461617290974
1031
0.0
1001
IRD
1002
{
1000
TPMLINK_Unit_topology-_-ade
1070
   515
1071
        5
1004
0100290500007E0100007E010000000000003AA923F6094179403AA923F609417940EC01000000000000
1002
}
1001
DCO15
1071
        5
1071
        5
1000
unitlink
1004
074332313900
1071
        4
1000
Link
1004
074332313900
  0
VERTEX
  5
679
  8
EASTERN_ZHOU
 10
720431.89406568557
 20
3414479.28117016
 30
4.7798780487804873
  0
VERTEX
  5
67A
  8
EASTERN_ZHOU
 10
720385.74576982483
 20
3414480.0622429401
 30
4.7798780487804873
  0
VERTEX
  5
67B
  8
EASTERN_ZHOU
 10
720378.08145045489
 20
3414462.9269555709
 30
4.7798780487804873
  0
VERTEX
  5
67C
  8
EASTERN_ZHOU
 10
720368.45233735081
 20
3414420.966437493
 30
4.7798780487804873
  0
VERTEX
  5
67D
  8
EASTERN_ZHOU
 10
720350.36381426326
 20
3414352.644676642
 30
4.7798780487804873
  0
VERTEX
  5
67E
  8
EASTERN_ZHOU
 10
720422.55060473469
 20
3414332.3190426282
 30
4.7798780487804873
  0
VERTEX
  5
67F
  8
EASTERN_ZHOU
 10
720442.6923122555
 20
3414407.6318341638
 30
4.7798780487804873
  0
VERTEX
  5
680
  8
EASTERN_ZHOU
 10
720431.89406568557
 20
3414479.28117016
 30
4.7798780487804873
  0
SEQEND
  5
681
  8
EASTERN_ZHOU
  0
POLYLINE
  5
10D
  8
EASTERN_ZHOU
 66
     1
 10
0.0
 20
0.0
 30
1.599999999999999
 70
     1
1001
ADE
1011
-14.54921642690897
1021
0.0
1031
0.0
1021
1.690982306376098
1031
0.0
1001
IRD
1002
{
1000
TPMLINK_Unit_topology-_-ade
1070
   515
1071
        5
1004
01002A050000AB010000AB01000000000000002C1721403B7540002C1721403B7540EB01000000000000
1002
}
1001
DCO15
1071
        5
1071
        5
1000
unitlink
1004
074332313800
1071
        4
1000
Link
1004
074332313800
  0
VERTEX
  5
682
  8
EASTERN_ZHOU
 10
720314.26624893048
 20
3414264.5022604018
 30
1.599999999999999
  0
VERTEX
  5
683
  8
EASTERN_ZHOU
 10
720393.31266140565
 20
3414242.9704190399
 30
1.599999999999999
  0
VERTEX
  5
684
  8
EASTERN_ZHOU
 10
720421.50176823512
 20
3414329.113889087
 30
1.599999999999999
  0
VERTEX
  5
685
  8
EASTERN_ZHOU
 10
720349.09668334958
 20
3414349.5506181
 30
1.599999999999999
  0
VERTEX
  5
686
  8
EASTERN_ZHOU
 10
720314.26624893048
 20
3414264.5022604018
 30
1.599999999999999
  0
SEQEND
  5
687
  8
EASTERN_ZHOU
  0
POLYLINE
  5
10E
  8
EASTERN_ZHOU
 66
     1
 10
0.0
 20
0.0
 30
0.2727272727272727
 70
     1
1001
ADE
1011
-9.2312829701695591
1021
0.0
1031
0.0
1021
-2.9431144404225038
1031
0.0
1001
IRD
1002
{
1000
TPMLINK_Unit_topology-_-ade
1070
   515
1071
        5
1004
01002B05000076010000760100000000000033AB31E6CC6B784033AB31E6CC6B784000000000EA010000
1002
}
1001
DCO15
1071
        5
1071
        5
1000
unitlink
1004
074332313700
1071
        4
1000
Link
1004
074332313700
  0
VERTEX
  5
688
  8
EASTERN_ZHOU
 10
720309.167527996
 20
3414499.0737154372
 30
0.2727272727272727
  0
VERTEX
  5
689
  8
EASTERN_ZHOU
 10
720371.05041171238
 20
3414468.4910925892
 30
0.2727272727272727
  0
VERTEX
  5
68A
  8
EASTERN_ZHOU
 10
720348.08992953598
 20
3414361.435808022
 30
0.2727272727272727
  0
VERTEX
  5
68B
  8
EASTERN_ZHOU
 10
720262.30476168566
 20
3414385.1015080111
 30
0.2727272727272727
  0
VERTEX
  5
68C
  8
EASTERN_ZHOU
 10
720309.167527996
 20
3414499.0737154372
 30
0.2727272727272727
  0
SEQEND
  5
68D
  8
EASTERN_ZHOU
  0
POLYLINE
  5
10F
  8
EASTERN_ZHOU
 66
     1
 10
0.0
 20
0.0
 30
0.0480769230769231
 70
     1
1001
ADE
1011
-14.75219098676461
1021
0.0
1031
0.0
1021
5.8016797690652311
1031
0.0
1001
IRD
1002
{
1000
TPMLINK_Unit_topology-_-ade
1070
   515
1071
        5
1004
01002C0500004D0100004D010000000000007E55BEC1C4E76C407E55BEC1C4E76C4000000000F7010000
1002
}
1001
DCO15
1071
        5
1071
        5
1000
unitlink
1004
074332343400
1071
        4
1000
Link
1004
074332343400
  0
VERTEX
  5
68E
  8
EASTERN_ZHOU
 10
720415.62362499139
 20
3414697.6352996519
 30
0.0480769230769231
  0
VERTEX
  5
68F
  8
EASTERN_ZHOU
 10
720452.04537995916
 20
3414696.66097175
 30
0.0480769230769231
  0
VERTEX
  5
690
  8
EASTERN_ZHOU
 10
720465.37674903125
 20
3414688.214112516
 30
0.0480769230769231
  0
VERTEX
  5
691
  8
EASTERN_ZHOU
 10
720456.91676938906
 20
3414645.3356326129
 30
0.0480769230769231
  0
VERTEX
  5
692
  8
EASTERN_ZHOU
 10
720448.14826841652
 20
3414621.9517630101
 30
0.0480769230769231
  0
VERTEX
  5
693
  8
EASTERN_ZHOU
 10
720407.61830836162
 20
3414628.8686858709
 30
0.0480769230769231
  0
VERTEX
  5
694
  8
EASTERN_ZHOU
 10
720415.62362499139
 20
3414697.6352996519
 30
0.0480769230769231
  0
SEQEND
  5
695
  8
EASTERN_ZHOU
  0
POLYLINE
  5
110
  8
EASTERN_ZHOU
 66
     1
 10
0.0
 20
0.0
 30
0.1521739130434783
 70
     1
1001
ADE
1011
-16.457177288946689
1021
0.0
1031
0.0
1021
0.7810727800242603
1031
0.0
1001
IRD
1002
{
1000
TPMLINK_Unit_topology-_-ade
1070
   515
1071
        5
1004
01002D050000460100004601000000000000FDD1C8C811BA7440FDD1C8C811BA7440F601000000000000
1002
}
1001
DCO15
1071
        5
1071
        5
1000
unitlink
1004
074332343500
1071
        4
1000
Link
1004
074332343500
  0
VERTEX
  5
696
  8
EASTERN_ZHOU
 10
720344.29024577886
 20
3414738.766431171
 30
0.1521739130434783
  0
VERTEX
  5
697
  8
EASTERN_ZHOU
 10
720315.80885558215
 20
3414653.4603999811
 30
0.1521739130434783
  0
VERTEX
  5
698
  8
EASTERN_ZHOU
 10
720403.59129310015
 20
3414628.4499664442
 30
0.1521739130434783
  0
VERTEX
  5
699
  8
EASTERN_ZHOU
 10
720410.10271697131
 20
3414699.58395545
 30
0.1521739130434783
  0
VERTEX
  5
69A
  8
EASTERN_ZHOU
 10
720354.48768765095
 20
3414723.2979692179
 30
0.1521739130434783
  0
VERTEX
  5
69B
  8
EASTERN_ZHOU
 10
720344.29024577886
 20
3414738.766431171
 30
0.1521739130434783
  0
SEQEND
  5
69C
  8
EASTERN_ZHOU
  0
POLYLINE
  5
111
  8
EASTERN_ZHOU
 66
     1
 10
0.0
 20
0.0
 30
0.024
 70
     1
1001
ADE
1011
-15.43418551050126
1021
0.0
1031
0.0
1021
10.790077572222801
1031
0.0
1001
IRD
1002
{
1000
TPMLINK_Unit_topology-_-ade
1070
   515
1071
        5
1004
01002E0500003B0100003B010000000000001E704DB52C2374401E704DB52C23744000000000F5010000
1002
}
1001
DCO15
1071
        5
1071
        5
1000
unitlink
1004
074331363900
1071
        4
1000
Link
1004
074331363900
  0
VERTEX
  5
69D
  8
EASTERN_ZHOU
 10
720362.78528764856
 20
3414818.6854758719
 30
0.024
  0
VERTEX
  5
69E
  8
EASTERN_ZHOU
 10
720434.54085394379
 20
3414803.5149488989
 30
0.024
  0
VERTEX
  5
69F
  8
EASTERN_ZHOU
 10
720431.9103036524
 20
3414718.241126895
 30
0.024
  0
VERTEX
  5
6A0
  8
EASTERN_ZHOU
 10
720363.30490252015
 20
3414723.9904667339
 30
0.024
  0
VERTEX
  5
6A1
  8
EASTERN_ZHOU
 10
720362.78528764856
 20
3414818.6854758719
 30
0.024
  0
SEQEND
  5
6A2
  8
EASTERN_ZHOU
  0
POLYLINE
  5
112
  8
EASTERN_ZHOU
 66
     1
 10
0.0
 20
0.0
 30
0.04
 70
     1
1001
ADE
1011
-23.395494374912229
1021
0.0
1031
0.0
1021
1.799688311293721
1031
0.0
1001
IRD
1002
{
1000
TPMLINK_Unit_topology-_-ade
1070
   515
1071
        5
1004
01002F0500004801000048010000000000004134D136F30375404134D136F3037540F401000000000000
1002
}
1001
DCO15
1071
        5
1071
        5
1000
unitlink
1004
074331373000
1071
        4
1000
Link
1004
074331373000
  0
VERTEX
  5
6A3
  8
EASTERN_ZHOU
 10
720206.09833992948
 20
3414730.3394160299
 30
0.04
  0
VERTEX
  5
6A4
  8
EASTERN_ZHOU
 10
720285.76862077042
 20
3414725.4640370291
 30
0.04
  0
VERTEX
  5
6A5
  8
EASTERN_ZHOU
 10
720289.9904916063
 20
3414826.069431942
 30
0.04
  0
VERTEX
  5
6A6
  8
EASTERN_ZHOU
 10
720245.69332372781
 20
3414827.6557343919
 30
0.04
  0
VERTEX
  5
6A7
  8
EASTERN_ZHOU
 10
720223.02512491855
 20
3414810.7942251121
 30
0.04
  0
VERTEX
  5
6A8
  8
EASTERN_ZHOU
 10
720211.43121807685
 20
3414784.463214918
 30
0.04
  0
VERTEX
  5
6A9
  8
EASTERN_ZHOU
 10
720208.78442981828
 20
3414757.600753142
 30
0.04
  0
VERTEX
  5
6AA
  8
EASTERN_ZHOU
 10
720206.09833992948
 20
3414730.3394160299
 30
0.04
  0
SEQEND
  5
6AB
  8
EASTERN_ZHOU
  0
POLYLINE
  5
113
  8
EASTERN_ZHOU
 66
     1
 10
0.0
 20
0.0
 30
0.4428571428571429
 70
     1
1001
ADE
1011
-16.911840301007029
1021
0.0
1031
0.0
1021
6.1036408958025259
1031
0.0
1001
IRD
1002
{
1000
TPMLINK_Unit_topology-_-ade
1070
   515
1071
        5
1004
0100310500005D0100005D010000000000008F3C2800727873408F3C28007278734000000000F0010000
1002
}
1001
DCO15
1071
        5
1071
        5
1000
unitlink
1004
074331373300
1071
        4
1000
Link
1004
074331373300
  0
VERTEX
  5
6AC
  8
EASTERN_ZHOU
 10
720212.19440241926
 20
3414623.030770767
 30
0.4428571428571429
  0
VERTEX
  5
6AD
  8
EASTERN_ZHOU
 10
720144.12485412497
 20
3414658.5575037892
 30
0.4428571428571429
  0
VERTEX
  5
6AE
  8
EASTERN_ZHOU
 10
720197.75885174435
 20
3414726.1967960289
 30
0.4428571428571429
  0
VERTEX
  5
6AF
  8
EASTERN_ZHOU
 10
720251.63641883468
 20
3414704.1657122709
 30
0.4428571428571429
  0
VERTEX
  5
6B0
  8
EASTERN_ZHOU
 10
720212.19440241926
 20
3414623.030770767
 30
0.4428571428571429
  0
SEQEND
  5
6B1
  8
EASTERN_ZHOU
  0
POLYLINE
  5
114
  8
EASTERN_ZHOU
 66
     1
 10
0.0
 20
0.0
 30
0.06
 70
     1
1001
ADE
1011
-15.441168605117131
1021
0.0
1031
0.0
1021
-2.5284211640246199
1031
0.0
1001
IRD
1002
{
1000
TPMLINK_Unit_topology-_-ade
1070
   515
1071
        5
1004
0100320500005B0100005B010000000000005B94E6764F0A74405B94E6764F0A744000000000EF010000
1002
}
1001
DCO15
1071
        5
1071
        5
1000
unitlink
1004
074331373200
1071
        4
1000
Link
1004
074331373200
  0
VERTEX
  5
6B2
  8
EASTERN_ZHOU
 10
720218.96563372761
 20
3414632.0654476602
 30
0.06
  0
VERTEX
  5
6B3
  8
EASTERN_ZHOU
 10
720252.51326892921
 20
3414702.1848472841
 30
0.06
  0
VERTEX
  5
6B4
  8
EASTERN_ZHOU
 10
720319.60853933915
 20
3414673.0194286518
 30
0.06
  0
VERTEX
  5
6B5
  8
EASTERN_ZHOU
 10
720283.02440472308
 20
3414596.1522043981
 30
0.06
  0
VERTEX
  5
6B6
  8
EASTERN_ZHOU
 10
720214.18940030911
 20
3414622.0824304442
 30
0.06
  0
VERTEX
  5
6B7
  8
EASTERN_ZHOU
 10
720218.96563372761
 20
3414632.0654476602
 30
0.06
  0
SEQEND
  5
6B8
  8
EASTERN_ZHOU
  0
POLYLINE
  5
115
  8
EASTERN_ZHOU
 66
     1
 10
0.0
 20
0.0
 30
0.01
 70
     1
1001
ADE
1011
-11.75628649070859
1021
0.0
1031
0.0
1021
-1.6104593379423009
1031
0.0
1001
IRD
1002
{
1000
TPMLINK_Unit_topology-_-ade
1070
   515
1071
        5
1004
0100330500005F0100005F01000000000000166D0007E2BB7640166D0007E2BB7640ED01000000000000
1002
}
1001
DCO15
1071
        5
1071
        5
1000
unitlink
1004
074331383400
1071
        4
1000
Link
1004
074331383400
  0
VERTEX
  5
6B9
  8
EASTERN_ZHOU
 10
720239.44170729455
 20
3414603.47979439
 30
0.01
  0
VERTEX
  5
6BA
  8
EASTERN_ZHOU
 10
720209.64504195016
 20
3414515.2990932781
 30
0.01
  0
VERTEX
  5
6BB
  8
EASTERN_ZHOU
 10
720289.61701841652
 20
3414483.5488874088
 30
0.01
  0
VERTEX
  5
6BC
  8
EASTERN_ZHOU
 10
720320.81014873099
 20
3414577.8251771191
 30
0.01
  0
VERTEX
  5
6BD
  8
EASTERN_ZHOU
 10
720239.44170729455
 20
3414603.47979439
 30
0.01
  0
SEQEND
  5
6BE
  8
EASTERN_ZHOU
  0
POLYLINE
  5
116
  8
EASTERN_ZHOU
 66
     1
 10
0.0
 20
0.0
 30
0.036
 70
     1
1001
ADE
1011
-22.99295810598414
1021
0.0
1031
0.0
1021
-0.3663794980384409
1031
0.0
1001
IRD
1002
{
1000
TPMLINK_Unit_topology-_-ade
1070
   515
1071
        5
1004
01003405000091010000910100000000000047493FABAD847C4047493FABAD847C4000000000E9010000
1002
}
1001
DCO15
1071
        5
1071
        5
1000
unitlink
1004
074332343700
1071
        4
1000
Link
1004
074332343700
  0
VERTEX
  5
6BF
  8
EASTERN_ZHOU
 10
720156.92037035909
 20
3414382.1946289041
 30
0.036
  0
VERTEX
  5
6C0
  8
EASTERN_ZHOU
 10
720206.67349439859
 20
3414513.374594368
 30
0.036
  0
VERTEX
  5
6C1
  8
EASTERN_ZHOU
 10
720287.79836636432
 20
3414481.584127015
 30
0.036
  0
VERTEX
  5
6C2
  8
EASTERN_ZHOU
 10
720244.21566893545
 20
3414352.1756668221
 30
0.036
  0
VERTEX
  5
6C3
  8
EASTERN_ZHOU
 10
720156.92037035909
 20
3414382.1946289041
 30
0.036
  0
SEQEND
  5
6C4
  8
EASTERN_ZHOU
  0
POLYLINE
  5
117
  8
EASTERN_ZHOU
 66
     1
 10
0.0
 20
0.0
 30
0.06
 70
     1
1001
ADE
1011
-11.448608366190451
1021
0.0
1031
0.0
1021
-10.3545837122947
1031
0.0
1001
IRD
1002
{
1000
TPMLINK_Unit_topology-_-ade
1070
   515
1071
        5
1004
0100350500009B0100009B0100000000000037A2A29CFF3F724037A2A29CFF3F7240E801000000000000
1002
}
1001
DCO15
1071
        5
1071
        5
1000
unitlink
1004
074331383500
1071
        4
1000
Link
1004
074331383500
  0
VERTEX
  5
6C5
  8
EASTERN_ZHOU
 10
720179.86461457238
 20
3414364.6406221068
 30
0.06
  0
VERTEX
  5
6C6
  8
EASTERN_ZHOU
 10
720154.61457936466
 20
3414289.3516480052
 30
0.06
  0
VERTEX
  5
6C7
  8
EASTERN_ZHOU
 10
720210.4731781556
 20
3414270.0422405279
 30
0.06
  0
VERTEX
  5
6C8
  8
EASTERN_ZHOU
 10
720240.54588889715
 20
3414350.871194758
 30
0.06
  0
VERTEX
  5
6C9
  8
EASTERN_ZHOU
 10
720181.82940831047
 20
3414369.8263011798
 30
0.06
  0
VERTEX
  5
6CA
  8
EASTERN_ZHOU
 10
720179.86461457238
 20
3414364.6406221068
 30
0.06
  0
SEQEND
  5
6CB
  8
EASTERN_ZHOU
  0
POLYLINE
  5
118
  8
EASTERN_ZHOU
 66
     1
 10
0.0
 20
0.0
 30
0.02
 70
     1
1001
ADE
1011
-17.643529833061621
1021
0.0
1031
0.0
1021
8.1231912393122911
1031
0.0
1001
IRD
1002
{
1000
TPMLINK_Unit_topology-_-ade
1070
   515
1071
        5
1004
010036050000670100006701000000000000FD880C6761197540FD880C6761197540F201000000000000
1002
}
1001
DCO15
1071
        5
1071
        5
1000
unitlink
1004
074331383300
1071
        4
1000
Link
1004
074331383300
  0
VERTEX
  5
6CC
  8
EASTERN_ZHOU
 10
720078.70209408936
 20
3414547.733744368
 30
0.02
  0
VERTEX
  5
6CD
  8
EASTERN_ZHOU
 10
720100.03877979144
 20
3414549.376412895
 30
0.02
  0
VERTEX
  5
6CE
  8
EASTERN_ZHOU
 10
720099.92511403561
 20
3414564.8287702519
 30
0.02
  0
VERTEX
  5
6CF
  8
EASTERN_ZHOU
 10
720091.75741776079
 20
3414665.7079432532
 30
0.02
  0
VERTEX
  5
6D0
  8
EASTERN_ZHOU
 10
720039.63355086371
 20
3414657.3899207688
 30
0.02
  0
VERTEX
  5
6D1
  8
EASTERN_ZHOU
 10
720042.23162522935
 20
3414569.5796253029
 30
0.02
  0
VERTEX
  5
6D2
  8
EASTERN_ZHOU
 10
720076.96463185921
 20
3414571.761797708
 30
0.02
  0
VERTEX
  5
6D3
  8
EASTERN_ZHOU
 10
720078.70209408936
 20
3414547.733744368
 30
0.02
  0
SEQEND
  5
6D4
  8
EASTERN_ZHOU
  0
POLYLINE
  5
119
  8
EASTERN_ZHOU
 66
     1
 10
0.0
 20
0.0
 30
0.04
 70
     1
1001
ADE
1011
-18.01602190721314
1021
0.0
1031
0.0
1021
5.4554310124367458
1031
0.0
1001
IRD
1002
{
1000
TPMLINK_Unit_topology-_-ade
1070
   515
1071
        5
1004
0100370500008101000081010000000000000798F295E24D71400798F295E24D7140F301000000000000
1002
}
1001
DCO15
1071
        5
1071
        5
1000
unitlink
1004
074331383200
1071
        4
1000
Link
1004
074331383200
  0
VERTEX
  5
6D5
  8
EASTERN_ZHOU
 10
720085.53827725339
 20
3414467.5006600949
 30
0.04
  0
VERTEX
  5
6D6
  8
EASTERN_ZHOU
 10
720132.70956489816
 20
3414471.5590176289
 30
0.04
  0
VERTEX
  5
6D7
  8
EASTERN_ZHOU
 10
720142.48481968418
 20
3414477.4613511078
 30
0.04
  0
VERTEX
  5
6D8
  8
EASTERN_ZHOU
 10
720142.48481968418
 20
3414551.3653301778
 30
0.04
  0
VERTEX
  5
6D9
  8
EASTERN_ZHOU
 10
720078.60466630023
 20
3414546.3245924469
 30
0.04
  0
VERTEX
  5
6DA
  8
EASTERN_ZHOU
 10
720078.13376532134
 20
3414488.0259643719
 30
0.04
  0
VERTEX
  5
6DB
  8
EASTERN_ZHOU
 10
720085.53827725339
 20
3414467.5006600949
 30
0.04
  0
SEQEND
  5
6DC
  8
EASTERN_ZHOU
  0
POLYLINE
  5
11A
  8
EASTERN_ZHOU
 66
     1
 10
0.0
 20
0.0
 30
0.06
 70
     1
1001
ADE
1011
-24.547509860247381
1021
0.0
1031
0.0
1021
2.7833689437247799
1031
0.0
1001
IRD
1002
{
1000
TPMLINK_Unit_topology-_-ade
1070
   515
1071
        5
1004
010038050000E9000000E900000000000000DE75587CE5887640DE75587CE588764000000000E7010000
1002
}
1001
DCO15
1071
        5
1071
        5
1000
unitlink
1004
074132373900
1071
        4
1000
Link
1004
074132373900
  0
VERTEX
  5
6DD
  8
EASTERN_ZHOU
 10
720000.12737718597
 20
3415845.3988089599
 30
0.06
  0
VERTEX
  5
6DE
  8
EASTERN_ZHOU
 10
719909.09197540605
 20
3415818.38982144
 30
0.06
  0
VERTEX
  5
6DF
  8
EASTERN_ZHOU
 10
719881.04510280862
 20
3415903.7378783762
 30
0.06
  0
VERTEX
  5
6E0
  8
EASTERN_ZHOU
 10
719964.5793953687
 20
3415926.7522160229
 30
0.06
  0
VERTEX
  5
6E1
  8
EASTERN_ZHOU
 10
719987.87960762158
 20
3415882.9742896869
 30
0.06
  0
VERTEX
  5
6E2
  8
EASTERN_ZHOU
 10
720000.12737718597
 20
3415845.3988089599
 30
0.06
  0
SEQEND
  5
6E3
  8
EASTERN_ZHOU
  0
POLYLINE
  5
11B
  8
EASTERN_ZHOU
 66
     1
 10
0.0
 20
0.0
 30
0.5
 70
     1
1001
ADE
1011
-22.48600409575738
1021
0.0
1031
0.0
1021
-1.1511464137583971
1031
0.0
1001
IRD
1002
{
1000
TPMLINK_Unit_topology-_-ade
1070
   515
1071
        5
1004
010039050000EA000000EA000000000000002E3D1114859677402E3D11148596774000000000E6010000
1002
}
1001
DCO15
1071
        5
1071
        5
1000
unitlink
1004
074132373800
1071
        4
1000
Link
1004
074132373800
  0
VERTEX
  5
6E4
  8
EASTERN_ZHOU
 10
720024.50165127206
 20
3415736.9590985738
 30
0.5
  0
VERTEX
  5
6E5
  8
EASTERN_ZHOU
 10
719937.65855533641
 20
3415711.092666823
 30
0.5
  0
VERTEX
  5
6E6
  8
EASTERN_ZHOU
 10
719914.42763739091
 20
3415806.5948660141
 30
0.5
  0
VERTEX
  5
6E7
  8
EASTERN_ZHOU
 10
720002.03297075268
 20
3415831.7053210121
 30
0.5
  0
VERTEX
  5
6E8
  8
EASTERN_ZHOU
 10
720024.50165127206
 20
3415736.9590985738
 30
0.5
  0
SEQEND
  5
6E9
  8
EASTERN_ZHOU
  0
POLYLINE
  5
11C
  8
EASTERN_ZHOU
 66
     1
 10
0.0
 20
0.0
 30
0.06
 70
     1
1001
ADE
1011
-10.3750108439708
1021
0.0
1031
0.0
1021
7.074396062642335
1031
0.0
1001
IRD
1002
{
1000
TPMLINK_Unit_topology-_-ade
1070
   515
1071
        5
1004
01003A050000F6000000F600000000000000154E6C5EE92B7340154E6C5EE92B734000000000E4010000
1002
}
1001
DCO15
1071
        5
1071
        5
1000
unitlink
1004
074332303100
1071
        4
1000
Link
1004
074332303100
  0
VERTEX
  5
6EA
  8
EASTERN_ZHOU
 10
719741.20918212458
 20
3415364.6319586039
 30
0.06
  0
VERTEX
  5
6EB
  8
EASTERN_ZHOU
 10
719723.79898635298
 20
3415444.2844179799
 30
0.06
  0
VERTEX
  5
6EC
  8
EASTERN_ZHOU
 10
719737.4672893025
 20
3415459.3438184629
 30
0.06
  0
VERTEX
  5
6ED
  8
EASTERN_ZHOU
 10
719764.37080575922
 20
3415465.0394160212
 30
0.06
  0
VERTEX
  5
6EE
  8
EASTERN_ZHOU
 10
719790.40814331919
 20
3415464.2576673371
 30
0.06
  0
VERTEX
  5
6EF
  8
EASTERN_ZHOU
 10
719797.32025089487
 20
3415434.688667642
 30
0.06
  0
VERTEX
  5
6F0
  8
EASTERN_ZHOU
 10
719803.9688801833
 20
3415406.2467900738
 30
0.06
  0
VERTEX
  5
6F1
  8
EASTERN_ZHOU
 10
719802.72520719469
 20
3415387.0105885291
 30
0.06
  0
VERTEX
  5
6F2
  8
EASTERN_ZHOU
 10
719802.1193759602
 20
3415377.6400451181
 30
0.06
  0
VERTEX
  5
6F3
  8
EASTERN_ZHOU
 10
719759.86667550739
 20
3415363.953297657
 30
0.06
  0
VERTEX
  5
6F4
  8
EASTERN_ZHOU
 10
719741.20918212458
 20
3415364.6319586039
 30
0.06
  0
SEQEND
  5
6F5
  8
EASTERN_ZHOU
  0
POLYLINE
  5
11D
  8
EASTERN_ZHOU
 66
     1
 10
0.0
 20
0.0
 30
0.02
 70
     1
1001
ADE
1011
-28.62256941141095
1021
0.0
1031
0.0
1021
-4.8666003281250578
1031
0.0
1001
IRD
1002
{
1000
TPMLINK_Unit_topology-_-ade
1070
   515
1071
        5
1004
01003D050000F3000000F30000000000000084733020F857764084733020F857764000000000E2010000
1002
}
1001
DCO15
1071
        5
1071
        5
1000
unitlink
1004
074132363900
1071
        4
1000
Link
1004
074132363900
  0
VERTEX
  5
6F6
  8
EASTERN_ZHOU
 10
719990.09702559188
 20
3415394.4758589342
 30
0.02
  0
VERTEX
  5
6F7
  8
EASTERN_ZHOU
 10
720022.59605770186
 20
3415402.3792522289
 30
0.02
  0
VERTEX
  5
6F8
  8
EASTERN_ZHOU
 10
720052.18472873047
 20
3415416.1156934001
 30
0.02
  0
VERTEX
  5
6F9
  8
EASTERN_ZHOU
 10
720076.76688574627
 20
3415421.1154487231
 30
0.02
  0
VERTEX
  5
6FA
  8
EASTERN_ZHOU
 10
720084.68376084056
 20
3415392.8092738269
 30
0.02
  0
VERTEX
  5
6FB
  8
EASTERN_ZHOU
 10
720089.93723981187
 20
3415374.025865877
 30
0.02
  0
VERTEX
  5
6FC
  8
EASTERN_ZHOU
 10
720095.17354094388
 20
3415355.3038759651
 30
0.02
  0
VERTEX
  5
6FD
  8
EASTERN_ZHOU
 10
720099.52078100585
 20
3415339.7606551801
 30
0.02
  0
VERTEX
  5
6FE
  8
EASTERN_ZHOU
 10
720097.83235645667
 20
3415335.9649766218
 30
0.02
  0
VERTEX
  5
6FF
  8
EASTERN_ZHOU
 10
720086.15626496077
 20
3415333.0871105841
 30
0.02
  0
VERTEX
  5
700
  8
EASTERN_ZHOU
 10
720069.87210175011
 20
3415327.1853375491
 30
0.02
  0
VERTEX
  5
701
  8
EASTERN_ZHOU
 10
720060.22286886722
 20
3415321.85913772
 30
0.02
  0
VERTEX
  5
702
  8
EASTERN_ZHOU
 10
720048.70268957689
 20
3415322.297260609
 30
0.02
  0
VERTEX
  5
703
  8
EASTERN_ZHOU
 10
720032.88626296818
 20
3415316.687569499
 30
0.02
  0
VERTEX
  5
704
  8
EASTERN_ZHOU
 10
720010.86799547449
 20
3415312.0056680371
 30
0.02
  0
VERTEX
  5
705
  8
EASTERN_ZHOU
 10
720006.17330586922
 20
3415316.0776337129
 30
0.02
  0
VERTEX
  5
706
  8
EASTERN_ZHOU
 10
719998.42966655281
 20
3415345.8098556609
 30
0.02
  0
VERTEX
  5
707
  8
EASTERN_ZHOU
 10
719991.67028479627
 20
3415371.7629547669
 30
0.02
  0
VERTEX
  5
708
  8
EASTERN_ZHOU
 10
719990.09702559188
 20
3415394.4758589342
 30
0.02
  0
SEQEND
  5
709
  8
EASTERN_ZHOU
  0
POLYLINE
  5
11E
  8
EASTERN_ZHOU
 66
     1
 10
0.0
 20
0.0
 30
0.0681818181818182
 70
     1
1001
ADE
1011
-28.956360435113311
1021
0.0
1031
0.0
1021
11.374013829044991
1031
0.0
1001
IRD
1002
{
1000
TPMLINK_Unit_topology-_-ade
1070
   515
1071
        5
1004
01003E0500000E0100000E01000000000000FE006444C0D87440FE006444C0D8744000000000DD010000
1002
}
1001
DCO15
1071
        5
1071
        5
1000
unitlink
1004
074132353500
1071
        4
1000
Link
1004
074132353500
  0
VERTEX
  5
70A
  8
EASTERN_ZHOU
 10
719672.48654865858
 20
3415096.4577972218
 30
0.0681818181818182
  0
VERTEX
  5
70B
  8
EASTERN_ZHOU
 10
719669.76674693078
 20
3415115.3056720998
 30
0.0681818181818182
  0
VERTEX
  5
70C
  8
EASTERN_ZHOU
 10
719669.9573062883
 20
3415132.5986402538
 30
0.0681818181818182
  0
VERTEX
  5
70D
  8
EASTERN_ZHOU
 10
719671.04869169381
 20
3415173.2753437851
 30
0.0681818181818182
  0
VERTEX
  5
70E
  8
EASTERN_ZHOU
 10
719691.43854286545
 20
3415177.1926778522
 30
0.0681818181818182
  0
VERTEX
  5
70F
  8
EASTERN_ZHOU
 10
719736.91293481027
 20
3415176.797508189
 30
0.0681818181818182
  0
VERTEX
  5
710
  8
EASTERN_ZHOU
 10
719756.52322497591
 20
3415177.1926778522
 30
0.0681818181818182
  0
VERTEX
  5
711
  8
EASTERN_ZHOU
 10
719758.01305267215
 20
3415158.7657445748
 30
0.0681818181818182
  0
VERTEX
  5
712
  8
EASTERN_ZHOU
 10
719760.45567715575
 20
3415141.429823196
 30
0.0681818181818182
  0
VERTEX
  5
713
  8
EASTERN_ZHOU
 10
719764.76924804971
 20
3415115.5891633821
 30
0.0681818181818182
  0
VERTEX
  5
714
  8
EASTERN_ZHOU
 10
719766.10316354409
 20
3415101.595002864
 30
0.0681818181818182
  0
VERTEX
  5
715
  8
EASTERN_ZHOU
 10
719754.9814265446
 20
3415099.3013006789
 30
0.0681818181818182
  0
VERTEX
  5
716
  8
EASTERN_ZHOU
 10
719742.88956918207
 20
3415096.999007849
 30
0.0681818181818182
  0
VERTEX
  5
717
  8
EASTERN_ZHOU
 10
719724.66516524565
 20
3415096.2344404552
 30
0.0681818181818182
  0
VERTEX
  5
718
  8
EASTERN_ZHOU
 10
719699.33809437987
 20
3415094.6967150201
 30
0.0681818181818182
  0
VERTEX
  5
719
  8
EASTERN_ZHOU
 10
719682.2743701638
 20
3415094.1211418118
 30
0.0681818181818182
  0
VERTEX
  5
71A
  8
EASTERN_ZHOU
 10
719672.48654865858
 20
3415096.4577972218
 30
0.0681818181818182
  0
SEQEND
  5
71B
  8
EASTERN_ZHOU
  0
POLYLINE
  5
11F
  8
EASTERN_ZHOU
 66
     1
 10
0.0
 20
0.0
 30
1.3
 70
     1
1001
ADE
1011
-27.08454855973832
1021
0.0
1031
0.0
1021
1.79974010400474
1031
0.0
1001
IRD
1002
{
1000
TPMLINK_Unit_topology-_-ade
1070
   515
1071
        5
1004
0100410500001E0100001E010000000000007CCFBB05C81F75407CCFBB05C81F7540DF01000000000000
1002
}
1001
DCO15
1071
        5
1071
        5
1000
unitlink
1004
074132363600
1071
        4
1000
Link
1004
074132363600
  0
VERTEX
  5
71C
  8
EASTERN_ZHOU
 10
720042.1024064013
 20
3415040.953640617
 30
1.3
  0
VERTEX
  5
71D
  8
EASTERN_ZHOU
 10
720120.28371339303
 20
3415015.2933843448
 30
1.3
  0
VERTEX
  5
71E
  8
EASTERN_ZHOU
 10
720127.2651152797
 20
3415028.1535797399
 30
1.3
  0
VERTEX
  5
71F
  8
EASTERN_ZHOU
 10
720125.65402253717
 20
3415063.5384460208
 30
1.3
  0
VERTEX
  5
720
  8
EASTERN_ZHOU
 10
720124.10997398628
 20
3415097.4508025618
 30
1.3
  0
VERTEX
  5
721
  8
EASTERN_ZHOU
 10
720116.5244969913
 20
3415106.9727465599
 30
1.3
  0
VERTEX
  5
722
  8
EASTERN_ZHOU
 10
720110.9289813377
 20
3415116.9293039832
 30
1.3
  0
VERTEX
  5
723
  8
EASTERN_ZHOU
 10
720062.02452096716
 20
3415110.5979987029
 30
1.3
  0
VERTEX
  5
724
  8
EASTERN_ZHOU
 10
720030.40726040816
 20
3415106.5047416221
 30
1.3
  0
VERTEX
  5
725
  8
EASTERN_ZHOU
 10
720030.56490353146
 20
3415091.8446209189
 30
1.3
  0
VERTEX
  5
726
  8
EASTERN_ZHOU
 10
720036.38562569767
 20
3415072.0345938131
 30
1.3
  0
VERTEX
  5
727
  8
EASTERN_ZHOU
 10
720042.1024064013
 20
3415040.953640617
 30
1.3
  0
VERTEX
  5
728
  8
EASTERN_ZHOU
 10
720042.1024064013
 20
3415040.953640617
 30
1.3
  0
SEQEND
  5
729
  8
EASTERN_ZHOU
  0
POLYLINE
  5
120
  8
EASTERN_ZHOU
 66
     1
 10
0.0
 20
0.0
 30
0.328125
 70
     1
1001
ADE
1011
-33.596559821045972
1021
0.0
1031
0.0
1021
-4.3417539708316308
1031
0.0
1001
IRD
1002
{
1000
TPMLINK_Unit_topology-_-ade
1070
   515
1071
        5
1004
010042050000120100001201000000000000FE4BE59164687340FE4BE59164687340DE01000000000000
1002
}
1001
DCO15
1071
        5
1071
        5
1000
unitlink
1004
074132363400
1071
        4
1000
Link
1004
074132363400
  0
VERTEX
  5
72A
  8
EASTERN_ZHOU
 10
719999.79822920635
 20
3415083.44297022
 30
0.328125
  0
VERTEX
  5
72B
  8
EASTERN_ZHOU
 10
719999.55569911748
 20
3415100.5813067681
 30
0.328125
  0
VERTEX
  5
72C
  8
EASTERN_ZHOU
 10
719999.40631398093
 20
3415111.1375752948
 30
0.328125
  0
VERTEX
  5
72D
  8
EASTERN_ZHOU
 10
719956.88772678724
 20
3415103.5364886071
 30
0.328125
  0
VERTEX
  5
72E
  8
EASTERN_ZHOU
 10
719932.16698114586
 20
3415093.8290598858
 30
0.328125
  0
VERTEX
  5
72F
  8
EASTERN_ZHOU
 10
719918.64955142594
 20
3415088.5209883819
 30
0.328125
  0
VERTEX
  5
730
  8
EASTERN_ZHOU
 10
719924.14616458467
 20
3415055.0079356511
 30
0.328125
  0
VERTEX
  5
731
  8
EASTERN_ZHOU
 10
719930.05350464582
 20
3415035.3783120881
 30
0.328125
  0
VERTEX
  5
732
  8
EASTERN_ZHOU
 10
719934.76551783108
 20
3415024.8977253269
 30
0.328125
  0
VERTEX
  5
733
  8
EASTERN_ZHOU
 10
720014.43665251858
 20
3415033.161925707
 30
0.328125
  0
VERTEX
  5
734
  8
EASTERN_ZHOU
 10
720009.4821092448
 20
3415053.7279295619
 30
0.328125
  0
VERTEX
  5
735
  8
EASTERN_ZHOU
 10
720005.81863607059
 20
3415068.9347809842
 30
0.328125
  0
SEQEND
  5
736
  8
EASTERN_ZHOU
  0
POLYLINE
  5
121
  8
EASTERN_ZHOU
 66
     1
 10
0.0
 20
0.0
 30
2.5
 70
     1
1001
ADE
1011
-21.374807079671879
1021
0.0
1031
0.0
1021
-3.2777180452831081
1031
0.0
1001
IRD
1002
{
1000
TPMLINK_Unit_topology-_-ade
1070
   515
1071
        5
1004
0100430500002E0100002E010000000000009494822BFFB675409494822BFFB6754000000000CD010000
1002
}
1001
DCO15
1071
        5
1071
        5
1000
unitlink
1004
074132363500
1071
        4
1000
Link
1004
074132363500
  0
VERTEX
  5
737
  8
EASTERN_ZHOU
 10
720112.14136482414
 20
3414910.7287559202
 30
2.5
  0
VERTEX
  5
738
  8
EASTERN_ZHOU
 10
720111.00205664919
 20
3414905.669149186
 30
2.5
  0
VERTEX
  5
739
  8
EASTERN_ZHOU
 10
720061.3608209939
 20
3414901.1084987381
 30
2.5
  0
VERTEX
  5
73A
  8
EASTERN_ZHOU
 10
720061.3608209939
 20
3414901.1084987381
 30
2.5
  0
VERTEX
  5
73B
  8
EASTERN_ZHOU
 10
720060.98846837424
 20
3414929.1822344339
 30
2.5
  0
VERTEX
  5
73C
  8
EASTERN_ZHOU
 10
720060.2963969683
 20
3414951.7189125852
 30
2.5
  0
VERTEX
  5
73D
  8
EASTERN_ZHOU
 10
720062.28218469047
 20
3414974.0867474731
 30
2.5
  0
VERTEX
  5
73E
  8
EASTERN_ZHOU
 10
720065.604830842
 20
3415023.5027826
 30
2.5
  0
VERTEX
  5
73F
  8
EASTERN_ZHOU
 10
720131.19921018369
 20
3415011.7206329349
 30
2.5
  0
VERTEX
  5
740
  8
EASTERN_ZHOU
 10
720116.10250699136
 20
3414950.6025080769
 30
2.5
  0
VERTEX
  5
741
  8
EASTERN_ZHOU
 10
720115.07170512411
 20
3414924.880093581
 30
2.5
  0
VERTEX
  5
742
  8
EASTERN_ZHOU
 10
720112.14136482414
 20
3414910.7287559202
 30
2.5
  0
SEQEND
  5
743
  8
EASTERN_ZHOU
  0
POLYLINE
  5
122
  8
EASTERN_ZHOU
 66
     1
 10
0.0
 20
0.0
 30
0.04
 70
     1
1001
ADE
1011
-13.855880483752101
1021
0.0
1031
0.0
1021
1.638261369429528
1031
0.0
1001
IRD
1002
{
1000
TPMLINK_Unit_topology-_-ade
1070
   515
1071
        5
1004
0100450500003E0100003E010000000000007954DBE56D8870407954DBE56D887040D101000000000000
1002
}
1001
DCO15
1071
        5
1071
        5
1000
unitlink
1004
074332303600
1071
        4
1000
Link
1004
074332303600
  0
VERTEX
  5
744
  8
EASTERN_ZHOU
 10
719880.73923190683
 20
3414768.9044289039
 30
0.04
  0
VERTEX
  5
745
  8
EASTERN_ZHOU
 10
719901.45405733224
 20
3414769.934883229
 30
0.04
  0
VERTEX
  5
746
  8
EASTERN_ZHOU
 10
719920.18094022246
 20
3414770.8664477998
 30
0.04
  0
VERTEX
  5
747
  8
EASTERN_ZHOU
 10
719940.48104817793
 20
3414776.4879287081
 30
0.04
  0
VERTEX
  5
748
  8
EASTERN_ZHOU
 10
719948.07864872739
 20
3414794.4323247401
 30
0.04
  0
VERTEX
  5
749
  8
EASTERN_ZHOU
 10
719943.24086034298
 20
3414814.091461177
 30
0.04
  0
VERTEX
  5
74A
  8
EASTERN_ZHOU
 10
719935.64325979725
 20
3414822.0291796541
 30
0.04
  0
VERTEX
  5
74B
  8
EASTERN_ZHOU
 10
719924.94492911187
 20
3414833.4124797862
 30
0.04
  0
VERTEX
  5
74C
  8
EASTERN_ZHOU
 10
719922.52603492164
 20
3414845.4881164161
 30
0.04
  0
VERTEX
  5
74D
  8
EASTERN_ZHOU
 10
719903.53203355137
 20
3414845.4881164161
 30
0.04
  0
VERTEX
  5
74E
  8
EASTERN_ZHOU
 10
719871.76172527671
 20
3414841.3421478388
 30
0.04
  0
VERTEX
  5
74F
  8
EASTERN_ZHOU
 10
719870.72273716703
 20
3414823.0596339819
 30
0.04
  0
VERTEX
  5
750
  8
EASTERN_ZHOU
 10
719878.6612556912
 20
3414802.0158245461
 30
0.04
  0
VERTEX
  5
751
  8
EASTERN_ZHOU
 10
719878.6612556912
 20
3414787.1869427632
 30
0.04
  0
VERTEX
  5
752
  8
EASTERN_ZHOU
 10
719881.45353623107
 20
3414775.465524808
 30
0.04
  0
VERTEX
  5
753
  8
EASTERN_ZHOU
 10
719880.73923190683
 20
3414768.9044289039
 30
0.04
  0
SEQEND
  5
754
  8
EASTERN_ZHOU
  0
POLYLINE
  5
123
  8
EASTERN_ZHOU
 66
     1
 10
0.0
 20
0.0
 30
2.0
 70
     1
1001
ADE
1011
-22.04602893802803
1021
0.0
1031
0.0
1021
-0.3930505043826997
1031
0.0
1001
IRD
1002
{
1000
TPMLINK_Unit_topology-_-ade
1070
   515
1071
        5
1004
0100460500004F0100004F01000000000000A8B0AB3C99027740A8B0AB3C99027740D401000000000000
1002
}
1001
DCO15
1071
        5
1071
        5
1000
unitlink
1004
074332303800
1071
        4
1000
Link
1004
074332303800
  0
VERTEX
  5
755
  8
EASTERN_ZHOU
 10
719962.31603265915
 20
3414680.5993234338
 30
2.0
  0
VERTEX
  5
756
  8
EASTERN_ZHOU
 10
719994.23244863376
 20
3414681.718332428
 30
2.0
  0
VERTEX
  5
757
  8
EASTERN_ZHOU
 10
720015.07534430234
 20
3414682.4490970508
 30
2.0
  0
VERTEX
  5
758
  8
EASTERN_ZHOU
 10
720031.74965988495
 20
3414725.3596832128
 30
2.0
  0
VERTEX
  5
759
  8
EASTERN_ZHOU
 10
720036.23029610515
 20
3414761.1599206119
 30
2.0
  0
VERTEX
  5
75A
  8
EASTERN_ZHOU
 10
720030.54832988605
 20
3414798.7312513818
 30
2.0
  0
VERTEX
  5
75B
  8
EASTERN_ZHOU
 10
720010.88872675982
 20
3414801.1544291331
 30
2.0
  0
VERTEX
  5
75C
  8
EASTERN_ZHOU
 10
719993.34222720121
 20
3414803.3171527172
 30
2.0
  0
VERTEX
  5
75D
  8
EASTERN_ZHOU
 10
719977.51123375469
 20
3414799.0693692081
 30
2.0
  0
VERTEX
  5
75E
  8
EASTERN_ZHOU
 10
719957.3483707644
 20
3414799.415537457
 30
2.0
  0
VERTEX
  5
75F
  8
EASTERN_ZHOU
 10
719954.91324238095
 20
3414788.2979013338
 30
2.0
  0
VERTEX
  5
760
  8
EASTERN_ZHOU
 10
719956.29314846545
 20
3414770.2407993581
 30
2.0
  0
VERTEX
  5
761
  8
EASTERN_ZHOU
 10
719957.79922936112
 20
3414750.5326057179
 30
2.0
  0
VERTEX
  5
762
  8
EASTERN_ZHOU
 10
719953.85802008223
 20
3414733.772376732
 30
2.0
  0
VERTEX
  5
763
  8
EASTERN_ZHOU
 10
719954.2151722461
 20
3414709.105876307
 30
2.0
  0
VERTEX
  5
764
  8
EASTERN_ZHOU
 10
719961.86147535965
 20
3414691.0487743299
 30
2.0
  0
VERTEX
  5
765
  8
EASTERN_ZHOU
 10
719962.31603265915
 20
3414680.5993234338
 30
2.0
  0
SEQEND
  5
766
  8
EASTERN_ZHOU
  0
POLYLINE
  5
124
  8
EASTERN_ZHOU
 66
     1
 10
0.0
 20
0.0
 30
3.7000000000000002
 70
     1
1001
ADE
1011
-24.229527387884449
1021
0.0
1031
0.0
1021
1.0955618838779611
1031
0.0
1001
IRD
1002
{
1000
TPMLINK_Unit_topology-_-ade
1070
   515
1071
        5
1004
01004705000055010000550100000000000084E852EB8B52734084E852EB8B527340D501000000000000
1002
}
1001
DCO15
1071
        5
1071
        5
1000
unitlink
1004
074332303900
1071
        4
1000
Link
1004
074332303900
  0
VERTEX
  5
767
  8
EASTERN_ZHOU
 10
719975.06098856195
 20
3414653.3764102301
 30
3.7000000000000002
  0
VERTEX
  5
768
  8
EASTERN_ZHOU
 10
719978.60743010347
 20
3414608.6550015169
 30
3.7000000000000002
  0
VERTEX
  5
769
  8
EASTERN_ZHOU
 10
719971.7805649637
 20
3414577.22382345
 30
3.7000000000000002
  0
VERTEX
  5
76A
  8
EASTERN_ZHOU
 10
719974.34369680053
 20
3414559.624187341
 30
3.7000000000000002
  0
VERTEX
  5
76B
  8
EASTERN_ZHOU
 10
719990.10576006968
 20
3414560.3243476069
 30
3.7000000000000002
  0
VERTEX
  5
76C
  8
EASTERN_ZHOU
 10
720038.51931678527
 20
3414570.1877525048
 30
3.7000000000000002
  0
VERTEX
  5
76D
  8
EASTERN_ZHOU
 10
720038.51931678527
 20
3414594.6690931679
 30
3.7000000000000002
  0
VERTEX
  5
76E
  8
EASTERN_ZHOU
 10
720038.51931678527
 20
3414625.6149246409
 30
3.7000000000000002
  0
VERTEX
  5
76F
  8
EASTERN_ZHOU
 10
720035.61339691654
 20
3414658.4204041562
 30
3.7000000000000002
  0
VERTEX
  5
770
  8
EASTERN_ZHOU
 10
719999.88194647816
 20
3414656.5205039922
 30
3.7000000000000002
  0
VERTEX
  5
771
  8
EASTERN_ZHOU
 10
719975.06098856195
 20
3414653.3764102301
 30
3.7000000000000002
  0
SEQEND
  5
772
  8
EASTERN_ZHOU
  0
POLYLINE
  5
125
  8
EASTERN_ZHOU
 66
     1
 10
0.0
 20
0.0
 30
0.125
 70
     1
1001
ADE
1011
-17.63854492933023
1021
0.0
1031
0.0
1021
7.231235827319324
1031
0.0
1001
IRD
1002
{
1000
TPMLINK_Unit_topology-_-ade
1070
   515
1071
        5
1004
01004805000079010000790100000000000065E703BA3EFB744065E703BA3EFB744000000000D6010000
1002
}
1001
DCO15
1071
        5
1071
        5
1000
unitlink
1004
074331383000
1071
        4
1000
Link
1004
074331383000
  0
VERTEX
  5
773
  8
EASTERN_ZHOU
 10
720074.8351980336
 20
3414487.5098937051
 30
0.125
  0
VERTEX
  5
774
  8
EASTERN_ZHOU
 10
720056.36069072061
 20
3414482.0517059481
 30
0.125
  0
VERTEX
  5
775
  8
EASTERN_ZHOU
 10
720042.35058543447
 20
3414483.524933619
 30
0.125
  0
VERTEX
  5
776
  8
EASTERN_ZHOU
 10
720026.84693474695
 20
3414481.2547139321
 30
0.125
  0
VERTEX
  5
777
  8
EASTERN_ZHOU
 10
720018.31724468549
 20
3414476.984795955
 30
0.125
  0
VERTEX
  5
778
  8
EASTERN_ZHOU
 10
720003.97202297568
 20
3414473.823663854
 30
0.125
  0
VERTEX
  5
779
  8
EASTERN_ZHOU
 10
719996.58846906875
 20
3414472.137724095
 30
0.125
  0
VERTEX
  5
77A
  8
EASTERN_ZHOU
 10
719996.06691201439
 20
3414492.0422826549
 30
0.125
  0
VERTEX
  5
77B
  8
EASTERN_ZHOU
 10
719996.39159579959
 20
3414504.3433311698
 30
0.125
  0
VERTEX
  5
77C
  8
EASTERN_ZHOU
 10
719996.92732404172
 20
3414528.9293273492
 30
0.125
  0
VERTEX
  5
77D
  8
EASTERN_ZHOU
 10
719994.76817687973
 20
3414546.9542276282
 30
0.125
  0
VERTEX
  5
77E
  8
EASTERN_ZHOU
 10
719990.43364836276
 20
3414559.384082933
 30
0.125
  0
VERTEX
  5
77F
  8
EASTERN_ZHOU
 10
720018.47009311628
 20
3414561.7026051669
 30
0.125
  0
VERTEX
  5
780
  8
EASTERN_ZHOU
 10
720041.4901734069
 20
3414565.6231618589
 30
0.125
  0
VERTEX
  5
781
  8
EASTERN_ZHOU
 10
720060.77639018372
 20
3414566.51675897
 30
0.125
  0
VERTEX
  5
782
  8
EASTERN_ZHOU
 10
720073.6338680312
 20
3414569.7288783132
 30
0.125
  0
VERTEX
  5
783
  8
EASTERN_ZHOU
 10
720075.77678100776
 20
3414555.8177449158
 30
0.125
  0
VERTEX
  5
784
  8
EASTERN_ZHOU
 10
720078.17963772488
 20
3414540.2191365291
 30
0.125
  0
VERTEX
  5
785
  8
EASTERN_ZHOU
 10
720077.38396573812
 20
3414522.819055215
 30
0.125
  0
VERTEX
  5
786
  8
EASTERN_ZHOU
 10
720076.19405345095
 20
3414496.7975653321
 30
0.125
  0
VERTEX
  5
787
  8
EASTERN_ZHOU
 10
720074.8351980336
 20
3414487.5098937051
 30
0.125
  0
SEQEND
  5
788
  8
EASTERN_ZHOU
  0
POLYLINE
  5
126
  8
EASTERN_ZHOU
 66
     1
 10
0.0
 20
0.0
 30
0.4166666666666667
 70
     1
1001
ADE
1011
-14.854283122112969
1021
0.0
1031
0.0
1021
-0.7889415938407183
1031
0.0
1001
IRD
1002
{
1000
TPMLINK_Unit_topology-_-ade
1070
   515
1071
        5
1004
0100490500006A0100006A0100000000000062A0481E1E9F714062A0481E1E9F7140D701000000000000
1002
}
1001
DCO15
1071
        5
1071
        5
1000
unitlink
1004
074332313100
1071
        4
1000
Link
1004
074332313100
  0
VERTEX
  5
789
  8
EASTERN_ZHOU
 10
719915.99989086017
 20
3414523.4308874719
 30
0.4166666666666667
  0
VERTEX
  5
78A
  8
EASTERN_ZHOU
 10
719916.34080883127
 20
3414502.6205403451
 30
0.4166666666666667
  0
VERTEX
  5
78B
  8
EASTERN_ZHOU
 10
719922.78578194603
 20
3414484.6278417651
 30
0.4166666666666667
  0
VERTEX
  5
78C
  8
EASTERN_ZHOU
 10
719924.13321965176
 20
3414468.7765560788
 30
0.4166666666666667
  0
VERTEX
  5
78D
  8
EASTERN_ZHOU
 10
719928.43527979031
 20
3414460.718081235
 30
0.4166666666666667
  0
VERTEX
  5
78E
  8
EASTERN_ZHOU
 10
719993.51814430952
 20
3414474.6855676039
 30
0.4166666666666667
  0
VERTEX
  5
78F
  8
EASTERN_ZHOU
 10
719995.12532903999
 20
3414495.1014439352
 30
0.4166666666666667
  0
VERTEX
  5
790
  8
EASTERN_ZHOU
 10
719994.9142845833
 20
3414525.0329219289
 30
0.4166666666666667
  0
VERTEX
  5
791
  8
EASTERN_ZHOU
 10
719991.06678174075
 20
3414540.248224088
 30
0.4166666666666667
  0
VERTEX
  5
792
  8
EASTERN_ZHOU
 10
719986.42380362737
 20
3414546.6000089529
 30
0.4166666666666667
  0
VERTEX
  5
793
  8
EASTERN_ZHOU
 10
719972.25135645282
 20
3414543.1624777252
 30
0.4166666666666667
  0
VERTEX
  5
794
  8
EASTERN_ZHOU
 10
719961.41875157121
 20
3414540.5350262281
 30
0.4166666666666667
  0
VERTEX
  5
795
  8
EASTERN_ZHOU
 10
719951.03327116359
 20
3414538.8393998118
 30
0.4166666666666667
  0
VERTEX
  5
796
  8
EASTERN_ZHOU
 10
719938.92283478752
 20
3414536.8621416572
 30
0.4166666666666667
  0
VERTEX
  5
797
  8
EASTERN_ZHOU
 10
719932.80227668595
 20
3414533.445615449
 30
0.4166666666666667
  0
VERTEX
  5
798
  8
EASTERN_ZHOU
 10
719917.70448072627
 20
3414527.9632764189
 30
0.4166666666666667
  0
VERTEX
  5
799
  8
EASTERN_ZHOU
 10
719915.99989086017
 20
3414523.4308874719
 30
0.4166666666666667
  0
SEQEND
  5
79A
  8
EASTERN_ZHOU
  0
POLYLINE
  5
127
  8
EASTERN_ZHOU
 66
     1
 10
0.0
 20
0.0
 30
0.0673076923076923
 70
     1
1001
ADE
1011
-23.457518509705562
1021
0.0
1031
0.0
1021
0.1247815787792206
1031
0.0
1001
IRD
1002
{
1000
TPMLINK_Unit_topology-_-ade
1070
   515
1071
        5
1004
01004A050000970100009701000000000000A741868B10D67840A741868B10D67840D801000000000000
1002
}
1001
DCO15
1071
        5
1071
        5
1000
unitlink
1004
074332313200
1071
        4
1000
Link
1004
074332313200
  0
VERTEX
  5
79B
  8
EASTERN_ZHOU
 10
719994.63830336556
 20
3414370.2635124451
 30
0.0673076923076923
  0
VERTEX
  5
79C
  8
EASTERN_ZHOU
 10
720085.20884493354
 20
3414378.30588644
 30
0.0673076923076923
  0
VERTEX
  5
79D
  8
EASTERN_ZHOU
 10
720086.71862453222
 20
3414403.9464882212
 30
0.0673076923076923
  0
VERTEX
  5
79E
  8
EASTERN_ZHOU
 10
720084.62441412359
 20
3414440.398809996
 30
0.0673076923076923
  0
VERTEX
  5
79F
  8
EASTERN_ZHOU
 10
720083.54073830519
 20
3414459.2615276431
 30
0.0673076923076923
  0
VERTEX
  5
7A0
  8
EASTERN_ZHOU
 10
720077.20538965613
 20
3414479.9183434779
 30
0.0673076923076923
  0
VERTEX
  5
7A1
  8
EASTERN_ZHOU
 10
720056.0035385564
 20
3414478.8556874529
 30
0.0673076923076923
  0
VERTEX
  5
7A2
  8
EASTERN_ZHOU
 10
720041.52264178544
 20
3414477.6722750631
 30
0.0673076923076923
  0
VERTEX
  5
7A3
  8
EASTERN_ZHOU
 10
720023.71373622864
 20
3414472.3589949468
 30
0.0673076923076923
  0
VERTEX
  5
7A4
  8
EASTERN_ZHOU
 10
720007.87941683515
 20
3414467.6348318518
 30
0.0673076923076923
  0
VERTEX
  5
7A5
  8
EASTERN_ZHOU
 10
719989.15330122737
 20
3414462.0479024691
 30
0.0673076923076923
  0
VERTEX
  5
7A6
  8
EASTERN_ZHOU
 10
719972.08901455998
 20
3414456.2581461049
 30
0.0673076923076923
  0
VERTEX
  5
7A7
  8
EASTERN_ZHOU
 10
719966.42151274346
 20
3414454.3352145832
 30
0.0673076923076923
  0
VERTEX
  5
7A8
  8
EASTERN_ZHOU
 10
719972.86825564096
 20
3414429.5065857559
 30
0.0673076923076923
  0
VERTEX
  5
7A9
  8
EASTERN_ZHOU
 10
719982.2678511925
 20
3414407.6013809079
 30
0.0673076923076923
  0
VERTEX
  5
7AA
  8
EASTERN_ZHOU
 10
719988.32809395227
 20
3414393.4783414281
 30
0.0673076923076923
  0
VERTEX
  5
7AB
  8
EASTERN_ZHOU
 10
719990.54728768405
 20
3414377.1788270222
 30
0.0673076923076923
  0
VERTEX
  5
7AC
  8
EASTERN_ZHOU
 10
719994.63830336556
 20
3414370.2635124451
 30
0.0673076923076923
  0
SEQEND
  5
7AD
  8
EASTERN_ZHOU
  0
POLYLINE
  5
128
  8
EASTERN_ZHOU
 66
     1
 10
0.0
 20
0.0
 30
0.06
 70
     1
1001
ADE
1011
-21.00264048087411
1021
0.0
1031
0.0
1021
12.92815628973767
1031
0.0
1001
IRD
1002
{
1000
TPMLINK_Unit_topology-_-ade
1070
   515
1071
        5
1004
01004B0500009C0100009C0100000000000045CE80728670744045CE80728670744000000000D9010000
1002
}
1001
DCO15
1071
        5
1071
        5
1000
unitlink
1004
074332313300
1071
        4
1000
Link
1004
074332313300
  0
VERTEX
  5
7AE
  8
EASTERN_ZHOU
 10
719989.37842606381
 20
3414353.7601423832
 30
0.06
  0
VERTEX
  5
7AF
  8
EASTERN_ZHOU
 10
720015.4505339266
 20
3414357.3908837968
 30
0.06
  0
VERTEX
  5
7B0
  8
EASTERN_ZHOU
 10
720035.05982527672
 20
3414360.1216283371
 30
0.06
  0
VERTEX
  5
7B1
  8
EASTERN_ZHOU
 10
720060.33806707349
 20
3414359.0412208019
 30
0.06
  0
VERTEX
  5
7B2
  8
EASTERN_ZHOU
 10
720072.87829462602
 20
3414358.5052437969
 30
0.06
  0
VERTEX
  5
7B3
  8
EASTERN_ZHOU
 10
720070.90652424458
 20
3414345.8465751768
 30
0.06
  0
VERTEX
  5
7B4
  8
EASTERN_ZHOU
 10
720067.30253424495
 20
3414329.6008186969
 30
0.06
  0
VERTEX
  5
7B5
  8
EASTERN_ZHOU
 10
720062.25370140001
 20
3414318.7166448799
 30
0.06
  0
VERTEX
  5
7B6
  8
EASTERN_ZHOU
 10
720061.44199194014
 20
3414308.323546953
 30
0.06
  0
VERTEX
  5
7B7
  8
EASTERN_ZHOU
 10
720055.93860179919
 20
3414295.2979602399
 30
0.06
  0
VERTEX
  5
7B8
  8
EASTERN_ZHOU
 10
720054.78597436845
 20
3414284.9531648601
 30
0.06
  0
VERTEX
  5
7B9
  8
EASTERN_ZHOU
 10
720052.22097247094
 20
3414277.6031273631
 30
0.06
  0
VERTEX
  5
7BA
  8
EASTERN_ZHOU
 10
720047.39941827953
 20
3414262.6132370932
 30
0.06
  0
VERTEX
  5
7BB
  8
EASTERN_ZHOU
 10
720047.9189123325
 20
3414254.6755186138
 30
0.06
  0
VERTEX
  5
7BC
  8
EASTERN_ZHOU
 10
720033.29190786183
 20
3414256.462712836
 30
0.06
  0
VERTEX
  5
7BD
  8
EASTERN_ZHOU
 10
720028.73322088865
 20
3414257.0197140332
 30
0.06
  0
VERTEX
  5
7BE
  8
EASTERN_ZHOU
 10
720018.53502987325
 20
3414261.1883119708
 30
0.06
  0
VERTEX
  5
7BF
  8
EASTERN_ZHOU
 10
720009.39518135064
 20
3414266.3325331742
 30
0.06
  0
VERTEX
  5
7C0
  8
EASTERN_ZHOU
 10
720002.64175864321
 20
3414267.5722985351
 30
0.06
  0
VERTEX
  5
7C1
  8
EASTERN_ZHOU
 10
720001.06704229116
 20
3414281.8054489112
 30
0.06
  0
VERTEX
  5
7C2
  8
EASTERN_ZHOU
 10
719996.32665904239
 20
3414296.6745828162
 30
0.06
  0
VERTEX
  5
7C3
  8
EASTERN_ZHOU
 10
719992.67396647111
 20
3414324.1426309398
 30
0.06
  0
VERTEX
  5
7C4
  8
EASTERN_ZHOU
 10
719990.24317168933
 20
3414342.4220745931
 30
0.06
  0
VERTEX
  5
7C5
  8
EASTERN_ZHOU
 10
719989.37842606381
 20
3414353.7601423832
 30
0.06
  0
SEQEND
  5
7C6
  8
EASTERN_ZHOU
  0
POLYLINE
  5
129
  8
EASTERN_ZHOU
 66
     1
 10
0.0
 20
0.0
 30
0.2173913043478261
 70
     1
1001
ADE
1011
-20.326109336339869
1021
0.0
1031
0.0
1021
5.642672277055679
1031
0.0
1001
IRD
1002
{
1000
TPMLINK_Unit_topology-_-ade
1070
   515
1071
        5
1004
01004C050000B4010000B401000000000000A7C77401C6EC7B40A7C77401C6EC7B40DA01000000000000
1002
}
1001
DCO15
1071
        5
1071
        5
1000
unitlink
1004
074332313400
1071
        4
1000
Link
1004
074332313400
  0
VERTEX
  5
7C7
  8
EASTERN_ZHOU
 10
720182.87372718763
 20
3414191.004711871
 30
0.2173913043478261
  0
VERTEX
  5
7C8
  8
EASTERN_ZHOU
 10
720195.68250247091
 20
3414221.6446272158
 30
0.2173913043478261
  0
VERTEX
  5
7C9
  8
EASTERN_ZHOU
 10
720201.00731652987
 20
3414247.9051116752
 30
0.2173913043478261
  0
VERTEX
  5
7CA
  8
EASTERN_ZHOU
 10
720203.82122624549
 20
3414261.7825225182
 30
0.2173913043478261
  0
VERTEX
  5
7CB
  8
EASTERN_ZHOU
 10
720205.34262923908
 20
3414269.2856539371
 30
0.2173913043478261
  0
VERTEX
  5
7CC
  8
EASTERN_ZHOU
 10
720158.18152540934
 20
3414283.3350295508
 30
0.2173913043478261
  0
VERTEX
  5
7CD
  8
EASTERN_ZHOU
 10
720134.32168862922
 20
3414290.44291681
 30
0.2173913043478261
  0
VERTEX
  5
7CE
  8
EASTERN_ZHOU
 10
720110.16079374403
 20
3414299.8947525839
 30
0.2173913043478261
  0
VERTEX
  5
7CF
  8
EASTERN_ZHOU
 10
720086.94590318203
 20
3414307.880773609
 30
0.2173913043478261
  0
VERTEX
  5
7D0
  8
EASTERN_ZHOU
 10
720074.9600983964
 20
3414312.0039413981
 30
0.2173913043478261
  0
VERTEX
  5
7D1
  8
EASTERN_ZHOU
 10
720065.80898883555
 20
3414306.1499323598
 30
0.2173913043478261
  0
VERTEX
  5
7D2
  8
EASTERN_ZHOU
 10
720062.35110653564
 20
3414290.9265797799
 30
0.2173913043478261
  0
VERTEX
  5
7D3
  8
EASTERN_ZHOU
 10
720058.65302925324
 20
3414274.6457670019
 30
0.2173913043478261
  0
VERTEX
  5
7D4
  8
EASTERN_ZHOU
 10
720051.53913652548
 20
3414255.9957882199
 30
0.2173913043478261
  0
VERTEX
  5
7D5
  8
EASTERN_ZHOU
 10
720049.41245774168
 20
3414246.5606907969
 30
0.2173913043478261
  0
VERTEX
  5
7D6
  8
EASTERN_ZHOU
 10
720047.38420880132
 20
3414237.5622814
 30
0.2173913043478261
  0
VERTEX
  5
7D7
  8
EASTERN_ZHOU
 10
720052.48071949941
 20
3414230.2666317699
 30
0.2173913043478261
  0
VERTEX
  5
7D8
  8
EASTERN_ZHOU
 10
720077.28656060249
 20
3414220.1794499708
 30
0.2173913043478261
  0
VERTEX
  5
7D9
  8
EASTERN_ZHOU
 10
720090.82587439951
 20
3414216.8385238382
 30
0.2173913043478261
  0
VERTEX
  5
7DA
  8
EASTERN_ZHOU
 10
720106.4756327942
 20
3414210.1969236908
 30
0.2173913043478261
  0
VERTEX
  5
7DB
  8
EASTERN_ZHOU
 10
720128.86257970706
 20
3414202.8710374678
 30
0.2173913043478261
  0
VERTEX
  5
7DC
  8
EASTERN_ZHOU
 10
720143.06041386526
 20
3414198.2249498139
 30
0.2173913043478261
  0
VERTEX
  5
7DD
  8
EASTERN_ZHOU
 10
720155.84380216151
 20
3414196.7768661832
 30
0.2173913043478261
  0
VERTEX
  5
7DE
  8
EASTERN_ZHOU
 10
720172.9221692048
 20
3414193.9914193312
 30
0.2173913043478261
  0
VERTEX
  5
7DF
  8
EASTERN_ZHOU
 10
720182.87372718763
 20
3414191.004711871
 30
0.2173913043478261
  0
SEQEND
  5
7E0
  8
EASTERN_ZHOU
  0
POLYLINE
  5
12A
  8
EASTERN_ZHOU
 66
     1
 10
0.0
 20
0.0
 30
0.0428571428571429
 70
     1
1001
ADE
1011
-21.745696438360032
1021
0.0
1031
0.0
1021
14.54309171577915
1031
0.0
1001
IRD
1002
{
1000
TPMLINK_Unit_topology-_-ade
1070
   515
1071
        5
1004
01004D050000A8010000A801000000000000C2C985B4C9CE7940C2C985B4C9CE794000000000DB010000
1002
}
1001
DCO15
1071
        5
1071
        5
1000
unitlink
1004
074332313500
1071
        4
1000
Link
1004
074332313500
  0
VERTEX
  5
7E1
  8
EASTERN_ZHOU
 10
720223.92999168485
 20
3414280.3885742142
 30
0.0428571428571429
  0
VERTEX
  5
7E2
  8
EASTERN_ZHOU
 10
720253.2814057658
 20
3414272.0724857869
 30
0.0428571428571429
  0
VERTEX
  5
7E3
  8
EASTERN_ZHOU
 10
720275.55471335363
 20
3414269.375593605
 30
0.0428571428571429
  0
VERTEX
  5
7E4
  8
EASTERN_ZHOU
 10
720294.82469594129
 20
3414264.0220613661
 30
0.0428571428571429
  0
VERTEX
  5
7E5
  8
EASTERN_ZHOU
 10
720303.2648390301
 20
3414261.677244606
 30
0.0428571428571429
  0
VERTEX
  5
7E6
  8
EASTERN_ZHOU
 10
720304.02948122099
 20
3414253.2183917938
 30
0.0428571428571429
  0
VERTEX
  5
7E7
  8
EASTERN_ZHOU
 10
720302.13008108363
 20
3414236.4413073021
 30
0.0428571428571429
  0
VERTEX
  5
7E8
  8
EASTERN_ZHOU
 10
720301.52941608056
 20
3414213.0548243588
 30
0.0428571428571429
  0
VERTEX
  5
7E9
  8
EASTERN_ZHOU
 10
720301.14920385089
 20
3414198.25152006
 30
0.0428571428571429
  0
VERTEX
  5
7EA
  8
EASTERN_ZHOU
 10
720298.86700905114
 20
3414179.3315964611
 30
0.0428571428571429
  0
VERTEX
  5
7EB
  8
EASTERN_ZHOU
 10
720297.74684999906
 20
3414164.4383112839
 30
0.0428571428571429
  0
VERTEX
  5
7EC
  8
EASTERN_ZHOU
 10
720298.03906540212
 20
3414148.4501683819
 30
0.0428571428571429
  0
VERTEX
  5
7ED
  8
EASTERN_ZHOU
 10
720293.63960012805
 20
3414142.9597789301
 30
0.0428571428571429
  0
VERTEX
  5
7EE
  8
EASTERN_ZHOU
 10
720256.67435131234
 20
3414156.4925423791
 30
0.0428571428571429
  0
VERTEX
  5
7EF
  8
EASTERN_ZHOU
 10
720219.3255947578
 20
3414170.1657057921
 30
0.0428571428571429
  0
VERTEX
  5
7F0
  8
EASTERN_ZHOU
 10
720193.96167841565
 20
3414184.0008426262
 30
0.0428571428571429
  0
VERTEX
  5
7F1
  8
EASTERN_ZHOU
 10
720191.80253124982
 20
3414191.4635860631
 30
0.0428571428571429
  0
VERTEX
  5
7F2
  8
EASTERN_ZHOU
 10
720201.44563963637
 20
3414213.9323206218
 30
0.0428571428571429
  0
VERTEX
  5
7F3
  8
EASTERN_ZHOU
 10
720204.14051504433
 20
3414227.7065968039
 30
0.0428571428571429
  0
VERTEX
  5
7F4
  8
EASTERN_ZHOU
 10
720213.88102856639
 20
3414256.1165445852
 30
0.0428571428571429
  0
VERTEX
  5
7F5
  8
EASTERN_ZHOU
 10
720217.3876258441
 20
3414266.3441619808
 30
0.0428571428571429
  0
VERTEX
  5
7F6
  8
EASTERN_ZHOU
 10
720223.92999168485
 20
3414280.3885742142
 30
0.0428571428571429
  0
SEQEND
  5
7F7
  8
EASTERN_ZHOU
  0
POLYLINE
  5
12B
  8
EASTERN_ZHOU
 66
     1
 10
0.0
 20
0.0
 30
0.03
 70
     1
1001
ADE
1011
-16.91773340571671
1021
0.0
1031
0.0
1021
-2.2581440508365631
1031
0.0
1001
IRD
1002
{
1000
TPMLINK_Unit_topology-_-ade
1070
   515
1071
        5
1004
01004F0500002D0100002D010000000000001CA5D15129FB7A401CA5D15129FB7A4000000000CF010000
1002
}
1001
DCO15
1071
        5
1071
        5
1000
unitlink
1004
074132353600
1071
        4
1000
Link
1004
074132353600
  0
VERTEX
  5
7F8
  8
EASTERN_ZHOU
 10
719764.69724747562
 20
3414928.3833366758
 30
0.03
  0
VERTEX
  5
7F9
  8
EASTERN_ZHOU
 10
719792.24666655436
 20
3414941.851696732
 30
0.03
  0
VERTEX
  5
7FA
  8
EASTERN_ZHOU
 10
719801.63002791628
 20
3414908.4826875082
 30
0.03
  0
VERTEX
  5
7FB
  8
EASTERN_ZHOU
 10
719808.04253265262
 20
3414863.223201415
 30
0.03
  0
VERTEX
  5
7FC
  8
EASTERN_ZHOU
 10
719818.78956590593
 20
3414816.8125046301
 30
0.03
  0
VERTEX
  5
7FD
  8
EASTERN_ZHOU
 10
719822.92928415164
 20
3414796.5656872122
 30
0.03
  0
VERTEX
  5
7FE
  8
EASTERN_ZHOU
 10
719834.16334307962
 20
3414761.0472146678
 30
0.03
  0
VERTEX
  5
7FF
  8
EASTERN_ZHOU
 10
719799.90920386103
 20
3414754.7034802269
 30
0.03
  0
VERTEX
  5
800
  8
EASTERN_ZHOU
 10
719797.08445493877
 20
3414764.6055022641
 30
0.03
  0
VERTEX
  5
801
  8
EASTERN_ZHOU
 10
719789.46066644869
 20
3414791.3303276268
 30
0.03
  0
VERTEX
  5
802
  8
EASTERN_ZHOU
 10
719777.86702016986
 20
3414831.9712993079
 30
0.03
  0
VERTEX
  5
803
  8
EASTERN_ZHOU
 10
719771.95393005037
 20
3414867.5140776308
 30
0.03
  0
VERTEX
  5
804
  8
EASTERN_ZHOU
 10
719764.8595893681
 20
3414907.2348717218
 30
0.03
  0
VERTEX
  5
805
  8
EASTERN_ZHOU
 10
719761.37265519984
 20
3414926.7580099972
 30
0.03
  0
VERTEX
  5
806
  8
EASTERN_ZHOU
 10
719764.69724747562
 20
3414928.3833366758
 30
0.03
  0
SEQEND
  5
807
  8
EASTERN_ZHOU
  0
POLYLINE
  5
12C
  8
EASTERN_ZHOU
 66
     1
 10
0.0
 20
0.0
 30
0.0625
 70
     1
1001
ADE
1011
-17.118952514487319
1021
0.0
1031
0.0
1021
-4.8058847845532
1031
0.0
1001
IRD
1002
{
1000
TPMLINK_Unit_topology-_-ade
1070
   515
1071
        5
1004
0100500500005901000059010000000000003896FD828B0075403896FD828B007540CE01000000000000
1002
}
1001
DCO15
1071
        5
1071
        5
1000
unitlink
1004
074132353700
1071
        4
1000
Link
1004
074132353700
  0
VERTEX
  5
808
  8
EASTERN_ZHOU
 10
719861.37184418726
 20
3414632.9649621369
 30
0.0625
  0
VERTEX
  5
809
  8
EASTERN_ZHOU
 10
719847.89746714733
 20
3414686.4680828368
 30
0.0625
  0
VERTEX
  5
80A
  8
EASTERN_ZHOU
 10
719844.94284471124
 20
3414712.7205168731
 30
0.0625
  0
VERTEX
  5
80B
  8
EASTERN_ZHOU
 10
719806.50028467551
 20
3414703.8650500099
 30
0.0625
  0
VERTEX
  5
80C
  8
EASTERN_ZHOU
 10
719779.55153059587
 20
3414702.8748478061
 30
0.0625
  0
VERTEX
  5
80D
  8
EASTERN_ZHOU
 10
719764.11281666532
 20
3414696.96583628
 30
0.0625
  0
VERTEX
  5
80E
  8
EASTERN_ZHOU
 10
719767.39212288347
 20
3414653.9685194511
 30
0.0625
  0
VERTEX
  5
80F
  8
EASTERN_ZHOU
 10
719770.03966950392
 20
3414619.2546521579
 30
0.0625
  0
VERTEX
  5
810
  8
EASTERN_ZHOU
 10
719796.64613182843
 20
3414619.834719907
 30
0.0625
  0
VERTEX
  5
811
  8
EASTERN_ZHOU
 10
719823.55147105723
 20
3414620.4213036988
 30
0.0625
  0
VERTEX
  5
812
  8
EASTERN_ZHOU
 10
719847.57278336212
 20
3414630.3324733521
 30
0.0625
  0
VERTEX
  5
813
  8
EASTERN_ZHOU
 10
719861.37184418726
 20
3414632.9649621369
 30
0.0625
  0
SEQEND
  5
814
  8
EASTERN_ZHOU
  0
POLYLINE
  5
12D
  8
EASTERN_ZHOU
 66
     1
 10
0.0
 20
0.0
 30
0.1842105263157895
 70
     1
1001
ADE
1011
-15.441325817373579
1021
0.0
1031
0.0
1021
7.7294855592772347
1031
0.0
1001
IRD
1002
{
1000
TPMLINK_Unit_topology-_-ade
1070
   515
1071
        5
1004
010055050000C6010000C601000000000000254A1EEE99AA7140254A1EEE99AA7140C801000000000000
1002
}
1001
DCO15
1071
        5
1071
        5
1000
unitlink
1004
074331393200
1071
        4
1000
Link
1004
074331393200
  0
VERTEX
  5
815
  8
EASTERN_ZHOU
 10
719909.2628709228
 20
3413717.4213679088
 30
0.1842105263157895
  0
VERTEX
  5
816
  8
EASTERN_ZHOU
 10
719911.67689555511
 20
3413738.0274441889
 30
0.1842105263157895
  0
VERTEX
  5
817
  8
EASTERN_ZHOU
 10
719914.39037698205
 20
3413761.189678953
 30
0.1842105263157895
  0
VERTEX
  5
818
  8
EASTERN_ZHOU
 10
719912.34283338476
 20
3413779.4086309681
 30
0.1842105263157895
  0
VERTEX
  5
819
  8
EASTERN_ZHOU
 10
719894.44575420395
 20
3413781.9602427571
 30
0.1842105263157895
  0
VERTEX
  5
81A
  8
EASTERN_ZHOU
 10
719874.45097085461
 20
3413783.3688612529
 30
0.1842105263157895
  0
VERTEX
  5
81B
  8
EASTERN_ZHOU
 10
719862.62994892104
 20
3413784.2016439778
 30
0.1842105263157895
  0
VERTEX
  5
81C
  8
EASTERN_ZHOU
 10
719842.48609814455
 20
3413785.6207641689
 30
0.1842105263157895
  0
VERTEX
  5
81D
  8
EASTERN_ZHOU
 10
719825.23816521105
 20
3413784.560150038
 30
0.1842105263157895
  0
VERTEX
  5
81E
  8
EASTERN_ZHOU
 10
719827.01954890788
 20
3413764.259945204
 30
0.1842105263157895
  0
VERTEX
  5
81F
  8
EASTERN_ZHOU
 10
719835.99306116626
 20
3413754.1017935369
 30
0.1842105263157895
  0
VERTEX
  5
820
  8
EASTERN_ZHOU
 10
719837.59131196153
 20
3413739.5728999092
 30
0.1842105263157895
  0
VERTEX
  5
821
  8
EASTERN_ZHOU
 10
719837.14180392411
 20
3413734.2845436139
 30
0.1842105263157895
  0
VERTEX
  5
822
  8
EASTERN_ZHOU
 10
719843.83447911602
 20
3413724.3356724111
 30
0.1842105263157895
  0
VERTEX
  5
823
  8
EASTERN_ZHOU
 10
719882.12590434775
 20
3413719.594665016
 30
0.1842105263157895
  0
VERTEX
  5
824
  8
EASTERN_ZHOU
 10
719898.81700065115
 20
3413717.5280767269
 30
0.1842105263157895
  0
VERTEX
  5
825
  8
EASTERN_ZHOU
 10
719909.12584299094
 20
3413716.251699639
 30
0.1842105263157895
  0
VERTEX
  5
826
  8
EASTERN_ZHOU
 10
719909.2628709228
 20
3413717.4213679088
 30
0.1842105263157895
  0
SEQEND
  5
827
  8
EASTERN_ZHOU
  0
ENDSEC
  0
EOF
