  0
SECTION
  2
HEADER
  9
$ACADVER
  1
AC1009
  9
$INSBASE
 10
0.0
 20
0.0
 30
0.0
  9
$EXTMIN
 10
606.65697220630159
 20
4483.0283443548651
 30
0.0119047619047619
  9
$EXTMAX
 10
639.34916125038433
 20
4503.6747967764177
 30
0.25
  9
$LIMMIN
 10
0.0
 20
0.0
  9
$LIMMAX
 10
12.0
 20
9.0
  9
$ORTHOMODE
 70
     0
  9
$REGENMODE
 70
     1
  9
$FILLMODE
 70
     1
  9
$QTEXTMODE
 70
     0
  9
$MIRRTEXT
 70
     1
  9
$DRAGMODE
 70
     2
  9
$LTSCALE
 40
1.0
  9
$OSMODE
 70
    37
  9
$ATTMODE
 70
     1
  9
$TEXTSIZE
 40
0.2
  9
$TRACEWID
 40
0.05
  9
$TEXTSTYLE
  7
STANDARD
  9
$CLAYER
  8
0
  9
$CELTYPE
  6
BYLAYER
  9
$CECOLOR
 62
   256
  9
$DIMSCALE
 40
1.0
  9
$DIMASZ
 40
0.18
  9
$DIMEXO
 40
0.0625
  9
$DIMDLI
 40
0.38
  9
$DIMRND
 40
0.0
  9
$DIMDLE
 40
0.0
  9
$DIMEXE
 40
0.18
  9
$DIMTP
 40
0.0
  9
$DIMTM
 40
0.0
  9
$DIMTXT
 40
0.18
  9
$DIMCEN
 40
0.09
  9
$DIMTSZ
 40
0.0
  9
$DIMTOL
 70
     0
  9
$DIMLIM
 70
     0
  9
$DIMTIH
 70
     1
  9
$DIMTOH
 70
     1
  9
$DIMSE1
 70
     0
  9
$DIMSE2
 70
     0
  9
$DIMTAD
 70
     0
  9
$DIMZIN
 70
     0
  9
$DIMBLK
  1

  9
$DIMASO
 70
     1
  9
$DIMSHO
 70
     1
  9
$DIMPOST
  1

  9
$DIMAPOST
  1

  9
$DIMALT
 70
     0
  9
$DIMALTD
 70
     2
  9
$DIMALTF
 40
25.399999999999999
  9
$DIMLFAC
 40
1.0
  9
$DIMTOFL
 70
     0
  9
$DIMTVP
 40
0.0
  9
$DIMTIX
 70
     0
  9
$DIMSOXD
 70
     0
  9
$DIMSAH
 70
     0
  9
$DIMBLK1
  1

  9
$DIMBLK2
  1

  9
$DIMSTYLE
  2
STANDARD
  9
$DIMCLRD
 70
     0
  9
$DIMCLRE
 70
     0
  9
$DIMCLRT
 70
     0
  9
$DIMTFAC
 40
1.0
  9
$DIMGAP
 40
0.09
  9
$LUNITS
 70
     2
  9
$LUPREC
 70
     4
  9
$SKETCHINC
 40
0.1
  9
$FILLETRAD
 40
0.5
  9
$AUNITS
 70
     0
  9
$AUPREC
 70
     0
  9
$MENU
  1
.
  9
$ELEVATION
 40
0.0
  9
$PELEVATION
 40
0.0
  9
$THICKNESS
 40
0.0
  9
$LIMCHECK
 70
     0
  9
$BLIPMODE
 70
     0
  9
$CHAMFERA
 40
0.5
  9
$CHAMFERB
 40
0.5
  9
$SKPOLY
 70
     0
  9
$TDCREATE
 40
2456179.8419735539
  9
$TDUPDATE
 40
2456179.8552935072
  9
$TDINDWG
 40
0.0090697454
  9
$TDUSRTIMER
 40
0.0090697454
  9
$USRTIMER
 70
     1
  9
$ANGBASE
 50
0.0
  9
$ANGDIR
 70
     1
  9
$PDMODE
 70
    66
  9
$PDSIZE
 40
0.0
  9
$PLINEWID
 40
0.0
  9
$COORDS
 70
     1
  9
$SPLFRAME
 70
     0
  9
$SPLINETYPE
 70
     6
  9
$SPLINESEGS
 70
     8
  9
$ATTDIA
 70
     0
  9
$ATTREQ
 70
     1
  9
$HANDLING
 70
     1
  9
$HANDSEED
  5
3CA
  9
$SURFTAB1
 70
     6
  9
$SURFTAB2
 70
     6
  9
$SURFTYPE
 70
     6
  9
$SURFU
 70
     6
  9
$SURFV
 70
     6
  9
$UCSNAME
  2

  9
$UCSORG
 10
0.0
 20
0.0
 30
0.0
  9
$UCSXDIR
 10
1.0
 20
0.0
 30
0.0
  9
$UCSYDIR
 10
0.0
 20
1.0
 30
0.0
  9
$PUCSNAME
  2

  9
$PUCSORG
 10
0.0
 20
0.0
 30
0.0
  9
$PUCSXDIR
 10
1.0
 20
0.0
 30
0.0
  9
$PUCSYDIR
 10
0.0
 20
1.0
 30
0.0
  9
$USERI1
 70
     0
  9
$USERI2
 70
     0
  9
$USERI3
 70
     0
  9
$USERI4
 70
     0
  9
$USERI5
 70
     0
  9
$USERR1
 40
0.0
  9
$USERR2
 40
0.0
  9
$USERR3
 40
0.0
  9
$USERR4
 40
0.0
  9
$USERR5
 40
0.0
  9
$WORLDVIEW
 70
     1
  9
$SHADEDGE
 70
     3
  9
$SHADEDIF
 70
    70
  9
$TILEMODE
 70
     1
  9
$MAXACTVP
 70
    64
  9
$PLIMCHECK
 70
     0
  9
$PEXTMIN
 10
0.0
 20
0.0
 30
0.0
  9
$PEXTMAX
 10
0.0
 20
0.0
 30
0.0
  9
$PLIMMIN
 10
0.0
 20
0.0
  9
$PLIMMAX
 10
12.0
 20
9.0
  9
$UNITMODE
 70
     0
  9
$VISRETAIN
 70
     1
  9
$PLINEGEN
 70
     0
  9
$PSLTSCALE
 70
     1
  0
ENDSEC
  0
SECTION
  2
TABLES
  0
TABLE
  2
VPORT
 70
     1
  0
VPORT
  2
*ACTIVE
 70
     0
 10
0.0
 20
0.0
 11
1.0
 21
1.0
 12
634.53610041711465
 22
4490.5479996068889
 13
0.0
 23
0.0
 14
0.5
 24
0.5
 15
0.5
 25
0.5
 16
0.0
 26
0.0
 36
1.0
 17
0.0
 27
0.0
 37
0.0
 40
43.750082425347323
 41
1.7101096224116921
 42
50.0
 43
0.0
 44
0.0
 50
0.0
 51
0.0
 71
     0
 72
   100
 73
     1
 74
     2
 75
     0
 76
     0
 77
     0
 78
     0
  0
ENDTAB
  0
TABLE
  2
LTYPE
 70
     1
  0
LTYPE
  2
CONTINUOUS
 70
     0
  3
Solid line
 72
    65
 73
     0
 40
0.0
  0
ENDTAB
  0
TABLE
  2
LAYER
 70
     2
  0
LAYER
  2
0
 70
     0
 62
     7
  6
CONTINUOUS
  0
LAYER
  2
COLLECTIONS
 70
     0
 62
     2
  6
CONTINUOUS
  0
ENDTAB
  0
TABLE
  2
STYLE
 70
     2
  0
STYLE
  2
STANDARD
 70
     0
 40
0.0
 41
1.0
 50
0.0
 71
     0
 42
0.2
  3
txt
  4

  0
STYLE
  2
LEGEND
 70
     0
 40
0.0
 41
1.0
 50
0.0
 71
     0
 42
0.2
  3
txt
  4

  0
ENDTAB
  0
TABLE
  2
VIEW
 70
     0
  0
ENDTAB
  0
TABLE
  2
UCS
 70
     0
  0
ENDTAB
  0
TABLE
  2
APPID
 70
     7
  0
APPID
  2
ACAD
 70
     0
  0
APPID
  2
DCO15
 70
     0
  0
APPID
  2
ADE
 70
     0
  0
APPID
  2
IRD
 70
     0
  0
APPID
  2
ACMAPDMDISPLAYSTYLEREGAPP
 70
     0
  0
APPID
  2
MAPGWS
 70
     0
  0
APPID
  2
ACAD_MLEADERVER
 70
     0
  0
ENDTAB
  0
TABLE
  2
DIMSTYLE
 70
     1
  0
DIMSTYLE
  2
STANDARD
 70
     0
  3

  4

  5

  6

  7

 40
1.0
 41
0.18
 42
0.0625
 43
0.38
 44
0.18
 45
0.0
 46
0.0
 47
0.0
 48
0.0
140
0.18
141
0.09
142
0.0
143
25.399999999999999
144
1.0
145
0.0
146
1.0
147
0.09
 71
     0
 72
     0
 73
     1
 74
     1
 75
     0
 76
     0
 77
     0
 78
     0
170
     0
171
     2
172
     0
173
     0
174
     0
175
     0
176
     0
177
     0
178
     0
  0
ENDTAB
  0
ENDSEC
  0
SECTION
  2
BLOCKS
  0
BLOCK
  8
0
  2
$MODEL_SPACE
 70
     0
 10
0.0
 20
0.0
 30
0.0
  3
$MODEL_SPACE
  1

  0
ENDBLK
  5
15
  8
0
  0
BLOCK
 67
     1
  8
0
  2
$PAPER_SPACE
 70
     0
 10
0.0
 20
0.0
 30
0.0
  3
$PAPER_SPACE
  1

  0
ENDBLK
  5
1A
 67
     1
  8
0
  0
ENDSEC
  0
SECTION
  2
ENTITIES
  0
POLYLINE
  5
6A
  8
COLLECTIONS
 66
     1
 10
0.0
 20
0.0
 30
0.0208333333333333
 70
     1
1001
IRD
1002
{
1000
TPMLINK_area-_-ade
1070
   515
1071
        1
1004
0100C24A0000AC2F0000AC2F000000000000CD283D8BC2F0C63FCD283D8BC2F0C63F923D000000000000
1002
}
1002
{
1000
TPMLINK_area-_-ade
1070
   515
1071
        2
1004
01004A230000A6050000A605000000000000CD283D8BC2F0C63FCD283D8BC2F0C63F4516000000000000
1002
}
1001
ADE
1011
-0.0070226303313348
1021
0.0
1031
0.0
1021
-0.0119363788871851
1031
0.0
1001
DCO15
1071
       12
1071
       12
1000
collections
1004
0730344131303300
  0
VERTEX
  5
120
  8
COLLECTIONS
 10
637.99931863787378
 20
4496.454288406977
 30
0.0208333333333333
  0
VERTEX
  5
121
  8
COLLECTIONS
 10
637.98624623244746
 20
4496.4630984066598
 30
0.0208333333333333
  0
VERTEX
  5
122
  8
COLLECTIONS
 10
637.97339487655006
 20
4496.464706020708
 30
0.0208333333333333
  0
VERTEX
  5
123
  8
COLLECTIONS
 10
637.95639634800227
 20
4496.459904732581
 30
0.0208333333333333
  0
VERTEX
  5
124
  8
COLLECTIONS
 10
637.94350240744063
 20
4496.4530253415778
 30
0.0208333333333333
  0
VERTEX
  5
125
  8
COLLECTIONS
 10
637.93571597386142
 20
4496.438919046489
 30
0.0208333333333333
  0
VERTEX
  5
126
  8
COLLECTIONS
 10
637.96465623484403
 20
4496.4145981209731
 30
0.0208333333333333
  0
VERTEX
  5
127
  8
COLLECTIONS
 10
637.98040111464445
 20
4496.4258354106041
 30
0.0208333333333333
  0
VERTEX
  5
128
  8
COLLECTIONS
 10
637.99537573897555
 20
4496.4373337535362
 30
0.0208333333333333
  0
VERTEX
  5
129
  8
COLLECTIONS
 10
638.00725901787359
 20
4496.447818853916
 30
0.0208333333333333
  0
SEQEND
  5
12A
  8
COLLECTIONS
  0
POLYLINE
  5
70
  8
COLLECTIONS
 66
     1
 10
0.0
 20
0.0
 30
0.09375
 70
     1
1001
IRD
1002
{
1000
TPMLINK_area-_-ade
1070
   515
1071
        1
1004
0100CA4A0000752F0000752F0000000000008AF4354EDD46D03F8AF4354EDD46D03F9A3D000000000000
1002
}
1002
{
1000
TPMLINK_area-_-ade
1070
   515
1071
        2
1004
010052230000610500006105000000000000D2E8354EDD46D03FD2E8354EDD46D03F3C16000000000000
1002
}
1001
ADE
1011
-0.0164633257244304
1021
0.0
1031
0.0
1021
-0.0309181626535065
1031
0.0
1001
DCO15
1071
       12
1071
       12
1000
collections
1004
0730344131303800
  0
VERTEX
  5
12B
  8
COLLECTIONS
 10
637.55777632599586
 20
4496.9256156295769
 30
0.09375
  0
VERTEX
  5
12C
  8
COLLECTIONS
 10
637.5388884829872
 20
4496.9030778185452
 30
0.09375
  0
VERTEX
  5
12D
  8
COLLECTIONS
 10
637.52131235872321
 20
4496.8856771947158
 30
0.09375
  0
VERTEX
  5
12E
  8
COLLECTIONS
 10
637.50787953577549
 20
4496.8739139271447
 30
0.09375
  0
VERTEX
  5
12F
  8
COLLECTIONS
 10
637.5044884237069
 20
4496.8644149699849
 30
0.09375
  0
VERTEX
  5
130
  8
COLLECTIONS
 10
637.52009006418155
 20
4496.8471050608032
 30
0.09375
  0
VERTEX
  5
131
  8
COLLECTIONS
 10
637.53934387002903
 20
4496.8400643642481
 30
0.09375
  0
VERTEX
  5
132
  8
COLLECTIONS
 10
637.56466126231896
 20
4496.862569914173
 30
0.09375
  0
VERTEX
  5
133
  8
COLLECTIONS
 10
637.5842948423541
 20
4496.8799602144463
 30
0.09375
  0
VERTEX
  5
134
  8
COLLECTIONS
 10
637.59644304588937
 20
4496.8919871162079
 30
0.09375
  0
SEQEND
  5
135
  8
COLLECTIONS
  0
POLYLINE
  5
71
  8
COLLECTIONS
 66
     1
 10
0.0
 20
0.0
 30
0.2439024390243902
 70
     1
1001
IRD
1002
{
1000
TPMLINK_area-_-ade
1070
   515
1071
        1
1004
0100D54A0000C12E0000C12E0000000000003CFD9AABC42EC53F3CFD9AABC42EC53FA33D000000000000
1002
}
1002
{
1000
TPMLINK_area-_-ade
1070
   515
1071
        2
1004
01005D2300009A0400009A040000000000003CFD9AABC42EC53F3CFD9AABC42EC53F3216000000000000
1002
}
1001
ADE
1011
-0.0134854680552508
1021
0.0
1031
0.0
1021
-0.0168799507646327
1031
0.0
1001
DCO15
1071
       12
1071
       12
1000
collections
1004
0730344131323100
  0
VERTEX
  5
136
  8
COLLECTIONS
 10
636.70364178551245
 20
4497.9016590048977
 30
0.2439024390243902
  0
VERTEX
  5
137
  8
COLLECTIONS
 10
636.74829373545822
 20
4497.9315194135997
 30
0.2439024390243902
  0
VERTEX
  5
138
  8
COLLECTIONS
 10
636.74505866519905
 20
4497.9523698520561
 30
0.2439024390243902
  0
VERTEX
  5
139
  8
COLLECTIONS
 10
636.69067874140922
 20
4497.931305071721
 30
0.2439024390243902
  0
SEQEND
  5
13A
  8
COLLECTIONS
  0
POLYLINE
  5
72
  8
COLLECTIONS
 66
     1
 10
0.0
 20
0.0
 30
0.03125
 70
     1
1001
IRD
1002
{
1000
TPMLINK_area-_-ade
1070
   515
1071
        1
1004
01007D510000A0320000A03200000000000088887B91A2D1C53F88887B91A2D1C53F0000000038440000
1002
}
1002
{
1000
TPMLINK_area-_-ade
1070
   515
1071
        2
1004
0100052A0000F3080000F30800000000000090207B91A2D1C53F90207B91A2D1C53F00000000EB0E0000
1002
}
1001
ADE
1011
-0.0072459516281924
1021
0.0
1031
0.0
1021
0.0028178888060211
1031
0.0
1001
DCO15
1071
       12
1071
       12
1000
collections
1004
0730344235323900
  0
VERTEX
  5
13B
  8
COLLECTIONS
 10
631.45915990889887
 20
4493.4770019267798
 30
0.03125
  0
VERTEX
  5
13C
  8
COLLECTIONS
 10
631.51817262374152
 20
4493.4803974900551
 30
0.03125
  0
VERTEX
  5
13D
  8
COLLECTIONS
 10
631.51594237861354
 20
4493.4551826961551
 30
0.03125
  0
VERTEX
  5
13E
  8
COLLECTIONS
 10
631.45831972139638
 20
4493.4489380456689
 30
0.03125
  0
SEQEND
  5
13F
  8
COLLECTIONS
  0
POLYLINE
  5
73
  8
COLLECTIONS
 66
     1
 10
0.0
 20
0.0
 30
0.0576923076923077
 70
     1
1001
IRD
1002
{
1000
TPMLINK_area-_-ade
1070
   515
1071
        1
1004
0100C751000074310000743100000000000030841AF48A35C13F30841AF48A35C13F0000000097440000
1002
}
1002
{
1000
TPMLINK_area-_-ade
1070
   515
1071
        2
1004
01004F2A0000B4070000B40700000000000030841AF48A35C13F30841AF48A35C13F000000007C0E0000
1002
}
1001
ADE
1011
0.0004951883025797
1021
0.0
1031
0.0
1021
-0.0044209974903424
1031
0.0
1001
DCO15
1071
       12
1071
       12
1000
collections
1004
0730344235363700
  0
VERTEX
  5
140
  8
COLLECTIONS
 10
630.89420590839563
 20
4494.22051648465
 30
0.0576923076923077
  0
VERTEX
  5
141
  8
COLLECTIONS
 10
630.89145023859044
 20
4494.1955209272937
 30
0.0576923076923077
  0
VERTEX
  5
142
  8
COLLECTIONS
 10
630.84972672656363
 20
4494.1980331541117
 30
0.0576923076923077
  0
VERTEX
  5
143
  8
COLLECTIONS
 10
630.85555990605542
 20
4494.2259093456996
 30
0.0576923076923077
  0
SEQEND
  5
144
  8
COLLECTIONS
  0
POLYLINE
  5
74
  8
COLLECTIONS
 66
     1
 10
0.0
 20
0.0
 30
0.03125
 70
     1
1001
IRD
1002
{
1000
TPMLINK_area-_-ade
1070
   515
1071
        1
1004
01002A4F00005F2F00005F2F0000000000001E0BD7FF09BBD13F1E0BD7FF09BBD13F0142000000000000
1002
}
1002
{
1000
TPMLINK_area-_-ade
1070
   515
1071
        2
1004
0100B22700004705000047050000000000001E0BD7FF09BBD13F1E0BD7FF09BBD13F6611000000000000
1002
}
1001
ADE
1011
-0.006234315808797
1021
0.0
1031
0.0
1021
-0.0180799640893383
1031
0.0
1001
DCO15
1071
       12
1071
       12
1000
collections
1004
073034413133303000
  0
VERTEX
  5
145
  8
COLLECTIONS
 10
633.62325944337113
 20
4497.0744889643129
 30
0.03125
  0
VERTEX
  5
146
  8
COLLECTIONS
 10
633.56492369856574
 20
4497.0171817359051
 30
0.03125
  0
VERTEX
  5
147
  8
COLLECTIONS
 10
633.60880417293072
 20
4496.9790867261408
 30
0.03125
  0
VERTEX
  5
148
  8
COLLECTIONS
 10
633.66529696518091
 20
4497.0328082996348
 30
0.03125
  0
SEQEND
  5
149
  8
COLLECTIONS
  0
POLYLINE
  5
75
  8
COLLECTIONS
 66
     1
 10
0.0
 20
0.0
 30
0.0147058823529412
 70
     1
1001
IRD
1002
{
1000
TPMLINK_area-_-ade
1070
   515
1071
        1
1004
0100414F0000582F0000582F000000000000FA7034808B6FC33FFA7034808B6FC33F0000000017420000
1002
}
1002
{
1000
TPMLINK_area-_-ade
1070
   515
1071
        2
1004
0100C92700003F0500003F05000000000000FA7034808B6FC33FFA7034808B6FC33F000000004F110000
1002
}
1001
ADE
1011
-0.0155202141536393
1021
0.0
1031
0.0
1021
-0.0107754647142429
1031
0.0
1001
DCO15
1071
       12
1071
       12
1000
collections
1004
0730344232393700
  0
VERTEX
  5
14A
  8
COLLECTIONS
 10
632.41444124644215
 20
4497.0990086124239
 30
0.0147058823529412
  0
VERTEX
  5
14B
  8
COLLECTIONS
 10
632.4145388681967
 20
4497.130947720605
 30
0.0147058823529412
  0
VERTEX
  5
14C
  8
COLLECTIONS
 10
632.45783883486411
 20
4497.1332995735784
 30
0.0147058823529412
  0
VERTEX
  5
14D
  8
COLLECTIONS
 10
632.45798730629826
 20
4497.1003273996912
 30
0.0147058823529412
  0
SEQEND
  5
14E
  8
COLLECTIONS
  0
POLYLINE
  5
76
  8
COLLECTIONS
 66
     1
 10
0.0
 20
0.0
 30
0.0357142857142857
 70
     1
1001
IRD
1002
{
1000
TPMLINK_area-_-ade
1070
   515
1071
        1
1004
01006B4F00008C2E00008C2E000000000000F448E19DB9C0D53FF448E19DB9C0D53F3F42000000000000
1002
}
1002
{
1000
TPMLINK_area-_-ade
1070
   515
1071
        2
1004
0100F3270000610400006104000000000000F448E19DB9C0D53FF448E19DB9C0D53F2011000000000000
1002
}
1001
ADE
1011
-0.001230701799841
1021
0.0
1031
0.0
1021
-0.0177423315099077
1031
0.0
1001
DCO15
1071
       12
1071
       12
1000
collections
1004
073034413130353100
  0
VERTEX
  5
14F
  8
COLLECTIONS
 10
633.24454022251246
 20
4498.2027895672891
 30
0.0357142857142857
  0
VERTEX
  5
150
  8
COLLECTIONS
 10
633.27556299336425
 20
4498.143458228421
 30
0.0357142857142857
  0
VERTEX
  5
151
  8
COLLECTIONS
 10
633.36650451863761
 20
4498.1911298791074
 30
0.0357142857142857
  0
VERTEX
  5
152
  8
COLLECTIONS
 10
633.33856662345181
 20
4498.2499117457764
 30
0.0357142857142857
  0
SEQEND
  5
153
  8
COLLECTIONS
  0
POLYLINE
  5
77
  8
COLLECTIONS
 66
     1
 10
0.0
 20
0.0
 30
0.0833333333333333
 70
     1
1001
IRD
1002
{
1000
TPMLINK_collections2-_-ade
1070
   515
1071
        2
1004
0100700A0000A9020000A902000000000000CE6071D8A12DC23FCE6071D8A12DC23FA306000000000000
1002
}
1002
{
1000
TPMLINK_area-_-ade
1070
   515
1071
        3
1004
0100C246000017360000173600000000000057F570D8A12DC23F57F570D8A12DC23F9839000000000000
1002
}
1002
{
1000
TPMLINK_area-_-ade
1070
   515
1071
        4
1004
0100771F0000930C0000930C00000000000088D170D8A12DC23F88D170D8A12DC23F771A000000000000
1002
}
1001
ADE
1011
-0.0133442657304386
1021
0.0
1031
0.0
1021
-0.0042015370381705
1031
0.0
1001
DCO15
1071
        7
1071
        7
1000
collections
1004
0730324230393400
  0
VERTEX
  5
154
  8
COLLECTIONS
 10
606.69202723115484
 20
4483.911448139751
 30
0.0833333333333333
  0
VERTEX
  5
155
  8
COLLECTIONS
 10
606.69864633629425
 20
4483.9119174376756
 30
0.0833333333333333
  0
VERTEX
  5
156
  8
COLLECTIONS
 10
606.7047778529635
 20
4483.915952276102
 30
0.0833333333333333
  0
VERTEX
  5
157
  8
COLLECTIONS
 10
606.70890414411565
 20
4483.9250885826241
 30
0.0833333333333333
  0
VERTEX
  5
158
  8
COLLECTIONS
 10
606.70592983850588
 20
4483.938338986598
 30
0.0833333333333333
  0
VERTEX
  5
159
  8
COLLECTIONS
 10
606.69373691892326
 20
4483.9419746408548
 30
0.0833333333333333
  0
VERTEX
  5
15A
  8
COLLECTIONS
 10
606.67796016829379
 20
4483.9420691420064
 30
0.0833333333333333
  0
VERTEX
  5
15B
  8
COLLECTIONS
 10
606.66827835324386
 20
4483.9400913523068
 30
0.0833333333333333
  0
VERTEX
  5
15C
  8
COLLECTIONS
 10
606.66163790913492
 20
4483.9360595623039
 30
0.0833333333333333
  0
VERTEX
  5
15D
  8
COLLECTIONS
 10
606.65803883596755
 20
4483.9299737719966
 30
0.0833333333333333
  0
VERTEX
  5
15E
  8
COLLECTIONS
 10
606.65697220630159
 20
4483.9218370298104
 30
0.0833333333333333
  0
VERTEX
  5
15F
  8
COLLECTIONS
 10
606.65744150422734
 20
4483.9152179246703
 30
0.0833333333333333
  0
VERTEX
  5
160
  8
COLLECTIONS
 10
606.66352424610977
 20
4483.9111099240636
 30
0.0833333333333333
  0
VERTEX
  5
161
  8
COLLECTIONS
 10
606.66911025424929
 20
4483.9090406816404
 30
0.0833333333333333
  0
VERTEX
  5
162
  8
COLLECTIONS
 10
606.6792918514667
 20
4483.9094886405974
 30
0.0833333333333333
  0
SEQEND
  5
163
  8
COLLECTIONS
  0
POLYLINE
  5
78
  8
COLLECTIONS
 66
     1
 10
0.0
 20
0.0
 30
0.0454545454545455
 70
     1
1001
IRD
1002
{
1000
TPMLINK_collections2-_-ade
1070
   515
1071
        2
1004
0100740A0000BA020000BA0200000000000022BE5D895468C13F22BE5D895468C13FA006000000000000
1002
}
1002
{
1000
TPMLINK_area-_-ade
1070
   515
1071
        3
1004
0100C646000028360000283600000000000099A95E895468C13F99A95E895468C13F9B39000000000000
1002
}
1002
{
1000
TPMLINK_area-_-ade
1070
   515
1071
        4
1004
01007B1F0000A40C0000A40C0000000000003CA85E895468C13F3CA85E895468C13F741A000000000000
1002
}
1001
ADE
1011
-0.0151560440605181
1021
0.0
1031
0.0
1021
-0.0071949328785195
1031
0.0
1001
DCO15
1071
        7
1071
        7
1000
collections
1004
0730324230393700
  0
VERTEX
  5
164
  8
COLLECTIONS
 10
607.15718065475585
 20
4483.8226500943447
 30
0.0454545454545455
  0
VERTEX
  5
165
  8
COLLECTIONS
 10
607.15721723584613
 20
4483.8287572236213
 30
0.0454545454545455
  0
VERTEX
  5
166
  8
COLLECTIONS
 10
607.14857766306864
 20
4483.8308447565896
 30
0.0454545454545455
  0
VERTEX
  5
167
  8
COLLECTIONS
 10
607.13636340451694
 20
4483.8309179187681
 30
0.0454545454545455
  0
VERTEX
  5
168
  8
COLLECTIONS
 10
607.12465197655661
 20
4483.8299701776441
 30
0.0454545454545455
  0
VERTEX
  5
169
  8
COLLECTIONS
 10
607.11752699240139
 20
4483.8300128555829
 30
0.0454545454545455
  0
VERTEX
  5
16A
  8
COLLECTIONS
 10
607.11445818564243
 20
4483.8274865089306
 30
0.0454545454545455
  0
VERTEX
  5
16B
  8
COLLECTIONS
 10
607.11340679809757
 20
4483.82189440394
 30
0.0454545454545455
  0
VERTEX
  5
16C
  8
COLLECTIONS
 10
607.11336412015942
 20
4483.8147694197878
 30
0.0454545454545455
  0
VERTEX
  5
16D
  8
COLLECTIONS
 10
607.11381817596396
 20
4483.8056056774494
 30
0.0454545454545455
  0
VERTEX
  5
16E
  8
COLLECTIONS
 10
607.11581730463286
 20
4483.7994863544773
 30
0.0454545454545455
  0
VERTEX
  5
16F
  8
COLLECTIONS
 10
607.12396624051576
 20
4483.8004554345698
 30
0.0454545454545455
  0
VERTEX
  5
170
  8
COLLECTIONS
 10
607.13772252350725
 20
4483.8029177643148
 30
0.0454545454545455
  0
VERTEX
  5
171
  8
COLLECTIONS
 10
607.14893112087611
 20
4483.8048864087432
 30
0.0454545454545455
  0
VERTEX
  5
172
  8
COLLECTIONS
 10
607.15760117789534
 20
4483.8078881501688
 30
0.0454545454545455
  0
VERTEX
  5
173
  8
COLLECTIONS
 10
607.15763166213685
 20
4483.8129774245672
 30
0.0454545454545455
  0
SEQEND
  5
174
  8
COLLECTIONS
  0
POLYLINE
  5
79
  8
COLLECTIONS
 66
     1
 10
0.0
 20
0.0
 30
0.1666666666666666
 70
     1
1001
IRD
1002
{
1000
TPMLINK_collections2-_-ade
1070
   515
1071
        2
1004
0100760A0000C9020000C9020000000000009067805BD0A1C13F9067805BD0A1C13FA606000000000000
1002
}
1002
{
1000
TPMLINK_area-_-ade
1070
   515
1071
        3
1004
0100C8460000373600003736000000000000926D805BD0A1C13F926D805BD0A1C13F9539000000000000
1002
}
1002
{
1000
TPMLINK_area-_-ade
1070
   515
1071
        4
1004
01007D1F0000B30C0000B30C0000000000003B80805BD0A1C13F3B80805BD0A1C13F7A1A000000000000
1002
}
1001
ADE
1011
-0.0136853956839787
1021
0.0
1031
0.0
1021
-0.0036760886632692
1031
0.0
1001
DCO15
1071
        7
1071
        7
1000
collections
1004
0730324230393600
  0
VERTEX
  5
175
  8
COLLECTIONS
 10
606.97706895651015
 20
4483.7468781446842
 30
0.1666666666666666
  0
VERTEX
  5
176
  8
COLLECTIONS
 10
606.97147989994653
 20
4483.7484384596692
 30
0.1666666666666666
  0
VERTEX
  5
177
  8
COLLECTIONS
 10
606.96181027859313
 20
4483.7484963797269
 30
0.1666666666666666
  0
VERTEX
  5
178
  8
COLLECTIONS
 10
606.95313107630125
 20
4483.7439678559831
 30
0.1666666666666666
  0
VERTEX
  5
179
  8
COLLECTIONS
 10
606.94798997869418
 20
4483.7353465737497
 30
0.1666666666666666
  0
VERTEX
  5
17A
  8
COLLECTIONS
 10
606.94794120390782
 20
4483.7272037347147
 30
0.1666666666666666
  0
VERTEX
  5
17B
  8
COLLECTIONS
 10
606.95399650997285
 20
4483.7185153871505
 30
0.1666666666666666
  0
VERTEX
  5
17C
  8
COLLECTIONS
 10
606.96670445384348
 20
4483.7158945393476
 30
0.1666666666666666
  0
VERTEX
  5
17D
  8
COLLECTIONS
 10
606.9784097849556
 20
4483.7158244255934
 30
0.1666666666666666
  0
VERTEX
  5
17E
  8
COLLECTIONS
 10
606.98706459985385
 20
4483.7162815298207
 30
0.1666666666666666
  0
VERTEX
  5
17F
  8
COLLECTIONS
 10
606.99166628577984
 20
4483.7198165860818
 30
0.1666666666666666
  0
VERTEX
  5
180
  8
COLLECTIONS
 10
606.99628931067502
 20
4483.7269141344159
 30
0.1666666666666666
  0
VERTEX
  5
181
  8
COLLECTIONS
 10
606.99786791620477
 20
4483.7355567556206
 30
0.1666666666666666
  0
VERTEX
  5
182
  8
COLLECTIONS
 10
606.99688664241523
 20
4483.741669981745
 30
0.1666666666666666
  0
VERTEX
  5
183
  8
COLLECTIONS
 10
606.99080390053246
 20
4483.7457779823517
 30
0.1666666666666666
  0
VERTEX
  5
184
  8
COLLECTIONS
 10
606.98317303736201
 20
4483.7463326361549
 30
0.1666666666666666
  0
SEQEND
  5
185
  8
COLLECTIONS
  0
POLYLINE
  5
7A
  8
COLLECTIONS
 66
     1
 10
0.0
 20
0.0
 30
0.0833333333333333
 70
     1
1001
IRD
1002
{
1000
TPMLINK_area-_-ade
1070
   515
1071
        1
1004
0100EA4B0000362B0000362B000000000000EC77F80A355DC33FEC77F80A355DC33F00000000BD3E0000
1002
}
1002
{
1000
TPMLINK_area-_-ade
1070
   515
1071
        2
1004
010072240000BD000000BD00000000000000EC77F80A355DC33FEC77F80A355DC33F0000000001150000
1002
}
1001
ADE
1011
-0.0068322081928045
1021
0.0
1031
0.0
1021
-0.0061175797254691
1031
0.0
1001
DCO15
1071
       12
1071
       12
1000
collections
1004
0730344134303000
  0
VERTEX
  5
186
  8
COLLECTIONS
 10
636.58939001073361
 20
4501.7861710196958
 30
0.0833333333333333
  0
VERTEX
  5
187
  8
COLLECTIONS
 10
636.62028044088845
 20
4501.8153110509502
 30
0.0833333333333333
  0
VERTEX
  5
188
  8
COLLECTIONS
 10
636.64420181305718
 20
4501.7963626964374
 30
0.0833333333333333
  0
VERTEX
  5
189
  8
COLLECTIONS
 10
636.60809455636161
 20
4501.7634411225918
 30
0.0833333333333333
  0
SEQEND
  5
18A
  8
COLLECTIONS
  0
POLYLINE
  5
7B
  8
COLLECTIONS
 66
     1
 10
0.0
 20
0.0
 30
0.05
 70
     1
1001
IRD
1002
{
1000
TPMLINK_area-_-ade
1070
   515
1071
        1
1004
0100104C00003A2B00003A2B0000000000009A94504F2344C63F9A94504F2344C63F00000000ED3E0000
1002
}
1002
{
1000
TPMLINK_area-_-ade
1070
   515
1071
        2
1004
010098240000C1000000C1000000000000009A94504F2344C63F9A94504F2344C63F00000000CD140000
1002
}
1001
ADE
1011
-0.009453469576556
1021
0.0
1031
0.0
1021
-0.0078165861696107
1031
0.0
1001
DCO15
1071
       12
1071
       12
1000
collections
1004
0730344133343500
  0
VERTEX
  5
18B
  8
COLLECTIONS
 10
635.69092045598086
 20
4501.7603263787551
 30
0.05
  0
VERTEX
  5
18C
  8
COLLECTIONS
 10
635.74404347335337
 20
4501.7617815763133
 30
0.05
  0
VERTEX
  5
18D
  8
COLLECTIONS
 10
635.74219713092998
 20
4501.7275290509906
 30
0.05
  0
VERTEX
  5
18E
  8
COLLECTIONS
 10
635.69340460288015
 20
4501.7229102017136
 30
0.05
  0
SEQEND
  5
18F
  8
COLLECTIONS
  0
POLYLINE
  5
7C
  8
COLLECTIONS
 66
     1
 10
0.0
 20
0.0
 30
0.0227272727272727
 70
     1
1001
IRD
1002
{
1000
TPMLINK_area-_-ade
1070
   515
1071
        1
1004
01001C4C0000222B0000222B0000000000007AC9A225E51DCD3F7AC9A225E51DCD3F00000000E83E0000
1002
}
1002
{
1000
TPMLINK_area-_-ade
1070
   515
1071
        2
1004
0100A4240000A7000000A7000000000000007AC9A225E51DCD3F7AC9A225E51DCD3F00000000D2140000
1002
}
1001
ADE
1011
-0.0150686286734754
1021
0.0
1031
0.0
1021
0.0207762086929506
1031
0.0
1001
DCO15
1071
       12
1071
       12
1000
collections
1004
0730344135313900
  0
VERTEX
  5
190
  8
COLLECTIONS
 10
635.42703797193792
 20
4502.0020219665812
 30
0.0227272727272727
  0
VERTEX
  5
191
  8
COLLECTIONS
 10
635.46723663292767
 20
4502.0170912468329
 30
0.0227272727272727
  0
VERTEX
  5
192
  8
COLLECTIONS
 10
635.48890296613035
 20
4501.954617524505
 30
0.0227272727272727
  0
VERTEX
  5
193
  8
COLLECTIONS
 10
635.45346210144862
 20
4501.9309645986832
 30
0.0227272727272727
  0
SEQEND
  5
194
  8
COLLECTIONS
  0
POLYLINE
  5
7D
  8
COLLECTIONS
 66
     1
 10
0.0
 20
0.0
 30
0.1666666666666666
 70
     1
1001
IRD
1002
{
1000
TPMLINK_area-_-ade
1070
   515
1071
        1
1004
0100244C00007C2B00007C2B00000000000082E8AE32459EC53F82E8AE32459EC53F00000000F13E0000
1002
}
1002
{
1000
TPMLINK_area-_-ade
1070
   515
1071
        2
1004
0100AC2400000A0100000A0100000000000082E8AE32459EC53F82E8AE32459EC53F00000000C9140000
1002
}
1001
ADE
1011
-0.0015629507247468
1021
0.0
1031
0.0
1021
-0.0012549215625768
1031
0.0
1001
DCO15
1071
       12
1071
       12
1000
collections
1004
0730344133333300
  0
VERTEX
  5
195
  8
COLLECTIONS
 10
636.00260239587169
 20
4501.272203917385
 30
0.1666666666666666
  0
VERTEX
  5
196
  8
COLLECTIONS
 10
635.94406777359995
 20
4501.2708368037856
 30
0.1666666666666666
  0
VERTEX
  5
197
  8
COLLECTIONS
 10
635.94163998741089
 20
4501.2958794037258
 30
0.1666666666666666
  0
VERTEX
  5
198
  8
COLLECTIONS
 10
636.00121378051688
 20
4501.297745130375
 30
0.1666666666666666
  0
SEQEND
  5
199
  8
COLLECTIONS
  0
POLYLINE
  5
7E
  8
COLLECTIONS
 66
     1
 10
0.0
 20
0.0
 30
0.015625
 70
     1
1001
IRD
1002
{
1000
TPMLINK_area-_-ade
1070
   515
1071
        1
1004
0100774C0000082C0000082C000000000000037E979B3BA4D63F037E979B3BA4D63F000000004D3F0000
1002
}
1002
{
1000
TPMLINK_area-_-ade
1070
   515
1071
        2
1004
0100FF240000AA010000AA01000000000000037E979B3BA4D63F037E979B3BA4D63F0000000062140000
1002
}
1001
ADE
1011
-0.0225611026279467
1021
0.0
1031
0.0
1021
0.0037450455902217
1031
0.0
1001
DCO15
1071
       12
1071
       12
1000
collections
1004
0730344138393100
  0
VERTEX
  5
19A
  8
COLLECTIONS
 10
633.99764121739952
 20
4500.397813772408
 30
0.015625
  0
VERTEX
  5
19B
  8
COLLECTIONS
 10
633.99353212504639
 20
4500.4620213789622
 30
0.015625
  0
VERTEX
  5
19C
  8
COLLECTIONS
 10
634.10518646172625
 20
4500.4697281893959
 30
0.015625
  0
VERTEX
  5
19D
  8
COLLECTIONS
 10
634.1072317584584
 20
4500.4019111109528
 30
0.015625
  0
SEQEND
  5
19E
  8
COLLECTIONS
  0
POLYLINE
  5
7F
  8
COLLECTIONS
 66
     1
 10
0.0
 20
0.0
 30
0.0333333333333333
 70
     1
1001
IRD
1002
{
1000
TPMLINK_area-_-ade
1070
   515
1071
        1
1004
0100784C0000092C0000092C000000000000BDEF952C0D89D43FBDEF952C0D89D43F000000004C3F0000
1002
}
1002
{
1000
TPMLINK_area-_-ade
1070
   515
1071
        2
1004
010000250000AB010000AB01000000000000BDEF952C0D89D43FBDEF952C0D89D43F0000000063140000
1002
}
1001
ADE
1011
-0.0096690916851685
1021
0.0
1031
0.0
1021
-0.0002422637562631
1031
0.0
1001
DCO15
1071
       12
1071
       12
1000
collections
1004
0730344138393000
  0
VERTEX
  5
19F
  8
COLLECTIONS
 10
633.89501383281129
 20
4500.39758249446
 30
0.0333333333333333
  0
VERTEX
  5
1A0
  8
COLLECTIONS
 10
633.89038735571785
 20
4500.4553437950162
 30
0.0333333333333333
  0
VERTEX
  5
1A1
  8
COLLECTIONS
 10
633.99146879690602
 20
4500.4602169101472
 30
0.0333333333333333
  0
VERTEX
  5
1A2
  8
COLLECTIONS
 10
633.99377322009695
 20
4500.3972990589909
 30
0.0333333333333333
  0
SEQEND
  5
1A3
  8
COLLECTIONS
  0
POLYLINE
  5
80
  8
COLLECTIONS
 66
     1
 10
0.0
 20
0.0
 30
0.0357142857142857
 70
     1
1001
IRD
1002
{
1000
TPMLINK_area-_-ade
1070
   515
1071
        1
1004
01008B500000FF320000FF320000000000004E8A7D86195DCD3F4E8A7D86195DCD3FEA42000000000000
1002
}
1002
{
1000
TPMLINK_area-_-ade
1070
   515
1071
        2
1004
0100132900005A0900005A090000000000004E8A7D86195DCD3F4E8A7D86195DCD3F5A10000000000000
1002
}
1001
ADE
1011
-0.0278567137589789
1021
0.0
1031
0.0
1021
-0.0287679895400288
1031
0.0
1001
DCO15
1071
       12
1071
       12
1000
collections
1004
0730344231353200
  0
VERTEX
  5
1A4
  8
COLLECTIONS
 10
633.90096715233688
 20
4493.2152181685142
 30
0.0357142857142857
  0
VERTEX
  5
1A5
  8
COLLECTIONS
 10
633.97555508307028
 20
4493.2678856216817
 30
0.0357142857142857
  0
VERTEX
  5
1A6
  8
COLLECTIONS
 10
633.96698964131895
 20
4493.2841701984626
 30
0.0357142857142857
  0
VERTEX
  5
1A7
  8
COLLECTIONS
 10
633.88547078721194
 20
4493.2323477960499
 30
0.0357142857142857
  0
SEQEND
  5
1A8
  8
COLLECTIONS
  0
POLYLINE
  5
81
  8
COLLECTIONS
 66
     1
 10
0.0
 20
0.0
 30
0.015625
 70
     1
1001
IRD
1002
{
1000
TPMLINK_area-_-ade
1070
   515
1071
        1
1004
0100E85000003D3200003D32000000000000EB8CFF37035DD03FEB8CFF37035DD03F00000000B5430000
1002
}
1002
{
1000
TPMLINK_area-_-ade
1070
   515
1071
        2
1004
010070290000860800008608000000000000EB8CFF37035DD03FEB8CFF37035DD03F00000000820F0000
1002
}
1001
ADE
1011
-0.032364829273547
1021
0.0
1031
0.0
1021
-0.0280236925063946
1031
0.0
1001
DCO15
1071
       12
1071
       12
1000
collections
1004
0730344232313500
  0
VERTEX
  5
1A9
  8
COLLECTIONS
 10
633.08592176105685
 20
4493.7497753342068
 30
0.015625
  0
VERTEX
  5
1AA
  8
COLLECTIONS
 10
633.1006525835885
 20
4493.7252732540101
 30
0.015625
  0
VERTEX
  5
1AB
  8
COLLECTIONS
 10
633.0508625871596
 20
4493.7089716750206
 30
0.015625
  0
VERTEX
  5
1AC
  8
COLLECTIONS
 10
633.01499903598744
 20
4493.7022304539678
 30
0.015625
  0
VERTEX
  5
1AD
  8
COLLECTIONS
 10
633.00232509142825
 20
4493.7352501466048
 30
0.015625
  0
VERTEX
  5
1AE
  8
COLLECTIONS
 10
633.02501942036565
 20
4493.7515276906643
 30
0.015625
  0
VERTEX
  5
1AF
  8
COLLECTIONS
 10
633.05649376490237
 20
4493.7608455601094
 30
0.015625
  0
VERTEX
  5
1B0
  8
COLLECTIONS
 10
633.07919702110041
 20
4493.7670589990994
 30
0.015625
  0
SEQEND
  5
1B1
  8
COLLECTIONS
  0
POLYLINE
  5
82
  8
COLLECTIONS
 66
     1
 10
0.0
 20
0.0
 30
0.0192307692307692
 70
     1
1001
IRD
1002
{
1000
TPMLINK_area-_-ade
1070
   515
1071
        1
1004
0100534B0000A52A0000A52A000000000000B4286890E6A3C63FB4286890E6A3C63F00000000293E0000
1002
}
1002
{
1000
TPMLINK_area-_-ade
1070
   515
1071
        2
1004
0100DB2300001E0000001E00000000000000B4286890E6A3C63FB4286890E6A3C63F00000000A2150000
1002
}
1001
ADE
1011
-0.0000082545839177
1021
0.0
1031
0.0
1021
-0.0035467587476887
1031
0.0
1001
DCO15
1071
       13
1071
       13
1000
collections
1004
0730344134343300
  0
VERTEX
  5
1B2
  8
COLLECTIONS
 10
637.29776703107245
 20
4503.3059503758423
 30
0.0192307692307692
  0
VERTEX
  5
1B3
  8
COLLECTIONS
 10
637.26535964798563
 20
4503.3384281980461
 30
0.0192307692307692
  0
VERTEX
  5
1B4
  8
COLLECTIONS
 10
637.2988479996875
 20
4503.3677929865262
 30
0.0192307692307692
  0
VERTEX
  5
1B5
  8
COLLECTIONS
 10
637.32822269366602
 20
4503.3434291168151
 30
0.0192307692307692
  0
SEQEND
  5
1B6
  8
COLLECTIONS
  0
POLYLINE
  5
83
  8
COLLECTIONS
 66
     1
 10
0.0
 20
0.0
 30
0.0147058823529412
 70
     1
1001
IRD
1002
{
1000
TPMLINK_area-_-ade
1070
   515
1071
        1
1004
01005D4B0000A12A0000A12A000000000000528899AEC636C93F528899AEC636C93F00000000333E0000
1002
}
1002
{
1000
TPMLINK_area-_-ade
1070
   515
1071
        2
1004
0100E52300001A0000001A00000000000000528899AEC636C93F528899AEC636C93F0000000097150000
1002
}
1001
ADE
1011
-0.0172483399893508
1021
0.0
1031
0.0
1021
-0.0085950037973817
1031
0.0
1001
DCO15
1071
       12
1071
       12
1000
collections
1004
0730344133303700
  0
VERTEX
  5
1B7
  8
COLLECTIONS
 10
637.33430568166193
 20
4503.3434225131477
 30
0.0147058823529412
  0
VERTEX
  5
1B8
  8
COLLECTIONS
 10
637.38707223724134
 20
4503.3869600286689
 30
0.0147058823529412
  0
VERTEX
  5
1B9
  8
COLLECTIONS
 10
637.40327262695098
 20
4503.3676796235713
 30
0.0147058823529412
  0
VERTEX
  5
1BA
  8
COLLECTIONS
 10
637.3575951864226
 20
4503.3170375844429
 30
0.0147058823529412
  0
SEQEND
  5
1BB
  8
COLLECTIONS
  0
POLYLINE
  5
84
  8
COLLECTIONS
 66
     1
 10
0.0
 20
0.0
 30
0.03125
 70
     1
1001
IRD
1002
{
1000
TPMLINK_area-_-ade
1070
   515
1071
        1
1004
0100664B0000922A0000922A000000000000BC66A4BBC921D03FBC66A4BBC921D03F000000003A3E0000
1002
}
1002
{
1000
TPMLINK_area-_-ade
1070
   515
1071
        2
1004
0100EE2300000A0000000A00000000000000BC66A4BBC921D03FBC66A4BBC921D03F0000000090150000
1002
}
1001
ADE
1011
-0.0198021790164376
1021
0.0
1031
0.0
1021
-0.0273569368118842
1031
0.0
1001
DCO15
1071
       12
1071
       12
1000
collections
1004
0730344134323600
  0
VERTEX
  5
1BC
  8
COLLECTIONS
 10
637.41265905440594
 20
4503.6089615752453
 30
0.03125
  0
VERTEX
  5
1BD
  8
COLLECTIONS
 10
637.47153281142687
 20
4503.6747967764177
 30
0.03125
  0
VERTEX
  5
1BE
  8
COLLECTIONS
 10
637.5009141090726
 20
4503.656515894706
 30
0.03125
  0
VERTEX
  5
1BF
  8
COLLECTIONS
 10
637.43291036700191
 20
4503.5856214423666
 30
0.03125
  0
SEQEND
  5
1C0
  8
COLLECTIONS
  0
POLYLINE
  5
85
  8
COLLECTIONS
 66
     1
 10
0.0
 20
0.0
 30
0.0625
 70
     1
1001
IRD
1002
{
1000
TPMLINK_area-_-ade
1070
   515
1071
        1
1004
0100844B0000D52A0000D52A000000000000D4E146EA085AD03FD4E146EA085AD03F503E000000000000
1002
}
1002
{
1000
TPMLINK_area-_-ade
1070
   515
1071
        2
1004
01000C2400004F0000004F00000000000000D4E146EA085AD03FD4E146EA085AD03F7915000000000000
1002
}
1001
ADE
1011
-0.0085751018839346
1021
0.0
1031
0.0
1021
0.0066293605786996
1031
0.0
1001
DCO15
1071
       12
1071
       12
1000
collections
1004
0730344135313200
  0
VERTEX
  5
1C1
  8
COLLECTIONS
 10
637.36965337698564
 20
4502.8581279462351
 30
0.0625
  0
VERTEX
  5
1C2
  8
COLLECTIONS
 10
637.32830977577112
 20
4502.8309270907675
 30
0.0625
  0
VERTEX
  5
1C3
  8
COLLECTIONS
 10
637.36991943947112
 20
4502.7713460391597
 30
0.0625
  0
VERTEX
  5
1C4
  8
COLLECTIONS
 10
637.41985359549051
 20
4502.804857827593
 30
0.0625
  0
SEQEND
  5
1C5
  8
COLLECTIONS
  0
POLYLINE
  5
86
  8
COLLECTIONS
 66
     1
 10
0.0
 20
0.0
 30
0.03125
 70
     1
1001
IRD
1002
{
1000
TPMLINK_area-_-ade
1070
   515
1071
        1
1004
01008A4B0000F02A0000F02A0000000000005158024566ECD23F5158024566ECD23F00000000563E0000
1002
}
1002
{
1000
TPMLINK_area-_-ade
1070
   515
1071
        2
1004
0100122400006B0000006B00000000000000BA57024566ECD23FBA57024566ECD23F0000000073150000
1002
}
1001
ADE
1011
-0.020978292861173
1021
0.0
1031
0.0
1021
-0.0106644658080768
1031
0.0
1001
DCO15
1071
       12
1071
       12
1000
collections
1004
0730344134393100
  0
VERTEX
  5
1C6
  8
COLLECTIONS
 10
637.12715629433194
 20
4502.5483224858408
 30
0.03125
  0
VERTEX
  5
1C7
  8
COLLECTIONS
 10
637.21022614748654
 20
4502.6112161050587
 30
0.03125
  0
VERTEX
  5
1C8
  8
COLLECTIONS
 10
637.24190981162099
 20
4502.5770164789437
 30
0.03125
  0
VERTEX
  5
1C9
  8
COLLECTIONS
 10
637.15479291788165
 20
4502.5190750302881
 30
0.03125
  0
SEQEND
  5
1CA
  8
COLLECTIONS
  0
POLYLINE
  5
87
  8
COLLECTIONS
 66
     1
 10
0.0
 20
0.0
 30
0.03125
 70
     1
1001
IRD
1002
{
1000
TPMLINK_area-_-ade
1070
   515
1071
        1
1004
01008B4B0000EE2A0000EE2A0000000000008FE609BB5435D33F8FE609BB5435D33F00000000553E0000
1002
}
1002
{
1000
TPMLINK_area-_-ade
1070
   515
1071
        2
1004
0100132400006800000068000000000000008FE609BB5435D33F8FE609BB5435D33F0000000074150000
1002
}
1001
ADE
1011
-0.0310967239229285
1021
0.0
1031
0.0
1021
-0.0201175859201612
1031
0.0
1001
DCO15
1071
       12
1071
       12
1000
collections
1004
0730344134393000
  0
VERTEX
  5
1CB
  8
COLLECTIONS
 10
637.09400383897639
 20
4502.5876937870753
 30
0.03125
  0
VERTEX
  5
1CC
  8
COLLECTIONS
 10
637.18266161177905
 20
4502.6453550256256
 30
0.03125
  0
VERTEX
  5
1CD
  8
COLLECTIONS
 10
637.20948036958566
 20
4502.6130296060373
 30
0.03125
  0
VERTEX
  5
1CE
  8
COLLECTIONS
 10
637.12411247717512
 20
4502.5514573613291
 30
0.03125
  0
SEQEND
  5
1CF
  8
COLLECTIONS
  0
POLYLINE
  5
88
  8
COLLECTIONS
 66
     1
 10
0.0
 20
0.0
 30
0.05
 70
     1
1001
IRD
1002
{
1000
TPMLINK_area-_-ade
1070
   515
1071
        1
1004
0100914B0000032B0000032B000000000000EDAE6A558249D03FEDAE6A558249D03F00000000623E0000
1002
}
1002
{
1000
TPMLINK_area-_-ade
1070
   515
1071
        2
1004
010019240000840000008400000000000000EDAE6A558249D03FEDAE6A558249D03F0000000066150000
1002
}
1001
ADE
1011
0.000603499265253
1021
0.0
1031
0.0
1021
-0.0062751655805187
1031
0.0
1001
DCO15
1071
       12
1071
       12
1000
collections
1004
0730344134363300
  0
VERTEX
  5
1D0
  8
COLLECTIONS
 10
636.88721366769516
 20
4502.3244848608829
 30
0.05
  0
VERTEX
  5
1D1
  8
COLLECTIONS
 10
636.9119420328127
 20
4502.3949333238024
 30
0.05
  0
VERTEX
  5
1D2
  8
COLLECTIONS
 10
636.9556091258288
 20
4502.3875947436254
 30
0.05
  0
VERTEX
  5
1D3
  8
COLLECTIONS
 10
636.93665024394625
 20
4502.3067611954093
 30
0.05
  0
SEQEND
  5
1D4
  8
COLLECTIONS
  0
POLYLINE
  5
89
  8
COLLECTIONS
 66
     1
 10
0.0
 20
0.0
 30
0.0147058823529412
 70
     1
1001
IRD
1002
{
1000
TPMLINK_area-_-ade
1070
   515
1071
        1
1004
0100BF4B00000B2B00000B2B00000000000035C474BF6824D03F35C474BF6824D03F8F3E000000000000
1002
}
1002
{
1000
TPMLINK_area-_-ade
1070
   515
1071
        2
1004
0100472400008D0000008D0000000000000035C474BF6824D03F35C474BF6824D03F3515000000000000
1002
}
1001
ADE
1011
-0.0083442889217622
1021
0.0
1031
0.0
1021
-0.0143271743272635
1031
0.0
1001
DCO15
1071
       12
1071
       12
1000
collections
1004
0730344134393800
  0
VERTEX
  5
1D5
  8
COLLECTIONS
 10
637.45091382285932
 20
4502.2245148872726
 30
0.0147058823529412
  0
VERTEX
  5
1D6
  8
COLLECTIONS
 10
637.5087163426798
 20
4502.2554151613449
 30
0.0147058823529412
  0
VERTEX
  5
1D7
  8
COLLECTIONS
 10
637.47356169878412
 20
4502.3044574402238
 30
0.0147058823529412
  0
VERTEX
  5
1D8
  8
COLLECTIONS
 10
637.41381925819121
 20
4502.2640550305778
 30
0.0147058823529412
  0
SEQEND
  5
1D9
  8
COLLECTIONS
  0
POLYLINE
  5
8A
  8
COLLECTIONS
 66
     1
 10
0.0
 20
0.0
 30
0.0555555555555556
 70
     1
1001
IRD
1002
{
1000
TPMLINK_area-_-ade
1070
   515
1071
        1
1004
0100C44B0000112B0000112B000000000000F91B2520F0E2D43FF91B2520F0E2D43F943E000000000000
1002
}
1002
{
1000
TPMLINK_area-_-ade
1070
   515
1071
        2
1004
01004C240000940000009400000000000000F91B2520F0E2D43FF91B2520F0E2D43F2F15000000000000
1002
}
1001
ADE
1011
-0.000095571888437
1021
0.0
1031
0.0
1021
-0.0092249546123639
1031
0.0
1001
DCO15
1071
       12
1071
       12
1000
collections
1004
0730344134363200
  0
VERTEX
  5
1DA
  8
COLLECTIONS
 10
637.09395889204632
 20
4502.1803253041871
 30
0.0555555555555556
  0
VERTEX
  5
1DB
  8
COLLECTIONS
 10
637.08775045156085
 20
4502.2698612110453
 30
0.0555555555555556
  0
VERTEX
  5
1DC
  8
COLLECTIONS
 10
637.01489939428257
 20
4502.2654750492093
 30
0.0555555555555556
  0
VERTEX
  5
1DD
  8
COLLECTIONS
 10
637.02287010522775
 20
4502.1736082829766
 30
0.0555555555555556
  0
SEQEND
  5
1DE
  8
COLLECTIONS
  0
POLYLINE
  5
8B
  8
COLLECTIONS
 66
     1
 10
0.0
 20
0.0
 30
0.0833333333333333
 70
     1
1001
IRD
1002
{
1000
TPMLINK_area-_-ade
1070
   515
1071
        1
1004
01008F4F0000C92F0000C92F0000000000005417192152C6CD3F5417192152C6CD3F0000000059420000
1002
}
1002
{
1000
TPMLINK_area-_-ade
1070
   515
1071
        2
1004
010017280000CD050000CD050000000000005417192152C6CD3F5417192152C6CD3F0000000003110000
1002
}
1001
ADE
1011
-0.0109144646987716
1021
0.0
1031
0.0
1021
-0.0179100012592244
1031
0.0
1001
DCO15
1071
       12
1071
       12
1000
collections
1004
0730344238353500
  0
VERTEX
  5
1DF
  8
COLLECTIONS
 10
634.32322440293842
 20
4496.0873541127166
 30
0.0833333333333333
  0
VERTEX
  5
1E0
  8
COLLECTIONS
 10
634.28503951689925
 20
4496.118217670185
 30
0.0833333333333333
  0
VERTEX
  5
1E1
  8
COLLECTIONS
 10
634.34293535003405
 20
4496.1656478412624
 30
0.0833333333333333
  0
VERTEX
  5
1E2
  8
COLLECTIONS
 10
634.37044446940115
 20
4496.1298542589493
 30
0.0833333333333333
  0
SEQEND
  5
1E3
  8
COLLECTIONS
  0
POLYLINE
  5
8C
  8
COLLECTIONS
 66
     1
 10
0.0
 20
0.0
 30
0.125
 70
     1
1001
IRD
1002
{
1000
TPMLINK_area-_-ade
1070
   515
1071
        1
1004
0100CE4F000023310000233100000000000004474F8D42D4C53F04474F8D42D4C53FB842000000000000
1002
}
1002
{
1000
TPMLINK_area-_-ade
1070
   515
1071
        2
1004
0100562800005C0700005C0700000000000004474F8D42D4C53F04474F8D42D4C53F9010000000000000
1002
}
1001
ADE
1011
-0.0197768859941334
1021
0.0
1031
0.0
1021
-0.0065710530834622
1031
0.0
1001
DCO15
1071
       12
1071
       12
1000
collections
1004
0730344233323900
  0
VERTEX
  5
1E4
  8
COLLECTIONS
 10
633.3374742046891
 20
4494.4533540144612
 30
0.125
  0
VERTEX
  5
1E5
  8
COLLECTIONS
 10
633.3333641907999
 20
4494.4779295450307
 30
0.125
  0
VERTEX
  5
1E6
  8
COLLECTIONS
 10
633.27704156701611
 20
4494.4585362328999
 30
0.125
  0
VERTEX
  5
1E7
  8
COLLECTIONS
 10
633.28059992224019
 20
4494.433101218915
 30
0.125
  0
SEQEND
  5
1E8
  8
COLLECTIONS
  0
POLYLINE
  5
8D
  8
COLLECTIONS
 66
     1
 10
0.0
 20
0.0
 30
0.0833333333333333
 70
     1
1001
IRD
1002
{
1000
TPMLINK_area-_-ade
1070
   515
1071
        1
1004
0100D44F00006F3100006F3100000000000060734ABDF5E3C33F60734ABDF5E3C33FAF42000000000000
1002
}
1002
{
1000
TPMLINK_area-_-ade
1070
   515
1071
        2
1004
01005C280000AF070000AF07000000000000A8BB49BDF5E3C33FA8BB49BDF5E3C33F9A10000000000000
1002
}
1001
ADE
1011
-0.0136369816625575
1021
0.0
1031
0.0
1021
-0.0093256974423639
1031
0.0
1001
DCO15
1071
       12
1071
       12
1000
collections
1004
0730344232333400
  0
VERTEX
  5
1E9
  8
COLLECTIONS
 10
632.82758285622219
 20
4494.2382218230878
 30
0.0833333333333333
  0
VERTEX
  5
1EA
  8
COLLECTIONS
 10
632.78224875133594
 20
4494.2059877681486
 30
0.0833333333333333
  0
VERTEX
  5
1EB
  8
COLLECTIONS
 10
632.79421489056233
 20
4494.1857982573247
 30
0.0833333333333333
  0
VERTEX
  5
1EC
  8
COLLECTIONS
 10
632.83648779974919
 20
4494.2148628243949
 30
0.0833333333333333
  0
SEQEND
  5
1ED
  8
COLLECTIONS
  0
POLYLINE
  5
8E
  8
COLLECTIONS
 66
     1
 10
0.0
 20
0.0
 30
0.03125
 70
     1
1001
IRD
1002
{
1000
TPMLINK_area-_-ade
1070
   515
1071
        1
1004
01000A500000BF320000BF32000000000000FAE22DC67B6DC83FFAE22DC67B6DC83FD642000000000000
1002
}
1002
{
1000
TPMLINK_area-_-ade
1070
   515
1071
        2
1004
010092280000130900001309000000000000EFD72EC67B6DC83FEFD72EC67B6DC83F6F10000000000000
1002
}
1001
ADE
1011
-0.0134095889575292
1021
0.0
1031
0.0
1021
-0.0041328289380544
1031
0.0
1001
DCO15
1071
       12
1071
       12
1000
collections
1004
0730344234363300
  0
VERTEX
  5
1EE
  8
COLLECTIONS
 10
632.14274965165362
 20
4493.392508321369
 30
0.03125
  0
VERTEX
  5
1EF
  8
COLLECTIONS
 10
632.15267759344067
 20
4493.4284138005123
 30
0.03125
  0
VERTEX
  5
1F0
  8
COLLECTIONS
 10
632.09606889414385
 20
4493.4324791569225
 30
0.03125
  0
VERTEX
  5
1F1
  8
COLLECTIONS
 10
632.08415348454014
 20
4493.3962724180301
 30
0.03125
  0
SEQEND
  5
1F2
  8
COLLECTIONS
  0
POLYLINE
  5
8F
  8
COLLECTIONS
 66
     1
 10
0.0
 20
0.0
 30
0.0416666666666667
 70
     1
1001
IRD
1002
{
1000
TPMLINK_area-_-ade
1070
   515
1071
        1
1004
01000F500000C0310000C0310000000000008F7C5CD810AAC33F8F7C5CD810AAC33FE742000000000000
1002
}
1002
{
1000
TPMLINK_area-_-ade
1070
   515
1071
        2
1004
0100972800000208000002080000000000008F7C5CD810AAC33F8F7C5CD810AAC33F5D10000000000000
1002
}
1001
ADE
1011
-0.0197239596059262
1021
0.0
1031
0.0
1021
-0.0084280143328215
1031
0.0
1001
DCO15
1071
       12
1071
       12
1000
collections
1004
0730344234373700
  0
VERTEX
  5
1F3
  8
COLLECTIONS
 10
632.43957002885895
 20
4494.0524517492213
 30
0.0416666666666667
  0
VERTEX
  5
1F4
  8
COLLECTIONS
 10
632.3921259478476
 20
4494.0486351905929
 30
0.0416666666666667
  0
VERTEX
  5
1F5
  8
COLLECTIONS
 10
632.38753847395287
 20
4494.0198825918342
 30
0.0416666666666667
  0
VERTEX
  5
1F6
  8
COLLECTIONS
 10
632.43329149287797
 20
4494.0219789642842
 30
0.0416666666666667
  0
SEQEND
  5
1F7
  8
COLLECTIONS
  0
POLYLINE
  5
90
  8
COLLECTIONS
 66
     1
 10
0.0
 20
0.0
 30
0.125
 70
     1
1001
IRD
1002
{
1000
TPMLINK_area-_-ade
1070
   515
1071
        1
1004
0100614900009E2E00009E2E000000000000CFE9601D3594D03FCFE9601D3594D03F353C000000000000
1002
}
1002
{
1000
TPMLINK_area-_-ade
1070
   515
1071
        2
1004
0100E9210000730400007304000000000000CFE9601D3594D03FCFE9601D3594D03FCF17000000000000
1002
}
1001
ADE
1011
-0.0026085730330578
1021
0.0
1031
0.0
1021
-0.0136812466289484
1031
0.0
1001
DCO15
1071
       12
1071
       12
1000
collections
1004
0730344130313900
  0
VERTEX
  5
1F8
  8
COLLECTIONS
 10
639.29759495460053
 20
4498.1176565734713
 30
0.125
  0
VERTEX
  5
1F9
  8
COLLECTIONS
 10
639.34916125038433
 20
4498.165505723141
 30
0.125
  0
VERTEX
  5
1FA
  8
COLLECTIONS
 10
639.33411831675915
 20
4498.1903313168741
 30
0.125
  0
VERTEX
  5
1FB
  8
COLLECTIONS
 10
639.30851342682649
 20
4498.1742628342881
 30
0.125
  0
VERTEX
  5
1FC
  8
COLLECTIONS
 10
639.2898024282697
 20
4498.1893222009212
 30
0.125
  0
VERTEX
  5
1FD
  8
COLLECTIONS
 10
639.25565284592358
 20
4498.1663519372132
 30
0.125
  0
SEQEND
  5
1FE
  8
COLLECTIONS
  0
POLYLINE
  5
91
  8
COLLECTIONS
 66
     1
 10
0.0
 20
0.0
 30
0.1666666666666666
 70
     1
1001
IRD
1002
{
1000
TPMLINK_area-_-ade
1070
   515
1071
        1
1004
01008E490000812F0000812F0000000000005BE6693B621FC93F5BE6693B621FC93F593C000000000000
1002
}
1002
{
1000
TPMLINK_area-_-ade
1070
   515
1071
        2
1004
010016220000710500007105000000000000D8AF6A3B621FC93FD8AF6A3B621FC93FAA17000000000000
1002
}
1001
ADE
1011
-0.0137009226712053
1021
0.0
1031
0.0
1021
-0.0256881802251883
1031
0.0
1001
DCO15
1071
       12
1071
       12
1000
collections
1004
0730344130383600
  0
VERTEX
  5
1FF
  8
COLLECTIONS
 10
638.28440817428918
 20
4496.8501350320748
 30
0.1666666666666666
  0
VERTEX
  5
200
  8
COLLECTIONS
 10
638.26139899417115
 20
4496.8781021333652
 30
0.1666666666666666
  0
VERTEX
  5
201
  8
COLLECTIONS
 10
638.22018061444214
 20
4496.8371434142018
 30
0.1666666666666666
  0
VERTEX
  5
202
  8
COLLECTIONS
 10
638.23903895321541
 20
4496.8045653963909
 30
0.1666666666666666
  0
SEQEND
  5
203
  8
COLLECTIONS
  0
POLYLINE
  5
92
  8
COLLECTIONS
 66
     1
 10
0.0
 20
0.0
 30
0.25
 70
     1
1001
IRD
1002
{
1000
TPMLINK_area-_-ade
1070
   515
1071
        1
1004
0100A64900005D2F00005D2F00000000000029E39E5B1036C03F29E39E5B1036C03F5C3C000000000000
1002
}
1002
{
1000
TPMLINK_area-_-ade
1070
   515
1071
        2
1004
01002E22000045050000450500000000000029E39E5B1036C03F29E39E5B1036C03FA617000000000000
1002
}
1001
ADE
1011
-0.0028222865309999
1021
0.0
1031
0.0
1021
0.0037376812479124
1031
0.0
1001
DCO15
1071
       12
1071
       12
1000
collections
1004
0730344130373400
  0
VERTEX
  5
204
  8
COLLECTIONS
 10
639.05122338892443
 20
4497.0797365782564
 30
0.25
  0
VERTEX
  5
205
  8
COLLECTIONS
 10
639.03346010650671
 20
4497.0816516865771
 30
0.25
  0
VERTEX
  5
206
  8
COLLECTIONS
 10
639.01950412165195
 20
4497.0745263539329
 30
0.25
  0
VERTEX
  5
207
  8
COLLECTIONS
 10
639.01405229128375
 20
4497.0678627179786
 30
0.25
  0
VERTEX
  5
208
  8
COLLECTIONS
 10
639.01681782471815
 20
4497.0570255394441
 30
0.25
  0
VERTEX
  5
209
  8
COLLECTIONS
 10
639.02086975352165
 20
4497.0459226499424
 30
0.25
  0
VERTEX
  5
20A
  8
COLLECTIONS
 10
639.03038162027883
 20
4497.0427714132838
 30
0.25
  0
VERTEX
  5
20B
  8
COLLECTIONS
 10
639.04406216506845
 20
4497.0470647302946
 30
0.25
  0
VERTEX
  5
20C
  8
COLLECTIONS
 10
639.05261496506705
 20
4497.0552545283053
 30
0.25
  0
VERTEX
  5
20D
  8
COLLECTIONS
 10
639.05470822242705
 20
4497.0603936237167
 30
0.25
  0
VERTEX
  5
20E
  8
COLLECTIONS
 10
639.05374591263433
 20
4497.0712194516327
 30
0.25
  0
SEQEND
  5
20F
  8
COLLECTIONS
  0
POLYLINE
  5
93
  8
COLLECTIONS
 66
     1
 10
0.0
 20
0.0
 30
0.03125
 70
     1
1001
IRD
1002
{
1000
TPMLINK_area-_-ade
1070
   515
1071
        1
1004
0100C8490000732C0000732C00000000000074F7C14FA0A0C73F74F7C14FA0A0C73F00000000953C0000
1002
}
1002
{
1000
TPMLINK_area-_-ade
1070
   515
1071
        2
1004
0100502200001C0200001C02000000000000A107C24FA0A0C73FA107C24FA0A0C73F0000000064170000
1002
}
1001
ADE
1011
0.0008705286735449
1021
0.0
1031
0.0
1021
-0.003256691423303
1031
0.0
1001
DCO15
1071
       12
1071
       12
1000
collections
1004
0730344132333500
  0
VERTEX
  5
210
  8
COLLECTIONS
 10
638.58561230757789
 20
4499.9344439615907
 30
0.03125
  0
VERTEX
  5
211
  8
COLLECTIONS
 10
638.53415194744537
 20
4499.9350829119167
 30
0.03125
  0
VERTEX
  5
212
  8
COLLECTIONS
 10
638.53457268922625
 20
4499.9734196324207
 30
0.03125
  0
VERTEX
  5
213
  8
COLLECTIONS
 10
638.58513407190435
 20
4499.9784194417516
 30
0.03125
  0
SEQEND
  5
214
  8
COLLECTIONS
  0
POLYLINE
  5
94
  8
COLLECTIONS
 66
     1
 10
0.0
 20
0.0
 30
0.108695652173913
 70
     1
1001
IRD
1002
{
1000
TPMLINK_collections2-_-ade
1070
   515
1071
        2
1004
01004A090000280300002803000000000000CB6B086E3BB8D63FCB6B086E3BB8D63FC907000000000000
1002
}
1002
{
1000
TPMLINK_area-_-ade
1070
   515
1071
        3
1004
01009C4500009636000096360000000000004263086E3BB8D63F4263086E3BB8D63F7238000000000000
1002
}
1002
{
1000
TPMLINK_area-_-ade
1070
   515
1071
        4
1004
0100611E0000120D0000120D0000000000004263086E3BB8D63F4263086E3BB8D63F9D1B000000000000
1002
}
1001
ADE
1011
-0.0340421902599246
1021
0.0
1031
0.0
1021
-0.0307921234989408
1031
0.0
1001
DCO15
1071
        7
1071
        7
1000
collections
1004
0730324132313700
  0
VERTEX
  5
215
  8
COLLECTIONS
 10
615.12020271845915
 20
4483.1082220075286
 30
0.108695652173913
  0
VERTEX
  5
216
  8
COLLECTIONS
 10
615.12792542559191
 20
4483.0305764233599
 30
0.108695652173913
  0
VERTEX
  5
217
  8
COLLECTIONS
 10
615.17127377819213
 20
4483.0290252190416
 30
0.108695652173913
  0
VERTEX
  5
218
  8
COLLECTIONS
 10
615.19985966285731
 20
4483.0302058000461
 30
0.108695652173913
  0
VERTEX
  5
219
  8
COLLECTIONS
 10
615.22687768597757
 20
4483.0283443548651
 30
0.108695652173913
  0
VERTEX
  5
21A
  8
COLLECTIONS
 10
615.21971299596873
 20
4483.068228004131
 30
0.108695652173913
  0
VERTEX
  5
21B
  8
COLLECTIONS
 10
615.21108663424025
 20
4483.1137417963146
 30
0.108695652173913
  0
SEQEND
  5
21C
  8
COLLECTIONS
  0
POLYLINE
  5
95
  8
COLLECTIONS
 66
     1
 10
0.0
 20
0.0
 30
0.2
 70
     1
1001
IRD
1002
{
1000
TPMLINK_collections2-_-ade
1070
   515
1071
        2
1004
01004C090000290300002903000000000000E8334DC44160D23FE8334DC44160D23F00000000C7070000
1002
}
1002
{
1000
TPMLINK_area-_-ade
1070
   515
1071
        3
1004
01009E45000097360000973600000000000007974DC44160D23F07974DC44160D23F0000000074380000
1002
}
1002
{
1000
TPMLINK_area-_-ade
1070
   515
1071
        4
1004
0100631E0000130D0000130D000000000000848E4DC44160D23F848E4DC44160D23F000000009B1B0000
1002
}
1001
ADE
1011
0.0284399890437044
1021
0.0
1031
0.0
1021
-0.0225208143683631
1031
0.0
1001
DCO15
1071
        7
1071
        7
1000
collections
1004
0730324132313900
  0
VERTEX
  5
21D
  8
COLLECTIONS
 10
615.05024652696784
 20
4483.1034663690571
 30
0.2
  0
VERTEX
  5
21E
  8
COLLECTIONS
 10
615.05499591897865
 20
4483.0330000499698
 30
0.2
  0
VERTEX
  5
21F
  8
COLLECTIONS
 10
615.03252531898545
 20
4483.0312343838477
 30
0.2
  0
VERTEX
  5
220
  8
COLLECTIONS
 10
614.99729528267289
 20
4483.0291147516409
 30
0.2
  0
VERTEX
  5
221
  8
COLLECTIONS
 10
614.97334427157932
 20
4483.0314488456543
 30
0.2
  0
VERTEX
  5
222
  8
COLLECTIONS
 10
614.97921386214443
 20
4483.0941320751572
 30
0.2
  0
SEQEND
  5
223
  8
COLLECTIONS
  0
POLYLINE
  5
96
  8
COLLECTIONS
 66
     1
 10
0.0
 20
0.0
 30
0.0192307692307692
 70
     1
1001
IRD
1002
{
1000
TPMLINK_collections2-_-ade
1070
   515
1071
        2
1004
010090090000ED000000ED00000000000000E46191268D53DC3FE46191268D53DC3F8907000000000000
1002
}
1002
{
1000
TPMLINK_area-_-ade
1070
   515
1071
        3
1004
0100E24500005B3400005B34000000000000A41E91268D53DC3FA41E91268D53DC3FB238000000000000
1002
}
1002
{
1000
TPMLINK_area-_-ade
1070
   515
1071
        4
1004
0100A31E0000D70A0000D70A00000000000059D290268D53DC3F59D290268D53DC3F5D1B000000000000
1002
}
1001
ADE
1011
-0.0025253564018612
1021
0.0
1031
0.0
1021
-0.0733313052596714
1031
0.0
1001
DCO15
1071
        7
1071
        7
1000
collections
1004
0730324131323000
  0
VERTEX
  5
224
  8
COLLECTIONS
 10
617.95395520534089
 20
4489.3514718775059
 30
0.0192307692307692
  0
VERTEX
  5
225
  8
COLLECTIONS
 10
617.94237367918868
 20
4489.3401334894479
 30
0.0192307692307692
  0
VERTEX
  5
226
  8
COLLECTIONS
 10
617.92776060275764
 20
4489.3267228263076
 30
0.0192307692307692
  0
VERTEX
  5
227
  8
COLLECTIONS
 10
617.90756406336743
 20
4489.3117195256864
 30
0.0192307692307692
  0
VERTEX
  5
228
  8
COLLECTIONS
 10
617.89038133679401
 20
4489.3003161002607
 30
0.0192307692307692
  0
VERTEX
  5
229
  8
COLLECTIONS
 10
617.88637868633987
 20
4489.2941583998991
 30
0.0192307692307692
  0
VERTEX
  5
22A
  8
COLLECTIONS
 10
617.88498707344206
 20
4489.2824290615499
 30
0.0192307692307692
  0
VERTEX
  5
22B
  8
COLLECTIONS
 10
617.88461386062124
 20
4489.2707115481862
 30
0.0192307692307692
  0
VERTEX
  5
22C
  8
COLLECTIONS
 10
617.88836746049651
 20
4489.2544585343721
 30
0.0192307692307692
  0
VERTEX
  5
22D
  8
COLLECTIONS
 10
617.8981900734176
 20
4489.2418408706799
 30
0.0192307692307692
  0
VERTEX
  5
22E
  8
COLLECTIONS
 10
617.91318746155025
 20
4489.2221535313283
 30
0.0192307692307692
  0
VERTEX
  5
22F
  8
COLLECTIONS
 10
617.92813163729363
 20
4489.2070489923217
 30
0.0192307692307692
  0
VERTEX
  5
230
  8
COLLECTIONS
 10
617.94095032556766
 20
4489.1995588039399
 30
0.0192307692307692
  0
VERTEX
  5
231
  8
COLLECTIONS
 10
617.95928152694785
 20
4489.199771653497
 30
0.0192307692307692
  0
VERTEX
  5
232
  8
COLLECTIONS
 10
617.97088670305084
 20
4489.2090732414053
 30
0.0192307692307692
  0
VERTEX
  5
233
  8
COLLECTIONS
 10
617.99152149262625
 20
4489.2301928549732
 30
0.0192307692307692
  0
VERTEX
  5
234
  8
COLLECTIONS
 10
618.0097048818136
 20
4489.2431357054893
 30
0.0192307692307692
  0
VERTEX
  5
235
  8
COLLECTIONS
 10
618.0238205831821
 20
4489.2555220560653
 30
0.0192307692307692
  0
VERTEX
  5
236
  8
COLLECTIONS
 10
618.02567409621633
 20
4489.2713309072051
 30
0.0192307692307692
  0
VERTEX
  5
237
  8
COLLECTIONS
 10
618.02446058404496
 20
4489.2881226834943
 30
0.0192307692307692
  0
VERTEX
  5
238
  8
COLLECTIONS
 10
618.01453745883271
 20
4489.3093967478371
 30
0.0192307692307692
  0
VERTEX
  5
239
  8
COLLECTIONS
 10
618.00214519576889
 20
4489.3240216492441
 30
0.0192307692307692
  0
VERTEX
  5
23A
  8
COLLECTIONS
 10
617.99335872038739
 20
4489.3351235377968
 30
0.0192307692307692
  0
VERTEX
  5
23B
  8
COLLECTIONS
 10
617.98110244454097
 20
4489.3380368383214
 30
0.0192307692307692
  0
VERTEX
  5
23C
  8
COLLECTIONS
 10
617.97393816907788
 20
4489.3410092637241
 30
0.0192307692307692
  0
VERTEX
  5
23D
  8
COLLECTIONS
 10
617.96728309365335
 20
4489.3439876016128
 30
0.0192307692307692
  0
VERTEX
  5
23E
  8
COLLECTIONS
 10
617.96165233079319
 20
4489.3464685644394
 30
0.0192307692307692
  0
VERTEX
  5
23F
  8
COLLECTIONS
 10
617.95754325556015
 20
4489.3494764647694
 30
0.0192307692307692
  0
SEQEND
  5
240
  8
COLLECTIONS
  0
POLYLINE
  5
97
  8
COLLECTIONS
 66
     1
 10
0.0
 20
0.0
 30
0.025
 70
     1
1001
IRD
1002
{
1000
TPMLINK_collections2-_-ade
1070
   515
1071
        2
1004
0100B8090000D8020000D8020000000000008E43A2BDA445D53F8E43A2BDA445D53F5907000000000000
1002
}
1002
{
1000
TPMLINK_area-_-ade
1070
   515
1071
        3
1004
01000A4600004636000046360000000000006F6EA1BDA445D53F6F6EA1BDA445D53FE238000000000000
1002
}
1002
{
1000
TPMLINK_area-_-ade
1070
   515
1071
        4
1004
0100C91E0000C20C0000C20C000000000000958DA1BDA445D53F958DA1BDA445D53F2D1B000000000000
1002
}
1001
ADE
1011
-0.0058461481918357
1021
0.0
1031
0.0
1021
0.0356516737037964
1031
0.0
1001
DCO15
1071
        7
1071
        7
1000
collections
1004
0730324132303000
  0
VERTEX
  5
241
  8
COLLECTIONS
 10
614.42352626565832
 20
4483.6454859470005
 30
0.025
  0
VERTEX
  5
242
  8
COLLECTIONS
 10
614.43870734418408
 20
4483.6450530298807
 30
0.025
  0
VERTEX
  5
243
  8
COLLECTIONS
 10
614.4589343516476
 20
4483.6439697711048
 30
0.025
  0
VERTEX
  5
244
  8
COLLECTIONS
 10
614.47323323340652
 20
4483.6481200386888
 30
0.025
  0
VERTEX
  5
245
  8
COLLECTIONS
 10
614.48296239505635
 20
4483.6696198343052
 30
0.025
  0
VERTEX
  5
246
  8
COLLECTIONS
 10
614.49601638382285
 20
4483.7011537655144
 30
0.025
  0
VERTEX
  5
247
  8
COLLECTIONS
 10
614.51016999389515
 20
4483.7179693624403
 30
0.025
  0
VERTEX
  5
248
  8
COLLECTIONS
 10
614.51668977299323
 20
4483.7334833100667
 30
0.025
  0
VERTEX
  5
249
  8
COLLECTIONS
 10
614.50451604903162
 20
4483.7328175718594
 30
0.025
  0
VERTEX
  5
24A
  8
COLLECTIONS
 10
614.48940712335911
 20
4483.7357806687323
 30
0.025
  0
VERTEX
  5
24B
  8
COLLECTIONS
 10
614.47947400175929
 20
4483.7426477475037
 30
0.025
  0
VERTEX
  5
24C
  8
COLLECTIONS
 10
614.47363245947827
 20
4483.750917489564
 30
0.025
  0
VERTEX
  5
24D
  8
COLLECTIONS
 10
614.46680770643695
 20
4483.7602281646678
 30
0.025
  0
VERTEX
  5
24E
  8
COLLECTIONS
 10
614.45456279560335
 20
4483.7393065578563
 30
0.025
  0
VERTEX
  5
24F
  8
COLLECTIONS
 10
614.44601887270198
 20
4483.7238503325079
 30
0.025
  0
VERTEX
  5
250
  8
COLLECTIONS
 10
614.43792326346886
 20
4483.7063555327859
 30
0.025
  0
VERTEX
  5
251
  8
COLLECTIONS
 10
614.43267627252396
 20
4483.6821956822814
 30
0.025
  0
VERTEX
  5
252
  8
COLLECTIONS
 10
614.42609877114376
 20
4483.6646575908489
 30
0.025
  0
VERTEX
  5
253
  8
COLLECTIONS
 10
614.42388702992309
 20
4483.6581368457701
 30
0.025
  0
SEQEND
  5
254
  8
COLLECTIONS
  0
POLYLINE
  5
98
  8
COLLECTIONS
 66
     1
 10
0.0
 20
0.0
 30
0.0277777777777778
 70
     1
1001
IRD
1002
{
1000
TPMLINK_collections2-_-ade
1070
   515
1071
        2
1004
0100BA090000CD020000CD020000000000001CB499916805C53F1CB499916805C53F5807000000000000
1002
}
1002
{
1000
TPMLINK_area-_-ade
1070
   515
1071
        3
1004
01000C4600003B3600003B3600000000000030FE99916805C53F30FE99916805C53FE338000000000000
1002
}
1002
{
1000
TPMLINK_area-_-ade
1070
   515
1071
        4
1004
0100CB1E0000B70C0000B70C00000000000030FE99916805C53F30FE99916805C53F2C1B000000000000
1002
}
1001
ADE
1011
-0.0188371142326105
1021
0.0
1031
0.0
1021
0.0016591944649917
1031
0.0
1001
DCO15
1071
        7
1071
        7
1000
collections
1004
0730324131373800
  0
VERTEX
  5
255
  8
COLLECTIONS
 10
614.1052257886513
 20
4483.7254655312881
 30
0.0277777777777778
  0
VERTEX
  5
256
  8
COLLECTIONS
 10
614.09358696178197
 20
4483.7257974344138
 30
0.0277777777777778
  0
VERTEX
  5
257
  8
COLLECTIONS
 10
614.08637258333499
 20
4483.7214451388427
 30
0.0277777777777778
  0
VERTEX
  5
258
  8
COLLECTIONS
 10
614.08152964836574
 20
4483.7114542949612
 30
0.0277777777777778
  0
VERTEX
  5
259
  8
COLLECTIONS
 10
614.08417623866558
 20
4483.6977047408654
 30
0.0277777777777778
  0
VERTEX
  5
25A
  8
COLLECTIONS
 10
614.09500598760224
 20
4483.6867605133448
 30
0.0277777777777778
  0
VERTEX
  5
25B
  8
COLLECTIONS
 10
614.11263066245851
 20
4483.6832192276679
 30
0.0277777777777778
  0
VERTEX
  5
25C
  8
COLLECTIONS
 10
614.12838992978755
 20
4483.6853020597346
 30
0.0277777777777778
  0
VERTEX
  5
25D
  8
COLLECTIONS
 10
614.13663081070706
 20
4483.6901315301138
 30
0.0277777777777778
  0
VERTEX
  5
25E
  8
COLLECTIONS
 10
614.13904457991566
 20
4483.7037367785051
 30
0.0277777777777778
  0
VERTEX
  5
25F
  8
COLLECTIONS
 10
614.1378583751864
 20
4483.7154188970862
 30
0.0277777777777778
  0
VERTEX
  5
260
  8
COLLECTIONS
 10
614.12539507383269
 20
4483.7223581287117
 30
0.0277777777777778
  0
SEQEND
  5
261
  8
COLLECTIONS
  0
POLYLINE
  5
99
  8
COLLECTIONS
 66
     1
 10
0.0
 20
0.0
 30
0.15
 70
     1
1001
IRD
1002
{
1000
TPMLINK_collections2-_-ade
1070
   515
1071
        2
1004
0100BB090000130300001303000000000000388574B5A627D83F388574B5A627D83F5707000000000000
1002
}
1002
{
1000
TPMLINK_area-_-ade
1070
   515
1071
        3
1004
01000D46000081360000813600000000000068C474B5A627D83F68C474B5A627D83FE438000000000000
1002
}
1002
{
1000
TPMLINK_area-_-ade
1070
   515
1071
        4
1004
0100CC1E0000FD0C0000FD0C00000000000009CB74B5A627D83F09CB74B5A627D83F2B1B000000000000
1002
}
1001
ADE
1011
-0.0143232313681665
1021
0.0
1031
0.0
1021
0.0565100050844194
1031
0.0
1001
DCO15
1071
        7
1071
        7
1000
collections
1004
0730324132323000
  0
VERTEX
  5
262
  8
COLLECTIONS
 10
614.56377719790385
 20
4483.2535476680478
 30
0.15
  0
VERTEX
  5
263
  8
COLLECTIONS
 10
614.56429863040626
 20
4483.2363135845781
 30
0.15
  0
VERTEX
  5
264
  8
COLLECTIONS
 10
614.56571669024561
 20
4483.21500235236
 30
0.15
  0
VERTEX
  5
265
  8
COLLECTIONS
 10
614.56551562823836
 20
4483.1901921601966
 30
0.15
  0
VERTEX
  5
266
  8
COLLECTIONS
 10
614.56524241337854
 20
4483.1628517882809
 30
0.15
  0
VERTEX
  5
267
  8
COLLECTIONS
 10
614.56230914362914
 20
4483.1310292456601
 30
0.15
  0
VERTEX
  5
268
  8
COLLECTIONS
 10
614.56122588485528
 20
4483.1108022381959
 30
0.15
  0
VERTEX
  5
269
  8
COLLECTIONS
 10
614.56261411757282
 20
4483.1062046229263
 30
0.15
  0
VERTEX
  5
26A
  8
COLLECTIONS
 10
614.5722865229211
 20
4483.1079545858884
 30
0.15
  0
VERTEX
  5
26B
  8
COLLECTIONS
 10
614.58749646258775
 20
4483.108533740673
 30
0.15
  0
VERTEX
  5
26C
  8
COLLECTIONS
 10
614.60274969396608
 20
4483.110631003311
 30
0.15
  0
VERTEX
  5
26D
  8
COLLECTIONS
 10
614.6093560564874
 20
4483.129181166646
 30
0.15
  0
VERTEX
  5
26E
  8
COLLECTIONS
 10
614.60712795273434
 20
4483.1576057633156
 30
0.15
  0
VERTEX
  5
26F
  8
COLLECTIONS
 10
614.60599850430651
 20
4483.189037714551
 30
0.15
  0
VERTEX
  5
270
  8
COLLECTIONS
 10
614.60460930560816
 20
4483.2113610186707
 30
0.15
  0
VERTEX
  5
271
  8
COLLECTIONS
 10
614.6008053717203
 20
4483.237804763251
 30
0.15
  0
VERTEX
  5
272
  8
COLLECTIONS
 10
614.59646654074038
 20
4483.2632508664992
 30
0.15
  0
VERTEX
  5
273
  8
COLLECTIONS
 10
614.58018680688986
 20
4483.2606764290522
 30
0.15
  0
VERTEX
  5
274
  8
COLLECTIONS
 10
614.56895300197721
 20
4483.257451649949
 30
0.15
  0
SEQEND
  5
275
  8
COLLECTIONS
  0
POLYLINE
  5
9A
  8
COLLECTIONS
 66
     1
 10
0.0
 20
0.0
 30
0.1428571428571428
 70
     1
1001
IRD
1002
{
1000
TPMLINK_collections2-_-ade
1070
   515
1071
        2
1004
0100D40900009F0100009F01000000000000C138C33E2E44D83FC138C33E2E44D83F000000003F070000
1002
}
1002
{
1000
TPMLINK_area-_-ade
1070
   515
1071
        3
1004
0100264600000D3500000D3500000000000062FBC23E2E44D83F62FBC23E2E44D83F00000000FC380000
1002
}
1002
{
1000
TPMLINK_area-_-ade
1070
   515
1071
        4
1004
0100E41E0000890B0000890B00000000000062FBC23E2E44D83F62FBC23E2E44D83F00000000131B0000
1002
}
1001
ADE
1011
-0.0595100045151185
1021
0.0
1031
0.0
1021
-0.0052256839690017
1031
0.0
1001
DCO15
1071
        7
1071
        7
1000
collections
1004
0730324130363400
  0
VERTEX
  5
276
  8
COLLECTIONS
 10
614.31068939103614
 20
4486.1779516651786
 30
0.1428571428571428
  0
VERTEX
  5
277
  8
COLLECTIONS
 10
614.30591933605433
 20
4486.1590263803091
 30
0.1428571428571428
  0
VERTEX
  5
278
  8
COLLECTIONS
 10
614.31028785641411
 20
4486.1417848959363
 30
0.1428571428571428
  0
VERTEX
  5
279
  8
COLLECTIONS
 10
614.25223647787425
 20
4486.1413037545126
 30
0.1428571428571428
  0
VERTEX
  5
27A
  8
COLLECTIONS
 10
614.22679653037869
 20
4486.1398511249017
 30
0.1428571428571428
  0
VERTEX
  5
27B
  8
COLLECTIONS
 10
614.19985520383125
 20
4486.1368449958281
 30
0.1428571428571428
  0
VERTEX
  5
27C
  8
COLLECTIONS
 10
614.18306205872875
 20
4486.1360491871392
 30
0.1428571428571428
  0
VERTEX
  5
27D
  8
COLLECTIONS
 10
614.16127300352275
 20
4486.1295659004818
 30
0.1428571428571428
  0
VERTEX
  5
27E
  8
COLLECTIONS
 10
614.16407259573884
 20
4486.1744315925334
 30
0.1428571428571428
  0
VERTEX
  5
27F
  8
COLLECTIONS
 10
614.2047869358147
 20
4486.1761448242069
 30
0.1428571428571428
  0
VERTEX
  5
280
  8
COLLECTIONS
 10
614.24091895811625
 20
4486.177779875261
 30
0.1428571428571428
  0
VERTEX
  5
281
  8
COLLECTIONS
 10
614.27145905654095
 20
4486.1788102258079
 30
0.1428571428571428
  0
SEQEND
  5
282
  8
COLLECTIONS
  0
POLYLINE
  5
9B
  8
COLLECTIONS
 66
     1
 10
0.0
 20
0.0
 30
0.0555555555555556
 70
     1
1001
IRD
1002
{
1000
TPMLINK_collections2-_-ade
1070
   515
1071
        2
1004
0100D70900008C0100008C010000000000004FB6AEF499E5D23F4FB6AEF499E5D23F3C07000000000000
1002
}
1002
{
1000
TPMLINK_area-_-ade
1070
   515
1071
        3
1004
010029460000FA340000FA340000000000006E8FAEF499E5D23F6E8FAEF499E5D23FFF38000000000000
1002
}
1002
{
1000
TPMLINK_area-_-ade
1070
   515
1071
        4
1004
0100E71E0000760B0000760B0000000000006E8FAEF499E5D23F6E8FAEF499E5D23F101B000000000000
1002
}
1001
ADE
1011
-0.0193367937873745
1021
0.0
1031
0.0
1021
0.021315727700312
1031
0.0
1001
DCO15
1071
        7
1071
        7
1000
collections
1004
0730324130363600
  0
VERTEX
  5
283
  8
COLLECTIONS
 10
614.31536441053925
 20
4486.351700895204
 30
0.0555555555555556
  0
VERTEX
  5
284
  8
COLLECTIONS
 10
614.29849308481755
 20
4486.3554874042893
 30
0.0555555555555556
  0
VERTEX
  5
285
  8
COLLECTIONS
 10
614.28423698507606
 20
4486.3552441756974
 30
0.0555555555555556
  0
VERTEX
  5
286
  8
COLLECTIONS
 10
614.27153438479922
 20
4486.353499568052
 30
0.0555555555555556
  0
VERTEX
  5
287
  8
COLLECTIONS
 10
614.26247399007661
 20
4486.3472334497819
 30
0.0555555555555556
  0
VERTEX
  5
288
  8
COLLECTIONS
 10
614.25848768607625
 20
4486.3420724917041
 30
0.0555555555555556
  0
VERTEX
  5
289
  8
COLLECTIONS
 10
614.25401829586315
 20
4486.3353754076352
 30
0.0555555555555556
  0
VERTEX
  5
28A
  8
COLLECTIONS
 10
614.25177659950702
 20
4486.3175118492809
 30
0.0555555555555556
  0
VERTEX
  5
28B
  8
COLLECTIONS
 10
614.25095810158336
 20
4486.3057841081654
 30
0.0555555555555556
  0
VERTEX
  5
28C
  8
COLLECTIONS
 10
614.24967389091785
 20
4486.291501948218
 30
0.0555555555555556
  0
VERTEX
  5
28D
  8
COLLECTIONS
 10
614.25401635107164
 20
4486.2757879031024
 30
0.0555555555555556
  0
VERTEX
  5
28E
  8
COLLECTIONS
 10
614.26382912080612
 20
4486.2678066083663
 30
0.0555555555555556
  0
VERTEX
  5
28F
  8
COLLECTIONS
 10
614.27716248179865
 20
4486.2624318528751
 30
0.0555555555555556
  0
VERTEX
  5
290
  8
COLLECTIONS
 10
614.28838107649494
 20
4486.261604668216
 30
0.0555555555555556
  0
VERTEX
  5
291
  8
COLLECTIONS
 10
614.28928644177279
 20
4486.2682409451363
 30
0.0555555555555556
  0
VERTEX
  5
292
  8
COLLECTIONS
 10
614.30139302827604
 20
4486.2750683302402
 30
0.0555555555555556
  0
VERTEX
  5
293
  8
COLLECTIONS
 10
614.32062766464992
 20
4486.2820173296377
 30
0.0555555555555556
  0
VERTEX
  5
294
  8
COLLECTIONS
 10
614.32969674610808
 20
4486.2877743014897
 30
0.0555555555555556
  0
VERTEX
  5
295
  8
COLLECTIONS
 10
614.33828274135328
 20
4486.2919951473468
 30
0.0555555555555556
  0
VERTEX
  5
296
  8
COLLECTIONS
 10
614.3358378791097
 20
4486.3158902821133
 30
0.0555555555555556
  0
SEQEND
  5
297
  8
COLLECTIONS
  0
POLYLINE
  5
9C
  8
COLLECTIONS
 66
     1
 10
0.0
 20
0.0
 30
0.0326086956521739
 70
     1
1001
IRD
1002
{
1000
TPMLINK_collections2-_-ade
1070
   515
1071
        2
1004
0100E2090000E8010000E80100000000000010BD61C8C155CD3F10BD61C8C155CD3F3107000000000000
1002
}
1002
{
1000
TPMLINK_area-_-ade
1070
   515
1071
        3
1004
010034460000563500005635000000000000E86360C8C155CD3FE86360C8C155CD3F0A39000000000000
1002
}
1002
{
1000
TPMLINK_area-_-ade
1070
   515
1071
        4
1004
0100F21E0000D20B0000D20B0000000000007AE95FC8C155CD3F7AE95FC8C155CD3F051B000000000000
1002
}
1001
ADE
1011
-0.0186543886775326
1021
0.0
1031
0.0
1021
-0.011633902493486
1031
0.0
1001
DCO15
1071
        7
1071
        7
1000
collections
1004
0730324130383200
  0
VERTEX
  5
298
  8
COLLECTIONS
 10
614.14473353969618
 20
4485.3746339830977
 30
0.0326086956521739
  0
VERTEX
  5
299
  8
COLLECTIONS
 10
614.14583938513942
 20
4485.3207461093234
 30
0.0326086956521739
  0
VERTEX
  5
29A
  8
COLLECTIONS
 10
614.20226940560383
 20
4485.3218801347721
 30
0.0326086956521739
  0
VERTEX
  5
29B
  8
COLLECTIONS
 10
614.20775623354552
 20
4485.3773665645731
 30
0.0326086956521739
  0
SEQEND
  5
29C
  8
COLLECTIONS
  0
POLYLINE
  5
9D
  8
COLLECTIONS
 66
     1
 10
0.0
 20
0.0
 30
0.0208333333333333
 70
     1
1001
IRD
1002
{
1000
TPMLINK_collections2-_-ade
1070
   515
1071
        2
1004
0100EB090000660100006601000000000000CC2236615AC1C93FCC2236615AC1C93F2107000000000000
1002
}
1002
{
1000
TPMLINK_area-_-ade
1070
   515
1071
        3
1004
01003D460000D4340000D4340000000000008BE535615AC1C93F8BE535615AC1C93F1A39000000000000
1002
}
1002
{
1000
TPMLINK_area-_-ade
1070
   515
1071
        4
1004
0100FB1E0000500B0000500B0000000000008BE535615AC1C93F8BE535615AC1C93FF51A000000000000
1002
}
1001
ADE
1011
-0.0264577749641148
1021
0.0
1031
0.0
1021
-0.0215377141093995
1031
0.0
1001
DCO15
1071
        7
1071
        7
1000
collections
1004
0730324130353300
  0
VERTEX
  5
29D
  8
COLLECTIONS
 10
614.36397026250063
 20
4487.1579106355184
 30
0.0208333333333333
  0
VERTEX
  5
29E
  8
COLLECTIONS
 10
614.37541905703188
 20
4487.1379373196942
 30
0.0208333333333333
  0
VERTEX
  5
29F
  8
COLLECTIONS
 10
614.4066343945675
 20
4487.1538237250652
 30
0.0208333333333333
  0
VERTEX
  5
2A0
  8
COLLECTIONS
 10
614.43178627872123
 20
4487.1728361250107
 30
0.0208333333333333
  0
VERTEX
  5
2A1
  8
COLLECTIONS
 10
614.44408915219913
 20
4487.1808201771128
 30
0.0208333333333333
  0
VERTEX
  5
2A2
  8
COLLECTIONS
 10
614.44112027076289
 20
4487.1874674748451
 30
0.0208333333333333
  0
VERTEX
  5
2A3
  8
COLLECTIONS
 10
614.4310396532278
 20
4487.1947111859799
 30
0.0208333333333333
  0
VERTEX
  5
2A4
  8
COLLECTIONS
 10
614.40800947260959
 20
4487.1827916685561
 30
0.0208333333333333
  0
VERTEX
  5
2A5
  8
COLLECTIONS
 10
614.37836970141154
 20
4487.1709538499636
 30
0.0208333333333333
  0
SEQEND
  5
2A6
  8
COLLECTIONS
  0
POLYLINE
  5
9E
  8
COLLECTIONS
 66
     1
 10
0.0
 20
0.0
 30
0.0625
 70
     1
1001
IRD
1002
{
1000
TPMLINK_collections2-_-ade
1070
   515
1071
        2
1004
0100120B0000C3010000C3010000000000008E68F9A42003D23F8E68F9A42003D23F00000000FD050000
1002
}
1002
{
1000
TPMLINK_area-_-ade
1070
   515
1071
        3
1004
0100644700003135000031350000000000002E0BF9A42003D23F2E0BF9A42003D23F000000003E3A0000
1002
}
1002
{
1000
TPMLINK_area-_-ade
1070
   515
1071
        4
1004
010009200000AD0B0000AD0B000000000000A92CF9A42003D23FA92CF9A42003D23F00000000D1190000
1002
}
1001
ADE
1011
-0.0180693498724622
1021
0.0
1031
0.0
1021
0.0066734610090862
1031
0.0
1001
DCO15
1071
        7
1071
        7
1000
collections
1004
0730324234333400
  0
VERTEX
  5
2A7
  8
COLLECTIONS
 10
609.07847688837307
 20
4485.716725275568
 30
0.0625
  0
VERTEX
  5
2A8
  8
COLLECTIONS
 10
609.14823968520409
 20
4485.7514701955624
 30
0.0625
  0
VERTEX
  5
2A9
  8
COLLECTIONS
 10
609.15895075814785
 20
4485.7091673628374
 30
0.0625
  0
VERTEX
  5
2AA
  8
COLLECTIONS
 10
609.16254613132207
 20
4485.6957469479166
 30
0.0625
  0
VERTEX
  5
2AB
  8
COLLECTIONS
 10
609.16409991653188
 20
4485.682401579571
 30
0.0625
  0
VERTEX
  5
2AC
  8
COLLECTIONS
 10
609.14533163032479
 20
4485.6723586619619
 30
0.0625
  0
VERTEX
  5
2AD
  8
COLLECTIONS
 10
609.12285923366971
 20
4485.6588742969207
 30
0.0625
  0
VERTEX
  5
2AE
  8
COLLECTIONS
 10
609.10735970749647
 20
4485.6543331763442
 30
0.0625
  0
VERTEX
  5
2AF
  8
COLLECTIONS
 10
609.09986877483868
 20
4485.673007654329
 30
0.0625
  0
VERTEX
  5
2B0
  8
COLLECTIONS
 10
609.08810321721671
 20
4485.7005277359613
 30
0.0625
  0
SEQEND
  5
2B1
  8
COLLECTIONS
  0
POLYLINE
  5
9F
  8
COLLECTIONS
 66
     1
 10
0.0
 20
0.0
 30
0.0166666666666667
 70
     1
1001
IRD
1002
{
1000
TPMLINK_collections2-_-ade
1070
   515
1071
        2
1004
0100340B0000D4010000D40100000000000059316D0A9895CB3F59316D0A9895CB3F00000000DC050000
1002
}
1002
{
1000
TPMLINK_area-_-ade
1070
   515
1071
        3
1004
010086470000423500004235000000000000016D6C0A9895CB3F016D6C0A9895CB3F000000005F3A0000
1002
}
1002
{
1000
TPMLINK_area-_-ade
1070
   515
1071
        4
1004
010029200000BE0B0000BE0B000000000000016D6C0A9895CB3F016D6C0A9895CB3F00000000B0190000
1002
}
1001
ADE
1011
-0.0324347140563077
1021
0.0
1031
0.0
1021
-0.007433736414896
1031
0.0
1001
DCO15
1071
        7
1071
        7
1000
collections
1004
0730324131303800
  0
VERTEX
  5
2B2
  8
COLLECTIONS
 10
611.77645131783026
 20
4485.5618030038777
 30
0.0166666666666667
  0
VERTEX
  5
2B3
  8
COLLECTIONS
 10
611.79851973362452
 20
4485.561026767462
 30
0.0166666666666667
  0
VERTEX
  5
2B4
  8
COLLECTIONS
 10
611.81863391330489
 20
4485.5609775169769
 30
0.0166666666666667
  0
VERTEX
  5
2B5
  8
COLLECTIONS
 10
611.8350053659708
 20
4485.5635812855699
 30
0.0166666666666667
  0
VERTEX
  5
2B6
  8
COLLECTIONS
 10
611.84825267223448
 20
4485.563724585526
 30
0.0166666666666667
  0
VERTEX
  5
2B7
  8
COLLECTIONS
 10
611.8488064931795
 20
4485.5469004190718
 30
0.0166666666666667
  0
VERTEX
  5
2B8
  8
COLLECTIONS
 10
611.8479881085018
 20
4485.5357171247242
 30
0.0166666666666667
  0
VERTEX
  5
2B9
  8
COLLECTIONS
 10
611.84879508621793
 20
4485.5280544335028
 30
0.0166666666666667
  0
VERTEX
  5
2BA
  8
COLLECTIONS
 10
611.83496848778236
 20
4485.5253803435844
 30
0.0166666666666667
  0
VERTEX
  5
2BB
  8
COLLECTIONS
 10
611.81718263669904
 20
4485.5268905345529
 30
0.0166666666666667
  0
VERTEX
  5
2BC
  8
COLLECTIONS
 10
611.79733277370087
 20
4485.5274390408886
 30
0.0166666666666667
  0
VERTEX
  5
2BD
  8
COLLECTIONS
 10
611.78663032166753
 20
4485.5272254196107
 30
0.0166666666666667
  0
VERTEX
  5
2BE
  8
COLLECTIONS
 10
611.77643684048007
 20
4485.5269977340668
 30
0.0166666666666667
  0
VERTEX
  5
2BF
  8
COLLECTIONS
 10
611.77524747030361
 20
4485.5392552271678
 30
0.0166666666666667
  0
VERTEX
  5
2C0
  8
COLLECTIONS
 10
611.77448268538274
 20
4485.548444830928
 30
0.0166666666666667
  0
SEQEND
  5
2C1
  8
COLLECTIONS
  0
POLYLINE
  5
A0
  8
COLLECTIONS
 66
     1
 10
0.0
 20
0.0
 30
0.0454545454545455
 70
     1
1001
IRD
1002
{
1000
TPMLINK_collections2-_-ade
1070
   515
1071
        2
1004
0100360B0000CF010000CF010000000000007AF8E7F4648CCF3F7AF8E7F4648CCF3FDA05000000000000
1002
}
1002
{
1000
TPMLINK_area-_-ade
1070
   515
1071
        3
1004
0100884700003D3500003D350000000000000CF2E7F4648CCF3F0CF2E7F4648CCF3F613A000000000000
1002
}
1002
{
1000
TPMLINK_area-_-ade
1070
   515
1071
        4
1004
01002B200000B90B0000B90B000000000000C4E2E7F4648CCF3FC4E2E7F4648CCF3FAE19000000000000
1002
}
1001
ADE
1011
-0.0413695968725278
1021
0.0
1031
0.0
1021
-0.0029742338556389
1031
0.0
1001
DCO15
1071
        7
1071
        7
1000
collections
1004
0730324131313000
  0
VERTEX
  5
2C2
  8
COLLECTIONS
 10
611.78055423509534
 20
4485.6022691622302
 30
0.0454545454545455
  0
VERTEX
  5
2C3
  8
COLLECTIONS
 10
611.7638847755594
 20
4485.6073140205926
 30
0.0454545454545455
  0
VERTEX
  5
2C4
  8
COLLECTIONS
 10
611.7316341195052
 20
4485.6199204630129
 30
0.0454545454545455
  0
VERTEX
  5
2C5
  8
COLLECTIONS
 10
611.71188270636253
 20
4485.6240317652782
 30
0.0454545454545455
  0
VERTEX
  5
2C6
  8
COLLECTIONS
 10
611.70184393209104
 20
4485.6294027590402
 30
0.0454545454545455
  0
VERTEX
  5
2C7
  8
COLLECTIONS
 10
611.6937733771822
 20
4485.6138356267884
 30
0.0454545454545455
  0
VERTEX
  5
2C8
  8
COLLECTIONS
 10
611.69292686397444
 20
4485.6016343907449
 30
0.0454545454545455
  0
VERTEX
  5
2C9
  8
COLLECTIONS
 10
611.69264557867302
 20
4485.5914549738236
 30
0.0454545454545455
  0
VERTEX
  5
2CA
  8
COLLECTIONS
 10
611.71273719148098
 20
4485.5812219571444
 30
0.0454545454545455
  0
VERTEX
  5
2CB
  8
COLLECTIONS
 10
611.74008097451986
 20
4485.5753727783685
 30
0.0454545454545455
  0
VERTEX
  5
2CC
  8
COLLECTIONS
 10
611.7583054751243
 20
4485.571303668904
 30
0.0454545454545455
  0
VERTEX
  5
2CD
  8
COLLECTIONS
 10
611.77395699296801
 20
4485.5662869390717
 30
0.0454545454545455
  0
VERTEX
  5
2CE
  8
COLLECTIONS
 10
611.7769659679459
 20
4485.5830126556693
 30
0.0454545454545455
  0
VERTEX
  5
2CF
  8
COLLECTIONS
 10
611.78191237645274
 20
4485.5961193192788
 30
0.0454545454545455
  0
SEQEND
  5
2D0
  8
COLLECTIONS
  0
POLYLINE
  5
A1
  8
COLLECTIONS
 66
     1
 10
0.0
 20
0.0
 30
0.0227272727272727
 70
     1
1001
IRD
1002
{
1000
TPMLINK_collections2-_-ade
1070
   515
1071
        2
1004
01006B0B00009500000095000000000000002E62C2B3B3A4C83F2E62C2B3B3A4C83F00000000A5050000
1002
}
1002
{
1000
TPMLINK_area-_-ade
1070
   515
1071
        3
1004
0100BD47000089330000893300000000000038AEC2B3B3A4C83F38AEC2B3B3A4C83F00000000963A0000
1002
}
1002
{
1000
TPMLINK_area-_-ade
1070
   515
1071
        4
1004
01005E200000F0090000F00900000000000038AEC2B3B3A4C83F38AEC2B3B3A4C83F0000000079190000
1002
}
1001
ADE
1011
-0.0265830315878475
1021
0.0
1031
0.0
1021
-0.0103169873500519
1031
0.0
1001
DCO15
1071
        7
1071
        7
1000
collections
1004
0730324135303600
  0
VERTEX
  5
2D1
  8
COLLECTIONS
 10
611.77360438451103
 20
4492.5339331651294
 30
0.0227272727272727
  0
VERTEX
  5
2D2
  8
COLLECTIONS
 10
611.7708625421252
 20
4492.4951858647073
 30
0.0227272727272727
  0
VERTEX
  5
2D3
  8
COLLECTIONS
 10
611.71382675381199
 20
4492.5028524186464
 30
0.0227272727272727
  0
VERTEX
  5
2D4
  8
COLLECTIONS
 10
611.71449045184602
 20
4492.53959531894
 30
0.0227272727272727
  0
SEQEND
  5
2D5
  8
COLLECTIONS
  0
POLYLINE
  5
A2
  8
COLLECTIONS
 66
     1
 10
0.0
 20
0.0
 30
0.0416666666666667
 70
     1
1001
IRD
1002
{
1000
TPMLINK_collections2-_-ade
1070
   515
1071
        2
1004
01007E0B0000A7000000A7000000000000009A5B970337B8D03F9A5B970337B8D03F9205000000000000
1002
}
1002
{
1000
TPMLINK_area-_-ade
1070
   515
1071
        3
1004
0100D0470000D6330000D633000000000000DD5E970337B8D03FDD5E970337B8D03FA93A000000000000
1002
}
1002
{
1000
TPMLINK_area-_-ade
1070
   515
1071
        4
1004
01006B200000450A0000450A000000000000DD5E970337B8D03FDD5E970337B8D03F6619000000000000
1002
}
1001
ADE
1011
-0.0350388276430067
1021
0.0
1031
0.0
1021
-0.0109099860483184
1031
0.0
1001
DCO15
1071
        7
1071
        7
1000
collections
1004
0730324134373400
  0
VERTEX
  5
2D6
  8
COLLECTIONS
 10
610.16614802566255
 20
4491.943751351143
 30
0.0416666666666667
  0
VERTEX
  5
2D7
  8
COLLECTIONS
 10
610.15925835111273
 20
4491.9862460205177
 30
0.0416666666666667
  0
VERTEX
  5
2D8
  8
COLLECTIONS
 10
610.07652229925191
 20
4491.984167114676
 30
0.0416666666666667
  0
VERTEX
  5
2D9
  8
COLLECTIONS
 10
610.07722363088806
 20
4491.9382108352229
 30
0.0416666666666667
  0
VERTEX
  5
2DA
  8
COLLECTIONS
 10
610.10016028948746
 20
4491.9362650697731
 30
0.0416666666666667
  0
VERTEX
  5
2DB
  8
COLLECTIONS
 10
610.12418211040415
 20
4491.9378730946828
 30
0.0416666666666667
  0
SEQEND
  5
2DC
  8
COLLECTIONS
  0
POLYLINE
  5
A3
  8
COLLECTIONS
 66
     1
 10
0.0
 20
0.0
 30
0.0707714083510262
 70
     1
1001
IRD
1002
{
1000
TPMLINK_area-_-ade
1070
   515
1071
        1
1004
0100BF4D0000942D0000942D00000000000073B02813132FC93F73B02813132FC93FD640000000000000
1002
}
1002
{
1000
TPMLINK_area-_-ade
1070
   515
1071
        2
1004
01004726000051030000510300000000000073B02813132FC93F73B02813132FC93FBF12000000000000
1002
}
1001
ADE
1011
-0.0108144002360859
1021
0.0
1031
0.0
1021
-0.0080609274546077
1031
0.0
1001
DCO15
1071
       12
1071
       12
1000
collections
1004
073034413131373200
  0
VERTEX
  5
2DD
  8
COLLECTIONS
 10
632.34969410772555
 20
4499.0583671751428
 30
0.0707714083510262
  0
VERTEX
  5
2DE
  8
COLLECTIONS
 10
632.40236554975195
 20
4499.0563641593099
 30
0.0707714083510262
  0
VERTEX
  5
2DF
  8
COLLECTIONS
 10
632.40314057537853
 20
4499.1033442457119
 30
0.0707714083510262
  0
VERTEX
  5
2E0
  8
COLLECTIONS
 10
632.35049744363835
 20
4499.1027667158723
 30
0.0707714083510262
  0
SEQEND
  5
2E1
  8
COLLECTIONS
  0
POLYLINE
  5
A4
  8
COLLECTIONS
 66
     1
 10
0.0
 20
0.0
 30
0.0131578947368421
 70
     1
1001
IRD
1002
{
1000
TPMLINK_area-_-ade
1070
   515
1071
        1
1004
0100D84D0000C82D0000C82D000000000000136EA2085420D13F136EA2085420D13FBE40000000000000
1002
}
1002
{
1000
TPMLINK_area-_-ade
1070
   515
1071
        2
1004
0100602600008803000088030000000000006767A2085420D13F6767A2085420D13FD812000000000000
1002
}
1001
ADE
1011
-0.0138795059140193
1021
0.0
1031
0.0
1021
0.0143689495389481
1031
0.0
1001
DCO15
1071
       12
1071
       12
1000
collections
1004
073034413131363200
  0
VERTEX
  5
2E2
  8
COLLECTIONS
 10
632.4181439269878
 20
4498.9120093081619
 30
0.0131578947368421
  0
VERTEX
  5
2E3
  8
COLLECTIONS
 10
632.40406305974875
 20
4498.995732660097
 30
0.0131578947368421
  0
VERTEX
  5
2E4
  8
COLLECTIONS
 10
632.36250211926142
 20
4498.9965671373238
 30
0.0131578947368421
  0
VERTEX
  5
2E5
  8
COLLECTIONS
 10
632.3712657576167
 20
4498.9034943693669
 30
0.0131578947368421
  0
SEQEND
  5
2E6
  8
COLLECTIONS
  0
POLYLINE
  5
A5
  8
COLLECTIONS
 66
     1
 10
0.0
 20
0.0
 30
0.0192307692307692
 70
     1
1001
IRD
1002
{
1000
TPMLINK_area-_-ade
1070
   515
1071
        1
1004
0100E44D0000E92D0000E92D000000000000AE4F33178AFDD13FAE4F33178AFDD13F00000000A5400000
1002
}
1002
{
1000
TPMLINK_area-_-ade
1070
   515
1071
        2
1004
01006C260000AD030000AD03000000000000BC9533178AFDD13FBC9533178AFDD13F00000000F1120000
1002
}
1001
ADE
1011
-0.0167150752807857
1021
0.0
1031
0.0
1021
0.0053177563222562
1031
0.0
1001
DCO15
1071
       12
1071
       12
1000
collections
1004
073034413131353700
  0
VERTEX
  5
2E7
  8
COLLECTIONS
 10
632.5865891220293
 20
4498.8021061870522
 30
0.0192307692307692
  0
VERTEX
  5
2E8
  8
COLLECTIONS
 10
632.52832257935131
 20
4498.7965633377989
 30
0.0192307692307692
  0
VERTEX
  5
2E9
  8
COLLECTIONS
 10
632.52942163512785
 20
4498.8845825934986
 30
0.0192307692307692
  0
VERTEX
  5
2EA
  8
COLLECTIONS
 10
632.58286157879957
 20
4498.8831041798867
 30
0.0192307692307692
  0
SEQEND
  5
2EB
  8
COLLECTIONS
  0
POLYLINE
  5
A6
  8
COLLECTIONS
 66
     1
 10
0.0
 20
0.0
 30
0.0714285714285714
 70
     1
1001
IRD
1002
{
1000
TPMLINK_area-_-ade
1070
   515
1071
        1
1004
0100E64D0000122E0000122E00000000000077E7171664B3CC3F77E7171664B3CC3F00000000A3400000
1002
}
1002
{
1000
TPMLINK_area-_-ade
1070
   515
1071
        2
1004
01006E260000D8030000D80300000000000077E7171664B3CC3F77E7171664B3CC3F00000000F3120000
1002
}
1001
ADE
1011
-0.0105069370575848
1021
0.0
1031
0.0
1021
-0.0107758630629178
1031
0.0
1001
DCO15
1071
       12
1071
       12
1000
collections
1004
073034413131353300
  0
VERTEX
  5
2EC
  8
COLLECTIONS
 10
632.5690364256094
 20
4498.6847427483826
 30
0.0714285714285714
  0
VERTEX
  5
2ED
  8
COLLECTIONS
 10
632.55545381940874
 20
4498.7230484964566
 30
0.0714285714285714
  0
VERTEX
  5
2EE
  8
COLLECTIONS
 10
632.55835230221328
 20
4498.7411462885184
 30
0.0714285714285714
  0
VERTEX
  5
2EF
  8
COLLECTIONS
 10
632.61944328998891
 20
4498.7480105519207
 30
0.0714285714285714
  0
VERTEX
  5
2F0
  8
COLLECTIONS
 10
632.62127995135074
 20
4498.6982201755636
 30
0.0714285714285714
  0
SEQEND
  5
2F1
  8
COLLECTIONS
  0
POLYLINE
  5
A7
  8
COLLECTIONS
 66
     1
 10
0.0
 20
0.0
 30
0.0357142857142857
 70
     1
1001
IRD
1002
{
1000
TPMLINK_area-_-ade
1070
   515
1071
        1
1004
0100E84D0000162E0000162E0000000000006C467A3CA93FD33F6C467A3CA93FD33FA940000000000000
1002
}
1002
{
1000
TPMLINK_area-_-ade
1070
   515
1071
        2
1004
010070260000DC030000DC0300000000000018817A3CA93FD33F18817A3CA93FD33FED12000000000000
1002
}
1001
ADE
1011
0.0246600658671241
1021
0.0
1031
0.0
1021
-0.0060344831526891
1031
0.0
1001
DCO15
1071
       12
1071
       12
1000
collections
1004
073034413131393800
  0
VERTEX
  5
2F2
  8
COLLECTIONS
 10
632.36497188340468
 20
4498.6773423133909
 30
0.0357142857142857
  0
VERTEX
  5
2F3
  8
COLLECTIONS
 10
632.47715201345943
 20
4498.6852832295926
 30
0.0357142857142857
  0
VERTEX
  5
2F4
  8
COLLECTIONS
 10
632.48270791067216
 20
4498.7199276552792
 30
0.0357142857142857
  0
VERTEX
  5
2F5
  8
COLLECTIONS
 10
632.37046266695916
 20
4498.7179219941236
 30
0.0357142857142857
  0
SEQEND
  5
2F6
  8
COLLECTIONS
  0
POLYLINE
  5
A8
  8
COLLECTIONS
 66
     1
 10
0.0
 20
0.0
 30
0.0357142857142857
 70
     1
1001
IRD
1002
{
1000
TPMLINK_area-_-ade
1070
   515
1071
        1
1004
0100E94D0000142E0000142E000000000000DDED85AABF5BD23FDDED85AABF5BD23FA140000000000000
1002
}
1002
{
1000
TPMLINK_area-_-ade
1070
   515
1071
        2
1004
010071260000DA030000DA03000000000000DDED85AABF5BD23FDDED85AABF5BD23FF512000000000000
1002
}
1001
ADE
1011
-0.0369188847766964
1021
0.0
1031
0.0
1021
-0.0106317821482662
1031
0.0
1001
DCO15
1071
       12
1071
       12
1000
collections
1004
073034413131393600
  0
VERTEX
  5
2F7
  8
COLLECTIONS
 10
632.48287451039926
 20
4498.6812166391464
 30
0.0357142857142857
  0
VERTEX
  5
2F8
  8
COLLECTIONS
 10
632.4746753539207
 20
4498.628735307002
 30
0.0357142857142857
  0
VERTEX
  5
2F9
  8
COLLECTIONS
 10
632.57936623946489
 20
4498.637110232512
 30
0.0357142857142857
  0
VERTEX
  5
2FA
  8
COLLECTIONS
 10
632.56780560437335
 20
4498.6793094473242
 30
0.0357142857142857
  0
SEQEND
  5
2FB
  8
COLLECTIONS
  0
POLYLINE
  5
A9
  8
COLLECTIONS
 66
     1
 10
0.0
 20
0.0
 30
0.0227272727272727
 70
     1
1001
IRD
1002
{
1000
TPMLINK_area-_-ade
1070
   515
1071
        1
1004
0100EF4D0000182E0000182E000000000000B0E3E318CCB5D53FB0E3E318CCB5D53F0000000097400000
1002
}
1002
{
1000
TPMLINK_area-_-ade
1070
   515
1071
        2
1004
010077260000DE030000DE03000000000000B0E3E318CCB5D53FB0E3E318CCB5D53F00000000FF120000
1002
}
1001
ADE
1011
-0.0180850009576261
1021
0.0
1031
0.0
1021
0.0034370154944554
1031
0.0
1001
DCO15
1071
       12
1071
       12
1000
collections
1004
073034413131353100
  0
VERTEX
  5
2FC
  8
COLLECTIONS
 10
632.70681448538494
 20
4498.6648331575507
 30
0.0227272727272727
  0
VERTEX
  5
2FD
  8
COLLECTIONS
 10
632.70166318001066
 20
4498.7344597632509
 30
0.0227272727272727
  0
VERTEX
  5
2FE
  8
COLLECTIONS
 10
632.80592005625033
 20
4498.7353454442482
 30
0.0227272727272727
  0
VERTEX
  5
2FF
  8
COLLECTIONS
 10
632.79565037021325
 20
4498.6598717763491
 30
0.0227272727272727
  0
SEQEND
  5
300
  8
COLLECTIONS
  0
POLYLINE
  5
AA
  8
COLLECTIONS
 66
     1
 10
0.0
 20
0.0
 30
0.015625
 70
     1
1001
IRD
1002
{
1000
TPMLINK_area-_-ade
1070
   515
1071
        1
1004
0100194E0000052E0000052E000000000000805C81248866D13F805C81248866D13F00000000BB400000
1002
}
1002
{
1000
TPMLINK_area-_-ade
1070
   515
1071
        2
1004
0100A1260000CB030000CB03000000000000805C81248866D13F805C81248866D13F00000000DB120000
1002
}
1001
ADE
1011
-0.0378882702722194
1021
0.0
1031
0.0
1021
-0.0135662124821465
1031
0.0
1001
DCO15
1071
       12
1071
       12
1000
collections
1004
073034413132313100
  0
VERTEX
  5
301
  8
COLLECTIONS
 10
632.31352363145243
 20
4498.7325243873001
 30
0.015625
  0
VERTEX
  5
302
  8
COLLECTIONS
 10
632.20771276575135
 20
4498.7321378292654
 30
0.015625
  0
VERTEX
  5
303
  8
COLLECTIONS
 10
632.2169012441077
 20
4498.765015507377
 30
0.015625
  0
VERTEX
  5
304
  8
COLLECTIONS
 10
632.30792089963938
 20
4498.7727242792353
 30
0.015625
  0
SEQEND
  5
305
  8
COLLECTIONS
  0
POLYLINE
  5
AB
  8
COLLECTIONS
 66
     1
 10
0.0
 20
0.0
 30
0.0454545454545455
 70
     1
1001
IRD
1002
{
1000
TPMLINK_area-_-ade
1070
   515
1071
        1
1004
01001B4E00000D2E00000D2E000000000000F2A198E60715D03FF2A198E60715D03FB440000000000000
1002
}
1002
{
1000
TPMLINK_area-_-ade
1070
   515
1071
        2
1004
0100A3260000D3030000D303000000000000F2A198E60715D03FF2A198E60715D03FE212000000000000
1002
}
1001
ADE
1011
0.0341927005401885
1021
0.0
1031
0.0
1021
0.0094839440916985
1031
0.0
1001
DCO15
1071
       12
1071
       12
1000
collections
1004
073034413132303900
  0
VERTEX
  5
306
  8
COLLECTIONS
 10
632.11624168378114
 20
4498.6950023436439
 30
0.0454545454545455
  0
VERTEX
  5
307
  8
COLLECTIONS
 10
632.20139685997935
 20
4498.6961946376578
 30
0.0454545454545455
  0
VERTEX
  5
308
  8
COLLECTIONS
 10
632.20568513258456
 20
4498.7287604716612
 30
0.0454545454545455
  0
VERTEX
  5
309
  8
COLLECTIONS
 10
632.10557411559444
 20
4498.7263717597152
 30
0.0454545454545455
  0
SEQEND
  5
30A
  8
COLLECTIONS
  0
POLYLINE
  5
AC
  8
COLLECTIONS
 66
     1
 10
0.0
 20
0.0
 30
0.05
 70
     1
1001
IRD
1002
{
1000
TPMLINK_area-_-ade
1070
   515
1071
        1
1004
0100384E0000D02D0000D02D000000000000D60E28E8C459D13FD60E28E8C459D13F0000000007410000
1002
}
1002
{
1000
TPMLINK_area-_-ade
1070
   515
1071
        2
1004
0100C0260000910300009103000000000000D60E28E8C459D13FD60E28E8C459D13F0000000081120000
1002
}
1001
ADE
1011
-0.0129389464404994
1021
0.0
1031
0.0
1021
-0.0106312193820486
1031
0.0
1001
DCO15
1071
       12
1071
       12
1000
collections
1004
073034413132363200
  0
VERTEX
  5
30B
  8
COLLECTIONS
 10
631.83905598219053
 20
4498.8868487676291
 30
0.05
  0
VERTEX
  5
30C
  8
COLLECTIONS
 10
631.83109758226635
 20
4498.8209476622733
 30
0.05
  0
VERTEX
  5
30D
  8
COLLECTIONS
 10
631.76344943654851
 20
4498.8260350943092
 30
0.05
  0
VERTEX
  5
30E
  8
COLLECTIONS
 10
631.76098157082743
 20
4498.8847660780484
 30
0.05
  0
SEQEND
  5
30F
  8
COLLECTIONS
  0
POLYLINE
  5
AD
  8
COLLECTIONS
 66
     1
 10
0.0
 20
0.0
 30
0.0192307692307692
 70
     1
1001
IRD
1002
{
1000
TPMLINK_area-_-ade
1070
   515
1071
        1
1004
01003F4E0000A22D0000A22D00000000000066D653BC1FF9CC3F66D653BC1FF9CC3F000000000C410000
1002
}
1002
{
1000
TPMLINK_area-_-ade
1070
   515
1071
        2
1004
0100C72600005F0300005F0300000000000066D653BC1FF9CC3F66D653BC1FF9CC3F000000007B120000
1002
}
1001
ADE
1011
-0.0248518792030836
1021
0.0
1031
0.0
1021
-0.0004703883041657
1031
0.0
1001
DCO15
1071
       12
1071
       12
1000
collections
1004
073034413132353800
  0
VERTEX
  5
310
  8
COLLECTIONS
 10
631.82036691260123
 20
4499.0344561808206
 30
0.0192307692307692
  0
VERTEX
  5
311
  8
COLLECTIONS
 10
631.81895148026717
 20
4499.0792865869689
 30
0.0192307692307692
  0
VERTEX
  5
312
  8
COLLECTIONS
 10
631.88789757702011
 20
4499.0866000525639
 30
0.0192307692307692
  0
VERTEX
  5
313
  8
COLLECTIONS
 10
631.88396843753026
 20
4499.0383108520773
 30
0.0192307692307692
  0
SEQEND
  5
314
  8
COLLECTIONS
  0
POLYLINE
  5
AE
  8
COLLECTIONS
 66
     1
 10
0.0
 20
0.0
 30
0.025
 70
     1
1001
IRD
1002
{
1000
TPMLINK_area-_-ade
1070
   515
1071
        1
1004
0100404E00007F2D00007F2D00000000000061CA12C4D20ED33F61CA12C4D20ED33F000000000D410000
1002
}
1002
{
1000
TPMLINK_area-_-ade
1070
   515
1071
        2
1004
0100C82600003B0300003B0300000000000061CA12C4D20ED33F61CA12C4D20ED33F000000007A120000
1002
}
1001
ADE
1011
-0.0235774639427291
1021
0.0
1031
0.0
1021
-0.000602139851253
1031
0.0
1001
DCO15
1071
       12
1071
       12
1000
collections
1004
073034413132353600
  0
VERTEX
  5
315
  8
COLLECTIONS
 10
631.77741675570235
 20
4499.1191867899097
 30
0.025
  0
VERTEX
  5
316
  8
COLLECTIONS
 10
631.88838953368929
 20
4499.126312557135
 30
0.025
  0
VERTEX
  5
317
  8
COLLECTIONS
 10
631.88758814618552
 20
4499.0891719346937
 30
0.025
  0
VERTEX
  5
318
  8
COLLECTIONS
 10
631.77611030233868
 20
4499.0815204114642
 30
0.025
  0
SEQEND
  5
319
  8
COLLECTIONS
  0
POLYLINE
  5
AF
  8
COLLECTIONS
 66
     1
 10
0.0
 20
0.0
 30
0.0119047619047619
 70
     1
1001
IRD
1002
{
1000
TPMLINK_area-_-ade
1070
   515
1071
        1
1004
01006A4E00006A3000006A3000000000000084D178F1D3A2D73F84D178F1D3A2D73F5041000000000000
1002
}
1002
{
1000
TPMLINK_area-_-ade
1070
   515
1071
        2
1004
0100F226000095060000950600000000000084D178F1D3A2D73F84D178F1D3A2D73F2C12000000000000
1002
}
1001
ADE
1011
0.0003346130645241
1021
0.0
1031
0.0
1021
-0.0203547011014962
1031
0.0
1001
DCO15
1071
       12
1071
       12
1000
collections
1004
0730344239363900
  0
VERTEX
  5
31A
  8
COLLECTIONS
 10
627.6133855464816
 20
4494.9762078044751
 30
0.0119047619047619
  0
VERTEX
  5
31B
  8
COLLECTIONS
 10
627.68657208790671
 20
4494.9785502481109
 30
0.0119047619047619
  0
VERTEX
  5
31C
  8
COLLECTIONS
 10
627.67639804521139
 20
4495.0920048228254
 30
0.0119047619047619
  0
VERTEX
  5
31D
  8
COLLECTIONS
 10
627.6031561489026
 20
4495.0842530372493
 30
0.0119047619047619
  0
SEQEND
  5
31E
  8
COLLECTIONS
  0
POLYLINE
  5
B0
  8
COLLECTIONS
 66
     1
 10
0.0
 20
0.0
 30
0.025
 70
     1
1001
IRD
1002
{
1000
TPMLINK_area-_-ade
1070
   515
1071
        1
1004
0100804E0000F8300000F830000000000000D9287AD0D457E13FD9287AD0D457E13F3B41000000000000
1002
}
1002
{
1000
TPMLINK_area-_-ade
1070
   515
1071
        2
1004
0100082700002D0700002D07000000000000D9287AD0D457E13FD9287AD0D457E13F4112000000000000
1002
}
1001
ADE
1011
-0.0218646420879623
1021
0.0
1031
0.0
1021
0.0003931236187782
1031
0.0
1001
DCO15
1071
       12
1071
       12
1000
collections
1004
073034423130323400
  0
VERTEX
  5
31F
  8
COLLECTIONS
 10
627.98711920906817
 20
4494.6173902759183
 30
0.025
  0
VERTEX
  5
320
  8
COLLECTIONS
 10
627.77459016038165
 20
4494.5925155864088
 30
0.025
  0
VERTEX
  5
321
  8
COLLECTIONS
 10
627.79227599114961
 20
4494.5585870799259
 30
0.025
  0
VERTEX
  5
322
  8
COLLECTIONS
 10
627.81824153194111
 20
4494.5281804511042
 30
0.025
  0
VERTEX
  5
323
  8
COLLECTIONS
 10
627.84037825944813
 20
4494.526408233407
 30
0.025
  0
VERTEX
  5
324
  8
COLLECTIONS
 10
627.99462922261375
 20
4494.5456965418271
 30
0.025
  0
SEQEND
  5
325
  8
COLLECTIONS
  0
POLYLINE
  5
B1
  8
COLLECTIONS
 66
     1
 10
0.0
 20
0.0
 30
0.0277777777777778
 70
     1
1001
IRD
1002
{
1000
TPMLINK_area-_-ade
1070
   515
1071
        1
1004
0100834E000015310000153100000000000085EC56C50511CD3F85EC56C50511CD3F000000005D410000
1002
}
1002
{
1000
TPMLINK_area-_-ade
1070
   515
1071
        2
1004
01000B2700004E0700004E07000000000000C11157C50511CD3FC11157C50511CD3F000000001D120000
1002
}
1001
ADE
1011
-0.0100890463318137
1021
0.0
1031
0.0
1021
0.0024579945875303
1031
0.0
1001
DCO15
1071
       12
1071
       12
1000
collections
1004
073034413134353200
  0
VERTEX
  5
326
  8
COLLECTIONS
 10
627.73339163785511
 20
4494.4937555251918
 30
0.0277777777777778
  0
VERTEX
  5
327
  8
COLLECTIONS
 10
627.78400608983452
 20
4494.530849321437
 30
0.0277777777777778
  0
VERTEX
  5
328
  8
COLLECTIONS
 10
627.82011171038152
 20
4494.4843668166268
 30
0.0277777777777778
  0
VERTEX
  5
329
  8
COLLECTIONS
 10
627.77657601611395
 20
4494.459308472261
 30
0.0277777777777778
  0
SEQEND
  5
32A
  8
COLLECTIONS
  0
POLYLINE
  5
B2
  8
COLLECTIONS
 66
     1
 10
0.0
 20
0.0
 30
0.015625
 70
     1
1001
IRD
1002
{
1000
TPMLINK_area-_-ade
1070
   515
1071
        1
1004
0100874E00005931000059310000000000001B0D66C7DB26CC3F1B0D66C7DB26CC3F5841000000000000
1002
}
1002
{
1000
TPMLINK_area-_-ade
1070
   515
1071
        2
1004
01000F2700009707000097070000000000001B0D66C7DB26CC3F1B0D66C7DB26CC3F2212000000000000
1002
}
1001
ADE
1011
0.0013864190244703
1021
0.0
1031
0.0
1021
-0.0073544295109969
1031
0.0
1001
DCO15
1071
       12
1071
       12
1000
collections
1004
073034413134343900
  0
VERTEX
  5
32B
  8
COLLECTIONS
 10
627.586158196886
 20
4494.279123473324
 30
0.015625
  0
VERTEX
  5
32C
  8
COLLECTIONS
 10
627.61364026853119
 20
4494.2458675639973
 30
0.015625
  0
VERTEX
  5
32D
  8
COLLECTIONS
 10
627.66320064614331
 20
4494.2806536146218
 30
0.015625
  0
VERTEX
  5
32E
  8
COLLECTIONS
 10
627.63606578440158
 20
4494.3226648701948
 30
0.015625
  0
SEQEND
  5
32F
  8
COLLECTIONS
  0
POLYLINE
  5
B3
  8
COLLECTIONS
 66
     1
 10
0.0
 20
0.0
 30
0.03125
 70
     1
1001
IRD
1002
{
1000
TPMLINK_area-_-ade
1070
   515
1071
        1
1004
0100B14C0000012E0000012E0000000000005BC6C5945B10D13F5BC6C5945B10D13F00000000843F0000
1002
}
1002
{
1000
TPMLINK_area-_-ade
1070
   515
1071
        2
1004
010039250000C6030000C6030000000000005BC6C5945B10D13F5BC6C5945B10D13F000000001F140000
1002
}
1001
ADE
1011
-0.0246319064812042
1021
0.0
1031
0.0
1021
-0.0071464658421974
1031
0.0
1001
DCO15
1071
       12
1071
       12
1000
collections
1004
0730344137303500
  0
VERTEX
  5
330
  8
COLLECTIONS
 10
634.54814025042072
 20
4498.7401049328773
 30
0.03125
  0
VERTEX
  5
331
  8
COLLECTIONS
 10
634.621737521873
 20
4498.7855944198791
 30
0.03125
  0
VERTEX
  5
332
  8
COLLECTIONS
 10
634.63948698832462
 20
4498.746672033325
 30
0.03125
  0
VERTEX
  5
333
  8
COLLECTIONS
 10
634.56570079511744
 20
4498.695771613252
 30
0.03125
  0
SEQEND
  5
334
  8
COLLECTIONS
  0
POLYLINE
  5
B4
  8
COLLECTIONS
 66
     1
 10
0.0
 20
0.0
 30
0.0333333333333333
 70
     1
1001
IRD
1002
{
1000
TPMLINK_area-_-ade
1070
   515
1071
        1
1004
0100F14C0000242C0000242C000000000000B1602EA5C199D23FB1602EA5C199D23F00000000C73F0000
1002
}
1002
{
1000
TPMLINK_area-_-ade
1070
   515
1071
        2
1004
010079250000C8010000C801000000000000B1602EA5C199D23FB1602EA5C199D23F00000000DC130000
1002
}
1001
ADE
1011
-0.0329802665719399
1021
0.0
1031
0.0
1021
-0.0234141801920487
1031
0.0
1001
DCO15
1071
       12
1071
       12
1000
collections
1004
0730344138393300
  0
VERTEX
  5
335
  8
COLLECTIONS
 10
634.20693787350922
 20
4500.2184891871393
 30
0.0333333333333333
  0
VERTEX
  5
336
  8
COLLECTIONS
 10
634.20749382714632
 20
4500.2761872991568
 30
0.0333333333333333
  0
VERTEX
  5
337
  8
COLLECTIONS
 10
634.2947465658425
 20
4500.2806420798142
 30
0.0333333333333333
  0
VERTEX
  5
338
  8
COLLECTIONS
 10
634.29445138616995
 20
4500.222689725847
 30
0.0333333333333333
  0
SEQEND
  5
339
  8
COLLECTIONS
  0
POLYLINE
  5
B5
  8
COLLECTIONS
 66
     1
 10
0.0
 20
0.0
 30
0.0416666666666667
 70
     1
1001
IRD
1002
{
1000
TPMLINK_area-_-ade
1070
   515
1071
        1
1004
0100F24C0000252C0000252C0000000000000A6EF7A9D4C7D03F0A6EF7A9D4C7D03F00000000C63F0000
1002
}
1002
{
1000
TPMLINK_area-_-ade
1070
   515
1071
        2
1004
01007A250000C9010000C9010000000000000A6EF7A9D4C7D03F0A6EF7A9D4C7D03F00000000DD130000
1002
}
1001
ADE
1011
-0.0277886196760164
1021
0.0
1031
0.0
1021
-0.022362570723999
1031
0.0
1001
DCO15
1071
       12
1071
       12
1000
collections
1004
0730344138393400
  0
VERTEX
  5
33A
  8
COLLECTIONS
 10
634.12426802185405
 20
4500.2182133219376
 30
0.0416666666666667
  0
VERTEX
  5
33B
  8
COLLECTIONS
 10
634.12516313368496
 20
4500.2694770010849
 30
0.0416666666666667
  0
VERTEX
  5
33C
  8
COLLECTIONS
 10
634.20182538612175
 20
4500.2763729549024
 30
0.0416666666666667
  0
VERTEX
  5
33D
  8
COLLECTIONS
 10
634.20049690861913
 20
4500.2186650448539
 30
0.0416666666666667
  0
SEQEND
  5
33E
  8
COLLECTIONS
  0
POLYLINE
  5
B6
  8
COLLECTIONS
 66
     1
 10
0.0
 20
0.0
 30
0.025
 70
     1
1001
IRD
1002
{
1000
TPMLINK_area-_-ade
1070
   515
1071
        1
1004
0100F44C00002A2C00002A2C000000000000BB2E0C870D70D13FBB2E0C870D70D13F00000000C43F0000
1002
}
1002
{
1000
TPMLINK_area-_-ade
1070
   515
1071
        2
1004
01007C250000CE010000CE01000000000000BB2E0C870D70D13FBB2E0C870D70D13F00000000DF130000
1002
}
1001
ADE
1011
-0.0179105083358309
1021
0.0
1031
0.0
1021
-0.0190151033575603
1031
0.0
1001
DCO15
1071
       12
1071
       12
1000
collections
1004
0730344138393600
  0
VERTEX
  5
33F
  8
COLLECTIONS
 10
633.97856424333179
 20
4500.2127596491582
 30
0.025
  0
VERTEX
  5
340
  8
COLLECTIONS
 10
633.96463544488336
 20
4500.2347322348041
 30
0.025
  0
VERTEX
  5
341
  8
COLLECTIONS
 10
633.96185409993086
 20
4500.2712689703612
 30
0.025
  0
VERTEX
  5
342
  8
COLLECTIONS
 10
634.04815845704468
 20
4500.2692729880946
 30
0.025
  0
VERTEX
  5
343
  8
COLLECTIONS
 10
634.0452718677725
 20
4500.2125755138122
 30
0.025
  0
SEQEND
  5
344
  8
COLLECTIONS
  0
POLYLINE
  5
B7
  8
COLLECTIONS
 66
     1
 10
0.0
 20
0.0
 30
0.05
 70
     1
1001
IRD
1002
{
1000
TPMLINK_area-_-ade
1070
   515
1071
        1
1004
0100FE4C0000102D0000102D0000000000000C5DA3A901AACF3F0C5DA3A901AACF3F00000000F23F0000
1002
}
1002
{
1000
TPMLINK_area-_-ade
1070
   515
1071
        2
1004
010086250000C2020000C2020000000000000C5DA3A901AACF3F0C5DA3A901AACF3F00000000AE130000
1002
}
1001
ADE
1011
-0.0328962180129793
1021
0.0
1031
0.0
1021
0.0126816796428102
1031
0.0
1001
DCO15
1071
       12
1071
       12
1000
collections
1004
0730344237343100
  0
VERTEX
  5
345
  8
COLLECTIONS
 10
633.8534315792931
 20
4499.4727946440944
 30
0.05
  0
VERTEX
  5
346
  8
COLLECTIONS
 10
633.81825258254162
 20
4499.5320969867043
 30
0.05
  0
VERTEX
  5
347
  8
COLLECTIONS
 10
633.86435122710384
 20
4499.5603485360689
 30
0.05
  0
VERTEX
  5
348
  8
COLLECTIONS
 10
633.90004027164753
 20
4499.4992355604791
 30
0.05
  0
SEQEND
  5
349
  8
COLLECTIONS
  0
POLYLINE
  5
B8
  8
COLLECTIONS
 66
     1
 10
0.0
 20
0.0
 30
0.0416666666666667
 70
     1
1001
IRD
1002
{
1000
TPMLINK_area-_-ade
1070
   515
1071
        1
1004
0100004D0000142D0000142D000000000000FE3BACC9D6C4CE3FFE3BACC9D6C4CE3F00000000F43F0000
1002
}
1002
{
1000
TPMLINK_area-_-ade
1070
   515
1071
        2
1004
010088250000C6020000C602000000000000FE3BACC9D6C4CE3FFE3BACC9D6C4CE3F00000000AC130000
1002
}
1001
ADE
1011
-0.0316093739104417
1021
0.0
1031
0.0
1021
0.016171074259546
1031
0.0
1001
DCO15
1071
       12
1071
       12
1000
collections
1004
0730344237343300
  0
VERTEX
  5
34A
  8
COLLECTIONS
 10
633.73688545733842
 20
4499.469610619537
 30
0.0416666666666667
  0
VERTEX
  5
34B
  8
COLLECTIONS
 10
633.77445924322853
 20
4499.498410655493
 30
0.0416666666666667
  0
VERTEX
  5
34C
  8
COLLECTIONS
 10
633.81557730379905
 20
4499.4380526614059
 30
0.0416666666666667
  0
VERTEX
  5
34D
  8
COLLECTIONS
 10
633.7764551161016
 20
4499.4097751658537
 30
0.0416666666666667
  0
SEQEND
  5
34E
  8
COLLECTIONS
  0
POLYLINE
  5
B9
  8
COLLECTIONS
 66
     1
 10
0.0
 20
0.0
 30
0.15
 70
     1
1001
IRD
1002
{
1000
TPMLINK_area-_-ade
1070
   515
1071
        1
1004
0100104D0000EB2C0000EB2C000000000000275955EB99BBD13F275955EB99BBD13F00000000E23F0000
1002
}
1002
{
1000
TPMLINK_area-_-ade
1070
   515
1071
        2
1004
0100982500009A0200009A02000000000000275955EB99BBD13F275955EB99BBD13F00000000BE130000
1002
}
1001
ADE
1011
0.0079024033143469
1021
0.0
1031
0.0
1021
-0.0110993299404072
1031
0.0
1001
DCO15
1071
       12
1071
       12
1000
collections
1004
0730344237343600
  0
VERTEX
  5
34F
  8
COLLECTIONS
 10
633.73058925364376
 20
4499.5830676256346
 30
0.15
  0
VERTEX
  5
350
  8
COLLECTIONS
 10
633.69127798217164
 20
4499.6429021183549
 30
0.15
  0
VERTEX
  5
351
  8
COLLECTIONS
 10
633.75061299776632
 20
4499.6868662830093
 30
0.15
  0
VERTEX
  5
352
  8
COLLECTIONS
 10
633.78013053739255
 20
4499.6337863767312
 30
0.15
  0
SEQEND
  5
353
  8
COLLECTIONS
  0
POLYLINE
  5
BA
  8
COLLECTIONS
 66
     1
 10
0.0
 20
0.0
 30
0.05
 70
     1
1001
IRD
1002
{
1000
TPMLINK_area-_-ade
1070
   515
1071
        1
1004
01003F4D00006B2D00006B2D0000000000000EE62C27E9EAD23F0EE62C27E9EAD23F000000000A400000
1002
}
1002
{
1000
TPMLINK_area-_-ade
1070
   515
1071
        2
1004
0100C72500002303000023030000000000000EE62C27E9EAD23F0EE62C27E9EAD23F0000000094130000
1002
}
1001
ADE
1011
-0.001574417522761
1021
0.0
1031
0.0
1021
-0.0312880175988539
1031
0.0
1001
DCO15
1071
       12
1071
       12
1000
collections
1004
073034413131323300
  0
VERTEX
  5
354
  8
COLLECTIONS
 10
633.76351995800735
 20
4499.1913840785182
 30
0.05
  0
VERTEX
  5
355
  8
COLLECTIONS
 10
633.8024766330999
 20
4499.2444625688231
 30
0.05
  0
VERTEX
  5
356
  8
COLLECTIONS
 10
633.8625141740855
 20
4499.2039549980173
 30
0.05
  0
VERTEX
  5
357
  8
COLLECTIONS
 10
633.8361823253781
 20
4499.1405577314636
 30
0.05
  0
SEQEND
  5
358
  8
COLLECTIONS
  0
POLYLINE
  5
BB
  8
COLLECTIONS
 66
     1
 10
0.0
 20
0.0
 30
0.0263157894736842
 70
     1
1001
IRD
1002
{
1000
TPMLINK_area-_-ade
1070
   515
1071
        1
1004
0100474D0000372D0000372D000000000000886D7041FA06D53F886D7041FA06D53F000000000D400000
1002
}
1002
{
1000
TPMLINK_area-_-ade
1070
   515
1071
        2
1004
0100CF250000EB020000EB020000000000006A7E7041FA06D53F6A7E7041FA06D53F0000000091130000
1002
}
1001
ADE
1011
0.0011771582946949
1021
0.0
1031
0.0
1021
-0.0083096717371518
1031
0.0
1001
DCO15
1071
       12
1071
       12
1000
collections
1004
073034413131313900
  0
VERTEX
  5
359
  8
COLLECTIONS
 10
633.70200078538585
 20
4499.3388702277189
 30
0.0263157894736842
  0
VERTEX
  5
35A
  8
COLLECTIONS
 10
633.74688132703534
 20
4499.3836962356636
 30
0.0263157894736842
  0
VERTEX
  5
35B
  8
COLLECTIONS
 10
633.82468702016092
 20
4499.3127601140613
 30
0.0263157894736842
  0
VERTEX
  5
35C
  8
COLLECTIONS
 10
633.81693504889984
 20
4499.2820892997206
 30
0.0263157894736842
  0
SEQEND
  5
35D
  8
COLLECTIONS
  0
POLYLINE
  5
BC
  8
COLLECTIONS
 66
     1
 10
0.0
 20
0.0
 30
0.0416666666666667
 70
     1
1001
IRD
1002
{
1000
TPMLINK_area-_-ade
1070
   515
1071
        1
1004
01004B4D0000232D0000232D0000000000008E9AB43EF1CCD33F8E9AB43EF1CCD33F0000000050400000
1002
}
1002
{
1000
TPMLINK_area-_-ade
1070
   515
1071
        2
1004
0100D3250000D5020000D5020000000000008E9AB43EF1CCD33F8E9AB43EF1CCD33F0000000048130000
1002
}
1001
ADE
1011
-0.0015113872422035
1021
0.0
1031
0.0
1021
-0.0008415344482273
1031
0.0
1001
DCO15
1071
       12
1071
       12
1000
collections
1004
073034413131313400
  0
VERTEX
  5
35E
  8
COLLECTIONS
 10
633.60821320430853
 20
4499.4103316199826
 30
0.0416666666666667
  0
VERTEX
  5
35F
  8
COLLECTIONS
 10
633.53761148940805
 20
4499.4585789389721
 30
0.0416666666666667
  0
VERTEX
  5
360
  8
COLLECTIONS
 10
633.57889145230013
 20
4499.5170693451937
 30
0.0416666666666667
  0
VERTEX
  5
361
  8
COLLECTIONS
 10
633.64665526475426
 20
4499.4649570883457
 30
0.0416666666666667
  0
SEQEND
  5
362
  8
COLLECTIONS
  0
POLYLINE
  5
BD
  8
COLLECTIONS
 66
     1
 10
0.0
 20
0.0
 30
0.0208333333333333
 70
     1
1001
IRD
1002
{
1000
TPMLINK_area-_-ade
1070
   515
1071
        1
1004
0100594D0000CB2D0000CB2D000000000000F92662B857ABD33FF92662B857ABD33F00000000FF3F0000
1002
}
1002
{
1000
TPMLINK_area-_-ade
1070
   515
1071
        2
1004
0100E12500008C0300008C03000000000000F92662B857ABD33FF92662B857ABD33F000000009F130000
1002
}
1001
ADE
1011
-0.0414859662954541
1021
0.0
1031
0.0
1021
-0.0330226093274178
1031
0.0
1001
DCO15
1071
       12
1071
       12
1000
collections
1004
073034413130363300
  0
VERTEX
  5
363
  8
COLLECTIONS
 10
633.55299633131199
 20
4498.8999656644801
 30
0.0208333333333333
  0
VERTEX
  5
364
  8
COLLECTIONS
 10
633.64378288295893
 20
4498.9803370656527
 30
0.0208333333333333
  0
VERTEX
  5
365
  8
COLLECTIONS
 10
633.66954903084695
 20
4498.9612458643869
 30
0.0208333333333333
  0
VERTEX
  5
366
  8
COLLECTIONS
 10
633.57953549811202
 20
4498.8803584382131
 30
0.0208333333333333
  0
SEQEND
  5
367
  8
COLLECTIONS
  0
POLYLINE
  5
BE
  8
COLLECTIONS
 66
     1
 10
0.0
 20
0.0
 30
0.0178571428571429
 70
     1
1001
IRD
1002
{
1000
TPMLINK_area-_-ade
1070
   515
1071
        1
1004
0100624D0000DC2D0000DC2D00000000000086C92AF57B2DD53F86C92AF57B2DD53F0000000018400000
1002
}
1002
{
1000
TPMLINK_area-_-ade
1070
   515
1071
        2
1004
0100EA2500009E0300009E030000000000005CCA2AF57B2DD53F5CCA2AF57B2DD53F0000000085130000
1002
}
1001
ADE
1011
-0.0352850677859351
1021
0.0
1031
0.0
1021
-0.0431901724959971
1031
0.0
1001
DCO15
1071
       12
1071
       12
1000
collections
1004
073034413130373100
  0
VERTEX
  5
368
  8
COLLECTIONS
 10
633.27946704247142
 20
4498.8550208773631
 30
0.0178571428571429
  0
VERTEX
  5
369
  8
COLLECTIONS
 10
633.37205631244149
 20
4498.9325556297399
 30
0.0178571428571429
  0
VERTEX
  5
36A
  8
COLLECTIONS
 10
633.40709429950346
 20
4498.9000543601087
 30
0.0178571428571429
  0
VERTEX
  5
36B
  8
COLLECTIONS
 10
633.30677484041337
 20
4498.8276798577417
 30
0.0178571428571429
  0
SEQEND
  5
36C
  8
COLLECTIONS
  0
POLYLINE
  5
BF
  8
COLLECTIONS
 66
     1
 10
0.0
 20
0.0
 30
0.0227272727272727
 70
     1
1001
IRD
1002
{
1000
TPMLINK_area-_-ade
1070
   515
1071
        1
1004
0100664D00008D2D00008D2D0000000000006C17D5D0E477D03F6C17D5D0E477D03F0000000006400000
1002
}
1002
{
1000
TPMLINK_area-_-ade
1070
   515
1071
        2
1004
0100EE2500004903000049030000000000006C17D5D0E477D03F6C17D5D0E477D03F0000000098130000
1002
}
1001
ADE
1011
-0.0234121659786979
1021
0.0
1031
0.0
1021
0.0077314823029155
1031
0.0
1001
DCO15
1071
       12
1071
       12
1000
collections
1004
073034413130373400
  0
VERTEX
  5
36D
  8
COLLECTIONS
 10
633.49484675674228
 20
4499.0778675145893
 30
0.0227272727272727
  0
VERTEX
  5
36E
  8
COLLECTIONS
 10
633.47605329296175
 20
4499.1178344575374
 30
0.0227272727272727
  0
VERTEX
  5
36F
  8
COLLECTIONS
 10
633.49644168685495
 20
4499.1572620262878
 30
0.0227272727272727
  0
VERTEX
  5
370
  8
COLLECTIONS
 10
633.56783475527561
 20
4499.1386586429326
 30
0.0227272727272727
  0
SEQEND
  5
371
  8
COLLECTIONS
  0
POLYLINE
  5
C0
  8
COLLECTIONS
 66
     1
 10
0.0
 20
0.0
 30
0.05
 70
     1
1001
IRD
1002
{
1000
TPMLINK_area-_-ade
1070
   515
1071
        1
1004
01006D4D00009E2D00009E2D000000000000306B8A164BFFD43F306B8A164BFFD43F0000000014400000
1002
}
1002
{
1000
TPMLINK_area-_-ade
1070
   515
1071
        2
1004
0100F52500005B0300005B030000000000000EBE8A164BFFD43F0EBE8A164BFFD43F000000008A130000
1002
}
1001
ADE
1011
-0.039823046525953
1021
0.0
1031
0.0
1021
-0.0434964364776533
1031
0.0
1001
DCO15
1071
       12
1071
       12
1000
collections
1004
073034413130383300
  0
VERTEX
  5
372
  8
COLLECTIONS
 10
633.21848536358004
 20
4499.0385955549491
 30
0.05
  0
VERTEX
  5
373
  8
COLLECTIONS
 10
633.3177773171434
 20
4499.1168995652888
 30
0.05
  0
VERTEX
  5
374
  8
COLLECTIONS
 10
633.34534132546651
 20
4499.0869806145447
 30
0.05
  0
VERTEX
  5
375
  8
COLLECTIONS
 10
633.24321679746322
 20
4499.0135760993508
 30
0.05
  0
SEQEND
  5
376
  8
COLLECTIONS
  0
POLYLINE
  5
C1
  8
COLLECTIONS
 66
     1
 10
0.0
 20
0.0
 30
0.0833333333333333
 70
     1
1001
IRD
1002
{
1000
TPMLINK_area-_-ade
1070
   515
1071
        1
1004
0100704D00003C2D00003C2D000000000000E8FE94BF54ECD43FE8FE94BF54ECD43F000000003D400000
1002
}
1002
{
1000
TPMLINK_area-_-ade
1070
   515
1071
        2
1004
0100F8250000F1020000F102000000000000E8FE94BF54ECD43FE8FE94BF54ECD43F000000005C130000
1002
}
1001
ADE
1011
-0.020890523699336
1021
0.0
1031
0.0
1021
0.0007608061605424
1031
0.0
1001
DCO15
1071
       12
1071
       12
1000
collections
1004
073034413131313100
  0
VERTEX
  5
377
  8
COLLECTIONS
 10
633.3026969470676
 20
4499.3282863128579
 30
0.0833333333333333
  0
VERTEX
  5
378
  8
COLLECTIONS
 10
633.37569826561526
 20
4499.4109885237231
 30
0.0833333333333333
  0
VERTEX
  5
379
  8
COLLECTIONS
 10
633.41640171496897
 20
4499.3692038186682
 30
0.0833333333333333
  0
VERTEX
  5
37A
  8
COLLECTIONS
 10
633.34082700977717
 20
4499.293720943223
 30
0.0833333333333333
  0
SEQEND
  5
37B
  8
COLLECTIONS
  0
POLYLINE
  5
C2
  8
COLLECTIONS
 66
     1
 10
0.0
 20
0.0
 30
0.0441176470588235
 70
     1
1001
IRD
1002
{
1000
TPMLINK_area-_-ade
1070
   515
1071
        1
1004
0100714D0000242D0000242D0000000000008612763B1EEDD13F8612763B1EEDD13F4140000000000000
1002
}
1002
{
1000
TPMLINK_area-_-ade
1070
   515
1071
        2
1004
0100F9250000D6020000D6020000000000008612763B1EEDD13F8612763B1EEDD13F5813000000000000
1002
}
1001
ADE
1011
-0.0266544146498973
1021
0.0
1031
0.0
1021
-0.0241494987385522
1031
0.0
1001
DCO15
1071
       12
1071
       12
1000
collections
1004
073034413131303700
  0
VERTEX
  5
37C
  8
COLLECTIONS
 10
633.30635394000535
 20
4499.4074217934731
 30
0.0441176470588235
  0
VERTEX
  5
37D
  8
COLLECTIONS
 10
633.38477171894226
 20
4499.495276262337
 30
0.0441176470588235
  0
VERTEX
  5
37E
  8
COLLECTIONS
 10
633.33759876058627
 20
4499.495820494426
 30
0.0441176470588235
  0
VERTEX
  5
37F
  8
COLLECTIONS
 10
633.28652983657719
 20
4499.448162695574
 30
0.0441176470588235
  0
SEQEND
  5
380
  8
COLLECTIONS
  0
POLYLINE
  5
C3
  8
COLLECTIONS
 66
     1
 10
0.0
 20
0.0
 30
0.0138888888888889
 70
     1
1001
IRD
1002
{
1000
TPMLINK_area-_-ade
1070
   515
1071
        1
1004
0100764D0000E72C0000E72C00000000000020197437896DD53F20197437896DD53F0000000054400000
1002
}
1002
{
1000
TPMLINK_area-_-ade
1070
   515
1071
        2
1004
0100FE250000960200009602000000000000F2827437896DD53FF2827437896DD53F0000000044130000
1002
}
1001
ADE
1011
-0.0126592480546606
1021
0.0
1031
0.0
1021
0.0101001738394189
1031
0.0
1001
DCO15
1071
       12
1071
       12
1000
collections
1004
0730344139383500
  0
VERTEX
  5
381
  8
COLLECTIONS
 10
633.23197394569934
 20
4499.6010579399799
 30
0.0138888888888889
  0
VERTEX
  5
382
  8
COLLECTIONS
 10
633.27918984151449
 20
4499.6711447268253
 30
0.0138888888888889
  0
VERTEX
  5
383
  8
COLLECTIONS
 10
633.35753396860628
 20
4499.6378437982494
 30
0.0138888888888889
  0
VERTEX
  5
384
  8
COLLECTIONS
 10
633.31238295632465
 20
4499.5721379742608
 30
0.0138888888888889
  0
SEQEND
  5
385
  8
COLLECTIONS
  0
POLYLINE
  5
C4
  8
COLLECTIONS
 66
     1
 10
0.0
 20
0.0
 30
0.125
 70
     1
1001
IRD
1002
{
1000
TPMLINK_area-_-ade
1070
   515
1071
        1
1004
01007F4D0000502D0000502D000000000000DEC8D311174FC53FDEC8D311174FC53F0000000045400000
1002
}
1002
{
1000
TPMLINK_area-_-ade
1070
   515
1071
        2
1004
0100072600000803000008030000000000005109D411174FC53F5109D411174FC53F0000000053130000
1002
}
1001
ADE
1011
-0.0126146668839056
1021
0.0
1031
0.0
1021
-0.0057985525509139
1031
0.0
1001
DCO15
1071
       12
1071
       12
1000
collections
1004
073034413130383900
  0
VERTEX
  5
386
  8
COLLECTIONS
 10
633.03765817306805
 20
4499.2567852779875
 30
0.125
  0
VERTEX
  5
387
  8
COLLECTIONS
 10
633.07350255743154
 20
4499.2786745783624
 30
0.125
  0
VERTEX
  5
388
  8
COLLECTIONS
 10
633.09358506512535
 20
4499.2389646293159
 30
0.125
  0
VERTEX
  5
389
  8
COLLECTIONS
 10
633.05516635388153
 20
4499.2227479997146
 30
0.125
  0
SEQEND
  5
38A
  8
COLLECTIONS
  0
POLYLINE
  5
C5
  8
COLLECTIONS
 66
     1
 10
0.0
 20
0.0
 30
0.1
 70
     1
1001
IRD
1002
{
1000
TPMLINK_area-_-ade
1070
   515
1071
        1
1004
0100804D0000562D0000562D0000000000005416E30B0719D33F5416E30B0719D33F0000000049400000
1002
}
1002
{
1000
TPMLINK_area-_-ade
1070
   515
1071
        2
1004
0100082600000E0300000E030000000000005416E30B0719D33F5416E30B0719D33F000000004F130000
1002
}
1001
ADE
1011
-0.0282281063164192
1021
0.0
1031
0.0
1021
-0.0117981410649009
1031
0.0
1001
DCO15
1071
       12
1071
       12
1000
collections
1004
073034413130393400
  0
VERTEX
  5
38B
  8
COLLECTIONS
 10
633.00749006371439
 20
4499.2433991856451
 30
0.1
  0
VERTEX
  5
38C
  8
COLLECTIONS
 10
632.97503157483266
 20
4499.2787344400749
 30
0.1
  0
VERTEX
  5
38D
  8
COLLECTIONS
 10
633.06064643692901
 20
4499.3325578989097
 30
0.1
  0
VERTEX
  5
38E
  8
COLLECTIONS
 10
633.09232830265898
 20
4499.2918097883266
 30
0.1
  0
SEQEND
  5
38F
  8
COLLECTIONS
  0
POLYLINE
  5
C6
  8
COLLECTIONS
 66
     1
 10
0.0
 20
0.0
 30
0.25
 70
     1
1001
IRD
1002
{
1000
TPMLINK_area-_-ade
1070
   515
1071
        1
1004
01008C1C0000600C0000600C0000000000000000AF47E17AB43F0000AF47E17AB43FA51A000000000000
1002
}
1001
ADE
1011
0.0001166611297094
1021
0.0
1031
0.0
1021
-0.0007585445919176
1031
0.0
1001
DCO15
1071
        3
1071
        3
1000
collections
1004
0730324233363200
  0
VERTEX
  5
390
  8
COLLECTIONS
 10
607.46063978918755
 20
4484.2158100366414
 30
0.25
  0
VERTEX
  5
391
  8
COLLECTIONS
 10
607.46063978918755
 20
4484.195810036641
 30
0.25
  0
VERTEX
  5
392
  8
COLLECTIONS
 10
607.48063978918765
 20
4484.195810036641
 30
0.25
  0
VERTEX
  5
393
  8
COLLECTIONS
 10
607.48063978918765
 20
4484.2158100366414
 30
0.25
  0
SEQEND
  5
394
  8
COLLECTIONS
  0
POLYLINE
  5
C7
  8
COLLECTIONS
 66
     1
 10
0.0
 20
0.0
 30
0.25
 70
     1
1001
IRD
1002
{
1000
TPMLINK_area-_-ade
1070
   515
1071
        1
1004
01001A1D0000E5020000E5020000000000000040AD47E17AB43F0040AD47E17AB43F5D13000000000000
1002
}
1001
ADE
1011
-0.0003801813227255
1021
0.0
1031
0.0
1021
0.0002501349226804
1031
0.0
1001
DCO15
1071
        3
1071
        3
1000
collections
1004
073034413131313800
  0
VERTEX
  5
395
  8
COLLECTIONS
 10
633.58875741269765
 20
4499.3535808600191
 30
0.25
  0
VERTEX
  5
396
  8
COLLECTIONS
 10
633.58875741269765
 20
4499.3335808600204
 30
0.25
  0
VERTEX
  5
397
  8
COLLECTIONS
 10
633.60875741269774
 20
4499.3335808600204
 30
0.25
  0
VERTEX
  5
398
  8
COLLECTIONS
 10
633.60875741269774
 20
4499.3535808600191
 30
0.25
  0
SEQEND
  5
399
  8
COLLECTIONS
  0
POLYLINE
  5
C8
  8
COLLECTIONS
 66
     1
 10
0.0
 20
0.0
 30
0.0138888888888889
 70
     1
1001
IRD
1002
{
1000
TPMLINK_collections2-_-ade
1070
   515
1071
        2
1004
0100EF0800009E0200009E0200000000000020F4A044E4D8D23F20F4A044E4D8D23F2908000000000000
1002
}
1002
{
1000
TPMLINK_area-_-ade
1070
   515
1071
        3
1004
0100414500000C3600000C360000000000004D54A044E4D8D23F4D54A044E4D8D23F1238000000000000
1002
}
1002
{
1000
TPMLINK_area-_-ade
1070
   515
1071
        4
1004
0100091E0000880C0000880C00000000000033E79F44E4D8D23F33E79F44E4D8D23FFD1B000000000000
1002
}
1001
ADE
1011
-0.0271805718190308
1021
0.0
1031
0.0
1021
-0.0369163016712264
1031
0.0
1001
DCO15
1071
        7
1071
        7
1000
collections
1004
0730324131393200
  0
VERTEX
  5
39A
  8
COLLECTIONS
 10
613.0769770399171
 20
4483.9862344776466
 30
0.0138888888888889
  0
VERTEX
  5
39B
  8
COLLECTIONS
 10
613.07956687391516
 20
4483.9527350908966
 30
0.0138888888888889
  0
VERTEX
  5
39C
  8
COLLECTIONS
 10
613.07687892386525
 20
4483.9295151594406
 30
0.0138888888888889
  0
VERTEX
  5
39D
  8
COLLECTIONS
 10
613.10070590526675
 20
4483.9303550304767
 30
0.0138888888888889
  0
VERTEX
  5
39E
  8
COLLECTIONS
 10
613.13617171353837
 20
4483.9308629983889
 30
0.0138888888888889
  0
VERTEX
  5
39F
  8
COLLECTIONS
 10
613.14679846850595
 20
4483.9305599564077
 30
0.0138888888888889
  0
VERTEX
  5
3A0
  8
COLLECTIONS
 10
613.15175395009715
 20
4483.9977761544478
 30
0.0138888888888889
  0
VERTEX
  5
3A1
  8
COLLECTIONS
 10
613.15000398713471
 20
4484.0074485597961
 30
0.0138888888888889
  0
VERTEX
  5
3A2
  8
COLLECTIONS
 10
613.1487889212641
 20
4484.0181186064729
 30
0.0138888888888889
  0
VERTEX
  5
3A3
  8
COLLECTIONS
 10
613.12575755320574
 20
4484.0096593350363
 30
0.0138888888888889
  0
VERTEX
  5
3A4
  8
COLLECTIONS
 10
613.10378154876071
 20
4484.002689310305
 30
0.0138888888888889
  0
VERTEX
  5
3A5
  8
COLLECTIONS
 10
613.09286618238139
 20
4483.9928716332724
 30
0.0138888888888889
  0
VERTEX
  5
3A6
  8
COLLECTIONS
 10
613.08367095184235
 20
4483.9900951678392
 30
0.0138888888888889
  0
SEQEND
  5
3A7
  8
COLLECTIONS
  0
ENDSEC
  0
EOF
