  0
SECTION
  2
HEADER
  9
$ACADVER
  1
AC1009
  9
$INSBASE
 10
0.0
 20
0.0
 30
0.0
  9
$EXTMIN
 10
604.62203609929702
 20
4478.477889563721
 30
0.0108557027222256
  9
$EXTMAX
 10
637.08992171440423
 20
4503.5595044070269
 30
3.821861419648787
  9
$LIMMIN
 10
0.0
 20
0.0
  9
$LIMMAX
 10
12.0
 20
9.0
  9
$ORTHOMODE
 70
     0
  9
$REGENMODE
 70
     1
  9
$FILLMODE
 70
     1
  9
$QTEXTMODE
 70
     0
  9
$MIRRTEXT
 70
     1
  9
$DRAGMODE
 70
     2
  9
$LTSCALE
 40
1.0
  9
$OSMODE
 70
    37
  9
$ATTMODE
 70
     1
  9
$TEXTSIZE
 40
0.2
  9
$TRACEWID
 40
0.05
  9
$TEXTSTYLE
  7
STANDARD
  9
$CLAYER
  8
0
  9
$CELTYPE
  6
BYLAYER
  9
$CECOLOR
 62
   256
  9
$DIMSCALE
 40
1.0
  9
$DIMASZ
 40
0.18
  9
$DIMEXO
 40
0.0625
  9
$DIMDLI
 40
0.38
  9
$DIMRND
 40
0.0
  9
$DIMDLE
 40
0.0
  9
$DIMEXE
 40
0.18
  9
$DIMTP
 40
0.0
  9
$DIMTM
 40
0.0
  9
$DIMTXT
 40
0.18
  9
$DIMCEN
 40
0.09
  9
$DIMTSZ
 40
0.0
  9
$DIMTOL
 70
     0
  9
$DIMLIM
 70
     0
  9
$DIMTIH
 70
     1
  9
$DIMTOH
 70
     1
  9
$DIMSE1
 70
     0
  9
$DIMSE2
 70
     0
  9
$DIMTAD
 70
     0
  9
$DIMZIN
 70
     0
  9
$DIMBLK
  1

  9
$DIMASO
 70
     1
  9
$DIMSHO
 70
     1
  9
$DIMPOST
  1

  9
$DIMAPOST
  1

  9
$DIMALT
 70
     0
  9
$DIMALTD
 70
     2
  9
$DIMALTF
 40
25.399999999999999
  9
$DIMLFAC
 40
1.0
  9
$DIMTOFL
 70
     0
  9
$DIMTVP
 40
0.0
  9
$DIMTIX
 70
     0
  9
$DIMSOXD
 70
     0
  9
$DIMSAH
 70
     0
  9
$DIMBLK1
  1

  9
$DIMBLK2
  1

  9
$DIMSTYLE
  2
STANDARD
  9
$DIMCLRD
 70
     0
  9
$DIMCLRE
 70
     0
  9
$DIMCLRT
 70
     0
  9
$DIMTFAC
 40
1.0
  9
$DIMGAP
 40
0.09
  9
$LUNITS
 70
     2
  9
$LUPREC
 70
     4
  9
$SKETCHINC
 40
0.1
  9
$FILLETRAD
 40
0.5
  9
$AUNITS
 70
     0
  9
$AUPREC
 70
     0
  9
$MENU
  1
.
  9
$ELEVATION
 40
0.0
  9
$PELEVATION
 40
0.0
  9
$THICKNESS
 40
0.0
  9
$LIMCHECK
 70
     0
  9
$BLIPMODE
 70
     0
  9
$CHAMFERA
 40
0.5
  9
$CHAMFERB
 40
0.5
  9
$SKPOLY
 70
     0
  9
$TDCREATE
 40
2456179.8419735539
  9
$TDUPDATE
 40
2456179.8529593409
  9
$TDINDWG
 40
0.0051718056
  9
$TDUSRTIMER
 40
0.0051718056
  9
$USRTIMER
 70
     1
  9
$ANGBASE
 50
0.0
  9
$ANGDIR
 70
     1
  9
$PDMODE
 70
    66
  9
$PDSIZE
 40
0.0
  9
$PLINEWID
 40
0.0
  9
$COORDS
 70
     1
  9
$SPLFRAME
 70
     0
  9
$SPLINETYPE
 70
     6
  9
$SPLINESEGS
 70
     8
  9
$ATTDIA
 70
     0
  9
$ATTREQ
 70
     1
  9
$HANDLING
 70
     1
  9
$HANDSEED
  5
661
  9
$SURFTAB1
 70
     6
  9
$SURFTAB2
 70
     6
  9
$SURFTYPE
 70
     6
  9
$SURFU
 70
     6
  9
$SURFV
 70
     6
  9
$UCSNAME
  2

  9
$UCSORG
 10
0.0
 20
0.0
 30
0.0
  9
$UCSXDIR
 10
1.0
 20
0.0
 30
0.0
  9
$UCSYDIR
 10
0.0
 20
1.0
 30
0.0
  9
$PUCSNAME
  2

  9
$PUCSORG
 10
0.0
 20
0.0
 30
0.0
  9
$PUCSXDIR
 10
1.0
 20
0.0
 30
0.0
  9
$PUCSYDIR
 10
0.0
 20
1.0
 30
0.0
  9
$USERI1
 70
     0
  9
$USERI2
 70
     0
  9
$USERI3
 70
     0
  9
$USERI4
 70
     0
  9
$USERI5
 70
     0
  9
$USERR1
 40
0.0
  9
$USERR2
 40
0.0
  9
$USERR3
 40
0.0
  9
$USERR4
 40
0.0
  9
$USERR5
 40
0.0
  9
$WORLDVIEW
 70
     1
  9
$SHADEDGE
 70
     3
  9
$SHADEDIF
 70
    70
  9
$TILEMODE
 70
     1
  9
$MAXACTVP
 70
    64
  9
$PLIMCHECK
 70
     0
  9
$PEXTMIN
 10
0.0
 20
0.0
 30
0.0
  9
$PEXTMAX
 10
0.0
 20
0.0
 30
0.0
  9
$PLIMMIN
 10
0.0
 20
0.0
  9
$PLIMMAX
 10
12.0
 20
9.0
  9
$UNITMODE
 70
     0
  9
$VISRETAIN
 70
     1
  9
$PLINEGEN
 70
     0
  9
$PSLTSCALE
 70
     1
  0
ENDSEC
  0
SECTION
  2
TABLES
  0
TABLE
  2
VPORT
 70
     1
  0
VPORT
  2
*ACTIVE
 70
     0
 10
0.0
 20
0.0
 11
1.0
 21
1.0
 12
620.85597890685062
 22
4491.018696985373
 13
0.0
 23
0.0
 14
0.5
 24
0.5
 15
0.5
 25
0.5
 16
0.0
 26
0.0
 36
1.0
 17
0.0
 27
0.0
 37
0.0
 40
25.26469232391355
 41
1.7101096224116921
 42
50.0
 43
0.0
 44
0.0
 50
0.0
 51
0.0
 71
     0
 72
   100
 73
     1
 74
     2
 75
     0
 76
     0
 77
     0
 78
     0
  0
ENDTAB
  0
TABLE
  2
LTYPE
 70
     1
  0
LTYPE
  2
CONTINUOUS
 70
     0
  3
Solid line
 72
    65
 73
     0
 40
0.0
  0
ENDTAB
  0
TABLE
  2
LAYER
 70
     2
  0
LAYER
  2
0
 70
     0
 62
     7
  6
CONTINUOUS
  0
LAYER
  2
COLLECTIONS
 70
     0
 62
     2
  6
CONTINUOUS
  0
ENDTAB
  0
TABLE
  2
STYLE
 70
     2
  0
STYLE
  2
STANDARD
 70
     0
 40
0.0
 41
1.0
 50
0.0
 71
     0
 42
0.2
  3
txt
  4

  0
STYLE
  2
LEGEND
 70
     0
 40
0.0
 41
1.0
 50
0.0
 71
     0
 42
0.2
  3
txt
  4

  0
ENDTAB
  0
TABLE
  2
VIEW
 70
     0
  0
ENDTAB
  0
TABLE
  2
UCS
 70
     0
  0
ENDTAB
  0
TABLE
  2
APPID
 70
     7
  0
APPID
  2
ACAD
 70
     0
  0
APPID
  2
DCO15
 70
     0
  0
APPID
  2
ADE
 70
     0
  0
APPID
  2
IRD
 70
     0
  0
APPID
  2
ACMAPDMDISPLAYSTYLEREGAPP
 70
     0
  0
APPID
  2
MAPGWS
 70
     0
  0
APPID
  2
ACAD_MLEADERVER
 70
     0
  0
ENDTAB
  0
TABLE
  2
DIMSTYLE
 70
     1
  0
DIMSTYLE
  2
STANDARD
 70
     0
  3

  4

  5

  6

  7

 40
1.0
 41
0.18
 42
0.0625
 43
0.38
 44
0.18
 45
0.0
 46
0.0
 47
0.0
 48
0.0
140
0.18
141
0.09
142
0.0
143
25.399999999999999
144
1.0
145
0.0
146
1.0
147
0.09
 71
     0
 72
     0
 73
     1
 74
     1
 75
     0
 76
     0
 77
     0
 78
     0
170
     0
171
     2
172
     0
173
     0
174
     0
175
     0
176
     0
177
     0
178
     0
  0
ENDTAB
  0
ENDSEC
  0
SECTION
  2
BLOCKS
  0
BLOCK
  8
0
  2
$MODEL_SPACE
 70
     0
 10
0.0
 20
0.0
 30
0.0
  3
$MODEL_SPACE
  1

  0
ENDBLK
  5
15
  8
0
  0
BLOCK
 67
     1
  8
0
  2
$PAPER_SPACE
 70
     0
 10
0.0
 20
0.0
 30
0.0
  3
$PAPER_SPACE
  1

  0
ENDBLK
  5
1A
 67
     1
  8
0
  0
ENDSEC
  0
SECTION
  2
ENTITIES
  0
POLYLINE
  5
6A
  8
COLLECTIONS
 66
     1
 10
0.0
 20
0.0
 30
0.25
 70
     1
1001
IRD
1002
{
1000
TPMLINK_area-_-ade
1070
   515
1071
        1
1004
0100464F0000C42E0000C42E0000000000007298099C0F12C53F7298099C0F12C53F1B42000000000000
1002
}
1002
{
1000
TPMLINK_area-_-ade
1070
   515
1071
        2
1004
0100CE2700009D0400009D04000000000000148F099C0F12C53F148F099C0F12C53F4B11000000000000
1002
}
1001
ADE
1011
-0.0074576210269015
1021
0.0
1031
0.0
1021
-0.0139978263605372
1031
0.0
1001
DCO15
1071
       12
1071
       12
1000
collections
1004
0730344235313100
  0
VERTEX
  5
149
  8
COLLECTIONS
 10
632.07421229468525
 20
4497.8850585506789
 30
0.25
  0
VERTEX
  5
14A
  8
COLLECTIONS
 10
632.04041901263827
 20
4497.9037227122517
 30
0.25
  0
VERTEX
  5
14B
  8
COLLECTIONS
 10
632.03290088771575
 20
4497.8530626283809
 30
0.25
  0
VERTEX
  5
14C
  8
COLLECTIONS
 10
632.05904499500559
 20
4497.8414382551091
 30
0.25
  0
SEQEND
  5
14D
  8
COLLECTIONS
  0
POLYLINE
  5
70
  8
COLLECTIONS
 66
     1
 10
0.0
 20
0.0
 30
0.25
 70
     1
1001
IRD
1002
{
1000
TPMLINK_collections2-_-ade
1070
   515
1071
        2
1004
0100560A00000502000005020000000000006EB54880828CC13F6EB54880828CC13F00000000BB060000
1002
}
1002
{
1000
TPMLINK_area-_-ade
1070
   515
1071
        3
1004
0100A84600007335000073350000000000003C534980828CC13F3C534980828CC13F0000000080390000
1002
}
1002
{
1000
TPMLINK_area-_-ade
1070
   515
1071
        4
1004
01005E1F0000EF0B0000EF0B0000000000003C534980828CC13F3C534980828CC13F000000008F1A0000
1002
}
1001
ADE
1011
-0.0114650285798916
1021
0.0
1031
0.0
1021
-0.0018378012400717
1031
0.0
1001
DCO15
1071
        7
1071
        7
1000
collections
1004
0730324233333100
  0
VERTEX
  5
14E
  8
COLLECTIONS
 10
606.34102772858591
 20
4484.9599429494401
 30
0.25
  0
VERTEX
  5
14F
  8
COLLECTIONS
 10
606.34240208969675
 20
4484.9344874321851
 30
0.25
  0
VERTEX
  5
150
  8
COLLECTIONS
 10
606.3011393375707
 20
4484.9281182978239
 30
0.25
  0
VERTEX
  5
151
  8
COLLECTIONS
 10
606.30029524286851
 20
4484.9571332587338
 30
0.25
  0
SEQEND
  5
152
  8
COLLECTIONS
  0
POLYLINE
  5
71
  8
COLLECTIONS
 66
     1
 10
0.0
 20
0.0
 30
0.2177419354838709
 70
     1
1001
IRD
1002
{
1000
TPMLINK_collections2-_-ade
1070
   515
1071
        2
1004
0100570A00000A0200000A02000000000000FDD797AC11B4BD3FFDD797AC11B4BD3F00000000BA060000
1002
}
1002
{
1000
TPMLINK_area-_-ade
1070
   515
1071
        3
1004
0100A9460000783500007835000000000000AACA96AC11B4BD3FAACA96AC11B4BD3F0000000081390000
1002
}
1002
{
1000
TPMLINK_area-_-ade
1070
   515
1071
        4
1004
01005F1F0000F40B0000F40B000000000000DEB895AC11B4BD3FDEB895AC11B4BD3F000000008E1A0000
1002
}
1001
ADE
1011
-0.0050388051056416
1021
0.0
1031
0.0
1021
0.0033824263209681
1031
0.0
1001
DCO15
1071
        7
1071
        7
1000
collections
1004
0730324233333000
  0
VERTEX
  5
153
  8
COLLECTIONS
 10
606.25784697253448
 20
4484.9227792120437
 30
0.2177419354838709
  0
VERTEX
  5
154
  8
COLLECTIONS
 10
606.25361398653661
 20
4484.8958304451344
 30
0.2177419354838709
  0
VERTEX
  5
155
  8
COLLECTIONS
 10
606.22510795306755
 20
4484.8949833020079
 30
0.2177419354838709
  0
VERTEX
  5
156
  8
COLLECTIONS
 10
606.22783244729135
 20
4484.9249947788248
 30
0.2177419354838709
  0
SEQEND
  5
157
  8
COLLECTIONS
  0
POLYLINE
  5
72
  8
COLLECTIONS
 66
     1
 10
0.0
 20
0.0
 30
0.1447368421052632
 70
     1
1001
IRD
1002
{
1000
TPMLINK_collections2-_-ade
1070
   515
1071
        2
1004
01005B0A00001C0200001C02000000000000FCA78B2BAEC7D93FFCA78B2BAEC7D93FB906000000000000
1002
}
1002
{
1000
TPMLINK_area-_-ade
1070
   515
1071
        3
1004
0100AD4600008A3500008A35000000000000A9698B2BAEC7D93FA9698B2BAEC7D93F8239000000000000
1002
}
1002
{
1000
TPMLINK_area-_-ade
1070
   515
1071
        4
1004
0100631F0000060C0000060C0000000000000D6D8B2BAEC7D93F0D6D8B2BAEC7D93F8D1A000000000000
1002
}
1001
ADE
1011
0.000362413993912
1021
0.0
1031
0.0
1021
-0.0578917796692622
1031
0.0
1001
DCO15
1071
        7
1071
        7
1000
collections
1004
0730324233303900
  0
VERTEX
  5
158
  8
COLLECTIONS
 10
606.2753422374152
 20
4484.784750132626
 30
0.1447368421052632
  0
VERTEX
  5
159
  8
COLLECTIONS
 10
606.20969653515328
 20
4484.701167303373
 30
0.1447368421052632
  0
VERTEX
  5
15A
  8
COLLECTIONS
 10
606.2390100822347
 20
4484.6668923563184
 30
0.1447368421052632
  0
VERTEX
  5
15B
  8
COLLECTIONS
 10
606.28057446895775
 20
4484.6386513763564
 30
0.1447368421052632
  0
VERTEX
  5
15C
  8
COLLECTIONS
 10
606.30478670734044
 20
4484.6873651346277
 30
0.1447368421052632
  0
VERTEX
  5
15D
  8
COLLECTIONS
 10
606.34377003517034
 20
4484.7380261983571
 30
0.1447368421052632
  0
SEQEND
  5
15E
  8
COLLECTIONS
  0
POLYLINE
  5
73
  8
COLLECTIONS
 66
     1
 10
0.0
 20
0.0
 30
0.0227272727272727
 70
     1
1001
IRD
1002
{
1000
TPMLINK_collections2-_-ade
1070
   515
1071
        2
1004
01006C0A0000B9020000B902000000000000EE4347252CCBD53FEE4347252CCBD53F000000009F060000
1002
}
1002
{
1000
TPMLINK_area-_-ade
1070
   515
1071
        3
1004
0100BE460000273600002736000000000000970646252CCBD53F970646252CCBD53F000000009C390000
1002
}
1002
{
1000
TPMLINK_area-_-ade
1070
   515
1071
        4
1004
0100741F0000A30C0000A30C000000000000F10446252CCBD53FF10446252CCBD53F00000000731A0000
1002
}
1001
ADE
1011
-0.0424788293170195
1021
0.0
1031
0.0
1021
-0.0195099997226862
1031
0.0
1001
DCO15
1071
        7
1071
        7
1000
collections
1004
0730324233343100
  0
VERTEX
  5
15F
  8
COLLECTIONS
 10
607.36126970333044
 20
4483.8229544585774
 30
0.0227272727272727
  0
VERTEX
  5
160
  8
COLLECTIONS
 10
607.36134286550976
 20
4483.835168717128
 30
0.0227272727272727
  0
VERTEX
  5
161
  8
COLLECTIONS
 10
607.35936507581039
 20
4483.8448505321776
 30
0.0227272727272727
  0
VERTEX
  5
162
  8
COLLECTIONS
 10
607.35024401141072
 20
4483.8515214605277
 30
0.0227272727272727
  0
VERTEX
  5
163
  8
COLLECTIONS
 10
607.33603367261435
 20
4483.8582228731202
 30
0.0227272727272727
  0
VERTEX
  5
164
  8
COLLECTIONS
 10
607.32436492259205
 20
4483.864400116152
 30
0.0227272727272727
  0
VERTEX
  5
165
  8
COLLECTIONS
 10
607.33821875515673
 20
4483.8831481239658
 30
0.0227272727272727
  0
VERTEX
  5
166
  8
COLLECTIONS
 10
607.35758358176724
 20
4483.9107073183186
 30
0.0227272727272727
  0
VERTEX
  5
167
  8
COLLECTIONS
 10
607.37141665797105
 20
4483.9304105861202
 30
0.0227272727272727
  0
VERTEX
  5
168
  8
COLLECTIONS
 10
607.38781080820763
 20
4483.9508810932421
 30
0.0227272727272727
  0
VERTEX
  5
169
  8
COLLECTIONS
 10
607.41028846341214
 20
4483.9346288950046
 30
0.0227272727272727
  0
VERTEX
  5
16A
  8
COLLECTIONS
 10
607.41785835809992
 20
4483.9238956924091
 30
0.0227272727272727
  0
VERTEX
  5
16B
  8
COLLECTIONS
 10
607.43046875239725
 20
4483.9049891665372
 30
0.0227272727272727
  0
SEQEND
  5
16C
  8
COLLECTIONS
  0
POLYLINE
  5
74
  8
COLLECTIONS
 66
     1
 10
0.0
 20
0.0
 30
0.0454545454545455
 70
     1
1001
IRD
1002
{
1000
TPMLINK_collections2-_-ade
1070
   515
1071
        2
1004
0100890A0000D9010000D901000000000000ACB615144244D23FACB615144244D23F8806000000000000
1002
}
1002
{
1000
TPMLINK_area-_-ade
1070
   515
1071
        3
1004
0100DB4600004735000047350000000000001D3B15144244D23F1D3B15144244D23FB339000000000000
1002
}
1002
{
1000
TPMLINK_area-_-ade
1070
   515
1071
        4
1004
01008F1F0000C30B0000C30B000000000000133B15144244D23F133B15144244D23F5C1A000000000000
1002
}
1001
ADE
1011
-0.028833376020998
1021
0.0
1031
0.0
1021
-0.0237176276968967
1031
0.0
1001
DCO15
1071
        7
1071
        7
1000
collections
1004
0730324234353900
  0
VERTEX
  5
16D
  8
COLLECTIONS
 10
606.5590788331931
 20
4485.5465208364858
 30
0.0454545454545455
  0
VERTEX
  5
16E
  8
COLLECTIONS
 10
606.55894186532623
 20
4485.5607944455733
 30
0.0454545454545455
  0
VERTEX
  5
16F
  8
COLLECTIONS
 10
606.55790598094313
 20
4485.5796783211799
 30
0.0454545454545455
  0
VERTEX
  5
170
  8
COLLECTIONS
 10
606.55889398647139
 20
4485.5979997100903
 30
0.0454545454545455
  0
VERTEX
  5
171
  8
COLLECTIONS
 10
606.55811474712607
 20
4485.607193648204
 30
0.0454545454545455
  0
VERTEX
  5
172
  8
COLLECTIONS
 10
606.54749929818911
 20
4485.6105286759994
 30
0.0454545454545455
  0
VERTEX
  5
173
  8
COLLECTIONS
 10
606.5245144529049
 20
4485.6085805776338
 30
0.0454545454545455
  0
VERTEX
  5
174
  8
COLLECTIONS
 10
606.50655608874035
 20
4485.6039530204198
 30
0.0454545454545455
  0
VERTEX
  5
175
  8
COLLECTIONS
 10
606.48976259036135
 20
4485.6049011335581
 30
0.0454545454545455
  0
VERTEX
  5
176
  8
COLLECTIONS
 10
606.47800887056565
 20
4485.6036790846847
 30
0.0454545454545455
  0
VERTEX
  5
177
  8
COLLECTIONS
 10
606.47857535049536
 20
4485.586336397073
 30
0.0454545454545455
  0
VERTEX
  5
178
  8
COLLECTIONS
 10
606.47707804812364
 20
4485.5680283056254
 30
0.0454545454545455
  0
VERTEX
  5
179
  8
COLLECTIONS
 10
606.47682539631796
 20
4485.5583516655961
 30
0.0454545454545455
  0
VERTEX
  5
17A
  8
COLLECTIONS
 10
606.47717512360009
 20
4485.5522268060076
 30
0.0454545454545455
  0
VERTEX
  5
17B
  8
COLLECTIONS
 10
606.47942906362255
 20
4485.5409557881294
 30
0.0454545454545455
  0
VERTEX
  5
17C
  8
COLLECTIONS
 10
606.49421196955359
 20
4485.5410794585323
 30
0.0454545454545455
  0
VERTEX
  5
17D
  8
COLLECTIONS
 10
606.50898157802123
 20
4485.5406938320912
 30
0.0454545454545455
  0
VERTEX
  5
17E
  8
COLLECTIONS
 10
606.52578837386363
 20
4485.5402550157978
 30
0.0454545454545455
  0
VERTEX
  5
17F
  8
COLLECTIONS
 10
606.54575733047545
 20
4485.5438107894734
 30
0.0454545454545455
  0
SEQEND
  5
180
  8
COLLECTIONS
  0
POLYLINE
  5
75
  8
COLLECTIONS
 66
     1
 10
0.0
 20
0.0
 30
0.0833333333333333
 70
     1
1001
IRD
1002
{
1000
TPMLINK_collections2-_-ade
1070
   515
1071
        2
1004
01008C0A0000020200000202000000000000A10D2F76FD11C03FA10D2F76FD11C03F8706000000000000
1002
}
1002
{
1000
TPMLINK_area-_-ade
1070
   515
1071
        3
1004
0100DE460000703500007035000000000000BE232F76FD11C03FBE232F76FD11C03FB439000000000000
1002
}
1002
{
1000
TPMLINK_area-_-ade
1070
   515
1071
        4
1004
0100911F0000EC0B0000EC0B000000000000BE232F76FD11C03FBE232F76FD11C03F5B1A000000000000
1002
}
1001
ADE
1011
0.0032614111421481
1021
0.0
1031
0.0
1021
-0.0115564747165991
1031
0.0
1001
DCO15
1071
        7
1071
        7
1000
collections
1004
0730324233363000
  0
VERTEX
  5
181
  8
COLLECTIONS
 10
606.82215269561107
 20
4485.042749188674
 30
0.0833333333333333
  0
VERTEX
  5
182
  8
COLLECTIONS
 10
606.80892427513811
 20
4485.0436042195679
 30
0.0833333333333333
  0
VERTEX
  5
183
  8
COLLECTIONS
 10
606.80427411622725
 20
4485.0411774125196
 30
0.0833333333333333
  0
VERTEX
  5
184
  8
COLLECTIONS
 10
606.80492038093803
 20
4485.0268905059693
 30
0.0833333333333333
  0
VERTEX
  5
185
  8
COLLECTIONS
 10
606.81007053246105
 20
4485.0094281411848
 30
0.0833333333333333
  0
VERTEX
  5
186
  8
COLLECTIONS
 10
606.81543344339957
 20
4485.0001145259002
 30
0.0833333333333333
  0
VERTEX
  5
187
  8
COLLECTIONS
 10
606.8245342992692
 20
4484.9973286873401
 30
0.0833333333333333
  0
VERTEX
  5
188
  8
COLLECTIONS
 10
606.83281602340321
 20
4485.0022088963606
 30
0.0833333333333333
  0
VERTEX
  5
189
  8
COLLECTIONS
 10
606.83510586258365
 20
4485.0118323465394
 30
0.0833333333333333
  0
VERTEX
  5
18A
  8
COLLECTIONS
 10
606.83440640801928
 20
4485.0240820657118
 30
0.0833333333333333
  0
VERTEX
  5
18B
  8
COLLECTIONS
 10
606.82858739009089
 20
4485.0354461658371
 30
0.0833333333333333
  0
SEQEND
  5
18C
  8
COLLECTIONS
  0
POLYLINE
  5
76
  8
COLLECTIONS
 66
     1
 10
0.0
 20
0.0
 30
0.25
 70
     1
1001
IRD
1002
{
1000
TPMLINK_collections2-_-ade
1070
   515
1071
        2
1004
01008D0A0000F7010000F70100000000000084846597F559CF3F84846597F559CF3F8206000000000000
1002
}
1002
{
1000
TPMLINK_area-_-ade
1070
   515
1071
        3
1004
0100DF460000653500006535000000000000729D6497F559CF3F729D6497F559CF3FB939000000000000
1002
}
1002
{
1000
TPMLINK_area-_-ade
1070
   515
1071
        4
1004
0100921F0000E10B0000E10B000000000000F7A66497F559CF3FF7A66497F559CF3F561A000000000000
1002
}
1001
ADE
1011
0.0169326900435181
1021
0.0
1031
0.0
1021
-0.017329879375211
1031
0.0
1001
DCO15
1071
        7
1071
        7
1000
collections
1004
0730324233323400
  0
VERTEX
  5
18D
  8
COLLECTIONS
 10
606.30757935450936
 20
4485.1662675297875
 30
0.25
  0
VERTEX
  5
18E
  8
COLLECTIONS
 10
606.30383210534751
 20
4485.139863878695
 30
0.25
  0
VERTEX
  5
18F
  8
COLLECTIONS
 10
606.29138691745186
 20
4485.112158393953
 30
0.25
  0
VERTEX
  5
190
  8
COLLECTIONS
 10
606.33709065875121
 20
4485.1058686538026
 30
0.25
  0
VERTEX
  5
191
  8
COLLECTIONS
 10
606.35164750780325
 20
4485.0973342778652
 30
0.25
  0
VERTEX
  5
192
  8
COLLECTIONS
 10
606.35748912742645
 20
4485.1063553489521
 30
0.25
  0
VERTEX
  5
193
  8
COLLECTIONS
 10
606.36362329124563
 20
4485.126580950604
 30
0.25
  0
VERTEX
  5
194
  8
COLLECTIONS
 10
606.36648891458685
 20
4485.1387375875356
 30
0.25
  0
VERTEX
  5
195
  8
COLLECTIONS
 10
606.36940772778246
 20
4485.1529314118416
 30
0.25
  0
VERTEX
  5
196
  8
COLLECTIONS
 10
606.35179509766795
 20
4485.1615455725614
 30
0.25
  0
VERTEX
  5
197
  8
COLLECTIONS
 10
606.32527176940471
 20
4485.160709150131
 30
0.25
  0
VERTEX
  5
198
  8
COLLECTIONS
 10
606.31474940271175
 20
4485.1676092558318
 30
0.25
  0
SEQEND
  5
199
  8
COLLECTIONS
  0
POLYLINE
  5
77
  8
COLLECTIONS
 66
     1
 10
0.0
 20
0.0
 30
0.234375
 70
     1
1001
IRD
1002
{
1000
TPMLINK_collections2-_-ade
1070
   515
1071
        2
1004
01008E0A0000FC010000FC0100000000000057E95C31183ED83F57E95C31183ED83F8006000000000000
1002
}
1002
{
1000
TPMLINK_area-_-ade
1070
   515
1071
        3
1004
0100E04600006A3500006A3500000000000049825C31183ED83F49825C31183ED83FBB39000000000000
1002
}
1002
{
1000
TPMLINK_area-_-ade
1070
   515
1071
        4
1004
0100931F0000E60B0000E60B000000000000972C5C31183ED83F972C5C31183ED83F541A000000000000
1002
}
1001
ADE
1011
-0.049311993184233
1021
0.0
1031
0.0
1021
0.0139910128200427
1031
0.0
1001
DCO15
1071
        7
1071
        7
1000
collections
1004
0730324233323800
  0
VERTEX
  5
19A
  8
COLLECTIONS
 10
606.24202501600234
 20
4485.1149761384368
 30
0.234375
  0
VERTEX
  5
19B
  8
COLLECTIONS
 10
606.23755171734899
 20
4485.0998036128349
 30
0.234375
  0
VERTEX
  5
19C
  8
COLLECTIONS
 10
606.2311077186381
 20
4485.0872307613054
 30
0.234375
  0
VERTEX
  5
19D
  8
COLLECTIONS
 10
606.22163453379164
 20
4485.0757562882409
 30
0.234375
  0
VERTEX
  5
19E
  8
COLLECTIONS
 10
606.21588599641291
 20
4485.0703002950586
 30
0.234375
  0
VERTEX
  5
19F
  8
COLLECTIONS
 10
606.23023008604969
 20
4485.0536171696203
 30
0.234375
  0
VERTEX
  5
1A0
  8
COLLECTIONS
 10
606.24387871435442
 20
4485.0298171858312
 30
0.234375
  0
VERTEX
  5
1A1
  8
COLLECTIONS
 10
606.25874539829852
 20
4485.0136300597733
 30
0.234375
  0
VERTEX
  5
1A2
  8
COLLECTIONS
 10
606.27611867407074
 20
4484.9958485558655
 30
0.234375
  0
VERTEX
  5
1A3
  8
COLLECTIONS
 10
606.29087099184255
 20
4485.0143202101071
 30
0.234375
  0
VERTEX
  5
1A4
  8
COLLECTIONS
 10
606.29952504495327
 20
4485.0334607307523
 30
0.234375
  0
VERTEX
  5
1A5
  8
COLLECTIONS
 10
606.30862190759046
 20
4485.0500414697162
 30
0.234375
  0
VERTEX
  5
1A6
  8
COLLECTIONS
 10
606.32073465889948
 20
4485.0650145333666
 30
0.234375
  0
VERTEX
  5
1A7
  8
COLLECTIONS
 10
606.33330351719871
 20
4485.0779371121816
 30
0.234375
  0
VERTEX
  5
1A8
  8
COLLECTIONS
 10
606.34697075396525
 20
4485.0938888771298
 30
0.234375
  0
VERTEX
  5
1A9
  8
COLLECTIONS
 10
606.33492049674157
 20
4485.10082887522
 30
0.234375
  0
VERTEX
  5
1AA
  8
COLLECTIONS
 10
606.31005803364405
 20
4485.105045528835
 30
0.234375
  0
VERTEX
  5
1AB
  8
COLLECTIONS
 10
606.29279513081156
 20
4485.1075348299692
 30
0.234375
  0
VERTEX
  5
1AC
  8
COLLECTIONS
 10
606.26944726078204
 20
4485.1112022943489
 30
0.234375
  0
VERTEX
  5
1AD
  8
COLLECTIONS
 10
606.25419495039762
 20
4485.1126198119418
 30
0.234375
  0
SEQEND
  5
1AE
  8
COLLECTIONS
  0
POLYLINE
  5
78
  8
COLLECTIONS
 66
     1
 10
0.0
 20
0.0
 30
3.8216560509554132
 70
     1
1001
IRD
1002
{
1000
TPMLINK_collections2-_-ade
1070
   515
1071
        2
1004
01008F0A0000F5010000F5010000000000002AD63D08C7DACA3F2AD63D08C7DACA3F8106000000000000
1002
}
1002
{
1000
TPMLINK_area-_-ade
1070
   515
1071
        3
1004
0100E146000063350000633500000000000024153D08C7DACA3F24153D08C7DACA3FBA39000000000000
1002
}
1002
{
1000
TPMLINK_area-_-ade
1070
   515
1071
        4
1004
0100941F0000DF0B0000DF0B00000000000024153D08C7DACA3F24153D08C7DACA3F551A000000000000
1002
}
1001
ADE
1011
0.0028409268567202
1021
0.0
1031
0.0
1021
-0.0173358881420427
1031
0.0
1001
DCO15
1071
        7
1071
        7
1000
collections
1004
0730324233323500
  0
VERTEX
  5
1AF
  8
COLLECTIONS
 10
606.24805811111275
 20
4485.1703698172332
 30
3.8216560509554132
  0
VERTEX
  5
1B0
  8
COLLECTIONS
 10
606.24703021319408
 20
4485.1505205377916
 30
3.8216560509554132
  0
VERTEX
  5
1B1
  8
COLLECTIONS
 10
606.24314998939769
 20
4485.1190239182633
 30
3.8216560509554132
  0
VERTEX
  5
1B2
  8
COLLECTIONS
 10
606.2522907376574
 20
4485.1177659702307
 30
3.8216560509554132
  0
VERTEX
  5
1B3
  8
COLLECTIONS
 10
606.27050574685984
 20
4485.1127035899544
 30
3.8216560509554132
  0
VERTEX
  5
1B4
  8
COLLECTIONS
 10
606.28629394901475
 20
4485.1122913685867
 30
3.8216560509554132
  0
VERTEX
  5
1B5
  8
COLLECTIONS
 10
606.29375654141325
 20
4485.1248376251924
 30
3.8216560509554132
  0
VERTEX
  5
1B6
  8
COLLECTIONS
 10
606.29983751537827
 20
4485.1430260394673
 30
3.8216560509554132
  0
VERTEX
  5
1B7
  8
COLLECTIONS
 10
606.3027829235009
 20
4485.1582384574613
 30
3.8216560509554132
  0
VERTEX
  5
1B8
  8
COLLECTIONS
 10
606.30402757406716
 20
4485.1668699088759
 30
3.8216560509554132
  0
VERTEX
  5
1B9
  8
COLLECTIONS
 10
606.28983374976053
 20
4485.1697887220716
 30
3.8216560509554132
  0
VERTEX
  5
1BA
  8
COLLECTIONS
 10
606.26946187601197
 20
4485.1703206206112
 30
3.8216560509554132
  0
SEQEND
  5
1BB
  8
COLLECTIONS
  0
POLYLINE
  5
79
  8
COLLECTIONS
 66
     1
 10
0.0
 20
0.0
 30
0.25
 70
     1
1001
IRD
1002
{
1000
TPMLINK_area-_-ade
1070
   515
1071
        1
1004
0100704C0000832B0000832B0000000000003DF0A8715BA1CA3F3DF0A8715BA1CA3F00000000453F0000
1002
}
1002
{
1000
TPMLINK_area-_-ade
1070
   515
1071
        2
1004
0100F82400001101000011010000000000003DF0A8715BA1CA3F3DF0A8715BA1CA3F000000006A140000
1002
}
1001
ADE
1011
-0.0087626165587835
1021
0.0
1031
0.0
1021
-0.0030971292690083
1031
0.0
1001
DCO15
1071
       12
1071
       12
1000
collections
1004
0730344136313500
  0
VERTEX
  5
1BC
  8
COLLECTIONS
 10
634.00791944943785
 20
4501.2541561991093
 30
0.25
  0
VERTEX
  5
1BD
  8
COLLECTIONS
 10
633.95918323104866
 20
4501.249785242193
 30
0.25
  0
VERTEX
  5
1BE
  8
COLLECTIONS
 10
633.9442260220419
 20
4501.2441162487949
 30
0.25
  0
VERTEX
  5
1BF
  8
COLLECTIONS
 10
633.94036089640815
 20
4501.2546894114166
 30
0.25
  0
VERTEX
  5
1C0
  8
COLLECTIONS
 10
633.9429437463441
 20
4501.2711916288627
 30
0.25
  0
VERTEX
  5
1C1
  8
COLLECTIONS
 10
633.94552672984605
 20
4501.288209561475
 30
0.25
  0
VERTEX
  5
1C2
  8
COLLECTIONS
 10
633.95326546255365
 20
4501.2998111491906
 30
0.25
  0
VERTEX
  5
1C3
  8
COLLECTIONS
 10
633.9646127989721
 20
4501.3059967927202
 30
0.25
  0
VERTEX
  5
1C4
  8
COLLECTIONS
 10
633.98240330258466
 20
4501.2995457451334
 30
0.25
  0
VERTEX
  5
1C5
  8
COLLECTIONS
 10
633.99090933043806
 20
4501.2869085197563
 30
0.25
  0
VERTEX
  5
1C6
  8
COLLECTIONS
 10
633.99941408941447
 20
4501.2693720003117
 30
0.25
  0
SEQEND
  5
1C7
  8
COLLECTIONS
  0
POLYLINE
  5
7A
  8
COLLECTIONS
 66
     1
 10
0.0
 20
0.0
 30
0.1666666666666666
 70
     1
1001
IRD
1002
{
1000
TPMLINK_area-_-ade
1070
   515
1071
        1
1004
0100904C0000C32B0000C32B000000000000BFD54F7C7E3FC23FBFD54F7C7E3FC23F6E3F000000000000
1002
}
1002
{
1000
TPMLINK_area-_-ade
1070
   515
1071
        2
1004
0100182500005D0100005D0100000000000017C24F7C7E3FC23F17C24F7C7E3FC23F3714000000000000
1002
}
1001
ADE
1011
-0.009930421983654
1021
0.0
1031
0.0
1021
0.0016725347877582
1031
0.0
1001
DCO15
1071
       12
1071
       12
1000
collections
1004
0730344236383800
  0
VERTEX
  5
1C8
  8
COLLECTIONS
 10
632.85853367173161
 20
4500.8122280970529
 30
0.1666666666666666
  0
VERTEX
  5
1C9
  8
COLLECTIONS
 10
632.89979101848564
 20
4500.8127331269397
 30
0.1666666666666666
  0
VERTEX
  5
1CA
  8
COLLECTIONS
 10
632.90572828761435
 20
4500.8380016340088
 30
0.1666666666666666
  0
VERTEX
  5
1CB
  8
COLLECTIONS
 10
632.85699340488566
 20
4500.8387878287431
 30
0.1666666666666666
  0
SEQEND
  5
1CC
  8
COLLECTIONS
  0
POLYLINE
  5
7B
  8
COLLECTIONS
 66
     1
 10
0.0
 20
0.0
 30
0.25
 70
     1
1001
IRD
1002
{
1000
TPMLINK_area-_-ade
1070
   515
1071
        1
1004
01009B4C00000B2C00000B2C00000000000023E563F4DB28CB3F23E563F4DB28CB3F00000000623F0000
1002
}
1002
{
1000
TPMLINK_area-_-ade
1070
   515
1071
        2
1004
010023250000AD010000AD0100000000000023E563F4DB28CB3F23E563F4DB28CB3F0000000044140000
1002
}
1001
ADE
1011
-0.0065737321687038
1021
0.0
1031
0.0
1021
0.0028388042028382
1031
0.0
1001
DCO15
1071
       12
1071
       12
1000
collections
1004
0730344237363700
  0
VERTEX
  5
1CD
  8
COLLECTIONS
 10
632.69597520635295
 20
4500.3945408868112
 30
0.25
  0
VERTEX
  5
1CE
  8
COLLECTIONS
 10
632.7119504223075
 20
4500.3483802390092
 30
0.25
  0
VERTEX
  5
1CF
  8
COLLECTIONS
 10
632.66423949021203
 20
4500.3202861173777
 30
0.25
  0
VERTEX
  5
1D0
  8
COLLECTIONS
 10
632.64310531946842
 20
4500.3594859461136
 30
0.25
  0
SEQEND
  5
1D1
  8
COLLECTIONS
  0
POLYLINE
  5
7C
  8
COLLECTIONS
 66
     1
 10
0.0
 20
0.0
 30
0.25
 70
     1
1001
IRD
1002
{
1000
TPMLINK_area-_-ade
1070
   515
1071
        1
1004
01009F4C0000172C0000172C0000000000006CA35481DBFBCC3F6CA35481DBFBCC3F00000000723F0000
1002
}
1002
{
1000
TPMLINK_area-_-ade
1070
   515
1071
        2
1004
010027250000BB010000BB010000000000006CA35481DBFBCC3F6CA35481DBFBCC3F0000000033140000
1002
}
1001
ADE
1011
-0.0198183310089917
1021
0.0
1031
0.0
1021
-0.0212686759177814
1031
0.0
1001
DCO15
1071
       12
1071
       12
1000
collections
1004
0730344139343700
  0
VERTEX
  5
1D2
  8
COLLECTIONS
 10
632.26223197273225
 20
4500.2912523252526
 30
0.25
  0
VERTEX
  5
1D3
  8
COLLECTIONS
 10
632.32438560076275
 20
4500.329657010333
 30
0.25
  0
VERTEX
  5
1D4
  8
COLLECTIONS
 10
632.34878963226436
 20
4500.2976755119362
 30
0.25
  0
VERTEX
  5
1D5
  8
COLLECTIONS
 10
632.28233685020155
 20
4500.2603042062892
 30
0.25
  0
SEQEND
  5
1D6
  8
COLLECTIONS
  0
POLYLINE
  5
7D
  8
COLLECTIONS
 66
     1
 10
0.0
 20
0.0
 30
0.25
 70
     1
1001
IRD
1002
{
1000
TPMLINK_area-_-ade
1070
   515
1071
        1
1004
0100A04C0000132C0000132C000000000000755CA605A96FD13F755CA605A96FD13F00000000733F0000
1002
}
1002
{
1000
TPMLINK_area-_-ade
1070
   515
1071
        2
1004
010028250000B7010000B7010000000000000D07A605A96FD13F0D07A605A96FD13F0000000032140000
1002
}
1001
ADE
1011
-0.0181854041201177
1021
0.0
1031
0.0
1021
-0.0246205907460535
1031
0.0
1001
DCO15
1071
       12
1071
       12
1000
collections
1004
0730344139343800
  0
VERTEX
  5
1D7
  8
COLLECTIONS
 10
632.21917944000165
 20
4500.3286528274693
 30
0.25
  0
VERTEX
  5
1D8
  8
COLLECTIONS
 10
632.2901016282774
 20
4500.3724702511527
 30
0.25
  0
VERTEX
  5
1D9
  8
COLLECTIONS
 10
632.32103351897445
 20
4500.3299157360952
 30
0.25
  0
VERTEX
  5
1DA
  8
COLLECTIONS
 10
632.25088476987935
 20
4500.285582396893
 30
0.25
  0
SEQEND
  5
1DB
  8
COLLECTIONS
  0
POLYLINE
  5
7E
  8
COLLECTIONS
 66
     1
 10
0.0
 20
0.0
 30
0.1666666666666666
 70
     1
1001
IRD
1002
{
1000
TPMLINK_area-_-ade
1070
   515
1071
        1
1004
0100A14C00000D2C00000D2C000000000000EF3BB3CC2B03CE3FEF3BB3CC2B03CE3F00000000743F0000
1002
}
1002
{
1000
TPMLINK_area-_-ade
1070
   515
1071
        2
1004
010029250000B1010000B101000000000000EF3BB3CC2B03CE3FEF3BB3CC2B03CE3F0000000031140000
1002
}
1001
ADE
1011
-0.0272093843684616
1021
0.0
1031
0.0
1021
-0.0226840543391518
1031
0.0
1001
DCO15
1071
       12
1071
       12
1000
collections
1004
0730344139343900
  0
VERTEX
  5
1DC
  8
COLLECTIONS
 10
632.1972688916245
 20
4500.3570228380877
 30
0.1666666666666666
  0
VERTEX
  5
1DD
  8
COLLECTIONS
 10
632.27051213205675
 20
4500.4021289486409
 30
0.1666666666666666
  0
VERTEX
  5
1DE
  8
COLLECTIONS
 10
632.28881260749711
 20
4500.3735020153981
 30
0.1666666666666666
  0
VERTEX
  5
1DF
  8
COLLECTIONS
 10
632.21840673543295
 20
4500.332005176384
 30
0.1666666666666666
  0
SEQEND
  5
1E0
  8
COLLECTIONS
  0
POLYLINE
  5
7F
  8
COLLECTIONS
 66
     1
 10
0.0
 20
0.0
 30
0.0192307692307692
 70
     1
1001
IRD
1002
{
1000
TPMLINK_area-_-ade
1070
   515
1071
        1
1004
010020500000BD310000BD31000000000000C7462A125629D03FC7462A125629D03F6D43000000000000
1002
}
1002
{
1000
TPMLINK_area-_-ade
1070
   515
1071
        2
1004
0100A8280000FE070000FE07000000000000573D2A125629D03F573D2A125629D03FD30F000000000000
1002
}
1001
ADE
1011
-0.0172815892275367
1021
0.0
1031
0.0
1021
-0.0265554278912532
1031
0.0
1001
DCO15
1071
       12
1071
       12
1000
collections
1004
0730344233363800
  0
VERTEX
  5
1E1
  8
COLLECTIONS
 10
633.8441879294495
 20
4494.0638240272738
 30
0.0192307692307692
  0
VERTEX
  5
1E2
  8
COLLECTIONS
 10
633.77789204505928
 20
4494.0283699775546
 30
0.0192307692307692
  0
VERTEX
  5
1E3
  8
COLLECTIONS
 10
633.80080561883517
 20
4493.9786187711807
 30
0.0192307692307692
  0
VERTEX
  5
1E4
  8
COLLECTIONS
 10
633.86087074259217
 20
4494.0132945402793
 30
0.0192307692307692
  0
SEQEND
  5
1E5
  8
COLLECTIONS
  0
POLYLINE
  5
80
  8
COLLECTIONS
 66
     1
 10
0.0
 20
0.0
 30
0.05
 70
     1
1001
IRD
1002
{
1000
TPMLINK_area-_-ade
1070
   515
1071
        1
1004
01009E5000008131000081310000000000002A3641FB4E7EC93F2A3641FB4E7EC93F000000007E430000
1002
}
1002
{
1000
TPMLINK_area-_-ade
1070
   515
1071
        2
1004
010026290000C1070000C1070000000000002AE541FB4E7EC93F2AE541FB4E7EC93F00000000BF0F0000
1002
}
1001
ADE
1011
-0.0293979122371866
1021
0.0
1031
0.0
1021
-0.0131653870830633
1031
0.0
1001
DCO15
1071
       12
1071
       12
1000
collections
1004
0730344233323200
  0
VERTEX
  5
1E6
  8
COLLECTIONS
 10
633.40001251498552
 20
4494.1933056858652
 30
0.05
  0
VERTEX
  5
1E7
  8
COLLECTIONS
 10
633.40258210522779
 20
4494.1765602489686
 30
0.05
  0
VERTEX
  5
1E8
  8
COLLECTIONS
 10
633.32653448329211
 20
4494.1464036744119
 30
0.05
  0
VERTEX
  5
1E9
  8
COLLECTIONS
 10
633.32537990941159
 20
4494.167975979637
 30
0.05
  0
SEQEND
  5
1EA
  8
COLLECTIONS
  0
POLYLINE
  5
81
  8
COLLECTIONS
 66
     1
 10
0.0
 20
0.0
 30
0.1666666666666666
 70
     1
1001
IRD
1002
{
1000
TPMLINK_area-_-ade
1070
   515
1071
        1
1004
01007A4B0000C12A0000C12A0000000000000B3EAC42F4B4CC3F0B3EAC42F4B4CC3F000000003D3E0000
1002
}
1002
{
1000
TPMLINK_area-_-ade
1070
   515
1071
        2
1004
0100022400003B0000003B000000000000000B3EAC42F4B4CC3F0B3EAC42F4B4CC3F000000008C150000
1002
}
1001
ADE
1011
0.0108863754600179
1021
0.0
1031
0.0
1021
-0.0162300248057363
1031
0.0
1001
DCO15
1071
       12
1071
       12
1000
collections
1004
0730344134303500
  0
VERTEX
  5
1EB
  8
COLLECTIONS
 10
637.05103564496847
 20
4503.026851985639
 30
0.1666666666666666
  0
VERTEX
  5
1EC
  8
COLLECTIONS
 10
637.03676611218873
 20
4503.0195947406946
 30
0.1666666666666666
  0
VERTEX
  5
1ED
  8
COLLECTIONS
 10
637.03088225297824
 20
4503.0047463702804
 30
0.1666666666666666
  0
VERTEX
  5
1EE
  8
COLLECTIONS
 10
637.02352201435292
 20
4502.9945547839288
 30
0.1666666666666666
  0
VERTEX
  5
1EF
  8
COLLECTIONS
 10
636.96853980658648
 20
4503.037852820773
 30
0.1666666666666666
  0
VERTEX
  5
1F0
  8
COLLECTIONS
 10
636.98569870467963
 20
4503.066440103461
 30
0.1666666666666666
  0
SEQEND
  5
1F1
  8
COLLECTIONS
  0
POLYLINE
  5
82
  8
COLLECTIONS
 66
     1
 10
0.0
 20
0.0
 30
0.0833333333333333
 70
     1
1001
IRD
1002
{
1000
TPMLINK_area-_-ade
1070
   515
1071
        1
1004
01008E4B0000CD2A0000CD2A000000000000508986B49ECCC83F508986B49ECCC83F4B3E000000000000
1002
}
1002
{
1000
TPMLINK_area-_-ade
1070
   515
1071
        2
1004
010016240000470000004700000000000000508986B49ECCC83F508986B49ECCC83F7E15000000000000
1002
}
1001
ADE
1011
-0.0247657143374909
1021
0.0
1031
0.0
1021
0.0071412871348002
1031
0.0
1001
DCO15
1071
       12
1071
       12
1000
collections
1004
0730344134303400
  0
VERTEX
  5
1F2
  8
COLLECTIONS
 10
636.93487562384087
 20
4502.9376658819592
 30
0.0833333333333333
  0
VERTEX
  5
1F3
  8
COLLECTIONS
 10
636.97797581457826
 20
4502.9617508324254
 30
0.0833333333333333
  0
VERTEX
  5
1F4
  8
COLLECTIONS
 10
636.96306025655133
 20
4502.9980208519801
 30
0.0833333333333333
  0
VERTEX
  5
1F5
  8
COLLECTIONS
 10
636.90893164323245
 20
4502.9769309484764
 30
0.0833333333333333
  0
SEQEND
  5
1F6
  8
COLLECTIONS
  0
POLYLINE
  5
83
  8
COLLECTIONS
 66
     1
 10
0.0
 20
0.0
 30
0.25
 70
     1
1001
IRD
1002
{
1000
TPMLINK_area-_-ade
1070
   515
1071
        1
1004
01009A4B0000C62A0000C62A000000000000A74E85F3B4DDC93FA74E85F3B4DDC93F000000006B3E0000
1002
}
1002
{
1000
TPMLINK_area-_-ade
1070
   515
1071
        2
1004
010022240000400000004000000000000000A74E85F3B4DDC93FA74E85F3B4DDC93F000000005D150000
1002
}
1001
ADE
1011
-0.0206026565033426
1021
0.0
1031
0.0
1021
0.0219969373447384
1031
0.0
1001
DCO15
1071
       12
1071
       12
1000
collections
1004
0730344134373100
  0
VERTEX
  5
1F7
  8
COLLECTIONS
 10
636.31965456210139
 20
4503.0041555084272
 30
0.25
  0
VERTEX
  5
1F8
  8
COLLECTIONS
 10
636.32237967511355
 20
4502.9793952087002
 30
0.25
  0
VERTEX
  5
1F9
  8
COLLECTIONS
 10
636.32130760487439
 20
4502.9590683943807
 30
0.25
  0
VERTEX
  5
1FA
  8
COLLECTIONS
 10
636.27142711927911
 20
4502.9466709332328
 30
0.25
  0
VERTEX
  5
1FB
  8
COLLECTIONS
 10
636.26809716301875
 20
4503.0002803083362
 30
0.25
  0
SEQEND
  5
1FC
  8
COLLECTIONS
  0
POLYLINE
  5
84
  8
COLLECTIONS
 66
     1
 10
0.0
 20
0.0
 30
0.2142857142857143
 70
     1
1001
IRD
1002
{
1000
TPMLINK_area-_-ade
1070
   515
1071
        1
1004
01009B4B0000B82A0000B82A0000000000005379CD619339C83F5379CD619339C83F7D3E000000000000
1002
}
1002
{
1000
TPMLINK_area-_-ade
1070
   515
1071
        2
1004
0100232400003200000032000000000000005379CD619339C83F5379CD619339C83F4B15000000000000
1002
}
1001
ADE
1011
-0.0142847091675549
1021
0.0
1031
0.0
1021
-0.0066174252197015
1031
0.0
1001
DCO15
1071
       12
1071
       12
1000
collections
1004
0730344134313500
  0
VERTEX
  5
1FD
  8
COLLECTIONS
 10
636.69448339096675
 20
4503.1026620606217
 30
0.2142857142857143
  0
VERTEX
  5
1FE
  8
COLLECTIONS
 10
636.75040708784479
 20
4503.1407206043068
 30
0.2142857142857143
  0
VERTEX
  5
1FF
  8
COLLECTIONS
 10
636.7355440941086
 20
4503.1630847713204
 30
0.2142857142857143
  0
VERTEX
  5
200
  8
COLLECTIONS
 10
636.68018461154429
 20
4503.1283654312892
 30
0.2142857142857143
  0
SEQEND
  5
201
  8
COLLECTIONS
  0
POLYLINE
  5
85
  8
COLLECTIONS
 66
     1
 10
0.0
 20
0.0
 30
0.2
 70
     1
1001
IRD
1002
{
1000
TPMLINK_area-_-ade
1070
   515
1071
        1
1004
01009C4B0000BB2A0000BB2A00000000000081739D1D6C4DCE3F81739D1D6C4DCE3F7C3E000000000000
1002
}
1002
{
1000
TPMLINK_area-_-ade
1070
   515
1071
        2
1004
01002424000035000000350000000000000081739D1D6C4DCE3F81739D1D6C4DCE3F4C15000000000000
1002
}
1001
ADE
1011
-0.0144340229308
1021
0.0
1031
0.0
1021
-0.0044348293922667
1031
0.0
1001
DCO15
1071
       12
1071
       12
1000
collections
1004
0730344134313200
  0
VERTEX
  5
202
  8
COLLECTIONS
 10
636.71304871553116
 20
4503.0694282700297
 30
0.2
  0
VERTEX
  5
203
  8
COLLECTIONS
 10
636.790511125487
 20
4503.1187569523681
 30
0.2
  0
VERTEX
  5
204
  8
COLLECTIONS
 10
636.7735961557313
 20
4503.1416663632144
 30
0.2
  0
VERTEX
  5
205
  8
COLLECTIONS
 10
636.69783342384414
 20
4503.0853600929777
 30
0.2
  0
SEQEND
  5
206
  8
COLLECTIONS
  0
POLYLINE
  5
86
  8
COLLECTIONS
 66
     1
 10
0.0
 20
0.0
 30
0.25
 70
     1
1001
IRD
1002
{
1000
TPMLINK_area-_-ade
1070
   515
1071
        1
1004
01009D4B0000BD2A0000BD2A000000000000006F42AB7EB2CC3F006F42AB7EB2CC3F7B3E000000000000
1002
}
1002
{
1000
TPMLINK_area-_-ade
1070
   515
1071
        2
1004
0100252400003700000037000000000000005CA042AB7EB2CC3F5CA042AB7EB2CC3F4D15000000000000
1002
}
1001
ADE
1011
0.0001363109574868
1021
0.0
1031
0.0
1021
-0.0019384296438147
1031
0.0
1001
DCO15
1071
       12
1071
       12
1000
collections
1004
0730344134303900
  0
VERTEX
  5
207
  8
COLLECTIONS
 10
636.73142109421735
 20
4503.0405748474923
 30
0.25
  0
VERTEX
  5
208
  8
COLLECTIONS
 10
636.80701688583804
 20
4503.0855535145511
 30
0.25
  0
VERTEX
  5
209
  8
COLLECTIONS
 10
636.79576571766938
 20
4503.1083794552651
 30
0.25
  0
VERTEX
  5
20A
  8
COLLECTIONS
 10
636.72087017478611
 20
4503.0584979409041
 30
0.25
  0
SEQEND
  5
20B
  8
COLLECTIONS
  0
POLYLINE
  5
87
  8
COLLECTIONS
 66
     1
 10
0.0
 20
0.0
 30
0.125
 70
     1
1001
IRD
1002
{
1000
TPMLINK_area-_-ade
1070
   515
1071
        1
1004
01009E4B0000BE2A0000BE2A00000000000033C3778B1230CB3F33C3778B1230CB3F000000004A3E0000
1002
}
1002
{
1000
TPMLINK_area-_-ade
1070
   515
1071
        2
1004
01002624000038000000380000000000000033C3778B1230CB3F33C3778B1230CB3F000000007F150000
1002
}
1001
ADE
1011
-0.006487081942737
1021
0.0
1031
0.0
1021
0.006824480038631
1031
0.0
1001
DCO15
1071
       12
1071
       12
1000
collections
1004
0730344134303600
  0
VERTEX
  5
20C
  8
COLLECTIONS
 10
636.86939672013352
 20
4503.0375114294166
 30
0.125
  0
VERTEX
  5
20D
  8
COLLECTIONS
 10
636.9127277977193
 20
4503.0597904671013
 30
0.125
  0
VERTEX
  5
20E
  8
COLLECTIONS
 10
636.95022268015555
 20
4503.0180376564804
 30
0.125
  0
VERTEX
  5
20F
  8
COLLECTIONS
 10
636.91148388698389
 20
4502.9928584242562
 30
0.125
  0
SEQEND
  5
210
  8
COLLECTIONS
  0
POLYLINE
  5
88
  8
COLLECTIONS
 66
     1
 10
0.0
 20
0.0
 30
0.1590909090909091
 70
     1
1001
IRD
1002
{
1000
TPMLINK_area-_-ade
1070
   515
1071
        1
1004
01009F4B0000C82A0000C82A000000000000AE9A482AF1F0D03FAE9A482AF1F0D03F7A3E000000000000
1002
}
1002
{
1000
TPMLINK_area-_-ade
1070
   515
1071
        2
1004
010027240000420000004200000000000000AE9A482AF1F0D03FAE9A482AF1F0D03F4E15000000000000
1002
}
1001
ADE
1011
-0.0048730475883758
1021
0.0
1031
0.0
1021
-0.0081986953664455
1031
0.0
1001
DCO15
1071
       12
1071
       12
1000
collections
1004
0730344134303700
  0
VERTEX
  5
211
  8
COLLECTIONS
 10
636.74297413094359
 20
4502.9858142791772
 30
0.1590909090909091
  0
VERTEX
  5
212
  8
COLLECTIONS
 10
636.82539195248853
 20
4503.0219373577183
 30
0.1590909090909091
  0
VERTEX
  5
213
  8
COLLECTIONS
 10
636.81898292606627
 20
4503.0413444187379
 30
0.1590909090909091
  0
VERTEX
  5
214
  8
COLLECTIONS
 10
636.80759896450411
 20
4503.0551597660178
 30
0.1590909090909091
  0
VERTEX
  5
215
  8
COLLECTIONS
 10
636.79170563559444
 20
4503.0600290195071
 30
0.1590909090909091
  0
VERTEX
  5
216
  8
COLLECTIONS
 10
636.76950082065139
 20
4503.0559787378934
 30
0.1590909090909091
  0
VERTEX
  5
217
  8
COLLECTIONS
 10
636.74488414354425
 20
4503.0455264649836
 30
0.1590909090909091
  0
VERTEX
  5
218
  8
COLLECTIONS
 10
636.730894820873
 20
4503.0398100991024
 30
0.1590909090909091
  0
SEQEND
  5
219
  8
COLLECTIONS
  0
POLYLINE
  5
89
  8
COLLECTIONS
 66
     1
 10
0.0
 20
0.0
 30
0.1666666666666666
 70
     1
1001
IRD
1002
{
1000
TPMLINK_area-_-ade
1070
   515
1071
        1
1004
0100A04B0000BC2A0000BC2A000000000000262B666174F6C53F262B666174F6C53F000000007E3E0000
1002
}
1002
{
1000
TPMLINK_area-_-ade
1070
   515
1071
        2
1004
0100282400003600000036000000000000008CED666174F6C53F8CED666174F6C53F000000004A150000
1002
}
1001
ADE
1011
0.0001344139089952
1021
0.0
1031
0.0
1021
0.0039863350330052
1031
0.0
1001
DCO15
1071
       12
1071
       12
1000
collections
1004
0730344134313400
  0
VERTEX
  5
21A
  8
COLLECTIONS
 10
636.63282380465955
 20
4503.059795522061
 30
0.1666666666666666
  0
VERTEX
  5
21B
  8
COLLECTIONS
 10
636.62736488430801
 20
4503.0737810506334
 30
0.1666666666666666
  0
VERTEX
  5
21C
  8
COLLECTIONS
 10
636.61876350027921
 20
4503.084207871002
 30
0.1666666666666666
  0
VERTEX
  5
21D
  8
COLLECTIONS
 10
636.60874209522285
 20
4503.0856430684153
 30
0.1666666666666666
  0
VERTEX
  5
21E
  8
COLLECTIONS
 10
636.60284740678799
 20
4503.087532451329
 30
0.1666666666666666
  0
VERTEX
  5
21F
  8
COLLECTIONS
 10
636.62011198653011
 20
4503.1058181188564
 30
0.1666666666666666
  0
VERTEX
  5
220
  8
COLLECTIONS
 10
636.63217777941145
 20
4503.1033227865601
 30
0.1666666666666666
  0
VERTEX
  5
221
  8
COLLECTIONS
 10
636.64762071691575
 20
4503.1028376952117
 30
0.1666666666666666
  0
VERTEX
  5
222
  8
COLLECTIONS
 10
636.66097753152815
 20
4503.1005808379578
 30
0.1666666666666666
  0
VERTEX
  5
223
  8
COLLECTIONS
 10
636.665240282573
 20
4503.0927929725103
 30
0.1666666666666666
  0
VERTEX
  5
224
  8
COLLECTIONS
 10
636.66796215455452
 20
4503.0852853171691
 30
0.1666666666666666
  0
SEQEND
  5
225
  8
COLLECTIONS
  0
POLYLINE
  5
8A
  8
COLLECTIONS
 66
     1
 10
0.0
 20
0.0
 30
0.2142857142857143
 70
     1
1001
IRD
1002
{
1000
TPMLINK_area-_-ade
1070
   515
1071
        1
1004
0100A14B0000C52A0000C52A000000000000D5F4EDE87D79C73FD5F4EDE87D79C73F793E000000000000
1002
}
1002
{
1000
TPMLINK_area-_-ade
1070
   515
1071
        2
1004
0100292400003F0000003F00000000000000D5F4EDE87D79C73FD5F4EDE87D79C73F4F15000000000000
1002
}
1001
ADE
1011
-0.0064930496214402
1021
0.0
1031
0.0
1021
0.0005151675859452
1031
0.0
1001
DCO15
1071
       12
1071
       12
1000
collections
1004
0730344134313300
  0
VERTEX
  5
226
  8
COLLECTIONS
 10
636.66321589399752
 20
4503.0078473309941
 30
0.2142857142857143
  0
VERTEX
  5
227
  8
COLLECTIONS
 10
636.67751633261912
 20
4503.0346742300599
 30
0.2142857142857143
  0
VERTEX
  5
228
  8
COLLECTIONS
 10
636.69777540625716
 20
4503.0464782302533
 30
0.2142857142857143
  0
VERTEX
  5
229
  8
COLLECTIONS
 10
636.67604105933663
 20
4503.0743511939454
 30
0.2142857142857143
  0
VERTEX
  5
22A
  8
COLLECTIONS
 10
636.63697273279604
 20
4503.0442842908142
 30
0.2142857142857143
  0
SEQEND
  5
22B
  8
COLLECTIONS
  0
POLYLINE
  5
8B
  8
COLLECTIONS
 66
     1
 10
0.0
 20
0.0
 30
0.0681818181818182
 70
     1
1001
IRD
1002
{
1000
TPMLINK_area-_-ade
1070
   515
1071
        1
1004
0100A64B0000DE2A0000DE2A00000000000050114438CC0FC53F50114438CC0FC53F00000000743E0000
1002
}
1002
{
1000
TPMLINK_area-_-ade
1070
   515
1071
        2
1004
01002E24000058000000580000000000000050114438CC0FC53F50114438CC0FC53F0000000054150000
1002
}
1001
ADE
1011
0.0100804900914682
1021
0.0
1031
0.0
1021
0.008482146510687
1031
0.0
1001
DCO15
1071
       12
1071
       12
1000
collections
1004
0730344133383900
  0
VERTEX
  5
22C
  8
COLLECTIONS
 10
636.65990957635006
 20
4502.7310820075127
 30
0.0681818181818182
  0
VERTEX
  5
22D
  8
COLLECTIONS
 10
636.63942451609319
 20
4502.7563615454574
 30
0.0681818181818182
  0
VERTEX
  5
22E
  8
COLLECTIONS
 10
636.67698231634631
 20
4502.788768222912
 30
0.0681818181818182
  0
VERTEX
  5
22F
  8
COLLECTIONS
 10
636.69686901541706
 20
4502.757832471576
 30
0.0681818181818182
  0
SEQEND
  5
230
  8
COLLECTIONS
  0
POLYLINE
  5
8C
  8
COLLECTIONS
 66
     1
 10
0.0
 20
0.0
 30
0.025
 70
     1
1001
IRD
1002
{
1000
TPMLINK_area-_-ade
1070
   515
1071
        1
1004
0100AA4B0000DC2A0000DC2A00000000000099F56D3339CFD03F99F56D3339CFD03F00000000753E0000
1002
}
1002
{
1000
TPMLINK_area-_-ade
1070
   515
1071
        2
1004
01003224000056000000560000000000000099F56D3339CFD03F99F56D3339CFD03F0000000053150000
1002
}
1001
ADE
1011
0.0181092806974448
1021
0.0
1031
0.0
1021
0.0342678811794031
1031
0.0
1001
DCO15
1071
       12
1071
       12
1000
collections
1004
0730344133383800
  0
VERTEX
  5
231
  8
COLLECTIONS
 10
636.5940387745236
 20
4502.7693904859007
 30
0.025
  0
VERTEX
  5
232
  8
COLLECTIONS
 10
636.65466154359638
 20
4502.829267399703
 30
0.025
  0
VERTEX
  5
233
  8
COLLECTIONS
 10
636.68905245639121
 20
4502.8040404260519
 30
0.025
  0
VERTEX
  5
234
  8
COLLECTIONS
 10
636.61497043208885
 20
4502.7394693402839
 30
0.025
  0
SEQEND
  5
235
  8
COLLECTIONS
  0
POLYLINE
  5
8D
  8
COLLECTIONS
 66
     1
 10
0.0
 20
0.0
 30
0.0588235294117647
 70
     1
1001
IRD
1002
{
1000
TPMLINK_area-_-ade
1070
   515
1071
        1
1004
0100AB4B0000DA2A0000DA2A00000000000048C08C66A2B2D73F48C08C66A2B2D73F763E000000000000
1002
}
1002
{
1000
TPMLINK_area-_-ade
1070
   515
1071
        2
1004
010033240000540000005400000000000000BCAC8C66A2B2D73FBCAC8C66A2B2D73F5215000000000000
1002
}
1001
ADE
1011
0.0085181904291858
1021
0.0
1031
0.0
1021
0.0015010410434115
1031
0.0
1001
DCO15
1071
       12
1071
       12
1000
collections
1004
0730344133383400
  0
VERTEX
  5
236
  8
COLLECTIONS
 10
636.53409625493828
 20
4502.7906165011973
 30
0.0588235294117647
  0
VERTEX
  5
237
  8
COLLECTIONS
 10
636.53192286781643
 20
4502.782923488171
 30
0.0588235294117647
  0
VERTEX
  5
238
  8
COLLECTIONS
 10
636.54170579783045
 20
4502.7827793124889
 30
0.0588235294117647
  0
VERTEX
  5
239
  8
COLLECTIONS
 10
636.55409353588675
 20
4502.7846567600454
 30
0.0588235294117647
  0
VERTEX
  5
23A
  8
COLLECTIONS
 10
636.5622179698322
 20
4502.7768119831408
 30
0.0588235294117647
  0
VERTEX
  5
23B
  8
COLLECTIONS
 10
636.56230847509289
 20
4502.765480585872
 30
0.0588235294117647
  0
VERTEX
  5
23C
  8
COLLECTIONS
 10
636.55434228708646
 20
4502.7491178950704
 30
0.0588235294117647
  0
VERTEX
  5
23D
  8
COLLECTIONS
 10
636.54855328030033
 20
4502.7407056628263
 30
0.0588235294117647
  0
VERTEX
  5
23E
  8
COLLECTIONS
 10
636.55929769867589
 20
4502.735912291274
 30
0.0588235294117647
  0
VERTEX
  5
23F
  8
COLLECTIONS
 10
636.64716147644992
 20
4502.8270604187755
 30
0.0588235294117647
  0
VERTEX
  5
240
  8
COLLECTIONS
 10
636.63085625017106
 20
4502.8563983795939
 30
0.0588235294117647
  0
SEQEND
  5
241
  8
COLLECTIONS
  0
POLYLINE
  5
8E
  8
COLLECTIONS
 66
     1
 10
0.0
 20
0.0
 30
0.25
 70
     1
1001
IRD
1002
{
1000
TPMLINK_area-_-ade
1070
   515
1071
        1
1004
0100AC4B0000E22A0000E22A000000000000FC5A99883685CF3FFC5A99883685CF3F00000000703E0000
1002
}
1002
{
1000
TPMLINK_area-_-ade
1070
   515
1071
        2
1004
0100342400005C0000005C00000000000000DA189A883685CF3FDA189A883685CF3F0000000058150000
1002
}
1001
ADE
1011
0.0042386424810275
1021
0.0
1031
0.0
1021
0.0066407428712409
1031
0.0
1001
DCO15
1071
       12
1071
       12
1000
collections
1004
0730344133383300
  0
VERTEX
  5
242
  8
COLLECTIONS
 10
636.47552490881878
 20
4502.71268425365
 30
0.25
  0
VERTEX
  5
243
  8
COLLECTIONS
 10
636.52926873651313
 20
4502.7775550730794
 30
0.25
  0
VERTEX
  5
244
  8
COLLECTIONS
 10
636.54244778163479
 20
4502.7807083659809
 30
0.25
  0
VERTEX
  5
245
  8
COLLECTIONS
 10
636.55276077908991
 20
4502.7815863842106
 30
0.25
  0
VERTEX
  5
246
  8
COLLECTIONS
 10
636.55909068254232
 20
4502.7742830570378
 30
0.25
  0
VERTEX
  5
247
  8
COLLECTIONS
 10
636.55971504934132
 20
4502.7642312992084
 30
0.25
  0
VERTEX
  5
248
  8
COLLECTIONS
 10
636.55439540444445
 20
4502.7527221324472
 30
0.25
  0
VERTEX
  5
249
  8
COLLECTIONS
 10
636.53373850369189
 20
4502.7313964418654
 30
0.25
  0
VERTEX
  5
24A
  8
COLLECTIONS
 10
636.50106078615499
 20
4502.6981453399849
 30
0.25
  0
SEQEND
  5
24B
  8
COLLECTIONS
  0
POLYLINE
  5
8F
  8
COLLECTIONS
 66
     1
 10
0.0
 20
0.0
 30
0.1666666666666666
 70
     1
1001
IRD
1002
{
1000
TPMLINK_area-_-ade
1070
   515
1071
        1
1004
0100AD4B0000D82A0000D82A00000000000018D1F2B7CE75D23F18D1F2B7CE75D23F000000006F3E0000
1002
}
1002
{
1000
TPMLINK_area-_-ade
1070
   515
1071
        2
1004
010035240000520000005200000000000000B677F2B7CE75D23FB677F2B7CE75D23F0000000059150000
1002
}
1001
ADE
1011
-0.0048949825710451
1021
0.0
1031
0.0
1021
0.0065496845463713
1031
0.0
1001
DCO15
1071
       12
1071
       12
1000
collections
1004
0730344133383200
  0
VERTEX
  5
24C
  8
COLLECTIONS
 10
636.48170691985717
 20
4502.8176537347908
 30
0.1666666666666666
  0
VERTEX
  5
24D
  8
COLLECTIONS
 10
636.53118467810873
 20
4502.7852518802001
 30
0.1666666666666666
  0
VERTEX
  5
24E
  8
COLLECTIONS
 10
636.47193205373617
 20
4502.7135097075879
 30
0.1666666666666666
  0
VERTEX
  5
24F
  8
COLLECTIONS
 10
636.4344973237844
 20
4502.7418715567219
 30
0.1666666666666666
  0
SEQEND
  5
250
  8
COLLECTIONS
  0
POLYLINE
  5
90
  8
COLLECTIONS
 66
     1
 10
0.0
 20
0.0
 30
0.0119047619047619
 70
     1
1001
IRD
1002
{
1000
TPMLINK_area-_-ade
1070
   515
1071
        1
1004
0100AF4B0000D42A0000D42A000000000000F780E50C3607C83FF780E50C3607C83F00000000783E0000
1002
}
1002
{
1000
TPMLINK_area-_-ade
1070
   515
1071
        2
1004
0100372400004E0000004E00000000000000F780E50C3607C83FF780E50C3607C83F0000000050150000
1002
}
1001
ADE
1011
0.0012473896154006
1021
0.0
1031
0.0
1021
-0.0012891246824438
1031
0.0
1001
DCO15
1071
       12
1071
       12
1000
collections
1004
0730344133373800
  0
VERTEX
  5
251
  8
COLLECTIONS
 10
636.7087381456904
 20
4502.88177324566
 30
0.0119047619047619
  0
VERTEX
  5
252
  8
COLLECTIONS
 10
636.74674254325168
 20
4502.909538315439
 30
0.0119047619047619
  0
VERTEX
  5
253
  8
COLLECTIONS
 10
636.77872159388232
 20
4502.8779093504936
 30
0.0119047619047619
  0
VERTEX
  5
254
  8
COLLECTIONS
 10
636.74299247099486
 20
4502.8472782330473
 30
0.0119047619047619
  0
SEQEND
  5
255
  8
COLLECTIONS
  0
POLYLINE
  5
91
  8
COLLECTIONS
 66
     1
 10
0.0
 20
0.0
 30
0.1136363636363636
 70
     1
1001
IRD
1002
{
1000
TPMLINK_area-_-ade
1070
   515
1071
        1
1004
0100B04B0000CA2A0000CA2A00000000000064BB3700369FCE3F64BB3700369FCE3F000000007F3E0000
1002
}
1002
{
1000
TPMLINK_area-_-ade
1070
   515
1071
        2
1004
01003824000044000000440000000000000064BB3700369FCE3F64BB3700369FCE3F0000000049150000
1002
}
1001
ADE
1011
-0.0196986534213011
1021
0.0
1031
0.0
1021
-0.0122999207633257
1031
0.0
1001
DCO15
1071
       12
1071
       12
1000
collections
1004
0730344134303800
  0
VERTEX
  5
256
  8
COLLECTIONS
 10
636.64456053987146
 20
4502.947609424913
 30
0.1136363636363636
  0
VERTEX
  5
257
  8
COLLECTIONS
 10
636.71051702409636
 20
4502.985005107761
 30
0.1136363636363636
  0
VERTEX
  5
258
  8
COLLECTIONS
 10
636.7320085488119
 20
4502.9406556303611
 30
0.1136363636363636
  0
VERTEX
  5
259
  8
COLLECTIONS
 10
636.66976253667531
 20
4502.910415304902
 30
0.1136363636363636
  0
SEQEND
  5
25A
  8
COLLECTIONS
  0
POLYLINE
  5
92
  8
COLLECTIONS
 66
     1
 10
0.0
 20
0.0
 30
0.1875
 70
     1
1001
IRD
1002
{
1000
TPMLINK_area-_-ade
1070
   515
1071
        1
1004
0100B34B0000C92A0000C92A000000000000421B52DC6700C83F421B52DC6700C83F00000000863E0000
1002
}
1002
{
1000
TPMLINK_area-_-ade
1070
   515
1071
        2
1004
01003B240000430000004300000000000000D01C52DC6700C83FD01C52DC6700C83F0000000042150000
1002
}
1001
ADE
1011
0.0093309180933829
1021
0.0
1031
0.0
1021
-0.0008956447309174
1031
0.0
1001
DCO15
1071
       12
1071
       12
1000
collections
1004
0730344134383400
  0
VERTEX
  5
25B
  8
COLLECTIONS
 10
636.43220971542155
 20
4502.9535714556969
 30
0.1875
  0
VERTEX
  5
25C
  8
COLLECTIONS
 10
636.43669307715675
 20
4502.9782255207037
 30
0.1875
  0
VERTEX
  5
25D
  8
COLLECTIONS
 10
636.43854127807299
 20
4502.9987983982564
 30
0.1875
  0
VERTEX
  5
25E
  8
COLLECTIONS
 10
636.43968867718559
 20
4503.006764033199
 30
0.1875
  0
VERTEX
  5
25F
  8
COLLECTIONS
 10
636.43466497185125
 20
4503.0153356175197
 30
0.1875
  0
VERTEX
  5
260
  8
COLLECTIONS
 10
636.43597496406642
 20
4503.0168613201922
 30
0.1875
  0
VERTEX
  5
261
  8
COLLECTIONS
 10
636.45514299698073
 20
4503.007051278435
 30
0.1875
  0
VERTEX
  5
262
  8
COLLECTIONS
 10
636.46738655935303
 20
4502.9991457959804
 30
0.1875
  0
VERTEX
  5
263
  8
COLLECTIONS
 10
636.46949868785759
 20
4502.9852095906681
 30
0.1875
  0
VERTEX
  5
264
  8
COLLECTIONS
 10
636.46743857057766
 20
4502.9677298535325
 30
0.1875
  0
VERTEX
  5
265
  8
COLLECTIONS
 10
636.46768408074706
 20
4502.9494436329423
 30
0.1875
  0
SEQEND
  5
266
  8
COLLECTIONS
  0
POLYLINE
  5
93
  8
COLLECTIONS
 66
     1
 10
0.0
 20
0.0
 30
0.25
 70
     1
1001
IRD
1002
{
1000
TPMLINK_area-_-ade
1070
   515
1071
        1
1004
0100B44B0000C42A0000C42A00000000000095234D6CC68DC63F95234D6CC68DC63F00000000873E0000
1002
}
1002
{
1000
TPMLINK_area-_-ade
1070
   515
1071
        2
1004
01003C2400003E0000003E00000000000000BC1F4D6CC68DC63FBC1F4D6CC68DC63F0000000041150000
1002
}
1001
ADE
1011
0.0047738480013777
1021
0.0
1031
0.0
1021
-0.0191572036901562
1031
0.0
1001
DCO15
1071
       12
1071
       12
1000
collections
1004
0730344134383300
  0
VERTEX
  5
267
  8
COLLECTIONS
 10
636.43549421988575
 20
4503.0191859181277
 30
0.25
  0
VERTEX
  5
268
  8
COLLECTIONS
 10
636.43762697807392
 20
4503.0590672101798
 30
0.25
  0
VERTEX
  5
269
  8
COLLECTIONS
 10
636.43721508070485
 20
4503.0835359175098
 30
0.25
  0
VERTEX
  5
26A
  8
COLLECTIONS
 10
636.45894618659474
 20
4503.0729155982017
 30
0.25
  0
VERTEX
  5
26B
  8
COLLECTIONS
 10
636.46223171982388
 20
4503.0512370566021
 30
0.25
  0
VERTEX
  5
26C
  8
COLLECTIONS
 10
636.46008054421725
 20
4503.027578626823
 30
0.25
  0
VERTEX
  5
26D
  8
COLLECTIONS
 10
636.45620313186271
 20
4503.0090956662598
 30
0.25
  0
SEQEND
  5
26E
  8
COLLECTIONS
  0
POLYLINE
  5
94
  8
COLLECTIONS
 66
     1
 10
0.0
 20
0.0
 30
0.25
 70
     1
1001
IRD
1002
{
1000
TPMLINK_area-_-ade
1070
   515
1071
        1
1004
0100B54B0000CF2A0000CF2A0000000000003AB5D0919AE4CF3F3AB5D0919AE4CF3F00000000843E0000
1002
}
1002
{
1000
TPMLINK_area-_-ade
1070
   515
1071
        2
1004
01003D2400004900000049000000000000003AB5D0919AE4CF3F3AB5D0919AE4CF3F0000000044150000
1002
}
1001
ADE
1011
0.0037394489020244
1021
0.0
1031
0.0
1021
0.0228655726059515
1031
0.0
1001
DCO15
1071
       12
1071
       12
1000
collections
1004
0730344134373800
  0
VERTEX
  5
26F
  8
COLLECTIONS
 10
636.4012701699894
 20
4502.9334273110971
 30
0.25
  0
VERTEX
  5
270
  8
COLLECTIONS
 10
636.41064120263434
 20
4502.9577518427377
 30
0.25
  0
VERTEX
  5
271
  8
COLLECTIONS
 10
636.40951119217516
 20
4503.0208563495526
 30
0.25
  0
VERTEX
  5
272
  8
COLLECTIONS
 10
636.43157562553074
 20
4503.0153811466798
 30
0.25
  0
VERTEX
  5
273
  8
COLLECTIONS
 10
636.43656897808955
 20
4503.0047499981492
 30
0.25
  0
VERTEX
  5
274
  8
COLLECTIONS
 10
636.43601938709719
 20
4502.9849304866921
 30
0.25
  0
VERTEX
  5
275
  8
COLLECTIONS
 10
636.43316796275246
 20
4502.9661749042098
 30
0.25
  0
VERTEX
  5
276
  8
COLLECTIONS
 10
636.42958593689457
 20
4502.9502626048179
 30
0.25
  0
VERTEX
  5
277
  8
COLLECTIONS
 10
636.42493618796016
 20
4502.9317910265436
 30
0.25
  0
VERTEX
  5
278
  8
COLLECTIONS
 10
636.4164892557734
 20
4502.9177529336794
 30
0.25
  0
VERTEX
  5
279
  8
COLLECTIONS
 10
636.40686133066811
 20
4502.9109422860492
 30
0.25
  0
SEQEND
  5
27A
  8
COLLECTIONS
  0
POLYLINE
  5
95
  8
COLLECTIONS
 66
     1
 10
0.0
 20
0.0
 30
0.2
 70
     1
1001
IRD
1002
{
1000
TPMLINK_area-_-ade
1070
   515
1071
        1
1004
0100B74B0000C02A0000C02A000000000000459960A14DF7C73F459960A14DF7C73F853E000000000000
1002
}
1002
{
1000
TPMLINK_area-_-ade
1070
   515
1071
        2
1004
01003F2400003A0000003A0000000000000002A160A14DF7C73F02A160A14DF7C73F4315000000000000
1002
}
1001
ADE
1011
-0.0034169247284126
1021
0.0
1031
0.0
1021
0.0140779457433382
1031
0.0
1001
DCO15
1071
       12
1071
       12
1000
collections
1004
0730344134383100
  0
VERTEX
  5
27B
  8
COLLECTIONS
 10
636.38231302467341
 20
4503.0274372164731
 30
0.2
  0
VERTEX
  5
27C
  8
COLLECTIONS
 10
636.3874082647834
 20
4503.0062470072471
 30
0.2
  0
VERTEX
  5
27D
  8
COLLECTIONS
 10
636.38562076941844
 20
4502.9897932581189
 30
0.2
  0
VERTEX
  5
27E
  8
COLLECTIONS
 10
636.37972932201365
 20
4502.9744299966478
 30
0.2
  0
VERTEX
  5
27F
  8
COLLECTIONS
 10
636.3780252967814
 20
4502.9636400491127
 30
0.2
  0
VERTEX
  5
280
  8
COLLECTIONS
 10
636.40729061669026
 20
4502.957543720474
 30
0.2
  0
VERTEX
  5
281
  8
COLLECTIONS
 10
636.40800714794875
 20
4502.9886908351054
 30
0.2
  0
VERTEX
  5
282
  8
COLLECTIONS
 10
636.40608472429233
 20
4503.0154993167534
 30
0.2
  0
VERTEX
  5
283
  8
COLLECTIONS
 10
636.40647875730917
 20
4503.0247635616179
 30
0.2
  0
SEQEND
  5
284
  8
COLLECTIONS
  0
POLYLINE
  5
96
  8
COLLECTIONS
 66
     1
 10
0.0
 20
0.0
 30
0.25
 70
     1
1001
IRD
1002
{
1000
TPMLINK_area-_-ade
1070
   515
1071
        1
1004
0100B84B0000C22A0000C22A000000000000D2DAE7F3F610CA3FD2DAE7F3F610CA3F833E000000000000
1002
}
1002
{
1000
TPMLINK_area-_-ade
1070
   515
1071
        2
1004
0100402400003C0000003C00000000000000D2DAE7F3F610CA3FD2DAE7F3F610CA3F4515000000000000
1002
}
1001
ADE
1011
0.0001365201203498
1021
0.0
1031
0.0
1021
0.0168355872983739
1031
0.0
1001
DCO15
1071
       12
1071
       12
1000
collections
1004
0730344134373400
  0
VERTEX
  5
285
  8
COLLECTIONS
 10
636.35266884813518
 20
4503.025299082351
 30
0.25
  0
VERTEX
  5
286
  8
COLLECTIONS
 10
636.35378099424167
 20
4502.9959275277297
 30
0.25
  0
VERTEX
  5
287
  8
COLLECTIONS
 10
636.35351161335825
 20
4502.9776488953366
 30
0.25
  0
VERTEX
  5
288
  8
COLLECTIONS
 10
636.34237640299614
 20
4502.9559253776397
 30
0.25
  0
VERTEX
  5
289
  8
COLLECTIONS
 10
636.36476278152691
 20
4502.9548229546244
 30
0.25
  0
VERTEX
  5
28A
  8
COLLECTIONS
 10
636.372221113607
 20
4502.9541980347603
 30
0.25
  0
VERTEX
  5
28B
  8
COLLECTIONS
 10
636.38246312935246
 20
4502.985204767805
 30
0.25
  0
VERTEX
  5
28C
  8
COLLECTIONS
 10
636.38481483903195
 20
4503.0049977205854
 30
0.25
  0
VERTEX
  5
28D
  8
COLLECTIONS
 10
636.37819389624633
 20
4503.027497922023
 30
0.25
  0
SEQEND
  5
28E
  8
COLLECTIONS
  0
POLYLINE
  5
97
  8
COLLECTIONS
 66
     1
 10
0.0
 20
0.0
 30
0.25
 70
     1
1001
IRD
1002
{
1000
TPMLINK_area-_-ade
1070
   515
1071
        1
1004
0100B94B0000C32A0000C32A000000000000417C5870A694C73F417C5870A694C73F823E000000000000
1002
}
1002
{
1000
TPMLINK_area-_-ade
1070
   515
1071
        2
1004
0100412400003D0000003D00000000000000417C5870A694C73F417C5870A694C73F4615000000000000
1002
}
1001
ADE
1011
-0.0028148303631497
1021
0.0
1031
0.0
1021
0.0278979867762246
1031
0.0
1001
DCO15
1071
       12
1071
       12
1000
collections
1004
0730344134373300
  0
VERTEX
  5
28F
  8
COLLECTIONS
 10
636.34982935914718
 20
4503.0248259263681
 30
0.25
  0
VERTEX
  5
290
  8
COLLECTIONS
 10
636.32971825529035
 20
4503.0230623017178
 30
0.25
  0
VERTEX
  5
291
  8
COLLECTIONS
 10
636.32223715862835
 20
4503.0221425484206
 30
0.25
  0
VERTEX
  5
292
  8
COLLECTIONS
 10
636.31977976730104
 20
4503.0126512108072
 30
0.25
  0
VERTEX
  5
293
  8
COLLECTIONS
 10
636.32069952059589
 20
4503.0051701141438
 30
0.25
  0
VERTEX
  5
294
  8
COLLECTIONS
 10
636.32499586544725
 20
4502.9821891685269
 30
0.25
  0
VERTEX
  5
295
  8
COLLECTIONS
 10
636.32428747544895
 20
4502.9690670348591
 30
0.25
  0
VERTEX
  5
296
  8
COLLECTIONS
 10
636.32353735038441
 20
4502.9531130003961
 30
0.25
  0
VERTEX
  5
297
  8
COLLECTIONS
 10
636.33981712411685
 20
4502.9569931007172
 30
0.25
  0
VERTEX
  5
298
  8
COLLECTIONS
 10
636.34620449209024
 20
4502.9710615463582
 30
0.25
  0
VERTEX
  5
299
  8
COLLECTIONS
 10
636.3510965101633
 20
4502.9884995484254
 30
0.25
  0
VERTEX
  5
29A
  8
COLLECTIONS
 10
636.34985536475995
 20
4503.0091179551418
 30
0.25
  0
VERTEX
  5
29B
  8
COLLECTIONS
 10
636.34999574634719
 20
4503.0186434396292
 30
0.25
  0
SEQEND
  5
29C
  8
COLLECTIONS
  0
POLYLINE
  5
98
  8
COLLECTIONS
 66
     1
 10
0.0
 20
0.0
 30
0.25
 70
     1
1001
IRD
1002
{
1000
TPMLINK_area-_-ade
1070
   515
1071
        1
1004
0100BA4B0000BF2A0000BF2A000000000000025F03F79BB2CA3F025F03F79BB2CA3F00000000893E0000
1002
}
1002
{
1000
TPMLINK_area-_-ade
1070
   515
1071
        2
1004
010042240000390000003900000000000000025F03F79BB2CA3F025F03F79BB2CA3F000000003F150000
1002
}
1001
ADE
1011
0.0040822549060522
1021
0.0
1031
0.0
1021
-0.0281886646553176
1031
0.0
1001
DCO15
1071
       12
1071
       12
1000
collections
1004
0730344134373700
  0
VERTEX
  5
29D
  8
COLLECTIONS
 10
636.35142714966446
 20
4503.0284073991579
 30
0.25
  0
VERTEX
  5
29E
  8
COLLECTIONS
 10
636.35047056153292
 20
4503.0683342203774
 30
0.25
  0
VERTEX
  5
29F
  8
COLLECTIONS
 10
636.34843107393681
 20
4503.10467198061
 30
0.25
  0
VERTEX
  5
2A0
  8
COLLECTIONS
 10
636.37239627250062
 20
4503.1058638027544
 30
0.25
  0
VERTEX
  5
2A1
  8
COLLECTIONS
 10
636.37734354282918
 20
4503.0746332179879
 30
0.25
  0
VERTEX
  5
2A2
  8
COLLECTIONS
 10
636.38364957556735
 20
4503.0307650378318
 30
0.25
  0
SEQEND
  5
2A3
  8
COLLECTIONS
  0
POLYLINE
  5
99
  8
COLLECTIONS
 66
     1
 10
0.0
 20
0.0
 30
0.25
 70
     1
1001
IRD
1002
{
1000
TPMLINK_area-_-ade
1070
   515
1071
        1
1004
0100BB4B0000B92A0000B92A00000000000000901CBE8E2BCA3F00901CBE8E2BCA3F000000008A3E0000
1002
}
1002
{
1000
TPMLINK_area-_-ade
1070
   515
1071
        2
1004
010043240000330000003300000000000000816F1CBE8E2BCA3F816F1CBE8E2BCA3F000000003E150000
1002
}
1001
ADE
1011
0.0005652817631017
1021
0.0
1031
0.0
1021
-0.0262082234130503
1031
0.0
1001
DCO15
1071
       12
1071
       12
1000
collections
1004
0730344134373500
  0
VERTEX
  5
2A4
  8
COLLECTIONS
 10
636.30897306154225
 20
4503.0831083680514
 30
0.25
  0
VERTEX
  5
2A5
  8
COLLECTIONS
 10
636.31655280472478
 20
4503.090721705039
 30
0.25
  0
VERTEX
  5
2A6
  8
COLLECTIONS
 10
636.32537424637758
 20
4503.095226725226
 30
0.25
  0
VERTEX
  5
2A7
  8
COLLECTIONS
 10
636.33518752916723
 20
4503.0971421137538
 30
0.25
  0
VERTEX
  5
2A8
  8
COLLECTIONS
 10
636.34654927921406
 20
4503.0992921832276
 30
0.25
  0
VERTEX
  5
2A9
  8
COLLECTIONS
 10
636.34605659967599
 20
4503.0833343546719
 30
0.25
  0
VERTEX
  5
2AA
  8
COLLECTIONS
 10
636.34580239517993
 20
4503.0660855043798
 30
0.25
  0
VERTEX
  5
2AB
  8
COLLECTIONS
 10
636.3475963726064
 20
4503.0480339647374
 30
0.25
  0
VERTEX
  5
2AC
  8
COLLECTIONS
 10
636.34968194243243
 20
4503.0322956407399
 30
0.25
  0
VERTEX
  5
2AD
  8
COLLECTIONS
 10
636.34805000504252
 20
4503.0263971582071
 30
0.25
  0
VERTEX
  5
2AE
  8
COLLECTIONS
 10
636.33569261976095
 20
4503.0265792748623
 30
0.25
  0
VERTEX
  5
2AF
  8
COLLECTIONS
 10
636.32096131328592
 20
4503.0229338554873
 30
0.25
  0
SEQEND
  5
2B0
  8
COLLECTIONS
  0
POLYLINE
  5
9A
  8
COLLECTIONS
 66
     1
 10
0.0
 20
0.0
 30
0.25
 70
     1
1001
IRD
1002
{
1000
TPMLINK_area-_-ade
1070
   515
1071
        1
1004
0100BC4B0000B72A0000B72A00000000000004CAE300F435CB3F04CAE300F435CB3F000000008B3E0000
1002
}
1002
{
1000
TPMLINK_area-_-ade
1070
   515
1071
        2
1004
01004424000031000000310000000000000004CAE300F435CB3F04CAE300F435CB3F000000003D150000
1002
}
1001
ADE
1011
0.0116489952829397
1021
0.0
1031
0.0
1021
-0.0115156875099274
1031
0.0
1001
DCO15
1071
       12
1071
       12
1000
collections
1004
0730344134373600
  0
VERTEX
  5
2B1
  8
COLLECTIONS
 10
636.3445542146485
 20
4503.1036991099591
 30
0.25
  0
VERTEX
  5
2B2
  8
COLLECTIONS
 10
636.32026327681353
 20
4503.0978770624288
 30
0.25
  0
VERTEX
  5
2B3
  8
COLLECTIONS
 10
636.30593303848241
 20
4503.0865006890654
 30
0.25
  0
VERTEX
  5
2B4
  8
COLLECTIONS
 10
636.29349273613491
 20
4503.0985290940407
 30
0.25
  0
VERTEX
  5
2B5
  8
COLLECTIONS
 10
636.27950776062698
 20
4503.1105802636012
 30
0.25
  0
VERTEX
  5
2B6
  8
COLLECTIONS
 10
636.26967226632155
 20
4503.1246302918235
 30
0.25
  0
VERTEX
  5
2B7
  8
COLLECTIONS
 10
636.26830591571854
 20
4503.1367529961599
 30
0.25
  0
VERTEX
  5
2B8
  8
COLLECTIONS
 10
636.26921483978913
 20
4503.146009652829
 30
0.25
  0
VERTEX
  5
2B9
  8
COLLECTIONS
 10
636.27441307358322
 20
4503.1492805627367
 30
0.25
  0
VERTEX
  5
2BA
  8
COLLECTIONS
 10
636.28756176592913
 20
4503.1503742914247
 30
0.25
  0
VERTEX
  5
2BB
  8
COLLECTIONS
 10
636.2993359664116
 20
4503.1455657434863
 30
0.25
  0
VERTEX
  5
2BC
  8
COLLECTIONS
 10
636.30824411922765
 20
4503.1384819208697
 30
0.25
  0
VERTEX
  5
2BD
  8
COLLECTIONS
 10
636.322255653414
 20
4503.128232869999
 30
0.25
  0
VERTEX
  5
2BE
  8
COLLECTIONS
 10
636.33374205559414
 20
4503.1213685519424
 30
0.25
  0
SEQEND
  5
2BF
  8
COLLECTIONS
  0
POLYLINE
  5
9B
  8
COLLECTIONS
 66
     1
 10
0.0
 20
0.0
 30
0.015625
 70
     1
1001
IRD
1002
{
1000
TPMLINK_area-_-ade
1070
   515
1071
        1
1004
0100CA4F0000B7300000B73000000000000079FB56709E6AD23F79FB56709E6AD23F00000000B4420000
1002
}
1002
{
1000
TPMLINK_area-_-ade
1070
   515
1071
        2
1004
010052280000E5060000E5060000000000002A3D57709E6AD23F2A3D57709E6AD23F0000000095100000
1002
}
1001
ADE
1011
-0.0352859822104392
1021
0.0
1031
0.0
1021
-0.0179338531479516
1031
0.0
1001
DCO15
1071
       12
1071
       12
1000
collections
1004
0730344233333600
  0
VERTEX
  5
2C0
  8
COLLECTIONS
 10
633.34155398780365
 20
4494.8119987478476
 30
0.015625
  0
VERTEX
  5
2C1
  8
COLLECTIONS
 10
633.34476092304294
 20
4494.8556824460566
 30
0.015625
  0
VERTEX
  5
2C2
  8
COLLECTIONS
 10
633.43896744550045
 20
4494.8632690664645
 30
0.015625
  0
VERTEX
  5
2C3
  8
COLLECTIONS
 10
633.43707056719518
 20
4494.8094093937098
 30
0.015625
  0
SEQEND
  5
2C4
  8
COLLECTIONS
  0
POLYLINE
  5
9C
  8
COLLECTIONS
 66
     1
 10
0.0
 20
0.0
 30
0.0625
 70
     1
1001
IRD
1002
{
1000
TPMLINK_area-_-ade
1070
   515
1071
        1
1004
0100DC4F0000DC300000DC3000000000000072B9DD74D538C33F72B9DD74D538C33F00000000A9420000
1002
}
1002
{
1000
TPMLINK_area-_-ade
1070
   515
1071
        2
1004
0100642800000F0700000F0700000000000072B9DD74D538C33F72B9DD74D538C33F00000000A1100000
1002
}
1001
ADE
1011
-0.0062425353269191
1021
0.0
1031
0.0
1021
-0.0171965040299256
1031
0.0
1001
DCO15
1071
       12
1071
       12
1000
collections
1004
0730344232343500
  0
VERTEX
  5
2C5
  8
COLLECTIONS
 10
632.74866504621264
 20
4494.7176870984222
 30
0.0625
  0
VERTEX
  5
2C6
  8
COLLECTIONS
 10
632.7669504716996
 20
4494.6925080477613
 30
0.0625
  0
VERTEX
  5
2C7
  8
COLLECTIONS
 10
632.73284643496947
 20
4494.6661351454723
 30
0.0625
  0
VERTEX
  5
2C8
  8
COLLECTIONS
 10
632.71293556771752
 20
4494.687036468561
 30
0.0625
  0
SEQEND
  5
2C9
  8
COLLECTIONS
  0
POLYLINE
  5
9D
  8
COLLECTIONS
 66
     1
 10
0.0
 20
0.0
 30
0.25
 70
     1
1001
IRD
1002
{
1000
TPMLINK_area-_-ade
1070
   515
1071
        1
1004
01004F490000CC2A0000CC2A00000000000060E08189BF2ACC3F60E08189BF2ACC3F00000000163C0000
1002
}
1002
{
1000
TPMLINK_area-_-ade
1070
   515
1071
        2
1004
0100D7210000460000004600000000000000EAF28189BF2ACC3FEAF28189BF2ACC3F00000000F2170000
1002
}
1001
ADE
1011
-0.0110095634177014
1021
0.0
1031
0.0
1021
-0.0243883432758594
1031
0.0
1001
DCO15
1071
       12
1071
       12
1000
collections
1004
0730344134373200
  0
VERTEX
  5
2CA
  8
COLLECTIONS
 10
636.27396534791615
 20
4502.9419002173636
 30
0.25
  0
VERTEX
  5
2CB
  8
COLLECTIONS
 10
636.32278305904254
 20
4502.9455072387582
 30
0.25
  0
VERTEX
  5
2CC
  8
COLLECTIONS
 10
636.31056439353154
 20
4502.9314903554068
 30
0.25
  0
VERTEX
  5
2CD
  8
COLLECTIONS
 10
636.30565188441346
 20
4502.9028253325314
 30
0.25
  0
VERTEX
  5
2CE
  8
COLLECTIONS
 10
636.30501921633606
 20
4502.882085758989
 30
0.25
  0
VERTEX
  5
2CF
  8
COLLECTIONS
 10
636.26413635634765
 20
4502.8809101239258
 30
0.25
  0
SEQEND
  5
2D0
  8
COLLECTIONS
  0
POLYLINE
  5
9E
  8
COLLECTIONS
 66
     1
 10
0.0
 20
0.0
 30
0.25
 70
     1
1001
IRD
1002
{
1000
TPMLINK_area-_-ade
1070
   515
1071
        1
1004
010050490000CB2A0000CB2A0000000000004DC62EBD5F15C93F4DC62EBD5F15C93F00000000153C0000
1002
}
1002
{
1000
TPMLINK_area-_-ade
1070
   515
1071
        2
1004
0100D82100004500000045000000000000004DC62EBD5F15C93F4DC62EBD5F15C93F00000000F3170000
1002
}
1001
ADE
1011
-0.0146597164085733
1021
0.0
1031
0.0
1021
-0.0088404698326485
1031
0.0
1001
DCO15
1071
       12
1071
       12
1000
collections
1004
0730344134373900
  0
VERTEX
  5
2D1
  8
COLLECTIONS
 10
636.36976435254087
 20
4502.9436262272084
 30
0.25
  0
VERTEX
  5
2D2
  8
COLLECTIONS
 10
636.37400573002401
 20
4502.9161712842397
 30
0.25
  0
VERTEX
  5
2D3
  8
COLLECTIONS
 10
636.35811544409546
 20
4502.8923982481238
 30
0.25
  0
VERTEX
  5
2D4
  8
COLLECTIONS
 10
636.33797511703074
 20
4502.8881500345669
 30
0.25
  0
VERTEX
  5
2D5
  8
COLLECTIONS
 10
636.312366430466
 20
4502.9052580779125
 30
0.25
  0
VERTEX
  5
2D6
  8
COLLECTIONS
 10
636.31178078006826
 20
4502.9278289829053
 30
0.25
  0
VERTEX
  5
2D7
  8
COLLECTIONS
 10
636.32705362900981
 20
4502.944892611129
 30
0.25
  0
SEQEND
  5
2D8
  8
COLLECTIONS
  0
POLYLINE
  5
9F
  8
COLLECTIONS
 66
     1
 10
0.0
 20
0.0
 30
0.25
 70
     1
1001
IRD
1002
{
1000
TPMLINK_area-_-ade
1070
   515
1071
        1
1004
010051490000CE2A0000CE2A0000000000000668E18EF9F8CF3F0668E18EF9F8CF3F00000000143C0000
1002
}
1002
{
1000
TPMLINK_area-_-ade
1070
   515
1071
        2
1004
0100D92100004800000048000000000000000668E18EF9F8CF3F0668E18EF9F8CF3F00000000F4170000
1002
}
1001
ADE
1011
0.0024218190814054
1021
0.0
1031
0.0
1021
-0.0250182060462976
1031
0.0
1001
DCO15
1071
       12
1071
       12
1000
collections
1004
0730344134383000
  0
VERTEX
  5
2D9
  8
COLLECTIONS
 10
636.39599113837016
 20
4502.933837651146
 30
0.25
  0
VERTEX
  5
2DA
  8
COLLECTIONS
 10
636.40876697878275
 20
4502.8990533392061
 30
0.25
  0
VERTEX
  5
2DB
  8
COLLECTIONS
 10
636.39652712216196
 20
4502.865516201533
 30
0.25
  0
VERTEX
  5
2DC
  8
COLLECTIONS
 10
636.36478429687509
 20
4502.8527404965744
 30
0.25
  0
VERTEX
  5
2DD
  8
COLLECTIONS
 10
636.34163150635675
 20
4502.8838760216877
 30
0.25
  0
VERTEX
  5
2DE
  8
COLLECTIONS
 10
636.35933116839158
 20
4502.8881268505256
 30
0.25
  0
VERTEX
  5
2DF
  8
COLLECTIONS
 10
636.37705594012175
 20
4502.915557981426
 30
0.25
  0
VERTEX
  5
2E0
  8
COLLECTIONS
 10
636.37586802904377
 20
4502.9454496099324
 30
0.25
  0
SEQEND
  5
2E1
  8
COLLECTIONS
  0
POLYLINE
  5
A0
  8
COLLECTIONS
 66
     1
 10
0.0
 20
0.0
 30
0.1666666666666666
 70
     1
1001
IRD
1002
{
1000
TPMLINK_area-_-ade
1070
   515
1071
        1
1004
010052490000B52A0000B52A000000000000E7951F700F34D03FE7951F700F34D03F1B3C000000000000
1002
}
1002
{
1000
TPMLINK_area-_-ade
1070
   515
1071
        2
1004
0100DA2100002F0000002F000000000000001C8B1F700F34D03F1C8B1F700F34D03FED17000000000000
1002
}
1001
ADE
1011
0.0030685154551975
1021
0.0
1031
0.0
1021
-0.000130939144583
1031
0.0
1001
DCO15
1071
       12
1071
       12
1000
collections
1004
0730344134313000
  0
VERTEX
  5
2E2
  8
COLLECTIONS
 10
636.83106390750652
 20
4503.1400203211751
 30
0.1666666666666666
  0
VERTEX
  5
2E3
  8
COLLECTIONS
 10
636.80587145067796
 20
4503.1246101552542
 30
0.1666666666666666
  0
VERTEX
  5
2E4
  8
COLLECTIONS
 10
636.80780848878817
 20
4503.1145340334624
 30
0.1666666666666666
  0
VERTEX
  5
2E5
  8
COLLECTIONS
 10
636.80999364777563
 20
4503.1036815964326
 30
0.1666666666666666
  0
VERTEX
  5
2E6
  8
COLLECTIONS
 10
636.81735850202926
 20
4503.0948269074697
 30
0.1666666666666666
  0
VERTEX
  5
2E7
  8
COLLECTIONS
 10
636.82995417571954
 20
4503.0920932731069
 30
0.1666666666666666
  0
VERTEX
  5
2E8
  8
COLLECTIONS
 10
636.84825134851542
 20
4503.0918664096062
 30
0.1666666666666666
  0
VERTEX
  5
2E9
  8
COLLECTIONS
 10
636.86262860199474
 20
4503.0873064618099
 30
0.1666666666666666
  0
VERTEX
  5
2EA
  8
COLLECTIONS
 10
636.87882897365193
 20
4503.0842703871431
 30
0.1666666666666666
  0
VERTEX
  5
2EB
  8
COLLECTIONS
 10
636.89215733837932
 20
4503.0990544150809
 30
0.1666666666666666
  0
VERTEX
  5
2EC
  8
COLLECTIONS
 10
636.89490694904214
 20
4503.1129386220664
 30
0.1666666666666666
  0
VERTEX
  5
2ED
  8
COLLECTIONS
 10
636.89457686083801
 20
4503.1278919988163
 30
0.1666666666666666
  0
VERTEX
  5
2EE
  8
COLLECTIONS
 10
636.89039075852872
 20
4503.1436664244511
 30
0.1666666666666666
  0
VERTEX
  5
2EF
  8
COLLECTIONS
 10
636.88195353925084
 20
4503.149183707892
 30
0.1666666666666666
  0
VERTEX
  5
2F0
  8
COLLECTIONS
 10
636.86932910821565
 20
4503.1495979823212
 30
0.1666666666666666
  0
VERTEX
  5
2F1
  8
COLLECTIONS
 10
636.85618287334125
 20
4503.1495032339481
 30
0.1666666666666666
  0
SEQEND
  5
2F2
  8
COLLECTIONS
  0
POLYLINE
  5
A1
  8
COLLECTIONS
 66
     1
 10
0.0
 20
0.0
 30
0.25
 70
     1
1001
IRD
1002
{
1000
TPMLINK_area-_-ade
1070
   515
1071
        1
1004
010053490000B32A0000B32A0000000000009727566EBDFBC83F9727566EBDFBC83F1A3C000000000000
1002
}
1002
{
1000
TPMLINK_area-_-ade
1070
   515
1071
        2
1004
0100DB2100002D0000002D000000000000004AD6566EBDFBC83F4AD6566EBDFBC83FEE17000000000000
1002
}
1001
ADE
1011
0.0050332680041265
1021
0.0
1031
0.0
1021
0.0012294209773245
1031
0.0
1001
DCO15
1071
       12
1071
       12
1000
collections
1004
0730344134313100
  0
VERTEX
  5
2F3
  8
COLLECTIONS
 10
636.77543761226809
 20
4503.1438029773772
 30
0.25
  0
VERTEX
  5
2F4
  8
COLLECTIONS
 10
636.79267089637358
 20
4503.1201343936727
 30
0.25
  0
VERTEX
  5
2F5
  8
COLLECTIONS
 10
636.85010974764316
 20
4503.1585996532713
 30
0.25
  0
VERTEX
  5
2F6
  8
COLLECTIONS
 10
636.83337590055316
 20
4503.1809733131522
 30
0.25
  0
SEQEND
  5
2F7
  8
COLLECTIONS
  0
POLYLINE
  5
A2
  8
COLLECTIONS
 66
     1
 10
0.0
 20
0.0
 30
0.1
 70
     1
1001
IRD
1002
{
1000
TPMLINK_area-_-ade
1070
   515
1071
        1
1004
010054490000AD2A0000AD2A00000000000057C5A762BCC6C33F57C5A762BCC6C33F183C000000000000
1002
}
1002
{
1000
TPMLINK_area-_-ade
1070
   515
1071
        2
1004
0100DC21000026000000260000000000000057C5A762BCC6C33F57C5A762BCC6C33FF017000000000000
1002
}
1001
ADE
1011
0.00008411968156
1021
0.0
1031
0.0
1021
-0.0019327999434609
1031
0.0
1001
DCO15
1071
       12
1071
       12
1000
collections
1004
0730344134313800
  0
VERTEX
  5
2F8
  8
COLLECTIONS
 10
636.74167608719824
 20
4503.2272158817841
 30
0.1
  0
VERTEX
  5
2F9
  8
COLLECTIONS
 10
636.76552249604049
 20
4503.2380033041518
 30
0.1
  0
VERTEX
  5
2FA
  8
COLLECTIONS
 10
636.74754276349051
 20
4503.2846205615497
 30
0.1
  0
VERTEX
  5
2FB
  8
COLLECTIONS
 10
636.72348018637695
 20
4503.2771865210088
 30
0.1
  0
SEQEND
  5
2FC
  8
COLLECTIONS
  0
POLYLINE
  5
A3
  8
COLLECTIONS
 66
     1
 10
0.0
 20
0.0
 30
0.25
 70
     1
1001
IRD
1002
{
1000
TPMLINK_area-_-ade
1070
   515
1071
        1
1004
010056490000B22A0000B22A00000000000062FF84A67055CA3F62FF84A67055CA3F193C000000000000
1002
}
1002
{
1000
TPMLINK_area-_-ade
1070
   515
1071
        2
1004
0100DE2100002C0000002C00000000000000DDD884A67055CA3FDDD884A67055CA3FEF17000000000000
1002
}
1001
ADE
1011
-0.0032596763660422
1021
0.0
1031
0.0
1021
-0.0027756609279095
1031
0.0
1001
DCO15
1071
       12
1071
       12
1000
collections
1004
0730344134313600
  0
VERTEX
  5
2FD
  8
COLLECTIONS
 10
636.75086823125412
 20
4503.1786456099699
 30
0.25
  0
VERTEX
  5
2FE
  8
COLLECTIONS
 10
636.76810471062015
 20
4503.1552347329316
 30
0.25
  0
VERTEX
  5
2FF
  8
COLLECTIONS
 10
636.83070408559274
 20
4503.1941515006329
 30
0.25
  0
VERTEX
  5
300
  8
COLLECTIONS
 10
636.81655369561474
 20
4503.2170086212254
 30
0.25
  0
SEQEND
  5
301
  8
COLLECTIONS
  0
POLYLINE
  5
A4
  8
COLLECTIONS
 66
     1
 10
0.0
 20
0.0
 30
0.0357142857142857
 70
     1
1001
IRD
1002
{
1000
TPMLINK_collections2-_-ade
1070
   515
1071
        2
1004
01003D090000AE000000AE00000000000000F8D77395D3E1BE3FF8D77395D3E1BE3FD607000000000000
1002
}
1002
{
1000
TPMLINK_area-_-ade
1070
   515
1071
        3
1004
01008F450000F8330000F83300000000000030F97195D3E1BE3F30F97195D3E1BE3F6538000000000000
1002
}
1002
{
1000
TPMLINK_area-_-ade
1070
   515
1071
        4
1004
0100551E00006B0A00006B0A00000000000030F97195D3E1BE3F30F97195D3E1BE3FAA1B000000000000
1002
}
1001
ADE
1011
-0.0071360899736419
1021
0.0
1031
0.0
1021
-0.006021173409863
1031
0.0
1001
DCO15
1071
        7
1071
        7
1000
collections
1004
0730324133393100
  0
VERTEX
  5
302
  8
COLLECTIONS
 10
618.00602249674876
 20
4491.5659199706397
 30
0.0357142857142857
  0
VERTEX
  5
303
  8
COLLECTIONS
 10
618.03343045491681
 20
4491.5634599152008
 30
0.0357142857142857
  0
VERTEX
  5
304
  8
COLLECTIONS
 10
618.03862345389439
 20
4491.596375023244
 30
0.0357142857142857
  0
VERTEX
  5
305
  8
COLLECTIONS
 10
618.01118088436249
 20
4491.597818046268
 30
0.0357142857142857
  0
SEQEND
  5
306
  8
COLLECTIONS
  0
POLYLINE
  5
A5
  8
COLLECTIONS
 66
     1
 10
0.0
 20
0.0
 30
0.02
 70
     1
1001
IRD
1002
{
1000
TPMLINK_collections2-_-ade
1070
   515
1071
        2
1004
01006E090000000100000001000000000000C718186D8676E13FC718186D8676E13F00000000A4070000
1002
}
1002
{
1000
TPMLINK_area-_-ade
1070
   515
1071
        3
1004
0100C04500006E3400006E34000000000000595A186D8676E13F595A186D8676E13F0000000097380000
1002
}
1002
{
1000
TPMLINK_area-_-ade
1070
   515
1071
        4
1004
0100821E0000EA0A0000EA0A0000000000002D57186D8676E13F2D57186D8676E13F00000000781B0000
1002
}
1001
ADE
1011
-0.0876369178774894
1021
0.0
1031
0.0
1021
0.0213551301685584
1031
0.0
1001
DCO15
1071
        7
1071
        7
1000
collections
1004
0730324131313300
  0
VERTEX
  5
307
  8
COLLECTIONS
 10
616.94110695205552
 20
4488.8801222582251
 30
0.02
  0
VERTEX
  5
308
  8
COLLECTIONS
 10
616.94666683966648
 20
4488.8744920751496
 30
0.02
  0
VERTEX
  5
309
  8
COLLECTIONS
 10
616.95017938797662
 20
4488.8668401147579
 30
0.02
  0
VERTEX
  5
30A
  8
COLLECTIONS
 10
616.95370791252913
 20
4488.86173135225
 30
0.02
  0
VERTEX
  5
30B
  8
COLLECTIONS
 10
616.95466128671285
 20
4488.8515521702202
 30
0.02
  0
VERTEX
  5
30C
  8
COLLECTIONS
 10
616.94847453533055
 20
4488.8383658842049
 30
0.02
  0
VERTEX
  5
30D
  8
COLLECTIONS
 10
616.94384245991534
 20
4488.8297477686356
 30
0.02
  0
VERTEX
  5
30E
  8
COLLECTIONS
 10
616.93365688738595
 20
4488.8277771152989
 30
0.02
  0
VERTEX
  5
30F
  8
COLLECTIONS
 10
616.91584491645335
 20
4488.8263630302654
 30
0.02
  0
VERTEX
  5
310
  8
COLLECTIONS
 10
616.89703164260982
 20
4488.8274985336129
 30
0.02
  0
VERTEX
  5
311
  8
COLLECTIONS
 10
616.87926440515628
 20
4488.833205402655
 30
0.02
  0
VERTEX
  5
312
  8
COLLECTIONS
 10
616.85237041255721
 20
4488.8435475423603
 30
0.02
  0
VERTEX
  5
313
  8
COLLECTIONS
 10
616.82343547115408
 20
4488.8528851839046
 30
0.02
  0
VERTEX
  5
314
  8
COLLECTIONS
 10
616.80928942045898
 20
4488.8682338381668
 30
0.02
  0
VERTEX
  5
315
  8
COLLECTIONS
 10
616.79558490912279
 20
4488.8728978660629
 30
0.02
  0
VERTEX
  5
316
  8
COLLECTIONS
 10
616.78187081204078
 20
4488.8760359752368
 30
0.02
  0
VERTEX
  5
317
  8
COLLECTIONS
 10
616.76868772127511
 20
4488.8827313661968
 30
0.02
  0
VERTEX
  5
318
  8
COLLECTIONS
 10
616.75353717242047
 20
4488.9001209692606
 30
0.02
  0
VERTEX
  5
319
  8
COLLECTIONS
 10
616.74702071537752
 20
4488.9154216947936
 30
0.02
  0
VERTEX
  5
31A
  8
COLLECTIONS
 10
616.74255479288377
 20
4488.9332528372188
 30
0.02
  0
VERTEX
  5
31B
  8
COLLECTIONS
 10
616.73959561762945
 20
4488.9480225564339
 30
0.02
  0
VERTEX
  5
31C
  8
COLLECTIONS
 10
616.73910614954355
 20
4488.9510775891449
 30
0.02
  0
VERTEX
  5
31D
  8
COLLECTIONS
 10
616.74270816481135
 20
4488.9576675369044
 30
0.02
  0
VERTEX
  5
31E
  8
COLLECTIONS
 10
616.75032497746895
 20
4488.9555850498691
 30
0.02
  0
VERTEX
  5
31F
  8
COLLECTIONS
 10
616.76402629355675
 20
4488.9504123823917
 30
0.02
  0
VERTEX
  5
320
  8
COLLECTIONS
 10
616.7782682017064
 20
4488.9503229154334
 30
0.02
  0
VERTEX
  5
321
  8
COLLECTIONS
 10
616.7985786370441
 20
4488.94460007015
 30
0.02
  0
VERTEX
  5
322
  8
COLLECTIONS
 10
616.81784623123997
 20
4488.9348144987471
 30
0.02
  0
VERTEX
  5
323
  8
COLLECTIONS
 10
616.83611252252501
 20
4488.9275785157279
 30
0.02
  0
VERTEX
  5
324
  8
COLLECTIONS
 10
616.85844793042395
 20
4488.9203169707198
 30
0.02
  0
VERTEX
  5
325
  8
COLLECTIONS
 10
616.87520427922095
 20
4488.9156337713293
 30
0.02
  0
VERTEX
  5
326
  8
COLLECTIONS
 10
616.88735411459072
 20
4488.9064015729818
 30
0.02
  0
VERTEX
  5
327
  8
COLLECTIONS
 10
616.90969271773838
 20
4488.8996486675514
 30
0.02
  0
VERTEX
  5
328
  8
COLLECTIONS
 10
616.9284484771091
 20
4488.8893576518212
 30
0.02
  0
SEQEND
  5
329
  8
COLLECTIONS
  0
POLYLINE
  5
A6
  8
COLLECTIONS
 66
     1
 10
0.0
 20
0.0
 30
0.0576923076923077
 70
     1
1001
IRD
1002
{
1000
TPMLINK_collections2-_-ade
1070
   515
1071
        2
1004
01006F090000060100000601000000000000E9BCFA647CC4D33FE9BCFA647CC4D33F00000000A3070000
1002
}
1002
{
1000
TPMLINK_area-_-ade
1070
   515
1071
        3
1004
0100C1450000743400007434000000000000254DFA647CC4D33F254DFA647CC4D33F0000000098380000
1002
}
1002
{
1000
TPMLINK_area-_-ade
1070
   515
1071
        4
1004
0100831E0000F00A0000F00A000000000000E238FA647CC4D33FE238FA647CC4D33F00000000771B0000
1002
}
1001
ADE
1011
-0.0438432816602017
1021
0.0
1031
0.0
1021
-0.0093603793156944
1031
0.0
1001
DCO15
1071
        7
1071
        7
1000
collections
1004
0730324131313200
  0
VERTEX
  5
32A
  8
COLLECTIONS
 10
616.82795630793873
 20
4488.762824026333
 30
0.0576923076923077
  0
VERTEX
  5
32B
  8
COLLECTIONS
 10
616.83707347733844
 20
4488.7566628369359
 30
0.0576923076923077
  0
VERTEX
  5
32C
  8
COLLECTIONS
 10
616.84158413331124
 20
4488.7459526485891
 30
0.0576923076923077
  0
VERTEX
  5
32D
  8
COLLECTIONS
 10
616.84507751013041
 20
4488.7352488507386
 30
0.0576923076923077
  0
VERTEX
  5
32E
  8
COLLECTIONS
 10
616.85312947164925
 20
4488.72146445819
 30
0.0576923076923077
  0
VERTEX
  5
32F
  8
COLLECTIONS
 10
616.85660687222605
 20
4488.7082174624547
 30
0.0576923076923077
  0
VERTEX
  5
330
  8
COLLECTIONS
 10
616.85450201845219
 20
4488.6970401727604
 30
0.0576923076923077
  0
VERTEX
  5
331
  8
COLLECTIONS
 10
616.84023774356285
 20
4488.6935691626804
 30
0.0576923076923077
  0
VERTEX
  5
332
  8
COLLECTIONS
 10
616.81633807395167
 20
4488.6947366185123
 30
0.0576923076923077
  0
VERTEX
  5
333
  8
COLLECTIONS
 10
616.8062164063922
 20
4488.7029387567109
 30
0.0576923076923077
  0
VERTEX
  5
334
  8
COLLECTIONS
 10
616.80166421218905
 20
4488.7070366305597
 30
0.0576923076923077
  0
VERTEX
  5
335
  8
COLLECTIONS
 10
616.79864432721354
 20
4488.7121421978209
 30
0.0576923076923077
  0
VERTEX
  5
336
  8
COLLECTIONS
 10
616.79715355621636
 20
4488.7177468189102
 30
0.0576923076923077
  0
VERTEX
  5
337
  8
COLLECTIONS
 10
616.78441520005777
 20
4488.7142662230845
 30
0.0576923076923077
  0
VERTEX
  5
338
  8
COLLECTIONS
 10
616.76710547820528
 20
4488.7118316636488
 30
0.0576923076923077
  0
VERTEX
  5
339
  8
COLLECTIONS
 10
616.75540996318784
 20
4488.71241379394
 30
0.0576923076923077
  0
VERTEX
  5
33A
  8
COLLECTIONS
 10
616.74982770883719
 20
4488.7144834999826
 30
0.0576923076923077
  0
VERTEX
  5
33B
  8
COLLECTIONS
 10
616.74580013045352
 20
4488.7211213764667
 30
0.0576923076923077
  0
VERTEX
  5
33C
  8
COLLECTIONS
 10
616.74482758477893
 20
4488.7282487210414
 30
0.0576923076923077
  0
VERTEX
  5
33D
  8
COLLECTIONS
 10
616.74540651982227
 20
4488.7394355964807
 30
0.0576923076923077
  0
VERTEX
  5
33E
  8
COLLECTIONS
 10
616.7530904326984
 20
4488.7480345405593
 30
0.0576923076923077
  0
VERTEX
  5
33F
  8
COLLECTIONS
 10
616.76788251865526
 20
4488.7545541928494
 30
0.0576923076923077
  0
VERTEX
  5
340
  8
COLLECTIONS
 10
616.78063685105656
 20
4488.7605779865589
 30
0.0576923076923077
  0
VERTEX
  5
341
  8
COLLECTIONS
 10
616.78828242095051
 20
4488.7630732557127
 30
0.0576923076923077
  0
VERTEX
  5
342
  8
COLLECTIONS
 10
616.80254030534252
 20
4488.7655269866391
 30
0.0576923076923077
  0
VERTEX
  5
343
  8
COLLECTIONS
 10
616.81220445730128
 20
4488.7654662769201
 30
0.0576923076923077
  0
SEQEND
  5
344
  8
COLLECTIONS
  0
POLYLINE
  5
A7
  8
COLLECTIONS
 66
     1
 10
0.0
 20
0.0
 30
0.0909090909090909
 70
     1
1001
IRD
1002
{
1000
TPMLINK_collections2-_-ade
1070
   515
1071
        2
1004
01007009000012010000120100000000000074B261186FE5CD3F74B261186FE5CD3FA507000000000000
1002
}
1002
{
1000
TPMLINK_area-_-ade
1070
   515
1071
        3
1004
0100C2450000803400008034000000000000AF2463186FE5CD3FAF2463186FE5CD3F9638000000000000
1002
}
1002
{
1000
TPMLINK_area-_-ade
1070
   515
1071
        4
1004
0100841E0000FC0A0000FC0A000000000000AF2463186FE5CD3FAF2463186FE5CD3F791B000000000000
1002
}
1001
ADE
1011
-0.0160753613214411
1021
0.0
1031
0.0
1021
-0.0298081253749842
1031
0.0
1001
DCO15
1071
        7
1071
        7
1000
collections
1004
0730324131313100
  0
VERTEX
  5
345
  8
COLLECTIONS
 10
616.82120838295486
 20
4488.498363398895
 30
0.0909090909090909
  0
VERTEX
  5
346
  8
COLLECTIONS
 10
616.83197608577655
 20
4488.5120295672514
 30
0.0909090909090909
  0
VERTEX
  5
347
  8
COLLECTIONS
 10
616.8427469838465
 20
4488.5262043751809
 30
0.0909090909090909
  0
VERTEX
  5
348
  8
COLLECTIONS
 10
616.85197598694378
 20
4488.5378455709752
 30
0.0909090909090909
  0
VERTEX
  5
349
  8
COLLECTIONS
 10
616.86172002011472
 20
4488.5505008506734
 30
0.0909090909090909
  0
VERTEX
  5
34A
  8
COLLECTIONS
 10
616.86787162376345
 20
4488.5580921013407
 30
0.0909090909090909
  0
VERTEX
  5
34B
  8
COLLECTIONS
 10
616.87299636251294
 20
4488.5641638237794
 30
0.0909090909090909
  0
VERTEX
  5
34C
  8
COLLECTIONS
 10
616.86846653504949
 20
4488.5718221746693
 30
0.0909090909090909
  0
VERTEX
  5
34D
  8
COLLECTIONS
 10
616.86290025694154
 20
4488.5764350785912
 30
0.0909090909090909
  0
VERTEX
  5
34E
  8
COLLECTIONS
 10
616.8553058110233
 20
4488.5820780426629
 30
0.0909090909090909
  0
VERTEX
  5
34F
  8
COLLECTIONS
 10
616.84100958364922
 20
4488.5735206368154
 30
0.0909090909090909
  0
VERTEX
  5
350
  8
COLLECTIONS
 10
616.82262187292145
 20
4488.5614283159193
 30
0.0909090909090909
  0
VERTEX
  5
351
  8
COLLECTIONS
 10
616.81134233527484
 20
4488.5472567032357
 30
0.0909090909090909
  0
VERTEX
  5
352
  8
COLLECTIONS
 10
616.80412871899375
 20
4488.5325508889891
 30
0.0909090909090909
  0
VERTEX
  5
353
  8
COLLECTIONS
 10
616.79391758447639
 20
4488.5265111190356
 30
0.0909090909090909
  0
SEQEND
  5
354
  8
COLLECTIONS
  0
POLYLINE
  5
A8
  8
COLLECTIONS
 66
     1
 10
0.0
 20
0.0
 30
0.15
 70
     1
1001
IRD
1002
{
1000
TPMLINK_collections2-_-ade
1070
   515
1071
        2
1004
0100750900003601000036010000000000007D924CE5B3C3C63F7D924CE5B3C3C63FA107000000000000
1002
}
1002
{
1000
TPMLINK_area-_-ade
1070
   515
1071
        3
1004
0100C7450000A4340000A43400000000000076694CE5B3C3C63F76694CE5B3C3C63F9A38000000000000
1002
}
1002
{
1000
TPMLINK_area-_-ade
1070
   515
1071
        4
1004
0100891E0000200B0000200B00000000000076694CE5B3C3C63F76694CE5B3C3C63F751B000000000000
1002
}
1001
ADE
1011
-0.0154070860082811
1021
0.0
1031
0.0
1021
-0.019078442409409
1031
0.0
1001
DCO15
1071
        7
1071
        7
1000
collections
1004
0730324130333400
  0
VERTEX
  5
355
  8
COLLECTIONS
 10
615.03914575251395
 20
4487.7333436029739
 30
0.15
  0
VERTEX
  5
356
  8
COLLECTIONS
 10
615.08969278552411
 20
4487.7635456479793
 30
0.15
  0
VERTEX
  5
357
  8
COLLECTIONS
 10
615.07654803774039
 20
4487.7763447138614
 30
0.15
  0
VERTEX
  5
358
  8
COLLECTIONS
 10
615.06645512741716
 20
4487.7891246082481
 30
0.15
  0
VERTEX
  5
359
  8
COLLECTIONS
 10
615.04806102619273
 20
4487.7760150081986
 30
0.15
  0
VERTEX
  5
35A
  8
COLLECTIONS
 10
615.03425426690455
 20
4487.7644025696409
 30
0.15
  0
VERTEX
  5
35B
  8
COLLECTIONS
 10
615.0214743725154
 20
4487.754309659319
 30
0.15
  0
SEQEND
  5
35C
  8
COLLECTIONS
  0
POLYLINE
  5
A9
  8
COLLECTIONS
 66
     1
 10
0.0
 20
0.0
 30
0.0108695652173913
 70
     1
1001
IRD
1002
{
1000
TPMLINK_collections2-_-ade
1070
   515
1071
        2
1004
01007A0900004401000044010000000000002E135AE0D910D23F2E135AE0D910D23F9707000000000000
1002
}
1002
{
1000
TPMLINK_area-_-ade
1070
   515
1071
        3
1004
0100CC450000B2340000B23400000000000052CF59E0D910D23F52CF59E0D910D23FA438000000000000
1002
}
1002
{
1000
TPMLINK_area-_-ade
1070
   515
1071
        4
1004
01008E1E00002E0B00002E0B00000000000052CF59E0D910D23F52CF59E0D910D23F6B1B000000000000
1002
}
1001
ADE
1011
-0.0367412326374961
1021
0.0
1031
0.0
1021
-0.0192579835438664
1031
0.0
1001
DCO15
1071
        7
1071
        7
1000
collections
1004
0730324130333200
  0
VERTEX
  5
35D
  8
COLLECTIONS
 10
615.28498341096781
 20
4487.5151102525006
 30
0.0108695652173913
  0
VERTEX
  5
35E
  8
COLLECTIONS
 10
615.28306707685476
 20
4487.5339426978362
 30
0.0108695652173913
  0
VERTEX
  5
35F
  8
COLLECTIONS
 10
615.2801526350795
 20
4487.5558333711278
 30
0.0108695652173913
  0
VERTEX
  5
360
  8
COLLECTIONS
 10
615.27514931577252
 20
4487.5690899526089
 30
0.0108695652173913
  0
VERTEX
  5
361
  8
COLLECTIONS
 10
615.24105768313484
 20
4487.5672694759523
 30
0.0108695652173913
  0
VERTEX
  5
362
  8
COLLECTIONS
 10
615.22017470325045
 20
4487.5628227249481
 30
0.0108695652173913
  0
VERTEX
  5
363
  8
COLLECTIONS
 10
615.20287456714368
 20
4487.5619140842437
 30
0.0108695652173913
  0
VERTEX
  5
364
  8
COLLECTIONS
 10
615.19166532496354
 20
4487.5589325422479
 30
0.0108695652173913
  0
VERTEX
  5
365
  8
COLLECTIONS
 10
615.18801538096841
 20
4487.5447130008388
 30
0.0108695652173913
  0
VERTEX
  5
366
  8
COLLECTIONS
 10
615.18792271876214
 20
4487.5299624531117
 30
0.0108695652173913
  0
VERTEX
  5
367
  8
COLLECTIONS
 10
615.18836745336898
 20
4487.5197864663296
 30
0.0108695652173913
  0
VERTEX
  5
368
  8
COLLECTIONS
 10
615.19391455998596
 20
4487.5121217249434
 30
0.0108695652173913
  0
VERTEX
  5
369
  8
COLLECTIONS
 10
615.20049492199928
 20
4487.5069937909466
 30
0.0108695652173913
  0
VERTEX
  5
36A
  8
COLLECTIONS
 10
615.22134594939826
 20
4487.5063541461814
 30
0.0108695652173913
  0
VERTEX
  5
36B
  8
COLLECTIONS
 10
615.24679390447955
 20
4487.5087375816402
 30
0.0108695652173913
  0
VERTEX
  5
36C
  8
COLLECTIONS
 10
615.26460587541203
 20
4487.5101516666737
 30
0.0108695652173913
  0
SEQEND
  5
36D
  8
COLLECTIONS
  0
POLYLINE
  5
AA
  8
COLLECTIONS
 66
     1
 10
0.0
 20
0.0
 30
0.1
 70
     1
1001
IRD
1002
{
1000
TPMLINK_collections2-_-ade
1070
   515
1071
        2
1004
01007B09000045010000450100000000000089474F3047B9C93F89474F3047B9C93F0000000099070000
1002
}
1002
{
1000
TPMLINK_area-_-ade
1070
   515
1071
        3
1004
0100CD450000B3340000B33400000000000046094F3047B9C93F46094F3047B9C93F00000000A2380000
1002
}
1002
{
1000
TPMLINK_area-_-ade
1070
   515
1071
        4
1004
01008F1E00002F0B00002F0B0000000000005F084F3047B9C93F5F084F3047B9C93F000000006D1B0000
1002
}
1001
ADE
1011
-0.0238966549469524
1021
0.0
1031
0.0
1021
-0.021484805352884
1031
0.0
1001
DCO15
1071
        7
1071
        7
1000
collections
1004
0730324130323300
  0
VERTEX
  5
36E
  8
COLLECTIONS
 10
615.60950504669393
 20
4487.5145976026943
 30
0.1
  0
VERTEX
  5
36F
  8
COLLECTIONS
 10
615.55030794563038
 20
4487.4839412373358
 30
0.1
  0
VERTEX
  5
370
  8
COLLECTIONS
 10
615.54630912448295
 20
4487.4951568700117
 30
0.1
  0
VERTEX
  5
371
  8
COLLECTIONS
 10
615.54638900569523
 20
4487.507872859429
 30
0.1
  0
VERTEX
  5
372
  8
COLLECTIONS
 10
615.54544202200861
 20
4487.5190693206177
 30
0.1
  0
VERTEX
  5
373
  8
COLLECTIONS
 10
615.54549953648143
 20
4487.5282248329986
 30
0.1
  0
VERTEX
  5
374
  8
COLLECTIONS
 10
615.5521661702038
 20
4487.5368301675744
 30
0.1
  0
VERTEX
  5
375
  8
COLLECTIONS
 10
615.56645920232916
 20
4487.5448789338452
 30
0.1
  0
VERTEX
  5
376
  8
COLLECTIONS
 10
615.58325708935672
 20
4487.5468080489518
 30
0.1
  0
VERTEX
  5
377
  8
COLLECTIONS
 10
615.59391934897769
 20
4487.5436891112731
 30
0.1
  0
VERTEX
  5
378
  8
COLLECTIONS
 10
615.60100196007068
 20
4487.5375407028732
 30
0.1
  0
VERTEX
  5
379
  8
COLLECTIONS
 10
615.60652669994863
 20
4487.5263154844497
 30
0.1
  0
SEQEND
  5
37A
  8
COLLECTIONS
  0
POLYLINE
  5
AB
  8
COLLECTIONS
 66
     1
 10
0.0
 20
0.0
 30
0.0555555555555556
 70
     1
1001
IRD
1002
{
1000
TPMLINK_collections2-_-ade
1070
   515
1071
        2
1004
01007C090000470100004701000000000000D510C8371221D33FD510C8371221D33F0000000098070000
1002
}
1002
{
1000
TPMLINK_area-_-ade
1070
   515
1071
        3
1004
0100CE450000B5340000B534000000000000F826C8371221D33FF826C8371221D33F00000000A3380000
1002
}
1002
{
1000
TPMLINK_area-_-ade
1070
   515
1071
        4
1004
0100901E0000310B0000310B000000000000E014C8371221D33FE014C8371221D33F000000006C1B0000
1002
}
1001
ADE
1011
-0.021718486080772
1021
0.0
1031
0.0
1021
-0.0019645198563012
1031
0.0
1001
DCO15
1071
        7
1071
        7
1000
collections
1004
0730324130323200
  0
VERTEX
  5
37B
  8
COLLECTIONS
 10
615.54736677278675
 20
4487.4746471463013
 30
0.0555555555555556
  0
VERTEX
  5
37C
  8
COLLECTIONS
 10
615.5530049158823
 20
4487.4822398313527
 30
0.0555555555555556
  0
VERTEX
  5
37D
  8
COLLECTIONS
 10
615.57237317041302
 20
4487.4902587862234
 30
0.0555555555555556
  0
VERTEX
  5
37E
  8
COLLECTIONS
 10
615.59328490822315
 20
4487.501319074232
 30
0.0555555555555556
  0
VERTEX
  5
37F
  8
COLLECTIONS
 10
615.60502092873844
 20
4487.5083668425823
 30
0.0555555555555556
  0
VERTEX
  5
380
  8
COLLECTIONS
 10
615.6111370595255
 20
4487.5108723856974
 30
0.0555555555555556
  0
VERTEX
  5
381
  8
COLLECTIONS
 10
615.61823350351915
 20
4487.5072709247133
 30
0.0555555555555556
  0
VERTEX
  5
382
  8
COLLECTIONS
 10
615.63091333050556
 20
4487.5021107693092
 30
0.0555555555555556
  0
VERTEX
  5
383
  8
COLLECTIONS
 10
615.64967886600061
 20
4487.4943720573156
 30
0.0555555555555556
  0
VERTEX
  5
384
  8
COLLECTIONS
 10
615.65725938214132
 20
4487.4867002743349
 30
0.0555555555555556
  0
VERTEX
  5
385
  8
COLLECTIONS
 10
615.65564592761984
 20
4487.4719655118733
 30
0.0555555555555556
  0
VERTEX
  5
386
  8
COLLECTIONS
 10
615.64640023908328
 20
4487.456259562885
 30
0.0555555555555556
  0
VERTEX
  5
387
  8
COLLECTIONS
 10
615.6315894209207
 20
4487.4451627681419
 30
0.0555555555555556
  0
VERTEX
  5
388
  8
COLLECTIONS
 10
615.60766373002195
 20
4487.4402216531471
 30
0.0555555555555556
  0
VERTEX
  5
389
  8
COLLECTIONS
 10
615.59492001624903
 20
4487.4347051991681
 30
0.0555555555555556
  0
VERTEX
  5
38A
  8
COLLECTIONS
 10
615.58168006141716
 20
4487.4312254272991
 30
0.0555555555555556
  0
VERTEX
  5
38B
  8
COLLECTIONS
 10
615.57455927960018
 20
4487.43075960852
 30
0.0555555555555556
  0
VERTEX
  5
38C
  8
COLLECTIONS
 10
615.56540181567311
 20
4487.4297975486797
 30
0.0555555555555556
  0
VERTEX
  5
38D
  8
COLLECTIONS
 10
615.55780304616485
 20
4487.4344188718351
 30
0.0555555555555556
  0
VERTEX
  5
38E
  8
COLLECTIONS
 10
615.55126368778861
 20
4487.4461518501212
 30
0.0555555555555556
  0
VERTEX
  5
38F
  8
COLLECTIONS
 10
615.54674884261124
 20
4487.4563474295874
 30
0.0555555555555556
  0
VERTEX
  5
390
  8
COLLECTIONS
 10
615.54631648833845
 20
4487.4690607210814
 30
0.0555555555555556
  0
SEQEND
  5
391
  8
COLLECTIONS
  0
POLYLINE
  5
AC
  8
COLLECTIONS
 66
     1
 10
0.0
 20
0.0
 30
0.5661712668082095
 70
     1
1001
IRD
1002
{
1000
TPMLINK_collections2-_-ade
1070
   515
1071
        2
1004
010088090000D9000000D900000000000000A6575BDAF963D83FA6575BDAF963D83F8E07000000000000
1002
}
1002
{
1000
TPMLINK_area-_-ade
1070
   515
1071
        3
1004
0100DA450000473400004734000000000000E28C5BDAF963D83FE28C5BDAF963D83FAD38000000000000
1002
}
1002
{
1000
TPMLINK_area-_-ade
1070
   515
1071
        4
1004
01009B1E0000C30A0000C30A0000000000002A935BDAF963D83F2A935BDAF963D83F621B000000000000
1002
}
1001
ADE
1011
-0.0387938800756729
1021
0.0
1031
0.0
1021
-0.0495300523725746
1031
0.0
1001
DCO15
1071
        7
1071
        7
1000
collections
1004
0730324134333500
  0
VERTEX
  5
392
  8
COLLECTIONS
 10
617.42853866778728
 20
4489.798166678941
 30
0.5661712668082095
  0
VERTEX
  5
393
  8
COLLECTIONS
 10
617.41358602309845
 20
4489.8833983636277
 30
0.5661712668082095
  0
VERTEX
  5
394
  8
COLLECTIONS
 10
617.39529452922989
 20
4489.8821192669402
 30
0.5661712668082095
  0
VERTEX
  5
395
  8
COLLECTIONS
 10
617.36737790842653
 20
4489.8781593354561
 30
0.5661712668082095
  0
VERTEX
  5
396
  8
COLLECTIONS
 10
617.33848796686414
 20
4489.8711338341091
 30
0.5661712668082095
  0
VERTEX
  5
397
  8
COLLECTIONS
 10
617.32224503982366
 20
4489.8688668559053
 30
0.5661712668082095
  0
VERTEX
  5
398
  8
COLLECTIONS
 10
617.31311385364756
 20
4489.8672103045265
 30
0.5661712668082095
  0
VERTEX
  5
399
  8
COLLECTIONS
 10
617.31661624626781
 20
4489.8357268927211
 30
0.5661712668082095
  0
VERTEX
  5
39A
  8
COLLECTIONS
 10
617.32006039585315
 20
4489.808311493056
 30
0.5661712668082095
  0
VERTEX
  5
39B
  8
COLLECTIONS
 10
617.32230553292175
 20
4489.7935940705684
 30
0.5661712668082095
  0
VERTEX
  5
39C
  8
COLLECTIONS
 10
617.32708589719834
 20
4489.779421551495
 30
0.5661712668082095
  0
VERTEX
  5
39D
  8
COLLECTIONS
 10
617.35806808786469
 20
4489.7824081622157
 30
0.5661712668082095
  0
VERTEX
  5
39E
  8
COLLECTIONS
 10
617.38241791766666
 20
4489.786825632561
 30
0.5661712668082095
  0
VERTEX
  5
39F
  8
COLLECTIONS
 10
617.40474102177836
 20
4489.7907054798716
 30
0.5661712668082095
  0
SEQEND
  5
3A0
  8
COLLECTIONS
  0
POLYLINE
  5
AD
  8
COLLECTIONS
 66
     1
 10
0.0
 20
0.0
 30
0.015625
 70
     1
1001
IRD
1002
{
1000
TPMLINK_collections2-_-ade
1070
   515
1071
        2
1004
0100CC090000760100007601000000000000A72CDC224804D13FA72CDC224804D13F4707000000000000
1002
}
1002
{
1000
TPMLINK_area-_-ade
1070
   515
1071
        3
1004
01001E460000E4340000E434000000000000DC46DB224804D13FDC46DB224804D13FF438000000000000
1002
}
1002
{
1000
TPMLINK_area-_-ade
1070
   515
1071
        4
1004
0100DD1E0000600B0000600B000000000000DC46DB224804D13FDC46DB224804D13F1B1B000000000000
1002
}
1001
ADE
1011
-0.0290233537007225
1021
0.0
1031
0.0
1021
0.0274961987424831
1031
0.0
1001
DCO15
1071
        7
1071
        7
1000
collections
1004
0730324130343600
  0
VERTEX
  5
3A1
  8
COLLECTIONS
 10
614.65047117764846
 20
4486.79999530656
 30
0.015625
  0
VERTEX
  5
3A2
  8
COLLECTIONS
 10
614.69401454111903
 20
4486.8149984655502
 30
0.015625
  0
VERTEX
  5
3A3
  8
COLLECTIONS
 10
614.66049631861688
 20
4486.8989695068249
 30
0.015625
  0
VERTEX
  5
3A4
  8
COLLECTIONS
 10
614.62157001986247
 20
4486.8820079427769
 30
0.015625
  0
SEQEND
  5
3A5
  8
COLLECTIONS
  0
POLYLINE
  5
AE
  8
COLLECTIONS
 66
     1
 10
0.0
 20
0.0
 30
0.125
 70
     1
1001
IRD
1002
{
1000
TPMLINK_collections2-_-ade
1070
   515
1071
        2
1004
0100EE0900004201000042010000000000007484D2C9747DC83F7484D2C9747DC83F2B07000000000000
1002
}
1002
{
1000
TPMLINK_area-_-ade
1070
   515
1071
        3
1004
010040460000B0340000B03400000000000041CFD2C9747DC83F41CFD2C9747DC83F1039000000000000
1002
}
1002
{
1000
TPMLINK_area-_-ade
1070
   515
1071
        4
1004
0100FE1E00002C0B00002C0B000000000000CABFD2C9747DC83FCABFD2C9747DC83FFF1A000000000000
1002
}
1001
ADE
1011
0.0042925967394467
1021
0.0
1031
0.0
1021
-0.0257398843341434
1031
0.0
1001
DCO15
1071
        7
1071
        7
1000
collections
1004
0730324130343100
  0
VERTEX
  5
3A6
  8
COLLECTIONS
 10
614.87464068076383
 20
4487.5385727965922
 30
0.125
  0
VERTEX
  5
3A7
  8
COLLECTIONS
 10
614.86112045890093
 20
4487.5555206702511
 30
0.125
  0
VERTEX
  5
3A8
  8
COLLECTIONS
 10
614.84225198652155
 20
4487.5511773272929
 30
0.125
  0
VERTEX
  5
3A9
  8
COLLECTIONS
 10
614.82992397494183
 20
4487.5411595550131
 30
0.125
  0
VERTEX
  5
3AA
  8
COLLECTIONS
 10
614.8195856918619
 20
4487.5275576343192
 30
0.125
  0
VERTEX
  5
3AB
  8
COLLECTIONS
 10
614.82903218884235
 20
4487.510151606818
 30
0.125
  0
VERTEX
  5
3AC
  8
COLLECTIONS
 10
614.84316767768325
 20
4487.5018407593898
 30
0.125
  0
VERTEX
  5
3AD
  8
COLLECTIONS
 10
614.85628002190924
 20
4487.49303405097
 30
0.125
  0
VERTEX
  5
3AE
  8
COLLECTIONS
 10
614.86905361827894
 20
4487.4979612382776
 30
0.125
  0
VERTEX
  5
3AF
  8
COLLECTIONS
 10
614.8787829189065
 20
4487.5034345627846
 30
0.125
  0
VERTEX
  5
3B0
  8
COLLECTIONS
 10
614.88599520741275
 20
4487.5109730300974
 30
0.125
  0
VERTEX
  5
3B1
  8
COLLECTIONS
 10
614.8830703176551
 20
4487.5211793381422
 30
0.125
  0
VERTEX
  5
3B2
  8
COLLECTIONS
 10
614.87858243061066
 20
4487.5283539194961
 30
0.125
  0
SEQEND
  5
3B3
  8
COLLECTIONS
  0
POLYLINE
  5
AF
  8
COLLECTIONS
 66
     1
 10
0.0
 20
0.0
 30
0.0277777777777778
 70
     1
1001
IRD
1002
{
1000
TPMLINK_collections2-_-ade
1070
   515
1071
        2
1004
0100F4090000D4000000D4000000000000001B6EA8EFBFCFE03F1B6EA8EFBFCFE03F000000001C070000
1002
}
1002
{
1000
TPMLINK_area-_-ade
1070
   515
1071
        3
1004
01004646000042340000423400000000000000B6A8EFBFCFE03F00B6A8EFBFCFE03F000000001F390000
1002
}
1002
{
1000
TPMLINK_area-_-ade
1070
   515
1071
        4
1004
0100041F0000BE0A0000BE0A00000000000092B4A8EFBFCFE03F92B4A8EFBFCFE03F00000000F01A0000
1002
}
1001
ADE
1011
-0.0813028343063707
1021
0.0
1031
0.0
1021
-0.0157888938792894
1031
0.0
1001
DCO15
1071
        7
1071
        7
1000
collections
1004
0730324131363000
  0
VERTEX
  5
3B4
  8
COLLECTIONS
 10
614.68726931266292
 20
4489.8318514796974
 30
0.0277777777777778
  0
VERTEX
  5
3B5
  8
COLLECTIONS
 10
614.66285915930985
 20
4489.8330952893593
 30
0.0277777777777778
  0
VERTEX
  5
3B6
  8
COLLECTIONS
 10
614.64851910332743
 20
4489.8304708246569
 30
0.0277777777777778
  0
VERTEX
  5
3B7
  8
COLLECTIONS
 10
614.63166535084565
 20
4489.8289406445119
 30
0.0277777777777778
  0
VERTEX
  5
3B8
  8
COLLECTIONS
 10
614.62157994210384
 20
4489.8323000550226
 30
0.0277777777777778
  0
VERTEX
  5
3B9
  8
COLLECTIONS
 10
614.62031364386701
 20
4489.8409966745612
 30
0.0277777777777778
  0
VERTEX
  5
3BA
  8
COLLECTIONS
 10
614.61975525730281
 20
4489.8562932127552
 30
0.0277777777777778
  0
VERTEX
  5
3BB
  8
COLLECTIONS
 10
614.62520778009025
 20
4489.8851606497756
 30
0.0277777777777778
  0
VERTEX
  5
3BC
  8
COLLECTIONS
 10
614.62708653317065
 20
4489.8968185841759
 30
0.0277777777777778
  0
VERTEX
  5
3BD
  8
COLLECTIONS
 10
614.63138711452427
 20
4489.9043290509326
 30
0.0277777777777778
  0
VERTEX
  5
3BE
  8
COLLECTIONS
 10
614.64483193377839
 20
4489.9110550491632
 30
0.0277777777777778
  0
VERTEX
  5
3BF
  8
COLLECTIONS
 10
614.66463168975315
 20
4489.9089313141458
 30
0.0277777777777778
  0
VERTEX
  5
3C0
  8
COLLECTIONS
 10
614.71553338596595
 20
4489.907909040885
 30
0.0277777777777778
  0
VERTEX
  5
3C1
  8
COLLECTIONS
 10
614.75900117227673
 20
4489.913731668219
 30
0.0277777777777778
  0
VERTEX
  5
3C2
  8
COLLECTIONS
 10
614.79886097753536
 20
4489.9181348836091
 30
0.0277777777777778
  0
VERTEX
  5
3C3
  8
COLLECTIONS
 10
614.82283882389515
 20
4489.9194507045613
 30
0.0277777777777778
  0
VERTEX
  5
3C4
  8
COLLECTIONS
 10
614.8299476064019
 20
4489.9187274815167
 30
0.0277777777777778
  0
VERTEX
  5
3C5
  8
COLLECTIONS
 10
614.82964137898045
 20
4489.9085502045491
 30
0.0277777777777778
  0
VERTEX
  5
3C6
  8
COLLECTIONS
 10
614.81089356204666
 20
4489.8948532261529
 30
0.0277777777777778
  0
VERTEX
  5
3C7
  8
COLLECTIONS
 10
614.78455872150028
 20
4489.8829125098691
 30
0.0277777777777778
  0
VERTEX
  5
3C8
  8
COLLECTIONS
 10
614.7556183162277
 20
4489.8690128950439
 30
0.0277777777777778
  0
VERTEX
  5
3C9
  8
COLLECTIONS
 10
614.74781693341947
 20
4489.8636450632785
 30
0.0277777777777778
  0
VERTEX
  5
3CA
  8
COLLECTIONS
 10
614.74373429986326
 20
4489.8464508720281
 30
0.0277777777777778
  0
VERTEX
  5
3CB
  8
COLLECTIONS
 10
614.73576449197344
 20
4489.8354855379303
 30
0.0277777777777778
  0
VERTEX
  5
3CC
  8
COLLECTIONS
 10
614.71021411995503
 20
4489.8326890595463
 30
0.0277777777777778
  0
VERTEX
  5
3CD
  8
COLLECTIONS
 10
614.68830235173084
 20
4489.8323297208062
 30
0.0277777777777778
  0
SEQEND
  5
3CE
  8
COLLECTIONS
  0
POLYLINE
  5
B0
  8
COLLECTIONS
 66
     1
 10
0.0
 20
0.0
 30
0.1538461538461539
 70
     1
1001
IRD
1002
{
1000
TPMLINK_collections2-_-ade
1070
   515
1071
        2
1004
01002E0B0000E9010000E9010000000000000BC35B1F2B0ADA3F0BC35B1F2B0ADA3FE205000000000000
1002
}
1002
{
1000
TPMLINK_area-_-ade
1070
   515
1071
        3
1004
010080470000573500005735000000000000EA715B1F2B0ADA3FEA715B1F2B0ADA3F593A000000000000
1002
}
1002
{
1000
TPMLINK_area-_-ade
1070
   515
1071
        4
1004
010023200000D30B0000D30B000000000000D9715B1F2B0ADA3FD9715B1F2B0ADA3FB619000000000000
1002
}
1001
ADE
1011
-0.0239814222605901
1021
0.0
1031
0.0
1021
-0.0490164933007691
1031
0.0
1001
DCO15
1071
        7
1071
        7
1000
collections
1004
0730324133323600
  0
VERTEX
  5
3CF
  8
COLLECTIONS
 10
610.73548635810755
 20
4485.3292310211973
 30
0.1538461538461539
  0
VERTEX
  5
3D0
  8
COLLECTIONS
 10
610.82623938168695
 20
4485.3371389439417
 30
0.1538461538461539
  0
VERTEX
  5
3D1
  8
COLLECTIONS
 10
610.81314517858755
 20
4485.3841291578092
 30
0.1538461538461539
  0
VERTEX
  5
3D2
  8
COLLECTIONS
 10
610.80587938566225
 20
4485.4089283996864
 30
0.1538461538461539
  0
VERTEX
  5
3D3
  8
COLLECTIONS
 10
610.79325805626524
 20
4485.4548790579238
 30
0.1538461538461539
  0
VERTEX
  5
3D4
  8
COLLECTIONS
 10
610.77097327605441
 20
4485.4464986627972
 30
0.1538461538461539
  0
VERTEX
  5
3D5
  8
COLLECTIONS
 10
610.74380966566639
 20
4485.4444306480036
 30
0.1538461538461539
  0
VERTEX
  5
3D6
  8
COLLECTIONS
 10
610.72778098085735
 20
4485.439397892078
 30
0.1538461538461539
  0
VERTEX
  5
3D7
  8
COLLECTIONS
 10
610.71177105769345
 20
4485.4348755331448
 30
0.1538461538461539
  0
VERTEX
  5
3D8
  8
COLLECTIONS
 10
610.7140117598791
 20
4485.3985060152754
 30
0.1538461538461539
  0
VERTEX
  5
3D9
  8
COLLECTIONS
 10
610.72786026134645
 20
4485.3581322006467
 30
0.1538461538461539
  0
SEQEND
  5
3DA
  8
COLLECTIONS
  0
POLYLINE
  5
B1
  8
COLLECTIONS
 66
     1
 10
0.0
 20
0.0
 30
0.0147058823529412
 70
     1
1001
IRD
1002
{
1000
TPMLINK_collections2-_-ade
1070
   515
1071
        2
1004
01002F0B0000F1010000F10100000000000047595957A7E4D63F47595957A7E4D63FE105000000000000
1002
}
1002
{
1000
TPMLINK_area-_-ade
1070
   515
1071
        3
1004
0100814700005F3500005F35000000000000A61C5957A7E4D63FA61C5957A7E4D63F5A3A000000000000
1002
}
1002
{
1000
TPMLINK_area-_-ade
1070
   515
1071
        4
1004
010024200000DB0B0000DB0B000000000000A61C5957A7E4D63FA61C5957A7E4D63FB519000000000000
1002
}
1001
ADE
1011
0.0263857526492757
1021
0.0
1031
0.0
1021
-0.0165408548627966
1031
0.0
1001
DCO15
1071
        7
1071
        7
1000
collections
1004
0730324133323500
  0
VERTEX
  5
3DB
  8
COLLECTIONS
 10
610.76390780130657
 20
4485.2264800363982
 30
0.0147058823529412
  0
VERTEX
  5
3DC
  8
COLLECTIONS
 10
610.8244872848926
 20
4485.2477631855891
 30
0.0147058823529412
  0
VERTEX
  5
3DD
  8
COLLECTIONS
 10
610.84293662314519
 20
4485.2491293543526
 30
0.0147058823529412
  0
VERTEX
  5
3DE
  8
COLLECTIONS
 10
610.82149571561285
 20
4485.3332246228147
 30
0.0147058823529412
  0
VERTEX
  5
3DF
  8
COLLECTIONS
 10
610.79126972327913
 20
4485.3312691778883
 30
0.0147058823529412
  0
VERTEX
  5
3E0
  8
COLLECTIONS
 10
610.75949377832785
 20
4485.3288596209031
 30
0.0147058823529412
  0
VERTEX
  5
3E1
  8
COLLECTIONS
 10
610.73686745592522
 20
4485.3250915603357
 30
0.0147058823529412
  0
VERTEX
  5
3E2
  8
COLLECTIONS
 10
610.7456119874829
 20
4485.284905362153
 30
0.0147058823529412
  0
VERTEX
  5
3E3
  8
COLLECTIONS
 10
610.76028983389563
 20
4485.2531895347274
 30
0.0147058823529412
  0
VERTEX
  5
3E4
  8
COLLECTIONS
 10
610.76167476430624
 20
4485.235250593465
 30
0.0147058823529412
  0
SEQEND
  5
3E5
  8
COLLECTIONS
  0
POLYLINE
  5
B2
  8
COLLECTIONS
 66
     1
 10
0.0
 20
0.0
 30
0.2045454545454545
 70
     1
1001
IRD
1002
{
1000
TPMLINK_collections2-_-ade
1070
   515
1071
        2
1004
0100300B0000EF010000EF010000000000000B8C71A868C2D93F0B8C71A868C2D93F00000000E0050000
1002
}
1002
{
1000
TPMLINK_area-_-ade
1070
   515
1071
        3
1004
0100824700005D3500005D35000000000000172472A868C2D93F172472A868C2D93F000000005B3A0000
1002
}
1002
{
1000
TPMLINK_area-_-ade
1070
   515
1071
        4
1004
010025200000D90B0000D90B000000000000BC3072A868C2D93FBC3072A868C2D93F00000000B4190000
1002
}
1001
ADE
1011
-0.0448145440956296
1021
0.0
1031
0.0
1021
0.0289569871247295
1031
0.0
1001
DCO15
1071
        7
1071
        7
1000
collections
1004
0730324133323400
  0
VERTEX
  5
3E6
  8
COLLECTIONS
 10
610.80983969790145
 20
4485.2385909688028
 30
0.2045454545454545
  0
VERTEX
  5
3E7
  8
COLLECTIONS
 10
610.82847665259851
 20
4485.2450611074792
 30
0.2045454545454545
  0
VERTEX
  5
3E8
  8
COLLECTIONS
 10
610.85044248485497
 20
4485.244764753761
 30
0.2045454545454545
  0
VERTEX
  5
3E9
  8
COLLECTIONS
 10
610.86772093597028
 20
4485.242085269887
 30
0.2045454545454545
  0
VERTEX
  5
3EA
  8
COLLECTIONS
 10
610.91449750788195
 20
4485.207656267894
 30
0.2045454545454545
  0
VERTEX
  5
3EB
  8
COLLECTIONS
 10
610.92126783286767
 20
4485.1971856650534
 30
0.2045454545454545
  0
VERTEX
  5
3EC
  8
COLLECTIONS
 10
610.92318192191374
 20
4485.1797383591374
 30
0.2045454545454545
  0
VERTEX
  5
3ED
  8
COLLECTIONS
 10
610.90711954640904
 20
4485.1598853288288
 30
0.2045454545454545
  0
VERTEX
  5
3EE
  8
COLLECTIONS
 10
610.89235938955198
 20
4485.1476507300958
 30
0.2045454545454545
  0
VERTEX
  5
3EF
  8
COLLECTIONS
 10
610.87862002667703
 20
4485.1353786080763
 30
0.2045454545454545
  0
VERTEX
  5
3F0
  8
COLLECTIONS
 10
610.85519421743277
 20
4485.1515723150924
 30
0.2045454545454545
  0
VERTEX
  5
3F1
  8
COLLECTIONS
 10
610.83159572079614
 20
4485.1769719295908
 30
0.2045454545454545
  0
VERTEX
  5
3F2
  8
COLLECTIONS
 10
610.80722416414721
 20
4485.1952447478579
 30
0.2045454545454545
  0
VERTEX
  5
3F3
  8
COLLECTIONS
 10
610.78480038724058
 20
4485.210890534594
 30
0.2045454545454545
  0
VERTEX
  5
3F4
  8
COLLECTIONS
 10
610.76481602542185
 20
4485.2233801311613
 30
0.2045454545454545
  0
VERTEX
  5
3F5
  8
COLLECTIONS
 10
610.79324433116926
 20
4485.2320457835503
 30
0.2045454545454545
  0
SEQEND
  5
3F6
  8
COLLECTIONS
  0
POLYLINE
  5
B3
  8
COLLECTIONS
 66
     1
 10
0.0
 20
0.0
 30
0.25
 70
     1
1001
IRD
1002
{
1000
TPMLINK_collections2-_-ade
1070
   515
1071
        2
1004
0100310B0000ED010000ED01000000000000CCFDEC4C9419C33FCCFDEC4C9419C33FDE05000000000000
1002
}
1002
{
1000
TPMLINK_area-_-ade
1070
   515
1071
        3
1004
0100834700005B3500005B35000000000000F5A4EC4C9419C33FF5A4EC4C9419C33F5D3A000000000000
1002
}
1002
{
1000
TPMLINK_area-_-ade
1070
   515
1071
        4
1004
010026200000D70B0000D70B000000000000DC5EEC4C9419C33FDC5EEC4C9419C33FB219000000000000
1002
}
1001
ADE
1011
-0.0050156554459591
1021
0.0
1031
0.0
1021
-0.0108380970614235
1031
0.0
1001
DCO15
1071
        7
1071
        7
1000
collections
1004
0730324133323800
  0
VERTEX
  5
3F7
  8
COLLECTIONS
 10
610.92252829431561
 20
4485.2870905820409
 30
0.25
  0
VERTEX
  5
3F8
  8
COLLECTIONS
 10
610.95069776963385
 20
4485.2748111961546
 30
0.25
  0
VERTEX
  5
3F9
  8
COLLECTIONS
 10
610.957235289702
 20
4485.2858147902243
 30
0.25
  0
VERTEX
  5
3FA
  8
COLLECTIONS
 10
610.96386661799227
 20
4485.2993703692482
 30
0.25
  0
VERTEX
  5
3FB
  8
COLLECTIONS
 10
610.96807729283807
 20
4485.3165925354278
 30
0.25
  0
VERTEX
  5
3FC
  8
COLLECTIONS
 10
610.95909652508874
 20
4485.3225446119277
 30
0.25
  0
VERTEX
  5
3FD
  8
COLLECTIONS
 10
610.94701585210476
 20
4485.3275884643144
 30
0.25
  0
VERTEX
  5
3FE
  8
COLLECTIONS
 10
610.9402493597114
 20
4485.3242595867532
 30
0.25
  0
VERTEX
  5
3FF
  8
COLLECTIONS
 10
610.93679298323366
 20
4485.3136538198069
 30
0.25
  0
VERTEX
  5
400
  8
COLLECTIONS
 10
610.92844284752653
 20
4485.2950505558083
 30
0.25
  0
SEQEND
  5
401
  8
COLLECTIONS
  0
POLYLINE
  5
B4
  8
COLLECTIONS
 66
     1
 10
0.0
 20
0.0
 30
0.125
 70
     1
1001
IRD
1002
{
1000
TPMLINK_collections2-_-ade
1070
   515
1071
        2
1004
0100320B0000EB010000EB0100000000000060A7CD520DC0DC3F60A7CD520DC0DC3F00000000DF050000
1002
}
1002
{
1000
TPMLINK_area-_-ade
1070
   515
1071
        3
1004
01008447000059350000593500000000000081C4CD520DC0DC3F81C4CD520DC0DC3F000000005C3A0000
1002
}
1002
{
1000
TPMLINK_area-_-ade
1070
   515
1071
        4
1004
010027200000D50B0000D50B000000000000180ACE520DC0DC3F180ACE520DC0DC3F00000000B3190000
1002
}
1001
ADE
1011
-0.046109849459981
1021
0.0
1031
0.0
1021
0.0074660913969637
1031
0.0
1001
DCO15
1071
        7
1071
        7
1000
collections
1004
0730324133323700
  0
VERTEX
  5
402
  8
COLLECTIONS
 10
610.87480980759244
 20
4485.3097992148878
 30
0.125
  0
VERTEX
  5
403
  8
COLLECTIONS
 10
610.90231879276473
 20
4485.2934554147168
 30
0.125
  0
VERTEX
  5
404
  8
COLLECTIONS
 10
610.94151062379615
 20
4485.2751489057537
 30
0.125
  0
VERTEX
  5
405
  8
COLLECTIONS
 10
610.96508652619593
 20
4485.2630383746646
 30
0.125
  0
VERTEX
  5
406
  8
COLLECTIONS
 10
610.9785858202863
 20
4485.2548758554012
 30
0.125
  0
VERTEX
  5
407
  8
COLLECTIONS
 10
610.98322074908651
 20
4485.2419283141853
 30
0.125
  0
VERTEX
  5
408
  8
COLLECTIONS
 10
610.97993706000079
 20
4485.2221166397603
 30
0.125
  0
VERTEX
  5
409
  8
COLLECTIONS
 10
610.96829557002275
 20
4485.211300662133
 30
0.125
  0
VERTEX
  5
40A
  8
COLLECTIONS
 10
610.95496896332406
 20
4485.210257273915
 30
0.125
  0
VERTEX
  5
40B
  8
COLLECTIONS
 10
610.93678612068538
 20
4485.2022371826224
 30
0.125
  0
VERTEX
  5
40C
  8
COLLECTIONS
 10
610.92440526139114
 20
4485.1991146831479
 30
0.125
  0
VERTEX
  5
40D
  8
COLLECTIONS
 10
610.91568715666335
 20
4485.2122123175232
 30
0.125
  0
VERTEX
  5
40E
  8
COLLECTIONS
 10
610.89870889185761
 20
4485.2230581532522
 30
0.125
  0
VERTEX
  5
40F
  8
COLLECTIONS
 10
610.88235359390956
 20
4485.2369476092827
 30
0.125
  0
VERTEX
  5
410
  8
COLLECTIONS
 10
610.87142504641815
 20
4485.2455267173154
 30
0.125
  0
VERTEX
  5
411
  8
COLLECTIONS
 10
610.84548860810025
 20
4485.2490355461332
 30
0.125
  0
VERTEX
  5
412
  8
COLLECTIONS
 10
610.84448274317003
 20
4485.2633829468132
 30
0.125
  0
VERTEX
  5
413
  8
COLLECTIONS
 10
610.83914596834245
 20
4485.2850447601668
 30
0.125
  0
VERTEX
  5
414
  8
COLLECTIONS
 10
610.83053660088785
 20
4485.3150042568868
 30
0.125
  0
VERTEX
  5
415
  8
COLLECTIONS
 10
610.8270913208695
 20
4485.3325078477346
 30
0.125
  0
VERTEX
  5
416
  8
COLLECTIONS
 10
610.84567582322552
 20
4485.3236473150373
 30
0.125
  0
SEQEND
  5
417
  8
COLLECTIONS
  0
POLYLINE
  5
B5
  8
COLLECTIONS
 66
     1
 10
0.0
 20
0.0
 30
0.1
 70
     1
1001
IRD
1002
{
1000
TPMLINK_collections2-_-ade
1070
   515
1071
        2
1004
0100330B0000EE010000EE01000000000000BED92193DE31BA3FBED92193DE31BA3FDD05000000000000
1002
}
1002
{
1000
TPMLINK_area-_-ade
1070
   515
1071
        3
1004
0100854700005C3500005C3500000000000061452393DE31BA3F61452393DE31BA3F5E3A000000000000
1002
}
1002
{
1000
TPMLINK_area-_-ade
1070
   515
1071
        4
1004
010028200000D80B0000D80B00000000000057CA2393DE31BA3F57CA2393DE31BA3FB119000000000000
1002
}
1001
ADE
1011
-0.0054345751917708
1021
0.0
1031
0.0
1021
-0.0011184421528014
1031
0.0
1001
DCO15
1071
        7
1071
        7
1000
collections
1004
0730324133323900
  0
VERTEX
  5
418
  8
COLLECTIONS
 10
611.16784929571713
 20
4485.2453633003797
 30
0.1
  0
VERTEX
  5
419
  8
COLLECTIONS
 10
611.16104144744224
 20
4485.2548131092408
 30
0.1
  0
VERTEX
  5
41A
  8
COLLECTIONS
 10
611.15249603010625
 20
4485.258704836132
 30
0.1
  0
VERTEX
  5
41B
  8
COLLECTIONS
 10
611.14126729630482
 20
4485.2591175923089
 30
0.1
  0
VERTEX
  5
41C
  8
COLLECTIONS
 10
611.13752566256835
 20
4485.2546553509001
 30
0.1
  0
VERTEX
  5
41D
  8
COLLECTIONS
 10
611.13580685515194
 20
4485.2496076659227
 30
0.1
  0
VERTEX
  5
41E
  8
COLLECTIONS
 10
611.13558171541911
 20
4485.2434829020322
 30
0.1
  0
VERTEX
  5
41F
  8
COLLECTIONS
 10
611.13579192609996
 20
4485.2352977885321
 30
0.1
  0
VERTEX
  5
420
  8
COLLECTIONS
 10
611.14583101112009
 20
4485.230328982726
 30
0.1
  0
VERTEX
  5
421
  8
COLLECTIONS
 10
611.15808053890362
 20
4485.2298787032578
 30
0.1
  0
VERTEX
  5
422
  8
COLLECTIONS
 10
611.16590534856755
 20
4485.2341908515127
 30
0.1
  0
VERTEX
  5
423
  8
COLLECTIONS
 10
611.16919287024621
 20
4485.2402030455369
 30
0.1
  0
SEQEND
  5
424
  8
COLLECTIONS
  0
POLYLINE
  5
B6
  8
COLLECTIONS
 66
     1
 10
0.0
 20
0.0
 30
0.0833333333333333
 70
     1
1001
IRD
1002
{
1000
TPMLINK_collections2-_-ade
1070
   515
1071
        2
1004
0100D60B000027040000270400000000000074B76A727E31BF3F74B76A727E31BF3F0000000039050000
1002
}
1002
{
1000
TPMLINK_area-_-ade
1070
   515
1071
        3
1004
010028480000953700009537000000000000261A6A727E31BF3F261A6A727E31BF3F00000000023B0000
1002
}
1002
{
1000
TPMLINK_area-_-ade
1070
   515
1071
        4
1004
0100BF200000120E0000120E000000000000312C6A727E31BF3F312C6A727E31BF3F000000000D190000
1002
}
1001
ADE
1011
-0.0116001157073242
1021
0.0
1031
0.0
1021
0.0153397651783962
1031
0.0
1001
DCO15
1071
        7
1071
        7
1000
collections
1004
0730324231373500
  0
VERTEX
  5
425
  8
COLLECTIONS
 10
608.60350198099729
 20
4478.5750666258173
 30
0.0833333333333333
  0
VERTEX
  5
426
  8
COLLECTIONS
 10
608.59383891467007
 20
4478.5738988766061
 30
0.0833333333333333
  0
VERTEX
  5
427
  8
COLLECTIONS
 10
608.58710687550433
 20
4478.5809286801414
 30
0.0833333333333333
  0
VERTEX
  5
428
  8
COLLECTIONS
 10
608.58491247254017
 20
4478.5910854767526
 30
0.0833333333333333
  0
VERTEX
  5
429
  8
COLLECTIONS
 10
608.57967730150119
 20
4478.6001764264292
 30
0.0833333333333333
  0
VERTEX
  5
42A
  8
COLLECTIONS
 10
608.57905815303081
 20
4478.6073002936018
 30
0.0833333333333333
  0
VERTEX
  5
42B
  8
COLLECTIONS
 10
608.57947349694905
 20
4478.6134210229329
 30
0.0833333333333333
  0
VERTEX
  5
42C
  8
COLLECTIONS
 10
608.58656600957693
 20
4478.6160778016392
 30
0.0833333333333333
  0
VERTEX
  5
42D
  8
COLLECTIONS
 10
608.59368987675123
 20
4478.6166969501082
 30
0.0833333333333333
  0
VERTEX
  5
42E
  8
COLLECTIONS
 10
608.59930903716167
 20
4478.6157643599963
 30
0.0833333333333333
  0
VERTEX
  5
42F
  8
COLLECTIONS
 10
608.59951284171359
 20
4478.602519763489
 30
0.0833333333333333
  0
VERTEX
  5
430
  8
COLLECTIONS
 10
608.60524174303714
 20
4478.5944554675661
 30
0.0833333333333333
  0
VERTEX
  5
431
  8
COLLECTIONS
 10
608.60698944753642
 20
4478.5802155718538
 30
0.0833333333333333
  0
VERTEX
  5
432
  8
COLLECTIONS
 10
608.60809448765519
 20
4478.57462776599
 30
0.0833333333333333
  0
SEQEND
  5
433
  8
COLLECTIONS
  0
POLYLINE
  5
B7
  8
COLLECTIONS
 66
     1
 10
0.0
 20
0.0
 30
0.2083333333333333
 70
     1
1001
IRD
1002
{
1000
TPMLINK_area-_-ade
1070
   515
1071
        1
1004
0100B04D00007C2C00007C2C0000000000007EADB8F67DE7CC3F7EADB8F67DE7CC3F000000007C400000
1002
}
1002
{
1000
TPMLINK_area-_-ade
1070
   515
1071
        2
1004
010038260000250200002502000000000000CACAB8F67DE7CC3FCACAB8F67DE7CC3F000000001C130000
1002
}
1001
ADE
1011
-0.019959082111086
1021
0.0
1031
0.0
1021
-0.0221576710864611
1031
0.0
1001
DCO15
1071
       12
1071
       12
1000
collections
1004
0730344139353000
  0
VERTEX
  5
434
  8
COLLECTIONS
 10
632.36009667778535
 20
4499.9039610152759
 30
0.2083333333333333
  0
VERTEX
  5
435
  8
COLLECTIONS
 10
632.41349029994808
 20
4499.9593507270147
 30
0.2083333333333333
  0
VERTEX
  5
436
  8
COLLECTIONS
 10
632.44286595883898
 20
4499.9412884416324
 30
0.2083333333333333
  0
VERTEX
  5
437
  8
COLLECTIONS
 10
632.39488472270864
 20
4499.884348774418
 30
0.2083333333333333
  0
SEQEND
  5
438
  8
COLLECTIONS
  0
POLYLINE
  5
B8
  8
COLLECTIONS
 66
     1
 10
0.0
 20
0.0
 30
0.0555555555555556
 70
     1
1001
IRD
1002
{
1000
TPMLINK_area-_-ade
1070
   515
1071
        1
1004
0100B14D0000612C0000612C0000000000002FD69CB6CF58D43F2FD69CB6CF58D43F0000000083400000
1002
}
1002
{
1000
TPMLINK_area-_-ade
1070
   515
1071
        2
1004
0100392600000A0200000A020000000000002FD69CB6CF58D43F2FD69CB6CF58D43F0000000015130000
1002
}
1001
ADE
1011
-0.0164552621289431
1021
0.0
1031
0.0
1021
-0.0457632067336817
1031
0.0
1001
DCO15
1071
       12
1071
       12
1000
collections
1004
0730344139333900
  0
VERTEX
  5
439
  8
COLLECTIONS
 10
632.45244274397669
 20
4500.0054692264048
 30
0.0555555555555556
  0
VERTEX
  5
43A
  8
COLLECTIONS
 10
632.41559153928665
 20
4500.0235360562647
 30
0.0555555555555556
  0
VERTEX
  5
43B
  8
COLLECTIONS
 10
632.50277907923589
 20
4500.1201496301273
 30
0.0555555555555556
  0
VERTEX
  5
43C
  8
COLLECTIONS
 10
632.52338544723295
 20
4500.0941015720691
 30
0.0555555555555556
  0
SEQEND
  5
43D
  8
COLLECTIONS
  0
POLYLINE
  5
B9
  8
COLLECTIONS
 66
     1
 10
0.0
 20
0.0
 30
0.25
 70
     1
1001
IRD
1002
{
1000
TPMLINK_area-_-ade
1070
   515
1071
        1
1004
0100B24D00007A2C00007A2C0000000000005427125AE964D53F5427125AE964D53F0000000084400000
1002
}
1002
{
1000
TPMLINK_area-_-ade
1070
   515
1071
        2
1004
01003A260000230200002302000000000000B064125AE964D53FB064125AE964D53F0000000014130000
1002
}
1001
ADE
1011
-0.0331295176398498
1021
0.0
1031
0.0
1021
-0.049294856805318
1031
0.0
1001
DCO15
1071
       12
1071
       12
1000
collections
1004
0730344139343000
  0
VERTEX
  5
43E
  8
COLLECTIONS
 10
632.33174601712369
 20
4499.911969353624
 30
0.25
  0
VERTEX
  5
43F
  8
COLLECTIONS
 10
632.41198171487099
 20
4500.0219915855032
 30
0.25
  0
VERTEX
  5
440
  8
COLLECTIONS
 10
632.44702644029337
 20
4500.0005747458472
 30
0.25
  0
VERTEX
  5
441
  8
COLLECTIONS
 10
632.35803555519681
 20
4499.9057667110119
 30
0.25
  0
SEQEND
  5
442
  8
COLLECTIONS
  0
POLYLINE
  5
BA
  8
COLLECTIONS
 66
     1
 10
0.0
 20
0.0
 30
0.2261904761904762
 70
     1
1001
IRD
1002
{
1000
TPMLINK_area-_-ade
1070
   515
1071
        1
1004
0100B34D00005C2C00005C2C0000000000001EF8AA52ABD6D63F1EF8AA52ABD6D63F8540000000000000
1002
}
1002
{
1000
TPMLINK_area-_-ade
1070
   515
1071
        2
1004
01003B2600000502000005020000000000001EF8AA52ABD6D63F1EF8AA52ABD6D63F1313000000000000
1002
}
1001
ADE
1011
-0.0307345536903085
1021
0.0
1031
0.0
1021
-0.0525673285446828
1031
0.0
1001
DCO15
1071
       12
1071
       12
1000
collections
1004
0730344139333300
  0
VERTEX
  5
443
  8
COLLECTIONS
 10
632.40708441360346
 20
4500.0227678952406
 30
0.2261904761904762
  0
VERTEX
  5
444
  8
COLLECTIONS
 10
632.3738513387492
 20
4500.0560414002593
 30
0.2261904761904762
  0
VERTEX
  5
445
  8
COLLECTIONS
 10
632.29258547147242
 20
4499.9475664598522
 30
0.2261904761904762
  0
VERTEX
  5
446
  8
COLLECTIONS
 10
632.32607977130147
 20
4499.9199639018407
 30
0.2261904761904762
  0
SEQEND
  5
447
  8
COLLECTIONS
  0
POLYLINE
  5
BB
  8
COLLECTIONS
 66
     1
 10
0.0
 20
0.0
 30
0.1590909090909091
 70
     1
1001
IRD
1002
{
1000
TPMLINK_area-_-ade
1070
   515
1071
        1
1004
0100B44D0000552C0000552C0000000000001D929E968CA9D53F1D929E968CA9D53F0000000081400000
1002
}
1002
{
1000
TPMLINK_area-_-ade
1070
   515
1071
        2
1004
01003C260000FE010000FE010000000000001D929E968CA9D53F1D929E968CA9D53F0000000017130000
1002
}
1001
ADE
1011
-0.0225084584899378
1021
0.0
1031
0.0
1021
-0.0519987396673969
1031
0.0
1001
DCO15
1071
       12
1071
       12
1000
collections
1004
0730344139333400
  0
VERTEX
  5
448
  8
COLLECTIONS
 10
632.37978084672466
 20
4500.0570689057849
 30
0.1590909090909091
  0
VERTEX
  5
449
  8
COLLECTIONS
 10
632.46980299829261
 20
4500.1521340912332
 30
0.1590909090909091
  0
VERTEX
  5
44A
  8
COLLECTIONS
 10
632.49401558646605
 20
4500.1217016227829
 30
0.1590909090909091
  0
VERTEX
  5
44B
  8
COLLECTIONS
 10
632.41456293681813
 20
4500.0276611221534
 30
0.1590909090909091
  0
SEQEND
  5
44C
  8
COLLECTIONS
  0
POLYLINE
  5
BC
  8
COLLECTIONS
 66
     1
 10
0.0
 20
0.0
 30
0.125
 70
     1
1001
IRD
1002
{
1000
TPMLINK_area-_-ade
1070
   515
1071
        1
1004
0100B54D0000522C0000522C000000000000C6D478D12316D53FC6D478D12316D53F0000000082400000
1002
}
1002
{
1000
TPMLINK_area-_-ade
1070
   515
1071
        2
1004
01003D260000FB010000FB0100000000000042D378D12316D53F42D378D12316D53F0000000016130000
1002
}
1001
ADE
1011
-0.0318395230279975
1021
0.0
1031
0.0
1021
-0.0497588290118074
1031
0.0
1001
DCO15
1071
       12
1071
       12
1000
collections
1004
0730344139333100
  0
VERTEX
  5
44D
  8
COLLECTIONS
 10
632.37574950605767
 20
4500.0617244659934
 30
0.125
  0
VERTEX
  5
44E
  8
COLLECTIONS
 10
632.34989621460522
 20
4500.0859581571203
 30
0.125
  0
VERTEX
  5
44F
  8
COLLECTIONS
 10
632.43734121858392
 20
4500.1820560193946
 30
0.125
  0
VERTEX
  5
450
  8
COLLECTIONS
 10
632.46233011649599
 20
4500.1565208522079
 30
0.125
  0
SEQEND
  5
451
  8
COLLECTIONS
  0
POLYLINE
  5
BD
  8
COLLECTIONS
 66
     1
 10
0.0
 20
0.0
 30
0.25
 70
     1
1001
IRD
1002
{
1000
TPMLINK_area-_-ade
1070
   515
1071
        1
1004
0100B64D0000652C0000652C000000000000CCA5F48A65D3D63FCCA5F48A65D3D63F0000000086400000
1002
}
1002
{
1000
TPMLINK_area-_-ade
1070
   515
1071
        2
1004
01003E2600000E0200000E02000000000000CCA5F48A65D3D63FCCA5F48A65D3D63F0000000012130000
1002
}
1001
ADE
1011
-0.0247741008787443
1021
0.0
1031
0.0
1021
-0.0524670606037034
1031
0.0
1001
DCO15
1071
       12
1071
       12
1000
collections
1004
0730344139333200
  0
VERTEX
  5
452
  8
COLLECTIONS
 10
632.25239209228971
 20
4499.9803286410524
 30
0.25
  0
VERTEX
  5
453
  8
COLLECTIONS
 10
632.34577083530712
 20
4500.0844139997671
 30
0.25
  0
VERTEX
  5
454
  8
COLLECTIONS
 10
632.36998655760135
 20
4500.0591370801449
 30
0.25
  0
VERTEX
  5
455
  8
COLLECTIONS
 10
632.28717418238227
 20
4499.9509208574209
 30
0.25
  0
SEQEND
  5
456
  8
COLLECTIONS
  0
POLYLINE
  5
BE
  8
COLLECTIONS
 66
     1
 10
0.0
 20
0.0
 30
0.0277777777777778
 70
     1
1001
IRD
1002
{
1000
TPMLINK_area-_-ade
1070
   515
1071
        1
1004
0100B74D00003D2C00003D2C00000000000026D2F69F0D8CD63F26D2F69F0D8CD63F8740000000000000
1002
}
1002
{
1000
TPMLINK_area-_-ade
1070
   515
1071
        2
1004
01003F260000E2010000E20100000000000026D2F69F0D8CD63F26D2F69F0D8CD63F1113000000000000
1002
}
1001
ADE
1011
-0.0272399600655717
1021
0.0
1031
0.0
1021
-0.0518657829688891
1031
0.0
1001
DCO15
1071
       12
1071
       12
1000
collections
1004
0730344139333000
  0
VERTEX
  5
457
  8
COLLECTIONS
 10
632.30830675771244
 20
4500.1255358694771
 30
0.0277777777777778
  0
VERTEX
  5
458
  8
COLLECTIONS
 10
632.34293468914848
 20
4500.089822255085
 30
0.0277777777777778
  0
VERTEX
  5
459
  8
COLLECTIONS
 10
632.42935011790155
 20
4500.1820608772796
 30
0.0277777777777778
  0
VERTEX
  5
45A
  8
COLLECTIONS
 10
632.39968895276195
 20
4500.2177022291917
 30
0.0277777777777778
  0
SEQEND
  5
45B
  8
COLLECTIONS
  0
POLYLINE
  5
BF
  8
COLLECTIONS
 66
     1
 10
0.0
 20
0.0
 30
0.2368421052631579
 70
     1
1001
IRD
1002
{
1000
TPMLINK_area-_-ade
1070
   515
1071
        1
1004
0100B84D0000422C0000422C000000000000AFAF72243CB5D83FAFAF72243CB5D83F8840000000000000
1002
}
1002
{
1000
TPMLINK_area-_-ade
1070
   515
1071
        2
1004
010040260000E8010000E801000000000000AFAF72243CB5D83FAFAF72243CB5D83F1013000000000000
1002
}
1001
ADE
1011
-0.0257885015284956
1021
0.0
1031
0.0
1021
-0.0471029613654537
1031
0.0
1001
DCO15
1071
       12
1071
       12
1000
collections
1004
0730344139323900
  0
VERTEX
  5
45C
  8
COLLECTIONS
 10
632.30661107318645
 20
4500.1212999932013
 30
0.2368421052631579
  0
VERTEX
  5
45D
  8
COLLECTIONS
 10
632.20034518186765
 20
4500.0200580216433
 30
0.2368421052631579
  0
VERTEX
  5
45E
  8
COLLECTIONS
 10
632.24569552023229
 20
4499.9896127032962
 30
0.2368421052631579
  0
VERTEX
  5
45F
  8
COLLECTIONS
 10
632.34087510109975
 20
4500.0877680839203
 30
0.2368421052631579
  0
SEQEND
  5
460
  8
COLLECTIONS
  0
POLYLINE
  5
C0
  8
COLLECTIONS
 66
     1
 10
0.0
 20
0.0
 30
0.2115384615384615
 70
     1
1001
IRD
1002
{
1000
TPMLINK_area-_-ade
1070
   515
1071
        1
1004
0100BA4D0000352C0000352C00000000000092588D1EE576D43F92588D1EE576D43F8A40000000000000
1002
}
1002
{
1000
TPMLINK_area-_-ade
1070
   515
1071
        2
1004
010042260000D9010000D90100000000000092588D1EE576D43F92588D1EE576D43F0E13000000000000
1002
}
1001
ADE
1011
-0.0296861182417843
1021
0.0
1031
0.0
1021
-0.0168016692632591
1031
0.0
1001
DCO15
1071
       12
1071
       12
1000
collections
1004
0730344139343200
  0
VERTEX
  5
461
  8
COLLECTIONS
 10
632.24064574799161
 20
4500.163615610335
 30
0.2115384615384615
  0
VERTEX
  5
462
  8
COLLECTIONS
 10
632.28959118040245
 20
4500.1104836832637
 30
0.2115384615384615
  0
VERTEX
  5
463
  8
COLLECTIONS
 10
632.35923324349756
 20
4500.1797835043571
 30
0.2115384615384615
  0
VERTEX
  5
464
  8
COLLECTIONS
 10
632.32382207726005
 20
4500.2162561483456
 30
0.2115384615384615
  0
SEQEND
  5
465
  8
COLLECTIONS
  0
POLYLINE
  5
C1
  8
COLLECTIONS
 66
     1
 10
0.0
 20
0.0
 30
0.2205882352941177
 70
     1
1001
IRD
1002
{
1000
TPMLINK_area-_-ade
1070
   515
1071
        1
1004
0100BB4D0000412C0000412C0000000000003A68C684573BD53F3A68C684573BD53F000000008B400000
1002
}
1002
{
1000
TPMLINK_area-_-ade
1070
   515
1071
        2
1004
010043260000E6010000E6010000000000003A68C684573BD53F3A68C684573BD53F000000000D130000
1002
}
1001
ADE
1011
-0.0069747349556337
1021
0.0
1031
0.0
1021
-0.0459992682599477
1031
0.0
1001
DCO15
1071
       12
1071
       12
1000
collections
1004
0730344139343100
  0
VERTEX
  5
466
  8
COLLECTIONS
 10
632.16921679388486
 20
4500.123187959618
 30
0.2205882352941177
  0
VERTEX
  5
467
  8
COLLECTIONS
 10
632.23445783575039
 20
4500.1615571517459
 30
0.2205882352941177
  0
VERTEX
  5
468
  8
COLLECTIONS
 10
632.28391913645612
 20
4500.1089404661507
 30
0.2205882352941177
  0
VERTEX
  5
469
  8
COLLECTIONS
 10
632.21634274042526
 20
4500.0453104951202
 30
0.2205882352941177
  0
SEQEND
  5
46A
  8
COLLECTIONS
  0
POLYLINE
  5
C2
  8
COLLECTIONS
 66
     1
 10
0.0
 20
0.0
 30
0.25
 70
     1
1001
IRD
1002
{
1000
TPMLINK_area-_-ade
1070
   515
1071
        1
1004
0100BC4D0000232C0000232C0000000000004301BE93C283D33F4301BE93C283D33F8C40000000000000
1002
}
1002
{
1000
TPMLINK_area-_-ade
1070
   515
1071
        2
1004
010044260000C7010000C7010000000000004301BE93C283D33F4301BE93C283D33F0C13000000000000
1002
}
1001
ADE
1011
-0.0045537394280473
1021
0.0
1031
0.0
1021
-0.0168352430582672
1031
0.0
1001
DCO15
1071
       12
1071
       12
1000
collections
1004
0730344139343500
  0
VERTEX
  5
46B
  8
COLLECTIONS
 10
632.2319148500809
 20
4500.2187853107889
 30
0.25
  0
VERTEX
  5
46C
  8
COLLECTIONS
 10
632.26282620419636
 20
4500.1826776642747
 30
0.25
  0
VERTEX
  5
46D
  8
COLLECTIONS
 10
632.3446166508337
 20
4500.233720820529
 30
0.25
  0
VERTEX
  5
46E
  8
COLLECTIONS
 10
632.32011250118444
 20
4500.2808560806889
 30
0.25
  0
SEQEND
  5
46F
  8
COLLECTIONS
  0
POLYLINE
  5
C3
  8
COLLECTIONS
 66
     1
 10
0.0
 20
0.0
 30
0.1071428571428571
 70
     1
1001
IRD
1002
{
1000
TPMLINK_area-_-ade
1070
   515
1071
        1
1004
0100BD4D0000362C0000362C00000000000014BC735B895BD33F14BC735B895BD33F000000008D400000
1002
}
1002
{
1000
TPMLINK_area-_-ade
1070
   515
1071
        2
1004
010045260000DA010000DA01000000000000D210745B895BD33FD210745B895BD33F000000000B130000
1002
}
1001
ADE
1011
-0.0362866004471698
1021
0.0
1031
0.0
1021
-0.0241776162692986
1031
0.0
1001
DCO15
1071
       12
1071
       12
1000
collections
1004
0730344139343400
  0
VERTEX
  5
470
  8
COLLECTIONS
 10
632.14191510747844
 20
4500.1605822994561
 30
0.1071428571428571
  0
VERTEX
  5
471
  8
COLLECTIONS
 10
632.22598455857485
 20
4500.2164689180572
 30
0.1071428571428571
  0
VERTEX
  5
472
  8
COLLECTIONS
 10
632.25998861516246
 20
4500.1793282813032
 30
0.1071428571428571
  0
VERTEX
  5
473
  8
COLLECTIONS
 10
632.16612471823703
 20
4500.1252520596199
 30
0.1071428571428571
  0
SEQEND
  5
474
  8
COLLECTIONS
  0
POLYLINE
  5
C4
  8
COLLECTIONS
 66
     1
 10
0.0
 20
0.0
 30
0.125
 70
     1
1001
IRD
1002
{
1000
TPMLINK_area-_-ade
1070
   515
1071
        1
1004
0100BE4D0000332C0000332C00000000000014972071E751D43F14972071E751D43F000000008E400000
1002
}
1002
{
1000
TPMLINK_area-_-ade
1070
   515
1071
        2
1004
010046260000D7010000D7010000000000009B422071E751D43F9B422071E751D43F000000000A130000
1002
}
1001
ADE
1011
-0.0294576956628134
1021
0.0
1031
0.0
1021
-0.0174388087498301
1031
0.0
1001
DCO15
1071
       12
1071
       12
1000
collections
1004
0730344139343600
  0
VERTEX
  5
475
  8
COLLECTIONS
 10
632.13985664889276
 20
4500.1667702116993
 30
0.125
  0
VERTEX
  5
476
  8
COLLECTIONS
 10
632.1076673769943
 20
4500.2209230626404
 30
0.125
  0
VERTEX
  5
477
  8
COLLECTIONS
 10
632.19173181349686
 20
4500.2685608031161
 30
0.125
  0
VERTEX
  5
478
  8
COLLECTIONS
 10
632.22418278048849
 20
4500.2208522315022
 30
0.125
  0
SEQEND
  5
479
  8
COLLECTIONS
  0
POLYLINE
  5
C5
  8
COLLECTIONS
 66
     1
 10
0.0
 20
0.0
 30
0.25
 70
     1
1001
IRD
1002
{
1000
TPMLINK_area-_-ade
1070
   515
1071
        1
1004
01002F4E0000A22B0000A22B000000000000CA19130AF6A6C33FCA19130AF6A6C33F0041000000000000
1002
}
1002
{
1000
TPMLINK_area-_-ade
1070
   515
1071
        2
1004
0100B7260000350100003501000000000000CA19130AF6A6C33FCA19130AF6A6C33F8D12000000000000
1002
}
1001
ADE
1011
0.0052799398214347
1021
0.0
1031
0.0
1021
0.0025962950612666
1031
0.0
1001
DCO15
1071
       12
1071
       12
1000
collections
1004
0730344139313700
  0
VERTEX
  5
47A
  8
COLLECTIONS
 10
630.98117564952236
 20
4501.0406364997189
 30
0.25
  0
VERTEX
  5
47B
  8
COLLECTIONS
 10
630.96438016890625
 20
4501.0395738650313
 30
0.25
  0
VERTEX
  5
47C
  8
COLLECTIONS
 10
630.94946728489992
 20
4501.0250608165343
 30
0.25
  0
VERTEX
  5
47D
  8
COLLECTIONS
 10
630.94284938506155
 20
4501.013016755659
 30
0.25
  0
VERTEX
  5
47E
  8
COLLECTIONS
 10
630.94722201326522
 20
4500.9928200909726
 30
0.25
  0
VERTEX
  5
47F
  8
COLLECTIONS
 10
630.99183999596323
 20
4501.0084785299168
 30
0.25
  0
VERTEX
  5
480
  8
COLLECTIONS
 10
630.9869721673042
 20
4501.0302309425488
 30
0.25
  0
SEQEND
  5
481
  8
COLLECTIONS
  0
POLYLINE
  5
C6
  8
COLLECTIONS
 66
     1
 10
0.0
 20
0.0
 30
0.125
 70
     1
1001
IRD
1002
{
1000
TPMLINK_area-_-ade
1070
   515
1071
        1
1004
01005F4E00002F3100002F310000000000003CA6B9C24A6DD03F3CA6B9C24A6DD03F2441000000000000
1002
}
1002
{
1000
TPMLINK_area-_-ade
1070
   515
1071
        2
1004
0100E72600006807000068070000000000003CA6B9C24A6DD03F3CA6B9C24A6DD03F5B12000000000000
1002
}
1001
ADE
1011
-0.0023284656512033
1021
0.0
1031
0.0
1021
0.0137914863498736
1031
0.0
1001
DCO15
1071
       12
1071
       12
1000
collections
1004
0730344239333400
  0
VERTEX
  5
482
  8
COLLECTIONS
 10
628.27236762785071
 20
4494.3975597061708
 30
0.125
  0
VERTEX
  5
483
  8
COLLECTIONS
 10
628.25623333032445
 20
4494.457233804068
 30
0.125
  0
VERTEX
  5
484
  8
COLLECTIONS
 10
628.19677991688116
 20
4494.4374906426337
 30
0.125
  0
VERTEX
  5
485
  8
COLLECTIONS
 10
628.21003593848513
 20
4494.3734665490547
 30
0.125
  0
SEQEND
  5
486
  8
COLLECTIONS
  0
POLYLINE
  5
C7
  8
COLLECTIONS
 66
     1
 10
0.0
 20
0.0
 30
0.25
 70
     1
1001
IRD
1002
{
1000
TPMLINK_area-_-ade
1070
   515
1071
        1
1004
0100674E0000353000003530000000000000D16647B6977ED33FD16647B6977ED33F5441000000000000
1002
}
1002
{
1000
TPMLINK_area-_-ade
1070
   515
1071
        2
1004
0100EF260000570600005706000000000000CC5E47B6977ED33FCC5E47B6977ED33F2812000000000000
1002
}
1001
ADE
1011
-0.0213963308133316
1021
0.0
1031
0.0
1021
-0.0063737941154614
1031
0.0
1001
DCO15
1071
       12
1071
       12
1000
collections
1004
0730344239373300
  0
VERTEX
  5
487
  8
COLLECTIONS
 10
627.66171511494656
 20
4495.167636179106
 30
0.25
  0
VERTEX
  5
488
  8
COLLECTIONS
 10
627.70590759068784
 20
4495.1813527563281
 30
0.25
  0
VERTEX
  5
489
  8
COLLECTIONS
 10
627.75024430842598
 20
4495.183990426005
 30
0.25
  0
VERTEX
  5
48A
  8
COLLECTIONS
 10
627.76671147033392
 20
4495.1820186114292
 30
0.25
  0
VERTEX
  5
48B
  8
COLLECTIONS
 10
627.76711213425335
 20
4495.2211719435763
 30
0.25
  0
VERTEX
  5
48C
  8
COLLECTIONS
 10
627.731349617506
 20
4495.2256597435689
 30
0.25
  0
VERTEX
  5
48D
  8
COLLECTIONS
 10
627.69678805306978
 20
4495.2216339693532
 30
0.25
  0
VERTEX
  5
48E
  8
COLLECTIONS
 10
627.65573407690965
 20
4495.2125223395778
 30
0.25
  0
SEQEND
  5
48F
  8
COLLECTIONS
  0
POLYLINE
  5
C8
  8
COLLECTIONS
 66
     1
 10
0.0
 20
0.0
 30
0.1944444444444444
 70
     1
1001
IRD
1002
{
1000
TPMLINK_area-_-ade
1070
   515
1071
        1
1004
0100694E0000493000004930000000000000E5A319BCB532D53FE5A319BCB532D53F4041000000000000
1002
}
1002
{
1000
TPMLINK_area-_-ade
1070
   515
1071
        2
1004
0100F12600006E0600006E06000000000000D44719BCB532D53FD44719BCB532D53F3C12000000000000
1002
}
1001
ADE
1011
-0.030082039820968
1021
0.0
1031
0.0
1021
-0.0208559617103674
1031
0.0
1001
DCO15
1071
       12
1071
       12
1000
collections
1004
0730344239373200
  0
VERTEX
  5
490
  8
COLLECTIONS
 10
627.60398953881429
 20
4495.0901696467763
 30
0.1944444444444444
  0
VERTEX
  5
491
  8
COLLECTIONS
 10
627.70789228063086
 20
4495.0983805178112
 30
0.1944444444444444
  0
VERTEX
  5
492
  8
COLLECTIONS
 10
627.70019321399195
 20
4495.1767741683479
 30
0.1944444444444444
  0
VERTEX
  5
493
  8
COLLECTIONS
 10
627.66219865900757
 20
4495.1645398546752
 30
0.1944444444444444
  0
VERTEX
  5
494
  8
COLLECTIONS
 10
627.62032183672295
 20
4495.1505419662162
 30
0.1944444444444444
  0
VERTEX
  5
495
  8
COLLECTIONS
 10
627.61117710542567
 20
4495.138012426497
 30
0.1944444444444444
  0
VERTEX
  5
496
  8
COLLECTIONS
 10
627.60500480905796
 20
4495.113859808389
 30
0.1944444444444444
  0
SEQEND
  5
497
  8
COLLECTIONS
  0
POLYLINE
  5
C9
  8
COLLECTIONS
 66
     1
 10
0.0
 20
0.0
 30
0.2023809523809524
 70
     1
1001
IRD
1002
{
1000
TPMLINK_area-_-ade
1070
   515
1071
        1
1004
01006A4E00006A3000006A3000000000000084D178F1D3A2D73F84D178F1D3A2D73F5041000000000000
1002
}
1002
{
1000
TPMLINK_area-_-ade
1070
   515
1071
        2
1004
0100F226000095060000950600000000000084D178F1D3A2D73F84D178F1D3A2D73F2C12000000000000
1002
}
1001
ADE
1011
0.0003346130645241
1021
0.0
1031
0.0
1021
-0.0203547011014962
1031
0.0
1001
DCO15
1071
       12
1071
       12
1000
collections
1004
0730344239363900
  0
VERTEX
  5
498
  8
COLLECTIONS
 10
627.6133855464816
 20
4494.9762078044751
 30
0.2023809523809524
  0
VERTEX
  5
499
  8
COLLECTIONS
 10
627.68657208790671
 20
4494.9785502481109
 30
0.2023809523809524
  0
VERTEX
  5
49A
  8
COLLECTIONS
 10
627.67639804521139
 20
4495.0920048228254
 30
0.2023809523809524
  0
VERTEX
  5
49B
  8
COLLECTIONS
 10
627.6031561489026
 20
4495.0842530372493
 30
0.2023809523809524
  0
SEQEND
  5
49C
  8
COLLECTIONS
  0
POLYLINE
  5
CA
  8
COLLECTIONS
 66
     1
 10
0.0
 20
0.0
 30
0.2307692307692308
 70
     1
1001
IRD
1002
{
1000
TPMLINK_area-_-ade
1070
   515
1071
        1
1004
01006B4E00004830000048300000000000000229ABE968A6D73F0229ABE968A6D73F0000000051410000
1002
}
1002
{
1000
TPMLINK_area-_-ade
1070
   515
1071
        2
1004
0100F32600006D0600006D060000000000000229ABE968A6D73F0229ABE968A6D73F000000002B120000
1002
}
1001
ADE
1011
-0.0006567814733671
1021
0.0
1031
0.0
1021
0.0115637695744226
1031
0.0
1001
DCO15
1071
       12
1071
       12
1000
collections
1004
0730344239363800
  0
VERTEX
  5
49D
  8
COLLECTIONS
 10
627.68103198807148
 20
4495.0916997880731
 30
0.2307692307692308
  0
VERTEX
  5
49E
  8
COLLECTIONS
 10
627.74726893318041
 20
4495.0946285776963
 30
0.2307692307692308
  0
VERTEX
  5
49F
  8
COLLECTIONS
 10
627.766973721201
 20
4494.9810764729446
 30
0.2307692307692308
  0
VERTEX
  5
4A0
  8
COLLECTIONS
 10
627.69377663598812
 20
4494.9777036784644
 30
0.2307692307692308
  0
SEQEND
  5
4A1
  8
COLLECTIONS
  0
POLYLINE
  5
CB
  8
COLLECTIONS
 66
     1
 10
0.0
 20
0.0
 30
0.2142857142857143
 70
     1
1001
IRD
1002
{
1000
TPMLINK_area-_-ade
1070
   515
1071
        1
1004
01006C4E0000663000006630000000000000555114C8E76ED83F555114C8E76ED83F5241000000000000
1002
}
1002
{
1000
TPMLINK_area-_-ade
1070
   515
1071
        2
1004
0100F4260000910600009106000000000000C89414C8E76ED83FC89414C8E76ED83F2A12000000000000
1002
}
1001
ADE
1011
0.0029330479118244
1021
0.0
1031
0.0
1021
0.032036720740507
1031
0.0
1001
DCO15
1071
       12
1071
       12
1000
collections
1004
0730344239373000
  0
VERTEX
  5
4A2
  8
COLLECTIONS
 10
627.77059840078925
 20
4494.9828426836712
 30
0.2142857142857143
  0
VERTEX
  5
4A3
  8
COLLECTIONS
 10
627.84378230626839
 20
4494.9849275395927
 30
0.2142857142857143
  0
VERTEX
  5
4A4
  8
COLLECTIONS
 10
627.82052400922362
 20
4495.1036683018292
 30
0.2142857142857143
  0
VERTEX
  5
4A5
  8
COLLECTIONS
 10
627.74857005147226
 20
4495.095903336517
 30
0.2142857142857143
  0
SEQEND
  5
4A6
  8
COLLECTIONS
  0
POLYLINE
  5
CC
  8
COLLECTIONS
 66
     1
 10
0.0
 20
0.0
 30
0.25
 70
     1
1001
IRD
1002
{
1000
TPMLINK_area-_-ade
1070
   515
1071
        1
1004
01006D4E0000693000006930000000000000365D9479784ED53F365D9479784ED53F4F41000000000000
1002
}
1002
{
1000
TPMLINK_area-_-ade
1070
   515
1071
        2
1004
0100F5260000940600009406000000000000924E9479784ED53F924E9479784ED53F2D12000000000000
1002
}
1001
ADE
1011
-0.0286508097003662
1021
0.0
1031
0.0
1021
0.0212285806455839
1031
0.0
1001
DCO15
1071
       12
1071
       12
1000
collections
1004
0730344239393000
  0
VERTEX
  5
4A7
  8
COLLECTIONS
 10
627.783953422585
 20
4494.9788417987611
 30
0.25
  0
VERTEX
  5
4A8
  8
COLLECTIONS
 10
627.80038748297238
 20
4494.9232864683008
 30
0.25
  0
VERTEX
  5
4A9
  8
COLLECTIONS
 10
627.92153278577757
 20
4494.9297752046295
 30
0.25
  0
VERTEX
  5
4AA
  8
COLLECTIONS
 10
627.84298318366564
 20
4494.9823595703192
 30
0.25
  0
SEQEND
  5
4AB
  8
COLLECTIONS
  0
POLYLINE
  5
CD
  8
COLLECTIONS
 66
     1
 10
0.0
 20
0.0
 30
0.0714285714285714
 70
     1
1001
IRD
1002
{
1000
TPMLINK_area-_-ade
1070
   515
1071
        1
1004
01006F4E0000843000008430000000000000ACAC41287566D23FACAC41287566D23F4D41000000000000
1002
}
1002
{
1000
TPMLINK_area-_-ade
1070
   515
1071
        2
1004
0100F7260000B0060000B006000000000000ACAC41287566D23FACAC41287566D23F2F12000000000000
1002
}
1001
ADE
1011
-0.0192473249027216
1021
0.0
1031
0.0
1021
-0.018673423567634
1031
0.0
1001
DCO15
1071
       12
1071
       12
1000
collections
1004
0730344239393200
  0
VERTEX
  5
4AC
  8
COLLECTIONS
 10
627.6207644977643
 20
4494.9168809164803
 30
0.0714285714285714
  0
VERTEX
  5
4AD
  8
COLLECTIONS
 10
627.71197163520674
 20
4494.9180084929922
 30
0.0714285714285714
  0
VERTEX
  5
4AE
  8
COLLECTIONS
 10
627.69487932318782
 20
4494.9344131272528
 30
0.0714285714285714
  0
VERTEX
  5
4AF
  8
COLLECTIONS
 10
627.69012559693135
 20
4494.9733615906234
 30
0.0714285714285714
  0
VERTEX
  5
4B0
  8
COLLECTIONS
 10
627.61152707761755
 20
4494.9708169141632
 30
0.0714285714285714
  0
SEQEND
  5
4B1
  8
COLLECTIONS
  0
POLYLINE
  5
CE
  8
COLLECTIONS
 66
     1
 10
0.0
 20
0.0
 30
0.0625
 70
     1
1001
IRD
1002
{
1000
TPMLINK_area-_-ade
1070
   515
1071
        1
1004
0100704E00009F3000009F3000000000000022F7971734CDD33F22F7971734CDD33F4C41000000000000
1002
}
1002
{
1000
TPMLINK_area-_-ade
1070
   515
1071
        2
1004
0100F8260000CB060000CB0600000000000022F7971734CDD33F22F7971734CDD33F3012000000000000
1002
}
1001
ADE
1011
-0.0226726229655014
1021
0.0
1031
0.0
1021
0.0128089500867645
1031
0.0
1001
DCO15
1071
       12
1071
       12
1000
collections
1004
0730344239383900
  0
VERTEX
  5
4B2
  8
COLLECTIONS
 10
627.64178241802199
 20
4494.8561263847478
 30
0.0625
  0
VERTEX
  5
4B3
  8
COLLECTIONS
 10
627.73996551124912
 20
4494.8592434923839
 30
0.0625
  0
VERTEX
  5
4B4
  8
COLLECTIONS
 10
627.71142219247486
 20
4494.9146651246347
 30
0.0625
  0
VERTEX
  5
4B5
  8
COLLECTIONS
 10
627.62226521293712
 20
4494.9124861097043
 30
0.0625
  0
SEQEND
  5
4B6
  8
COLLECTIONS
  0
POLYLINE
  5
CF
  8
COLLECTIONS
 66
     1
 10
0.0
 20
0.0
 30
0.1666666666666666
 70
     1
1001
IRD
1002
{
1000
TPMLINK_area-_-ade
1070
   515
1071
        1
1004
0100774E0000BE300000BE30000000000000B38E762890E7D13FB38E762890E7D13F4541000000000000
1002
}
1002
{
1000
TPMLINK_area-_-ade
1070
   515
1071
        2
1004
0100FF260000EC060000EC06000000000000B38E762890E7D13FB38E762890E7D13F3712000000000000
1002
}
1001
ADE
1011
-0.0178529980373696
1021
0.0
1031
0.0
1021
-0.0195772489696538
1031
0.0
1001
DCO15
1071
       12
1071
       12
1000
collections
1004
0730344239383500
  0
VERTEX
  5
4B7
  8
COLLECTIONS
 10
627.66360473277575
 20
4494.7984549977091
 30
0.1666666666666666
  0
VERTEX
  5
4B8
  8
COLLECTIONS
 10
627.74326787024415
 20
4494.8043377706326
 30
0.1666666666666666
  0
VERTEX
  5
4B9
  8
COLLECTIONS
 10
627.74069346328747
 20
4494.854856593447
 30
0.1666666666666666
  0
VERTEX
  5
4BA
  8
COLLECTIONS
 10
627.64610078233943
 20
4494.8501570562858
 30
0.1666666666666666
  0
SEQEND
  5
4BB
  8
COLLECTIONS
  0
POLYLINE
  5
D0
  8
COLLECTIONS
 66
     1
 10
0.0
 20
0.0
 30
0.0416666666666667
 70
     1
1001
IRD
1002
{
1000
TPMLINK_area-_-ade
1070
   515
1071
        1
1004
0100A84D0000752C0000752C000000000000CC4885E57987C73FCC4885E57987C73F0000000078400000
1002
}
1002
{
1000
TPMLINK_area-_-ade
1070
   515
1071
        2
1004
0100302600001E0200001E02000000000000CC4885E57987C73FCC4885E57987C73F0000000020130000
1002
}
1001
ADE
1011
0.0030050633632754
1021
0.0
1031
0.0
1021
0.0001444536683266
1031
0.0
1001
DCO15
1071
       12
1071
       12
1000
collections
1004
0730344139353400
  0
VERTEX
  5
4BC
  8
COLLECTIONS
 10
632.49750756792844
 20
4499.929397457644
 30
0.0416666666666667
  0
VERTEX
  5
4BD
  8
COLLECTIONS
 10
632.53414800699375
 20
4499.988664016897
 30
0.0416666666666667
  0
VERTEX
  5
4BE
  8
COLLECTIONS
 10
632.55707750608451
 20
4499.9677700973098
 30
0.0416666666666667
  0
VERTEX
  5
4BF
  8
COLLECTIONS
 10
632.5137419053159
 20
4499.9201075972751
 30
0.0416666666666667
  0
SEQEND
  5
4C0
  8
COLLECTIONS
  0
POLYLINE
  5
D1
  8
COLLECTIONS
 66
     1
 10
0.0
 20
0.0
 30
0.2830856334041047
 70
     1
1001
IRD
1002
{
1000
TPMLINK_area-_-ade
1070
   515
1071
        1
1004
0100AA4D00005F2C00005F2C000000000000C29B63411BAFC33FC29B63411BAFC33F000000007E400000
1002
}
1002
{
1000
TPMLINK_area-_-ade
1070
   515
1071
        2
1004
010032260000080200000802000000000000C29B63411BAFC33FC29B63411BAFC33F000000001A130000
1002
}
1001
ADE
1011
0.0059251405840541
1021
0.0
1031
0.0
1021
0.0026083689335792
1031
0.0
1001
DCO15
1071
       12
1071
       12
1000
collections
1004
0730344139333600
  0
VERTEX
  5
4C1
  8
COLLECTIONS
 10
632.5552970400214
 20
4500.007211142778
 30
0.2830856334041047
  0
VERTEX
  5
4C2
  8
COLLECTIONS
 10
632.57877437544175
 20
4500.0394190626967
 30
0.2830856334041047
  0
VERTEX
  5
4C3
  8
COLLECTIONS
 10
632.60660086238738
 20
4500.0172332784859
 30
0.2830856334041047
  0
VERTEX
  5
4C4
  8
COLLECTIONS
 10
632.58441131723146
 20
4499.9832201329446
 30
0.2830856334041047
  0
SEQEND
  5
4C5
  8
COLLECTIONS
  0
POLYLINE
  5
D2
  8
COLLECTIONS
 66
     1
 10
0.0
 20
0.0
 30
0.1
 70
     1
1001
IRD
1002
{
1000
TPMLINK_area-_-ade
1070
   515
1071
        1
1004
0100AD4D0000772C0000772C000000000000581285D687C2C93F581285D687C2C93F0000000079400000
1002
}
1002
{
1000
TPMLINK_area-_-ade
1070
   515
1071
        2
1004
0100352600002002000020020000000000005A2D85D687C2C93F5A2D85D687C2C93F000000001F130000
1002
}
1001
ADE
1011
0.0049961922810553
1021
0.0
1031
0.0
1021
-0.007131477830626
1031
0.0
1001
DCO15
1071
       12
1071
       12
1000
collections
1004
0730344139353300
  0
VERTEX
  5
4C6
  8
COLLECTIONS
 10
632.48564494773825
 20
4499.9214135654411
 30
0.1
  0
VERTEX
  5
4C7
  8
COLLECTIONS
 10
632.45420973331943
 20
4499.943859320977
 30
0.1
  0
VERTEX
  5
4C8
  8
COLLECTIONS
 10
632.49213294805554
 20
4499.9930717764892
 30
0.1
  0
VERTEX
  5
4C9
  8
COLLECTIONS
 10
632.52202557218345
 20
4499.9773291746633
 30
0.1
  0
SEQEND
  5
4CA
  8
COLLECTIONS
  0
POLYLINE
  5
D3
  8
COLLECTIONS
 66
     1
 10
0.0
 20
0.0
 30
0.125
 70
     1
1001
IRD
1002
{
1000
TPMLINK_area-_-ade
1070
   515
1071
        1
1004
0100AE4D0000852C0000852C000000000000FA594395D184CD3FFA594395D184CD3F000000007A400000
1002
}
1002
{
1000
TPMLINK_area-_-ade
1070
   515
1071
        2
1004
0100362600002E0200002E02000000000000FA594395D184CD3FFA594395D184CD3F000000001E130000
1002
}
1001
ADE
1011
-0.0144156015718409
1021
0.0
1031
0.0
1021
-0.0303899038153759
1031
0.0
1001
DCO15
1071
       12
1071
       12
1000
collections
1004
0730344139353200
  0
VERTEX
  5
4CB
  8
COLLECTIONS
 10
632.40029585509239
 20
4499.8807365994116
 30
0.125
  0
VERTEX
  5
4CC
  8
COLLECTIONS
 10
632.44827912840174
 20
4499.941027373362
 30
0.125
  0
VERTEX
  5
4CD
  8
COLLECTIONS
 10
632.48074466905587
 20
4499.9172921037953
 30
0.125
  0
VERTEX
  5
4CE
  8
COLLECTIONS
 10
632.43018518839358
 20
4499.8595806713174
 30
0.125
  0
SEQEND
  5
4CF
  8
COLLECTIONS
  0
POLYLINE
  5
D4
  8
COLLECTIONS
 66
     1
 10
0.0
 20
0.0
 30
0.1875
 70
     1
1001
IRD
1002
{
1000
TPMLINK_area-_-ade
1070
   515
1071
        1
1004
0100AF4D00006E2C00006E2C000000000000A8079311F227C93FA8079311F227C93F000000007B400000
1002
}
1002
{
1000
TPMLINK_area-_-ade
1070
   515
1071
        2
1004
01003726000017020000170200000000000024C19211F227C93F24C19211F227C93F000000001D130000
1002
}
1001
ADE
1011
-0.0148338190099366
1021
0.0
1031
0.0
1021
-0.0062692775218238
1031
0.0
1001
DCO15
1071
       12
1071
       12
1000
collections
1004
0730344139353100
  0
VERTEX
  5
4D0
  8
COLLECTIONS
 10
632.44776561069727
 20
4499.9443787935143
 30
0.1875
  0
VERTEX
  5
4D1
  8
COLLECTIONS
 10
632.41581155056895
 20
4499.9614115361928
 30
0.1875
  0
VERTEX
  5
4D2
  8
COLLECTIONS
 10
632.45785528671524
 20
4500.0041770483731
 30
0.1875
  0
VERTEX
  5
4D3
  8
COLLECTIONS
 10
632.49007292240935
 20
4499.9966819143128
 30
0.1875
  0
SEQEND
  5
4D4
  8
COLLECTIONS
  0
POLYLINE
  5
D5
  8
COLLECTIONS
 66
     1
 10
0.0
 20
0.0
 30
0.0833333333333333
 70
     1
1001
IRD
1002
{
1000
TPMLINK_collections2-_-ade
1070
   515
1071
        2
1004
01000E0C0000BE010000BE0100000000000083994B00E0ECC43F83994B00E0ECC43F0205000000000000
1002
}
1002
{
1000
TPMLINK_area-_-ade
1070
   515
1071
        3
1004
0100604800002C3500002C3500000000000048BF4B00E0ECC43F48BF4B00E0ECC43F393B000000000000
1002
}
1002
{
1000
TPMLINK_area-_-ade
1070
   515
1071
        4
1004
0100F2200000A80B0000A80B00000000000080BA4B00E0ECC43F80BA4B00E0ECC43FD618000000000000
1002
}
1001
ADE
1011
-0.021603725116961
1021
0.0
1031
0.0
1021
0.0106849410476571
1031
0.0
1001
DCO15
1071
        7
1071
        7
1000
collections
1004
0730324234323700
  0
VERTEX
  5
4D5
  8
COLLECTIONS
 10
608.72305712278796
 20
4485.8014130451693
 30
0.0833333333333333
  0
VERTEX
  5
4D6
  8
COLLECTIONS
 10
608.70395649453246
 20
4485.8115949888124
 30
0.0833333333333333
  0
VERTEX
  5
4D7
  8
COLLECTIONS
 10
608.69484234119955
 20
4485.8138715305286
 30
0.0833333333333333
  0
VERTEX
  5
4D8
  8
COLLECTIONS
 10
608.68969618290885
 20
4485.8119673177889
 30
0.0833333333333333
  0
VERTEX
  5
4D9
  8
COLLECTIONS
 10
608.68275618481755
 20
4485.7999170605653
 30
0.0833333333333333
  0
VERTEX
  5
4DA
  8
COLLECTIONS
 10
608.68092245262687
 20
4485.7882431255503
 30
0.0833333333333333
  0
VERTEX
  5
4DB
  8
COLLECTIONS
 10
608.69187433138279
 20
4485.7782739413233
 30
0.0833333333333333
  0
VERTEX
  5
4DC
  8
COLLECTIONS
 10
608.7094603665704
 20
4485.7686411869154
 30
0.0833333333333333
  0
VERTEX
  5
4DD
  8
COLLECTIONS
 10
608.72360100102276
 20
4485.7636851863454
 30
0.0833333333333333
  0
VERTEX
  5
4DE
  8
COLLECTIONS
 10
608.72991202509945
 20
4485.7711650694391
 30
0.0833333333333333
  0
VERTEX
  5
4DF
  8
COLLECTIONS
 10
608.73528424026915
 20
4485.7817273285218
 30
0.0833333333333333
  0
VERTEX
  5
4E0
  8
COLLECTIONS
 10
608.73908867251748
 20
4485.7908015894654
 30
0.0833333333333333
  0
VERTEX
  5
4E1
  8
COLLECTIONS
 10
608.73014738620952
 20
4485.7996989901503
 30
0.0833333333333333
  0
SEQEND
  5
4E2
  8
COLLECTIONS
  0
POLYLINE
  5
D6
  8
COLLECTIONS
 66
     1
 10
0.0
 20
0.0
 30
0.0595238095238095
 70
     1
1001
IRD
1002
{
1000
TPMLINK_collections2-_-ade
1070
   515
1071
        2
1004
0100150C0000B6010000B601000000000000BA169781981CD03FBA169781981CD03FFC04000000000000
1002
}
1002
{
1000
TPMLINK_area-_-ade
1070
   515
1071
        3
1004
01006748000024350000243500000000000098769781981CD03F98769781981CD03F3F3B000000000000
1002
}
1002
{
1000
TPMLINK_area-_-ade
1070
   515
1071
        4
1004
0100F9200000A00B0000A00B000000000000ED319781981CD03FED319781981CD03FD018000000000000
1002
}
1001
ADE
1011
-0.0360315947903018
1021
0.0
1031
0.0
1021
-0.0133149057746778
1031
0.0
1001
DCO15
1071
        7
1071
        7
1000
collections
1004
0730324234313500
  0
VERTEX
  5
4E3
  8
COLLECTIONS
 10
608.38447043949873
 20
4485.9310389951097
 30
0.0595238095238095
  0
VERTEX
  5
4E4
  8
COLLECTIONS
 10
608.29800965323909
 20
4485.9378832354887
 30
0.0595238095238095
  0
VERTEX
  5
4E5
  8
COLLECTIONS
 10
608.29600305402357
 20
4485.9195884415076
 30
0.0595238095238095
  0
VERTEX
  5
4E6
  8
COLLECTIONS
 10
608.29496185864161
 20
4485.8992298652238
 30
0.0595238095238095
  0
VERTEX
  5
4E7
  8
COLLECTIONS
 10
608.31473135330202
 20
4485.8951461862407
 30
0.0595238095238095
  0
VERTEX
  5
4E8
  8
COLLECTIONS
 10
608.38245453605191
 20
4485.8928683267559
 30
0.0595238095238095
  0
VERTEX
  5
4E9
  8
COLLECTIONS
 10
608.38450102765785
 20
4485.9126910112718
 30
0.0595238095238095
  0
SEQEND
  5
4EA
  8
COLLECTIONS
  0
POLYLINE
  5
D7
  8
COLLECTIONS
 66
     1
 10
0.0
 20
0.0
 30
0.125
 70
     1
1001
IRD
1002
{
1000
TPMLINK_collections2-_-ade
1070
   515
1071
        2
1004
01001B0C0000C1010000C101000000000000478C31018C75CA3F478C31018C75CA3F00000000F5040000
1002
}
1002
{
1000
TPMLINK_area-_-ade
1070
   515
1071
        3
1004
01006D4800002F3500002F35000000000000722332018C75CA3F722332018C75CA3F00000000463B0000
1002
}
1002
{
1000
TPMLINK_area-_-ade
1070
   515
1071
        4
1004
0100FE200000AB0B0000AB0B000000000000480F32018C75CA3F480F32018C75CA3F00000000C9180000
1002
}
1001
ADE
1011
-0.0207700988330544
1021
0.0
1031
0.0
1021
-0.0170432325794536
1031
0.0
1001
DCO15
1071
        7
1071
        7
1000
collections
1004
0730324233393500
  0
VERTEX
  5
4EB
  8
COLLECTIONS
 10
608.05158581236446
 20
4485.7715479006174
 30
0.125
  0
VERTEX
  5
4EC
  8
COLLECTIONS
 10
608.05137305294954
 20
4485.7633991511157
 30
0.125
  0
VERTEX
  5
4ED
  8
COLLECTIONS
 10
608.05188634302544
 20
4485.7440192761278
 30
0.125
  0
VERTEX
  5
4EE
  8
COLLECTIONS
 10
608.03355165665198
 20
4485.7444979848133
 30
0.125
  0
VERTEX
  5
4EF
  8
COLLECTIONS
 10
608.01571296965869
 20
4485.7444540991919
 30
0.125
  0
VERTEX
  5
4F0
  8
COLLECTIONS
 10
608.00192206248812
 20
4485.7432852401744
 30
0.125
  0
VERTEX
  5
4F1
  8
COLLECTIONS
 10
607.99432250222253
 20
4485.7450125926571
 30
0.125
  0
VERTEX
  5
4F2
  8
COLLECTIONS
 10
607.99461504641897
 20
4485.7562171232166
 30
0.125
  0
VERTEX
  5
4F3
  8
COLLECTIONS
 10
607.99644877860965
 20
4485.7678910582326
 30
0.125
  0
VERTEX
  5
4F4
  8
COLLECTIONS
 10
607.9998104013315
 20
4485.7795251008574
 30
0.125
  0
VERTEX
  5
4F5
  8
COLLECTIONS
 10
608.00063883729797
 20
4485.7917349276431
 30
0.125
  0
VERTEX
  5
4F6
  8
COLLECTIONS
 10
608.01295504379141
 20
4485.7949808664262
 30
0.125
  0
VERTEX
  5
4F7
  8
COLLECTIONS
 10
608.03234821624278
 20
4485.7960034533426
 30
0.125
  0
VERTEX
  5
4F8
  8
COLLECTIONS
 10
608.04355274680427
 20
4485.7957109091503
 30
0.125
  0
VERTEX
  5
4F9
  8
COLLECTIONS
 10
608.04912841715804
 20
4485.7945460433639
 30
0.125
  0
VERTEX
  5
4FA
  8
COLLECTIONS
 10
608.05496073254994
 20
4485.7836912400862
 30
0.125
  0
SEQEND
  5
4FB
  8
COLLECTIONS
  0
POLYLINE
  5
D8
  8
COLLECTIONS
 66
     1
 10
0.0
 20
0.0
 30
0.2
 70
     1
1001
IRD
1002
{
1000
TPMLINK_collections2-_-ade
1070
   515
1071
        2
1004
0100330C000036020000360200000000000012DFD898338EDE3F12DFD898338EDE3FDF04000000000000
1002
}
1002
{
1000
TPMLINK_area-_-ade
1070
   515
1071
        3
1004
010085480000A4350000A435000000000000D553D998338EDE3FD553D998338EDE3F5C3B000000000000
1002
}
1002
{
1000
TPMLINK_area-_-ade
1070
   515
1071
        4
1004
010015210000200C0000200C000000000000D553D998338EDE3FD553D998338EDE3FB318000000000000
1002
}
1001
ADE
1011
-0.005901828308879
1021
0.0
1031
0.0
1021
-0.0604462330002207
1031
0.0
1001
DCO15
1071
        7
1071
        7
1000
collections
1004
0730324232393700
  0
VERTEX
  5
4FC
  8
COLLECTIONS
 10
606.07774504556062
 20
4484.5275714220079
 30
0.2
  0
VERTEX
  5
4FD
  8
COLLECTIONS
 10
606.03708800410061
 20
4484.6467870330407
 30
0.2
  0
VERTEX
  5
4FE
  8
COLLECTIONS
 10
605.92954357214148
 20
4484.5996248124065
 30
0.2
  0
VERTEX
  5
4FF
  8
COLLECTIONS
 10
605.94003571085796
 20
4484.5721135187132
 30
0.2
  0
VERTEX
  5
500
  8
COLLECTIONS
 10
605.96364302409381
 20
4484.5380519152004
 30
0.2
  0
VERTEX
  5
501
  8
COLLECTIONS
 10
605.9780697165146
 20
4484.510540618995
 30
0.2
  0
VERTEX
  5
502
  8
COLLECTIONS
 10
605.98987337313247
 20
4484.4804092013728
 30
0.2
  0
SEQEND
  5
503
  8
COLLECTIONS
  0
POLYLINE
  5
D9
  8
COLLECTIONS
 66
     1
 10
0.0
 20
0.0
 30
0.2
 70
     1
1001
IRD
1002
{
1000
TPMLINK_collections2-_-ade
1070
   515
1071
        2
1004
0100340C00003C0200003C02000000000000245C3474ED21DB3F245C3474ED21DB3F00000000DE040000
1002
}
1002
{
1000
TPMLINK_area-_-ade
1070
   515
1071
        3
1004
010086480000AA350000AA350000000000005C5F3474ED21DB3F5C5F3474ED21DB3F000000005D3B0000
1002
}
1002
{
1000
TPMLINK_area-_-ade
1070
   515
1071
        4
1004
010016210000260C0000260C0000000000005C5F3474ED21DB3F5C5F3474ED21DB3F00000000B2180000
1002
}
1001
ADE
1011
-0.0560083577548767
1021
0.0
1031
0.0
1021
0.0197275049495147
1031
0.0
1001
DCO15
1071
        7
1071
        7
1000
collections
1004
0730324232393800
  0
VERTEX
  5
504
  8
COLLECTIONS
 10
605.98847418719959
 20
4484.474484729647
 30
0.2
  0
VERTEX
  5
505
  8
COLLECTIONS
 10
606.025711246171
 20
4484.4885121629941
 30
0.2
  0
VERTEX
  5
506
  8
COLLECTIONS
 10
606.0793406780565
 20
4484.5202545071561
 30
0.2
  0
VERTEX
  5
507
  8
COLLECTIONS
 10
606.13738873102398
 20
4484.4400023303506
 30
0.2
  0
VERTEX
  5
508
  8
COLLECTIONS
 10
606.04388310182003
 20
4484.3784710443351
 30
0.2
  0
SEQEND
  5
509
  8
COLLECTIONS
  0
POLYLINE
  5
DA
  8
COLLECTIONS
 66
     1
 10
0.0
 20
0.0
 30
0.25
 70
     1
1001
IRD
1002
{
1000
TPMLINK_collections2-_-ade
1070
   515
1071
        2
1004
0100360C000012030000120300000000000052BFA9274E28C43F52BFA9274E28C43F4A04000000000000
1002
}
1002
{
1000
TPMLINK_area-_-ade
1070
   515
1071
        3
1004
010088480000803600008036000000000000D8D3A9274E28C43FD8D3A9274E28C43FF13B000000000000
1002
}
1002
{
1000
TPMLINK_area-_-ade
1070
   515
1071
        4
1004
010018210000FC0C0000FC0C000000000000D8D3A9274E28C43FD8D3A9274E28C43F1E18000000000000
1002
}
1001
ADE
1011
-0.0139401096965912
1021
0.0
1031
0.0
1021
-0.0027339745502104
1031
0.0
1001
DCO15
1071
        7
1071
        7
1000
collections
1004
0730324232373000
  0
VERTEX
  5
50A
  8
COLLECTIONS
 10
606.09423131354879
 20
4483.267649947501
 30
0.25
  0
VERTEX
  5
50B
  8
COLLECTIONS
 10
606.11001111260214
 20
4483.2680643737931
 30
0.25
  0
VERTEX
  5
50C
  8
COLLECTIONS
 10
606.11613653242284
 20
4483.2710813573403
 30
0.25
  0
VERTEX
  5
50D
  8
COLLECTIONS
 10
606.120777847863
 20
4483.2812324703164
 30
0.25
  0
VERTEX
  5
50E
  8
COLLECTIONS
 10
606.11322929214452
 20
4483.2955281649893
 30
0.25
  0
VERTEX
  5
50F
  8
COLLECTIONS
 10
606.10615613120001
 20
4483.3042226094012
 30
0.25
  0
VERTEX
  5
510
  8
COLLECTIONS
 10
606.09700458255872
 20
4483.3058042633556
 30
0.25
  0
VERTEX
  5
511
  8
COLLECTIONS
 10
606.08172761409662
 20
4483.304368933761
 30
0.25
  0
VERTEX
  5
512
  8
COLLECTIONS
 10
606.06794999213605
 20
4483.2983441119368
 30
0.25
  0
VERTEX
  5
513
  8
COLLECTIONS
 10
606.06384503995298
 20
4483.2927702974921
 30
0.25
  0
VERTEX
  5
514
  8
COLLECTIONS
 10
606.06429909575775
 20
4483.2836065551573
 30
0.25
  0
VERTEX
  5
515
  8
COLLECTIONS
 10
606.06578320013853
 20
4483.2764724257277
 30
0.25
  0
VERTEX
  5
516
  8
COLLECTIONS
 10
606.06879408683835
 20
4483.2693291510286
 30
0.25
  0
VERTEX
  5
517
  8
COLLECTIONS
 10
606.079481563071
 20
4483.2692651341213
 30
0.25
  0
SEQEND
  5
518
  8
COLLECTIONS
  0
POLYLINE
  5
DB
  8
COLLECTIONS
 66
     1
 10
0.0
 20
0.0
 30
0.25
 70
     1
1001
IRD
1002
{
1000
TPMLINK_collections2-_-ade
1070
   515
1071
        2
1004
0100370C0000F6010000F601000000000000F79C27B774E8C83FF79C27B774E8C83F00000000DB040000
1002
}
1002
{
1000
TPMLINK_area-_-ade
1070
   515
1071
        3
1004
010089480000643500006435000000000000D32E27B774E8C83FD32E27B774E8C83F00000000603B0000
1002
}
1002
{
1000
TPMLINK_area-_-ade
1070
   515
1071
        4
1004
010019210000E00B0000E00B000000000000D32E27B774E8C83FD32E27B774E8C83F00000000AF180000
1002
}
1001
ADE
1011
-0.0032922490688634
1021
0.0
1031
0.0
1021
-0.0168351469237678
1031
0.0
1001
DCO15
1071
        7
1071
        7
1000
collections
1004
0730324233323600
  0
VERTEX
  5
519
  8
COLLECTIONS
 10
606.15932078313642
 20
4485.168099904281
 30
0.25
  0
VERTEX
  5
51A
  8
COLLECTIONS
 10
606.15833277760805
 20
4485.1497785153697
 30
0.25
  0
VERTEX
  5
51B
  8
COLLECTIONS
 10
606.15696844987065
 20
4485.1365633923597
 30
0.25
  0
VERTEX
  5
51C
  8
COLLECTIONS
 10
606.15044466637903
 20
4485.1209347597678
 30
0.25
  0
VERTEX
  5
51D
  8
COLLECTIONS
 10
606.13916434426892
 20
4485.0988049453772
 30
0.25
  0
VERTEX
  5
51E
  8
COLLECTIONS
 10
606.12766327627901
 20
4485.1072595365358
 30
0.25
  0
VERTEX
  5
51F
  8
COLLECTIONS
 10
606.11970069126812
 20
4485.1146024517639
 30
0.25
  0
VERTEX
  5
520
  8
COLLECTIONS
 10
606.11061313286211
 20
4485.117897587168
 30
0.25
  0
VERTEX
  5
521
  8
COLLECTIONS
 10
606.11294286443297
 20
4485.1290489278763
 30
0.25
  0
VERTEX
  5
522
  8
COLLECTIONS
 10
606.11627789222791
 20
4485.139664376813
 30
0.25
  0
VERTEX
  5
523
  8
COLLECTIONS
 10
606.11572470976137
 20
4485.1575163612697
 30
0.25
  0
VERTEX
  5
524
  8
COLLECTIONS
 10
606.12711540481166
 20
4485.1643539728839
 30
0.25
  0
VERTEX
  5
525
  8
COLLECTIONS
 10
606.14341290381026
 20
4485.1639284540552
 30
0.25
  0
SEQEND
  5
526
  8
COLLECTIONS
  0
POLYLINE
  5
DC
  8
COLLECTIONS
 66
     1
 10
0.0
 20
0.0
 30
0.0416666666666667
 70
     1
1001
IRD
1002
{
1000
TPMLINK_collections2-_-ade
1070
   515
1071
        2
1004
0100410C0000D7030000D703000000000000CA47B344600CD23FCA47B344600CD23FD004000000000000
1002
}
1002
{
1000
TPMLINK_area-_-ade
1070
   515
1071
        3
1004
01009348000045370000453700000000000056A0B344600CD23F56A0B344600CD23F6B3B000000000000
1002
}
1002
{
1000
TPMLINK_area-_-ade
1070
   515
1071
        4
1004
010023210000C10D0000C10D00000000000007BDB344600CD23F07BDB344600CD23FA418000000000000
1002
}
1001
ADE
1011
-0.02006086972699
1021
0.0
1031
0.0
1021
-0.0380014510083129
1031
0.0
1001
DCO15
1071
        7
1071
        7
1000
collections
1004
0730324230333200
  0
VERTEX
  5
527
  8
COLLECTIONS
 10
604.7893918398463
 20
4480.3053321495927
 30
0.0416666666666667
  0
VERTEX
  5
528
  8
COLLECTIONS
 10
604.77670378063203
 20
4480.3056784814416
 30
0.0416666666666667
  0
VERTEX
  5
529
  8
COLLECTIONS
 10
604.76957881425926
 20
4480.3071761346146
 30
0.0416666666666667
  0
VERTEX
  5
52A
  8
COLLECTIONS
 10
604.76094028233535
 20
4480.305616820975
 30
0.0416666666666667
  0
VERTEX
  5
52B
  8
COLLECTIONS
 10
604.7590578900016
 20
4480.2764076427866
 30
0.0416666666666667
  0
VERTEX
  5
52C
  8
COLLECTIONS
 10
604.7570970451211
 20
4480.2481404148057
 30
0.0416666666666667
  0
VERTEX
  5
52D
  8
COLLECTIONS
 10
604.75816973833605
 20
4480.2339063944391
 30
0.0416666666666667
  0
VERTEX
  5
52E
  8
COLLECTIONS
 10
604.7607579861492
 20
4480.2222208409366
 30
0.0416666666666667
  0
VERTEX
  5
52F
  8
COLLECTIONS
 10
604.77247536440575
 20
4480.2166730896306
 30
0.0416666666666667
  0
VERTEX
  5
530
  8
COLLECTIONS
 10
604.79231680749945
 20
4480.2142081627517
 30
0.0416666666666667
  0
VERTEX
  5
531
  8
COLLECTIONS
 10
604.80705733876414
 20
4480.2157913449591
 30
0.0416666666666667
  0
VERTEX
  5
532
  8
COLLECTIONS
 10
604.81516350217521
 20
4480.2234506688919
 30
0.0416666666666667
  0
VERTEX
  5
533
  8
COLLECTIONS
 10
604.81768213333294
 20
4480.2295626134692
 30
0.0416666666666667
  0
VERTEX
  5
534
  8
COLLECTIONS
 10
604.81861559323568
 20
4480.2509235892549
 30
0.0416666666666667
  0
VERTEX
  5
535
  8
COLLECTIONS
 10
604.82362500888826
 20
4480.2702664776389
 30
0.0416666666666667
  0
VERTEX
  5
536
  8
COLLECTIONS
 10
604.82458034831211
 20
4480.2860339540321
 30
0.0416666666666667
  0
VERTEX
  5
537
  8
COLLECTIONS
 10
604.82454454546053
 20
4480.2951869530434
 30
0.0416666666666667
  0
VERTEX
  5
538
  8
COLLECTIONS
 10
604.81638467777157
 20
4480.3012571276267
 30
0.0416666666666667
  0
VERTEX
  5
539
  8
COLLECTIONS
 10
604.80925772235196
 20
4480.3032632807444
 30
0.0416666666666667
  0
SEQEND
  5
53A
  8
COLLECTIONS
  0
POLYLINE
  5
DD
  8
COLLECTIONS
 66
     1
 10
0.0
 20
0.0
 30
0.0833333333333333
 70
     1
1001
IRD
1002
{
1000
TPMLINK_collections2-_-ade
1070
   515
1071
        2
1004
0100480C0000CC030000CC03000000000000BF18324ED3CDD03FBF18324ED3CDD03FCB04000000000000
1002
}
1002
{
1000
TPMLINK_area-_-ade
1070
   515
1071
        3
1004
01009A4800003A3700003A37000000000000F5C2314ED3CDD03FF5C2314ED3CDD03F703B000000000000
1002
}
1002
{
1000
TPMLINK_area-_-ade
1070
   515
1071
        4
1004
01002A210000B60D0000B60D00000000000091A3314ED3CDD03F91A3314ED3CDD03F9F18000000000000
1002
}
1001
ADE
1011
-0.0048973820984202
1021
0.0
1031
0.0
1021
-0.0363382351033579
1031
0.0
1001
DCO15
1071
        7
1071
        7
1000
collections
1004
0730324230363000
  0
VERTEX
  5
53B
  8
COLLECTIONS
 10
604.65624160559889
 20
4480.5518335286733
 30
0.0833333333333333
  0
VERTEX
  5
53C
  8
COLLECTIONS
 10
604.65625155083535
 20
4480.5492910289486
 30
0.0833333333333333
  0
VERTEX
  5
53D
  8
COLLECTIONS
 10
604.65780688638017
 20
4480.5416694969153
 30
0.0833333333333333
  0
VERTEX
  5
53E
  8
COLLECTIONS
 10
604.66596277597409
 20
4480.5366163222207
 30
0.0833333333333333
  0
VERTEX
  5
53F
  8
COLLECTIONS
 10
604.68478721917768
 20
4480.5341474172437
 30
0.0833333333333333
  0
VERTEX
  5
540
  8
COLLECTIONS
 10
604.69596825082692
 20
4480.5357166761232
 30
0.0833333333333333
  0
VERTEX
  5
541
  8
COLLECTIONS
 10
604.70155180498591
 20
4480.5382810553683
 30
0.0833333333333333
  0
VERTEX
  5
542
  8
COLLECTIONS
 10
604.70456103466267
 20
4480.5489714884989
 30
0.0833333333333333
  0
VERTEX
  5
543
  8
COLLECTIONS
 10
604.70447152753377
 20
4480.5718539860263
 30
0.0833333333333333
  0
VERTEX
  5
544
  8
COLLECTIONS
 10
604.70538310791608
 20
4480.5988084612081
 30
0.0833333333333333
  0
VERTEX
  5
545
  8
COLLECTIONS
 10
604.70328346957456
 20
4480.6155810032051
 30
0.0833333333333333
  0
VERTEX
  5
546
  8
COLLECTIONS
 10
604.69969214520245
 20
4480.6237030789907
 30
0.0833333333333333
  0
VERTEX
  5
547
  8
COLLECTIONS
 10
604.68797277789849
 20
4480.629759330247
 30
0.0833333333333333
  0
VERTEX
  5
548
  8
COLLECTIONS
 10
604.67627131202028
 20
4480.631239081994
 30
0.0833333333333333
  0
VERTEX
  5
549
  8
COLLECTIONS
 10
604.66661379115885
 20
4480.6301842902039
 30
0.0833333333333333
  0
VERTEX
  5
54A
  8
COLLECTIONS
 10
604.65545264998286
 20
4480.6235300318804
 30
0.0833333333333333
  0
VERTEX
  5
54B
  8
COLLECTIONS
 10
604.65499586526801
 20
4480.6103070442596
 30
0.0833333333333333
  0
VERTEX
  5
54C
  8
COLLECTIONS
 10
604.65718302169125
 20
4480.5711605046799
 30
0.0833333333333333
  0
SEQEND
  5
54D
  8
COLLECTIONS
  0
POLYLINE
  5
DE
  8
COLLECTIONS
 66
     1
 10
0.0
 20
0.0
 30
0.0833333333333333
 70
     1
1001
IRD
1002
{
1000
TPMLINK_collections2-_-ade
1070
   515
1071
        2
1004
0100840C000025020000250200000000000027CC07AAF5AAD33F27CC07AAF5AAD33F0000000083040000
1002
}
1002
{
1000
TPMLINK_area-_-ade
1070
   515
1071
        3
1004
0100D64800009335000093350000000000009BBA08AAF5AAD33F9BBA08AAF5AAD33F00000000B83B0000
1002
}
1002
{
1000
TPMLINK_area-_-ade
1070
   515
1071
        4
1004
0100632100000F0C00000F0C000000000000D0B908AAF5AAD33FD0B908AAF5AAD33F0000000057180000
1002
}
1001
ADE
1011
-0.0132934048823472
1021
0.0
1031
0.0
1021
-0.038745803501115
1031
0.0
1001
DCO15
1071
        7
1071
        7
1000
collections
1004
0730324232393200
  0
VERTEX
  5
54E
  8
COLLECTIONS
 10
605.59798471503723
 20
4484.6358692207086
 30
0.0833333333333333
  0
VERTEX
  5
54F
  8
COLLECTIONS
 10
605.61110078561774
 20
4484.623511310725
 30
0.0833333333333333
  0
VERTEX
  5
550
  8
COLLECTIONS
 10
605.62021038507658
 20
4484.6178155888374
 30
0.0833333333333333
  0
VERTEX
  5
551
  8
COLLECTIONS
 10
605.60784205981236
 20
4484.6036809756461
 30
0.0833333333333333
  0
VERTEX
  5
552
  8
COLLECTIONS
 10
605.59241810671415
 20
4484.5895776082962
 30
0.0833333333333333
  0
VERTEX
  5
553
  8
COLLECTIONS
 10
605.57088289794785
 20
4484.5755367326292
 30
0.0833333333333333
  0
VERTEX
  5
554
  8
COLLECTIONS
 10
605.56216279406817
 20
4484.5695140068447
 30
0.0833333333333333
  0
VERTEX
  5
555
  8
COLLECTIONS
 10
605.54796568919289
 20
4484.5757710764419
 30
0.0833333333333333
  0
VERTEX
  5
556
  8
COLLECTIONS
 10
605.53278649518825
 20
4484.5856034604576
 30
0.0833333333333333
  0
VERTEX
  5
557
  8
COLLECTIONS
 10
605.5237810485354
 20
4484.6014846084599
 30
0.0833333333333333
  0
VERTEX
  5
558
  8
COLLECTIONS
 10
605.51473914840028
 20
4484.6138008573198
 30
0.0833333333333333
  0
VERTEX
  5
559
  8
COLLECTIONS
 10
605.5143131993392
 20
4484.6219544058513
 30
0.0833333333333333
  0
VERTEX
  5
55A
  8
COLLECTIONS
 10
605.51492141581025
 20
4484.6316253530213
 30
0.0833333333333333
  0
VERTEX
  5
55B
  8
COLLECTIONS
 10
605.52371963429471
 20
4484.645287148388
 30
0.0833333333333333
  0
VERTEX
  5
55C
  8
COLLECTIONS
 10
605.54269286361159
 20
4484.6578262483363
 30
0.0833333333333333
  0
VERTEX
  5
55D
  8
COLLECTIONS
 10
605.5570149518536
 20
4484.6637916900791
 30
0.0833333333333333
  0
VERTEX
  5
55E
  8
COLLECTIONS
 10
605.57086422227235
 20
4484.6733272385982
 30
0.0833333333333333
  0
SEQEND
  5
55F
  8
COLLECTIONS
  0
POLYLINE
  5
DF
  8
COLLECTIONS
 66
     1
 10
0.0
 20
0.0
 30
0.25
 70
     1
1001
IRD
1002
{
1000
TPMLINK_collections2-_-ade
1070
   515
1071
        2
1004
0100870C00002C0200002C020000000000002928D2B066A3BB3F2928D2B066A3BB3F000000007F040000
1002
}
1002
{
1000
TPMLINK_area-_-ade
1070
   515
1071
        3
1004
0100D94800009A3500009A350000000000008ABED0B066A3BB3F8ABED0B066A3BB3F00000000BC3B0000
1002
}
1002
{
1000
TPMLINK_area-_-ade
1070
   515
1071
        4
1004
010066210000160C0000160C000000000000934DD0B066A3BB3F934DD0B066A3BB3F0000000053180000
1002
}
1001
ADE
1011
-0.0070598317146278
1021
0.0
1031
0.0
1021
-0.0046979853459561
1031
0.0
1001
DCO15
1071
        7
1071
        7
1000
collections
1004
0730324232383800
  0
VERTEX
  5
560
  8
COLLECTIONS
 10
605.02228313365663
 20
4484.5699413924949
 30
0.25
  0
VERTEX
  5
561
  8
COLLECTIONS
 10
605.02831627472005
 20
4484.5622398312289
 30
0.25
  0
VERTEX
  5
562
  8
COLLECTIONS
 10
605.02877867726318
 20
4484.5576511818372
 30
0.25
  0
VERTEX
  5
563
  8
COLLECTIONS
 10
605.02459514637167
 20
4484.5469981455408
 30
0.25
  0
VERTEX
  5
564
  8
COLLECTIONS
 10
605.01490336864322
 20
4484.5455692767891
 30
0.25
  0
VERTEX
  5
565
  8
COLLECTIONS
 10
605.00621971824535
 20
4484.5431114501453
 30
0.25
  0
VERTEX
  5
566
  8
COLLECTIONS
 10
604.99858064866055
 20
4484.5431895647498
 30
0.25
  0
VERTEX
  5
567
  8
COLLECTIONS
 10
604.99509386412512
 20
4484.5508650878164
 30
0.25
  0
VERTEX
  5
568
  8
COLLECTIONS
 10
604.99469916090561
 20
4484.5620742641813
 30
0.25
  0
VERTEX
  5
569
  8
COLLECTIONS
 10
604.99528654681592
 20
4484.5697081261269
 30
0.25
  0
VERTEX
  5
56A
  8
COLLECTIONS
 10
605.00194352727169
 20
4484.5732053259426
 30
0.25
  0
VERTEX
  5
56B
  8
COLLECTIONS
 10
605.01009186816225
 20
4484.5731220036969
 30
0.25
  0
VERTEX
  5
56C
  8
COLLECTIONS
 10
605.01517937357846
 20
4484.572560655989
 30
0.25
  0
SEQEND
  5
56D
  8
COLLECTIONS
  0
POLYLINE
  5
E0
  8
COLLECTIONS
 66
     1
 10
0.0
 20
0.0
 30
0.0833333333333333
 70
     1
1001
IRD
1002
{
1000
TPMLINK_collections2-_-ade
1070
   515
1071
        2
1004
0100890C00002E0200002E020000000000008E16B5FEBD60DF3F8E16B5FEBD60DF3F8E04000000000000
1002
}
1002
{
1000
TPMLINK_area-_-ade
1070
   515
1071
        3
1004
0100DB4800009C3500009C350000000000000D8FB4FEBD60DF3F0D8FB4FEBD60DF3FAD3B000000000000
1002
}
1002
{
1000
TPMLINK_area-_-ade
1070
   515
1071
        4
1004
010068210000180C0000180C000000000000B18EB4FEBD60DF3FB18EB4FEBD60DF3F6218000000000000
1002
}
1001
ADE
1011
-0.0688753575101373
1021
0.0
1031
0.0
1021
0.0245793813464843
1031
0.0
1001
DCO15
1071
        7
1071
        7
1000
collections
1004
0730324232393500
  0
VERTEX
  5
56E
  8
COLLECTIONS
 10
605.81063511483148
 20
4484.5618799653266
 30
0.0833333333333333
  0
VERTEX
  5
56F
  8
COLLECTIONS
 10
605.88544897311658
 20
4484.4567034092634
 30
0.0833333333333333
  0
VERTEX
  5
570
  8
COLLECTIONS
 10
605.91403065791735
 20
4484.4625230370721
 30
0.0833333333333333
  0
VERTEX
  5
571
  8
COLLECTIONS
 10
605.9451482839662
 20
4484.4672980840733
 30
0.0833333333333333
  0
VERTEX
  5
572
  8
COLLECTIONS
 10
605.97219694720957
 20
4484.4726240634982
 30
0.0833333333333333
  0
VERTEX
  5
573
  8
COLLECTIONS
 10
605.98700226855613
 20
4484.47603794107
 30
0.0833333333333333
  0
VERTEX
  5
574
  8
COLLECTIONS
 10
605.97701994041415
 20
4484.496003674798
 30
0.0833333333333333
  0
VERTEX
  5
575
  8
COLLECTIONS
 10
605.96311446339519
 20
4484.5307799375123
 30
0.0833333333333333
  0
VERTEX
  5
576
  8
COLLECTIONS
 10
605.93397771596881
 20
4484.5702958711854
 30
0.0833333333333333
  0
VERTEX
  5
577
  8
COLLECTIONS
 10
605.92356943876575
 20
4484.5984151534431
 30
0.0833333333333333
  0
VERTEX
  5
578
  8
COLLECTIONS
 10
605.88315994584775
 20
4484.5815113326344
 30
0.0833333333333333
  0
VERTEX
  5
579
  8
COLLECTIONS
 10
605.83464377316216
 20
4484.5687650045129
 30
0.0833333333333333
  0
SEQEND
  5
57A
  8
COLLECTIONS
  0
POLYLINE
  5
E1
  8
COLLECTIONS
 66
     1
 10
0.0
 20
0.0
 30
0.25
 70
     1
1001
IRD
1002
{
1000
TPMLINK_collections2-_-ade
1070
   515
1071
        2
1004
01008A0C00004002000040020000000000004131075C17DDDF3F4131075C17DDDF3F000000008D040000
1002
}
1002
{
1000
TPMLINK_area-_-ade
1070
   515
1071
        3
1004
0100DC480000AE350000AE35000000000000626C065C17DDDF3F626C065C17DDDF3F00000000AE3B0000
1002
}
1002
{
1000
TPMLINK_area-_-ade
1070
   515
1071
        4
1004
0100692100002A0C00002A0C000000000000626C065C17DDDF3F626C065C17DDDF3F0000000061180000
1002
}
1001
ADE
1011
-0.0388798061154603
1021
0.0
1031
0.0
1021
-0.0599640020300285
1031
0.0
1001
DCO15
1071
        7
1071
        7
1000
collections
1004
0730324232393300
  0
VERTEX
  5
57B
  8
COLLECTIONS
 10
605.88337543441185
 20
4484.4531593406837
 30
0.25
  0
VERTEX
  5
57C
  8
COLLECTIONS
 10
605.75922151883196
 20
4484.4152109067372
 30
0.25
  0
VERTEX
  5
57D
  8
COLLECTIONS
 10
605.73592522977856
 20
4484.428182240832
 30
0.25
  0
VERTEX
  5
57E
  8
COLLECTIONS
 10
605.71530028062034
 20
4484.453350048062
 30
0.25
  0
VERTEX
  5
57F
  8
COLLECTIONS
 10
605.7018051297415
 20
4484.4784449483286
 30
0.25
  0
VERTEX
  5
580
  8
COLLECTIONS
 10
605.69996072720949
 20
4484.4973088171992
 30
0.25
  0
VERTEX
  5
581
  8
COLLECTIONS
 10
605.7021175881589
 20
4484.5090012266683
 30
0.25
  0
VERTEX
  5
582
  8
COLLECTIONS
 10
605.7098399799886
 20
4484.517071452954
 30
0.25
  0
VERTEX
  5
583
  8
COLLECTIONS
 10
605.74309363642556
 20
4484.531501824199
 30
0.25
  0
VERTEX
  5
584
  8
COLLECTIONS
 10
605.77480906366475
 20
4484.5449292757548
 30
0.25
  0
VERTEX
  5
585
  8
COLLECTIONS
 10
605.79273771216901
 20
4484.5549324344574
 30
0.25
  0
VERTEX
  5
586
  8
COLLECTIONS
 10
605.80756386407666
 20
4484.56038339725
 30
0.25
  0
SEQEND
  5
587
  8
COLLECTIONS
  0
POLYLINE
  5
E2
  8
COLLECTIONS
 66
     1
 10
0.0
 20
0.0
 30
0.1111111111111111
 70
     1
1001
IRD
1002
{
1000
TPMLINK_collections2-_-ade
1070
   515
1071
        2
1004
01008B0C00005902000059020000000000000A12779689BBE23F0A12779689BBE23F000000008C040000
1002
}
1002
{
1000
TPMLINK_area-_-ade
1070
   515
1071
        3
1004
0100DD480000C7350000C7350000000000002213779689BBE23F2213779689BBE23F00000000AF3B0000
1002
}
1002
{
1000
TPMLINK_area-_-ade
1070
   515
1071
        4
1004
01006A210000430C0000430C0000000000002213779689BBE23F2213779689BBE23F0000000060180000
1002
}
1001
ADE
1011
-0.0843637323353051
1021
0.0
1031
0.0
1021
0.0214105126588038
1031
0.0
1001
DCO15
1071
        7
1071
        7
1000
collections
1004
0730324232393400
  0
VERTEX
  5
588
  8
COLLECTIONS
 10
605.99233650837812
 20
4484.3501802292476
 30
0.1111111111111111
  0
VERTEX
  5
589
  8
COLLECTIONS
 10
605.89487713650215
 20
4484.2829273259431
 30
0.1111111111111111
  0
VERTEX
  5
58A
  8
COLLECTIONS
 10
605.86302218041783
 20
4484.3056633447304
 30
0.1111111111111111
  0
VERTEX
  5
58B
  8
COLLECTIONS
 10
605.8293228218015
 20
4484.3472632323892
 30
0.1111111111111111
  0
VERTEX
  5
58C
  8
COLLECTIONS
 10
605.79846557776739
 20
4484.3679517506725
 30
0.1111111111111111
  0
VERTEX
  5
58D
  8
COLLECTIONS
 10
605.77267500858852
 20
4484.3860418360273
 30
0.1111111111111111
  0
VERTEX
  5
58E
  8
COLLECTIONS
 10
605.75912257366645
 20
4484.4055347519306
 30
0.1111111111111111
  0
VERTEX
  5
58F
  8
COLLECTIONS
 10
605.88590616801946
 20
4484.4516054885653
 30
0.1111111111111111
  0
SEQEND
  5
590
  8
COLLECTIONS
  0
POLYLINE
  5
E3
  8
COLLECTIONS
 66
     1
 10
0.0
 20
0.0
 30
0.25
 70
     1
1001
IRD
1002
{
1000
TPMLINK_collections2-_-ade
1070
   515
1071
        2
1004
01008C0C000052020000520200000000000065C267BC814FDE3F65C267BC814FDE3F0000000084040000
1002
}
1002
{
1000
TPMLINK_area-_-ade
1070
   515
1071
        3
1004
0100DE480000C0350000C0350000000000008FDD67BC814FDE3F8FDD67BC814FDE3F00000000B73B0000
1002
}
1002
{
1000
TPMLINK_area-_-ade
1070
   515
1071
        4
1004
01006B2100003C0C00003C0C00000000000039D667BC814FDE3F39D667BC814FDE3F0000000058180000
1002
}
1001
ADE
1011
0.0032275918309779
1021
0.0
1031
0.0
1021
-0.0340395335397261
1031
0.0
1001
DCO15
1071
        7
1071
        7
1000
collections
1004
0730324232383700
  0
VERTEX
  5
591
  8
COLLECTIONS
 10
605.63027585588952
 20
4484.3569384893281
 30
0.25
  0
VERTEX
  5
592
  8
COLLECTIONS
 10
605.56523171036361
 20
4484.2221232770562
 30
0.25
  0
VERTEX
  5
593
  8
COLLECTIONS
 10
605.54772488072285
 20
4484.2533710941088
 30
0.25
  0
VERTEX
  5
594
  8
COLLECTIONS
 10
605.53264463188395
 20
4484.2728796329357
 30
0.25
  0
VERTEX
  5
595
  8
COLLECTIONS
 10
605.50895884725128
 20
4484.2975694146999
 30
0.25
  0
VERTEX
  5
596
  8
COLLECTIONS
 10
605.49283922523966
 20
4484.3150512835837
 30
0.25
  0
VERTEX
  5
597
  8
COLLECTIONS
 10
605.48284648181721
 20
4484.3339984746972
 30
0.25
  0
VERTEX
  5
598
  8
COLLECTIONS
 10
605.48199979133562
 20
4484.3508148430674
 30
0.25
  0
VERTEX
  5
599
  8
COLLECTIONS
 10
605.48058133786469
 20
4484.3615251634083
 30
0.25
  0
VERTEX
  5
59A
  8
COLLECTIONS
 10
605.4862666444717
 20
4484.369616220255
 30
0.25
  0
VERTEX
  5
59B
  8
COLLECTIONS
 10
605.51226031162162
 20
4484.3713877158198
 30
0.25
  0
VERTEX
  5
59C
  8
COLLECTIONS
 10
605.52856220104366
 20
4484.3717303426401
 30
0.25
  0
VERTEX
  5
59D
  8
COLLECTIONS
 10
605.55147940979873
 20
4484.3714959988274
 30
0.25
  0
VERTEX
  5
59E
  8
COLLECTIONS
 10
605.58102756080814
 20
4484.3722124982996
 30
0.25
  0
VERTEX
  5
59F
  8
COLLECTIONS
 10
605.61353760212614
 20
4484.363730868431
 30
0.25
  0
SEQEND
  5
5A0
  8
COLLECTIONS
  0
POLYLINE
  5
E4
  8
COLLECTIONS
 66
     1
 10
0.0
 20
0.0
 30
0.0166666666666667
 70
     1
1001
IRD
1002
{
1000
TPMLINK_collections2-_-ade
1070
   515
1071
        2
1004
0100930C00009702000097020000000000008EBE232DBC99DF3F8EBE232DBC99DF3F8904000000000000
1002
}
1002
{
1000
TPMLINK_area-_-ade
1070
   515
1071
        3
1004
0100E548000005360000053600000000000078BD232DBC99DF3F78BD232DBC99DF3FB23B000000000000
1002
}
1002
{
1000
TPMLINK_area-_-ade
1070
   515
1071
        4
1004
010072210000810C0000810C00000000000078BD232DBC99DF3F78BD232DBC99DF3F5D18000000000000
1002
}
1001
ADE
1011
-0.0418065685255442
1021
0.0
1031
0.0
1021
-0.0526181294480921
1031
0.0
1001
DCO15
1071
        7
1071
        7
1000
collections
1004
0730324232373900
  0
VERTEX
  5
5A1
  8
COLLECTIONS
 10
605.8392622318047
 20
4484.0242498259477
 30
0.0166666666666667
  0
VERTEX
  5
5A2
  8
COLLECTIONS
 10
605.81855090764725
 20
4484.1405876121726
 30
0.0166666666666667
  0
VERTEX
  5
5A3
  8
COLLECTIONS
 10
605.81334883414434
 20
4484.1299449911548
 30
0.0166666666666667
  0
VERTEX
  5
5A4
  8
COLLECTIONS
 10
605.80557436591175
 20
4484.1167820518122
 30
0.0166666666666667
  0
VERTEX
  5
5A5
  8
COLLECTIONS
 10
605.79379863419786
 20
4484.1107905718736
 30
0.0166666666666667
  0
VERTEX
  5
5A6
  8
COLLECTIONS
 10
605.77136986618734
 20
4484.1089826228226
 30
0.0166666666666667
  0
VERTEX
  5
5A7
  8
COLLECTIONS
 10
605.76274870747295
 20
4484.1126360518492
 30
0.0166666666666667
  0
VERTEX
  5
5A8
  8
COLLECTIONS
 10
605.75428377796743
 20
4484.131567620042
 30
0.0166666666666667
  0
VERTEX
  5
5A9
  8
COLLECTIONS
 10
605.73693210009264
 20
4484.1281797806723
 30
0.0166666666666667
  0
VERTEX
  5
5AA
  8
COLLECTIONS
 10
605.71391073853158
 20
4484.1182286983712
 30
0.0166666666666667
  0
VERTEX
  5
5AB
  8
COLLECTIONS
 10
605.7001499979981
 20
4484.1173507620479
 30
0.0166666666666667
  0
VERTEX
  5
5AC
  8
COLLECTIONS
 10
605.72603214981666
 20
4484.0085999690054
 30
0.0166666666666667
  0
SEQEND
  5
5AD
  8
COLLECTIONS
  0
POLYLINE
  5
E5
  8
COLLECTIONS
 66
     1
 10
0.0
 20
0.0
 30
0.1785714285714286
 70
     1
1001
IRD
1002
{
1000
TPMLINK_collections2-_-ade
1070
   515
1071
        2
1004
0100970C0000E4020000E40200000000000067BB951C48FFD13F67BB951C48FFD13F7A04000000000000
1002
}
1002
{
1000
TPMLINK_area-_-ade
1070
   515
1071
        3
1004
0100E948000052360000523600000000000093BC951C48FFD13F93BC951C48FFD13FC13B000000000000
1002
}
1002
{
1000
TPMLINK_area-_-ade
1070
   515
1071
        4
1004
010076210000CE0C0000CE0C00000000000093BC951C48FFD13F93BC951C48FFD13F4E18000000000000
1002
}
1001
ADE
1011
-0.0227637027630863
1021
0.0
1031
0.0
1021
-0.0250487187904582
1031
0.0
1001
DCO15
1071
        7
1071
        7
1000
collections
1004
0730324232363900
  0
VERTEX
  5
5AE
  8
COLLECTIONS
 10
605.88992449101193
 20
4483.5495506075786
 30
0.1785714285714286
  0
VERTEX
  5
5AF
  8
COLLECTIONS
 10
605.87676675930913
 20
4483.5578343471161
 30
0.1785714285714286
  0
VERTEX
  5
5B0
  8
COLLECTIONS
 10
605.8563854918018
 20
4483.5570241101177
 30
0.1785714285714286
  0
VERTEX
  5
5B1
  8
COLLECTIONS
 10
605.84051996672156
 20
4483.5495464773812
 30
0.1785714285714286
  0
VERTEX
  5
5B2
  8
COLLECTIONS
 10
605.82925871395389
 20
4483.5440590611051
 30
0.1785714285714286
  0
VERTEX
  5
5B3
  8
COLLECTIONS
 10
605.81747777459964
 20
4483.5375583098576
 30
0.1785714285714286
  0
VERTEX
  5
5B4
  8
COLLECTIONS
 10
605.81175601451025
 20
4483.5259023538702
 30
0.1785714285714286
  0
VERTEX
  5
5B5
  8
COLLECTIONS
 10
605.81364728580513
 20
4483.5116219267511
 30
0.1785714285714286
  0
VERTEX
  5
5B6
  8
COLLECTIONS
 10
605.81603741312472
 20
4483.4963177493801
 30
0.1785714285714286
  0
VERTEX
  5
5B7
  8
COLLECTIONS
 10
605.82203930834635
 20
4483.485560560277
 30
0.1785714285714286
  0
VERTEX
  5
5B8
  8
COLLECTIONS
 10
605.82808807233107
 20
4483.4793868129236
 30
0.1785714285714286
  0
VERTEX
  5
5B9
  8
COLLECTIONS
 10
605.83568027315357
 20
4483.4747252565694
 30
0.1785714285714286
  0
VERTEX
  5
5BA
  8
COLLECTIONS
 10
605.84279444851211
 20
4483.4731245356888
 30
0.1785714285714286
  0
VERTEX
  5
5BB
  8
COLLECTIONS
 10
605.8575841469376
 20
4483.4750105993426
 30
0.1785714285714286
  0
VERTEX
  5
5BC
  8
COLLECTIONS
 10
605.86883498442501
 20
4483.4794794730069
 30
0.1785714285714286
  0
VERTEX
  5
5BD
  8
COLLECTIONS
 10
605.88417040763841
 20
4483.484925228162
 30
0.1785714285714286
  0
VERTEX
  5
5BE
  8
COLLECTIONS
 10
605.89286447331676
 20
4483.4884015974167
 30
0.1785714285714286
  0
VERTEX
  5
5BF
  8
COLLECTIONS
 10
605.90005676327951
 20
4483.4944399461192
 30
0.1785714285714286
  0
VERTEX
  5
5C0
  8
COLLECTIONS
 10
605.90428716293366
 20
4483.509676424168
 30
0.1785714285714286
  0
VERTEX
  5
5C1
  8
COLLECTIONS
 10
605.9044433921423
 20
4483.5249545633378
 30
0.1785714285714286
  0
VERTEX
  5
5C2
  8
COLLECTIONS
 10
605.89843628927986
 20
4483.5352024811345
 30
0.1785714285714286
  0
SEQEND
  5
5C3
  8
COLLECTIONS
  0
POLYLINE
  5
E6
  8
COLLECTIONS
 66
     1
 10
0.0
 20
0.0
 30
0.25
 70
     1
1001
IRD
1002
{
1000
TPMLINK_collections2-_-ade
1070
   515
1071
        2
1004
0100980C0000D9020000D902000000000000EA52E422D648D73FEA52E422D648D73F7904000000000000
1002
}
1002
{
1000
TPMLINK_area-_-ade
1070
   515
1071
        3
1004
0100EA4800004736000047360000000000001F82E422D648D73F1F82E422D648D73FC23B000000000000
1002
}
1002
{
1000
TPMLINK_area-_-ade
1070
   515
1071
        4
1004
010077210000C30C0000C30C000000000000DD79E422D648D73FDD79E422D648D73F4D18000000000000
1002
}
1001
ADE
1011
-0.0387904023106103
1021
0.0
1031
0.0
1021
0.0398547499817141
1031
0.0
1001
DCO15
1071
        7
1071
        7
1000
collections
1004
0730324232363700
  0
VERTEX
  5
5C4
  8
COLLECTIONS
 10
605.47069741616679
 20
4483.6439879319214
 30
0.25
  0
VERTEX
  5
5C5
  8
COLLECTIONS
 10
605.44938613593285
 20
4483.6518457223992
 30
0.25
  0
VERTEX
  5
5C6
  8
COLLECTIONS
 10
605.43220631018789
 20
4483.6652638361129
 30
0.25
  0
VERTEX
  5
5C7
  8
COLLECTIONS
 10
605.41034409752615
 20
4483.6690526637867
 30
0.25
  0
VERTEX
  5
5C8
  8
COLLECTIONS
 10
605.39252480946811
 20
4483.6697442025034
 30
0.25
  0
VERTEX
  5
5C9
  8
COLLECTIONS
 10
605.38840897790044
 20
4483.665711693181
 30
0.25
  0
VERTEX
  5
5CA
  8
COLLECTIONS
 10
605.38266117960961
 20
4483.6515093806656
 30
0.25
  0
VERTEX
  5
5CB
  8
COLLECTIONS
 10
605.3956001904204
 20
4483.6218362462878
 30
0.25
  0
VERTEX
  5
5CC
  8
COLLECTIONS
 10
605.41470253330158
 20
4483.5971933332839
 30
0.25
  0
VERTEX
  5
5CD
  8
COLLECTIONS
 10
605.43381529146382
 20
4483.5735689628946
 30
0.25
  0
VERTEX
  5
5CE
  8
COLLECTIONS
 10
605.44536188700488
 20
4483.5571525053856
 30
0.25
  0
VERTEX
  5
5CF
  8
COLLECTIONS
 10
605.44935794284595
 20
4483.5494717746769
 30
0.25
  0
VERTEX
  5
5D0
  8
COLLECTIONS
 10
605.46105555995553
 20
4483.5478241850351
 30
0.25
  0
VERTEX
  5
5D1
  8
COLLECTIONS
 10
605.47533598707525
 20
4483.5497154563291
 30
0.25
  0
VERTEX
  5
5D2
  8
COLLECTIONS
 10
605.48871764731052
 20
4483.5633303829354
 30
0.25
  0
VERTEX
  5
5D3
  8
COLLECTIONS
 10
605.494003043058
 20
4483.5821213448407
 30
0.25
  0
VERTEX
  5
5D4
  8
COLLECTIONS
 10
605.49674208227714
 20
4483.6009383449509
 30
0.25
  0
VERTEX
  5
5D5
  8
COLLECTIONS
 10
605.49225758569162
 20
4483.6106613685224
 30
0.25
  0
VERTEX
  5
5D6
  8
COLLECTIONS
 10
605.48372495686215
 20
4483.622972409742
 30
0.25
  0
VERTEX
  5
5D7
  8
COLLECTIONS
 10
605.4721262849182
 20
4483.6342961541932
 30
0.25
  0
SEQEND
  5
5D8
  8
COLLECTIONS
  0
POLYLINE
  5
E7
  8
COLLECTIONS
 66
     1
 10
0.0
 20
0.0
 30
0.25
 70
     1
1001
IRD
1002
{
1000
TPMLINK_collections2-_-ade
1070
   515
1071
        2
1004
0100990C0000C3020000C30200000000000044FA38F18341D53F44FA38F18341D53F7804000000000000
1002
}
1002
{
1000
TPMLINK_area-_-ade
1070
   515
1071
        3
1004
0100EB48000031360000313600000000000099F138F18341D53F99F138F18341D53FC33B000000000000
1002
}
1002
{
1000
TPMLINK_area-_-ade
1070
   515
1071
        4
1004
010078210000AD0C0000AD0C0000000000007FEE38F18341D53F7FEE38F18341D53F4C18000000000000
1002
}
1001
ADE
1011
-0.0396440268078777
1021
0.0
1031
0.0
1021
-0.0080031744273583
1031
0.0
1001
DCO15
1071
        7
1071
        7
1000
collections
1004
0730324232363800
  0
VERTEX
  5
5D9
  8
COLLECTIONS
 10
605.53578843045545
 20
4483.7833865859448
 30
0.25
  0
VERTEX
  5
5DA
  8
COLLECTIONS
 10
605.51957507091845
 20
4483.791701571321
 30
0.25
  0
VERTEX
  5
5DB
  8
COLLECTIONS
 10
605.49676722260961
 20
4483.8026306125566
 30
0.25
  0
VERTEX
  5
5DC
  8
COLLECTIONS
 10
605.48004459176695
 20
4483.810950805575
 30
0.25
  0
VERTEX
  5
5DD
  8
COLLECTIONS
 10
605.45774080712351
 20
4483.8213653678622
 30
0.25
  0
VERTEX
  5
5DE
  8
COLLECTIONS
 10
605.45316778065285
 20
4483.822430779237
 30
0.25
  0
VERTEX
  5
5DF
  8
COLLECTIONS
 10
605.44486321055354
 20
4483.807235962312
 30
0.25
  0
VERTEX
  5
5E0
  8
COLLECTIONS
 10
605.43861655623812
 20
4483.7940574000459
 30
0.25
  0
VERTEX
  5
5E1
  8
COLLECTIONS
 10
605.43745219969867
 20
4483.7798082187692
 30
0.25
  0
VERTEX
  5
5E2
  8
COLLECTIONS
 10
605.43823119085664
 20
4483.7563713234294
 30
0.25
  0
VERTEX
  5
5E3
  8
COLLECTIONS
 10
605.45031830354515
 20
4483.7430052861137
 30
0.25
  0
VERTEX
  5
5E4
  8
COLLECTIONS
 10
605.46650562488026
 20
4483.7321439442039
 30
0.25
  0
VERTEX
  5
5E5
  8
COLLECTIONS
 10
605.48577461225113
 20
4483.7237977129844
 30
0.25
  0
VERTEX
  5
5E6
  8
COLLECTIONS
 10
605.50661828230125
 20
4483.720019300592
 30
0.25
  0
VERTEX
  5
5E7
  8
COLLECTIONS
 10
605.52036860755425
 20
4483.7198786943036
 30
0.25
  0
VERTEX
  5
5E8
  8
COLLECTIONS
 10
605.53724225996552
 20
4483.7263273691487
 30
0.25
  0
VERTEX
  5
5E9
  8
COLLECTIONS
 10
605.54245474874881
 20
4483.7379885327764
 30
0.25
  0
VERTEX
  5
5EA
  8
COLLECTIONS
 10
605.54309941870201
 20
4483.7512243790834
 30
0.25
  0
VERTEX
  5
5EB
  8
COLLECTIONS
 10
605.54321398678837
 20
4483.7624283478081
 30
0.25
  0
SEQEND
  5
5EC
  8
COLLECTIONS
  0
POLYLINE
  5
E8
  8
COLLECTIONS
 66
     1
 10
0.0
 20
0.0
 30
0.125
 70
     1
1001
IRD
1002
{
1000
TPMLINK_collections2-_-ade
1070
   515
1071
        2
1004
01009A0C0000C5020000C5020000000000009FCF3A5109F3BA3F9FCF3A5109F3BA3F7704000000000000
1002
}
1002
{
1000
TPMLINK_area-_-ade
1070
   515
1071
        3
1004
0100EC480000333600003336000000000000F2273B5109F3BA3FF2273B5109F3BA3FC43B000000000000
1002
}
1002
{
1000
TPMLINK_area-_-ade
1070
   515
1071
        4
1004
010079210000AF0C0000AF0C000000000000F2273B5109F3BA3FF2273B5109F3BA3F4B18000000000000
1002
}
1001
ADE
1011
-0.0049188660360642
1021
0.0
1031
0.0
1021
-0.0052581108120648
1031
0.0
1001
DCO15
1071
        7
1071
        7
1000
collections
1004
0730324232373400
  0
VERTEX
  5
5ED
  8
COLLECTIONS
 10
605.04783882030097
 20
4483.7817549783686
 30
0.125
  0
VERTEX
  5
5EE
  8
COLLECTIONS
 10
605.04130161557202
 20
4483.7899710185829
 30
0.125
  0
VERTEX
  5
5EF
  8
COLLECTIONS
 10
605.03521119046513
 20
4483.7920705954884
 30
0.125
  0
VERTEX
  5
5F0
  8
COLLECTIONS
 10
605.02451649304612
 20
4483.7921799559363
 30
0.125
  0
VERTEX
  5
5F1
  8
COLLECTIONS
 10
605.01885722464056
 20
4483.7866352556184
 30
0.125
  0
VERTEX
  5
5F2
  8
COLLECTIONS
 10
605.01571306692142
 20
4483.7780088892623
 30
0.125
  0
VERTEX
  5
5F3
  8
COLLECTIONS
 10
605.0156453675977
 20
4483.7713883622882
 30
0.125
  0
VERTEX
  5
5F4
  8
COLLECTIONS
 10
605.01657538032396
 20
4483.7627203348111
 30
0.125
  0
VERTEX
  5
5F5
  8
COLLECTIONS
 10
605.02728049302345
 20
4483.7636295169759
 30
0.125
  0
VERTEX
  5
5F6
  8
COLLECTIONS
 10
605.03799081336376
 20
4483.765047970448
 30
0.125
  0
VERTEX
  5
5F7
  8
COLLECTIONS
 10
605.04512581928338
 20
4483.7654843347891
 30
0.125
  0
SEQEND
  5
5F8
  8
COLLECTIONS
  0
POLYLINE
  5
E9
  8
COLLECTIONS
 66
     1
 10
0.0
 20
0.0
 30
0.015625
 70
     1
1001
IRD
1002
{
1000
TPMLINK_collections2-_-ade
1070
   515
1071
        2
1004
0100C60C000017020000170200000000000051C508BBCCB1D83F51C508BBCCB1D83F000000004B040000
1002
}
1002
{
1000
TPMLINK_area-_-ade
1070
   515
1071
        3
1004
01001849000085350000853500000000000036F307BBCCB1D83F36F307BBCCB1D83F00000000F03B0000
1002
}
1002
{
1000
TPMLINK_area-_-ade
1070
   515
1071
        4
1004
0100A2210000010C0000010C000000000000C39F07BBCCB1D83FC39F07BBCCB1D83F000000001F180000
1002
}
1001
ADE
1011
-0.0037534127887966
1021
0.0
1031
0.0
1021
-0.0475682155929462
1031
0.0
1001
DCO15
1071
        7
1071
        7
1000
collections
1004
0730324233303700
  0
VERTEX
  5
5F9
  8
COLLECTIONS
 10
606.18249506782934
 20
4484.8331471735719
 30
0.015625
  0
VERTEX
  5
5FA
  8
COLLECTIONS
 10
606.27281589076165
 20
4484.787818939385
 30
0.015625
  0
VERTEX
  5
5FB
  8
COLLECTIONS
 10
606.20461945445345
 20
4484.7032334973755
 30
0.015625
  0
VERTEX
  5
5FC
  8
COLLECTIONS
 10
606.16405158364057
 20
4484.7279058884133
 30
0.015625
  0
VERTEX
  5
5FD
  8
COLLECTIONS
 10
606.13674631050014
 20
4484.7575882948167
 30
0.015625
  0
SEQEND
  5
5FE
  8
COLLECTIONS
  0
POLYLINE
  5
EA
  8
COLLECTIONS
 66
     1
 10
0.0
 20
0.0
 30
0.25
 70
     1
1001
IRD
1002
{
1000
TPMLINK_collections2-_-ade
1070
   515
1071
        2
1004
0100C80C000003020000030200000000000080C5F931EBD1D53F80C5F931EBD1D53F0000000083060000
1002
}
1002
{
1000
TPMLINK_area-_-ade
1070
   515
1071
        3
1004
01001A4900007135000071350000000000001877F931EBD1D53F1877F931EBD1D53F00000000B8390000
1002
}
1002
{
1000
TPMLINK_area-_-ade
1070
   515
1071
        4
1004
0100A4210000ED0B0000ED0B000000000000566CF931EBD1D53F566CF931EBD1D53F00000000571A0000
1002
}
1001
ADE
1011
-0.0218854364674144
1021
0.0
1031
0.0
1021
0.0418611248878733
1031
0.0
1001
DCO15
1071
        7
1071
        7
1000
collections
1004
0730324233323900
  0
VERTEX
  5
5FF
  8
COLLECTIONS
 10
606.17567346930355
 20
4485.0247347353379
 30
0.25
  0
VERTEX
  5
600
  8
COLLECTIONS
 10
606.18832069419057
 20
4485.049138284804
 30
0.25
  0
VERTEX
  5
601
  8
COLLECTIONS
 10
606.21468866077896
 20
4485.0695067316628
 30
0.25
  0
VERTEX
  5
602
  8
COLLECTIONS
 10
606.24015747320698
 20
4485.032483814065
 30
0.25
  0
VERTEX
  5
603
  8
COLLECTIONS
 10
606.25645470685072
 20
4485.0101705529851
 30
0.25
  0
VERTEX
  5
604
  8
COLLECTIONS
 10
606.27324742963435
 20
4484.9939527626811
 30
0.25
  0
VERTEX
  5
605
  8
COLLECTIONS
 10
606.25751893808012
 20
4484.9863027301926
 30
0.25
  0
VERTEX
  5
606
  8
COLLECTIONS
 10
606.24078502400243
 20
4484.9735719350419
 30
0.25
  0
VERTEX
  5
607
  8
COLLECTIONS
 10
606.22913290432246
 20
4484.9593278474449
 30
0.25
  0
VERTEX
  5
608
  8
COLLECTIONS
 10
606.20683511921823
 20
4484.935412564997
 30
0.25
  0
SEQEND
  5
609
  8
COLLECTIONS
  0
POLYLINE
  5
EB
  8
COLLECTIONS
 66
     1
 10
0.0
 20
0.0
 30
0.25
 70
     1
1001
IRD
1002
{
1000
TPMLINK_collections2-_-ade
1070
   515
1071
        2
1004
0100CA0C0000F8010000F8010000000000003ABE0B4D8A59D93F3ABE0B4D8A59D93F4804000000000000
1002
}
1002
{
1000
TPMLINK_area-_-ade
1070
   515
1071
        3
1004
01001C49000066350000663500000000000029540B4D8A59D93F29540B4D8A59D93FF33B000000000000
1002
}
1002
{
1000
TPMLINK_area-_-ade
1070
   515
1071
        4
1004
0100A5210000E20B0000E20B0000000000009C540B4D8A59D93F9C540B4D8A59D93F1C18000000000000
1002
}
1001
ADE
1011
-0.02048450144855
1021
0.0
1031
0.0
1021
-0.0423507820069062
1031
0.0
1001
DCO15
1071
        7
1071
        7
1000
collections
1004
0730324233323700
  0
VERTEX
  5
60A
  8
COLLECTIONS
 10
606.16383796741252
 20
4485.1654337428909
 30
0.25
  0
VERTEX
  5
60B
  8
COLLECTIONS
 10
606.16006412332331
 20
4485.1380114981102
 30
0.25
  0
VERTEX
  5
60C
  8
COLLECTIONS
 10
606.15392995950413
 20
4485.117785896462
 30
0.25
  0
VERTEX
  5
60D
  8
COLLECTIONS
 10
606.14207385323323
 20
4485.0931228953159
 30
0.25
  0
VERTEX
  5
60E
  8
COLLECTIONS
 10
606.14777319399047
 20
4485.077175123598
 30
0.25
  0
VERTEX
  5
60F
  8
COLLECTIONS
 10
606.15617858852795
 20
4485.0672724266897
 30
0.25
  0
VERTEX
  5
610
  8
COLLECTIONS
 10
606.16300290268032
 20
4485.0553724347956
 30
0.25
  0
VERTEX
  5
611
  8
COLLECTIONS
 10
606.168286028838
 20
4485.043003038445
 30
0.25
  0
VERTEX
  5
612
  8
COLLECTIONS
 10
606.17452126136561
 20
4485.0280605629569
 30
0.25
  0
VERTEX
  5
613
  8
COLLECTIONS
 10
606.18684677209035
 20
4485.051182376108
 30
0.25
  0
VERTEX
  5
614
  8
COLLECTIONS
 10
606.20039433168643
 20
4485.0625504694626
 30
0.25
  0
VERTEX
  5
615
  8
COLLECTIONS
 10
606.21761334889607
 20
4485.0778998553242
 30
0.25
  0
VERTEX
  5
616
  8
COLLECTIONS
 10
606.23341085528205
 20
4485.0973635083283
 30
0.25
  0
VERTEX
  5
617
  8
COLLECTIONS
 10
606.23853972287725
 20
4485.1181250017453
 30
0.25
  0
VERTEX
  5
618
  8
COLLECTIONS
 10
606.24153832085335
 20
4485.1353746071118
 30
0.25
  0
VERTEX
  5
619
  8
COLLECTIONS
 10
606.24294254098118
 20
4485.1501176206557
 30
0.25
  0
VERTEX
  5
61A
  8
COLLECTIONS
 10
606.24496243766032
 20
4485.1689217114817
 30
0.25
  0
VERTEX
  5
61B
  8
COLLECTIONS
 10
606.23076861335369
 20
4485.1718405246766
 30
0.25
  0
VERTEX
  5
61C
  8
COLLECTIONS
 10
606.20574658069472
 20
4485.1699456161687
 30
0.25
  0
VERTEX
  5
61D
  8
COLLECTIONS
 10
606.18940918930559
 20
4485.168843244468
 30
0.25
  0
VERTEX
  5
61E
  8
COLLECTIONS
 10
606.17257579853606
 20
4485.1682634670751
 30
0.25
  0
SEQEND
  5
61F
  8
COLLECTIONS
  0
POLYLINE
  5
EC
  8
COLLECTIONS
 66
     1
 10
0.0
 20
0.0
 30
0.25
 70
     1
1001
IRD
1002
{
1000
TPMLINK_area-_-ade
1070
   515
1071
        1
1004
0100871C0000C00B0000C00B00000000000000C0AE47E17AB43F00C0AE47E17AB43F581A000000000000
1002
}
1001
ADE
1011
-0.0019662821395059
1021
0.0
1031
0.0
1021
0.0060225282049942
1031
0.0
1001
DCO15
1071
        3
1071
        3
1000
collections
1004
0730324233303500
  0
VERTEX
  5
620
  8
COLLECTIONS
 10
606.18567896931199
 20
4485.5529012356319
 30
0.25
  0
VERTEX
  5
621
  8
COLLECTIONS
 10
606.18567896931199
 20
4485.5329012356333
 30
0.25
  0
VERTEX
  5
622
  8
COLLECTIONS
 10
606.20567896931186
 20
4485.5329012356333
 30
0.25
  0
VERTEX
  5
623
  8
COLLECTIONS
 10
606.20567896931186
 20
4485.5529012356319
 30
0.25
  0
SEQEND
  5
624
  8
COLLECTIONS
  0
POLYLINE
  5
ED
  8
COLLECTIONS
 66
     1
 10
0.0
 20
0.0
 30
0.25
 70
     1
1001
IRD
1002
{
1000
TPMLINK_area-_-ade
1070
   515
1071
        1
1004
01000C1D00005601000056010000000000000000AD47E17AB43F0000AD47E17AB43F4714000000000000
1002
}
1001
ADE
1011
0.0001271298473284
1021
0.0
1031
0.0
1021
0.0015310329035856
1031
0.0
1001
DCO15
1071
        3
1071
        3
1000
collections
1004
0730344236383900
  0
VERTEX
  5
625
  8
COLLECTIONS
 10
632.72619159778253
 20
4500.857602353577
 30
0.25
  0
VERTEX
  5
626
  8
COLLECTIONS
 10
632.72619159778253
 20
4500.8376023535766
 30
0.25
  0
VERTEX
  5
627
  8
COLLECTIONS
 10
632.74619159778251
 20
4500.8376023535766
 30
0.25
  0
VERTEX
  5
628
  8
COLLECTIONS
 10
632.74619159778251
 20
4500.857602353577
 30
0.25
  0
SEQEND
  5
629
  8
COLLECTIONS
  0
POLYLINE
  5
EE
  8
COLLECTIONS
 66
     1
 10
0.0
 20
0.0
 30
0.25
 70
     1
1001
IRD
1002
{
1000
TPMLINK_area-_-ade
1070
   515
1071
        1
1004
01000D1D00007801000078010000000000000000B147E17AB43F0000B147E17AB43F4514000000000000
1002
}
1001
ADE
1011
0.0002505917440203
1021
0.0
1031
0.0
1021
-0.0005888327796129
1031
0.0
1001
DCO15
1071
        3
1071
        3
1000
collections
1004
0730344236393200
  0
VERTEX
  5
62A
  8
COLLECTIONS
 10
632.78867563802874
 20
4500.6593506494446
 30
0.25
  0
VERTEX
  5
62B
  8
COLLECTIONS
 10
632.78867563802874
 20
4500.6393506494442
 30
0.25
  0
VERTEX
  5
62C
  8
COLLECTIONS
 10
632.80867563802872
 20
4500.6393506494442
 30
0.25
  0
VERTEX
  5
62D
  8
COLLECTIONS
 10
632.80867563802872
 20
4500.6593506494446
 30
0.25
  0
SEQEND
  5
62E
  8
COLLECTIONS
  0
POLYLINE
  5
EF
  8
COLLECTIONS
 66
     1
 10
0.0
 20
0.0
 30
0.25
 70
     1
1001
IRD
1002
{
1000
TPMLINK_area-_-ade
1070
   515
1071
        1
1004
01002D1D00000503000005030000000000000000AF47E17AB43F0000AF47E17AB43F7D12000000000000
1002
}
1001
ADE
1011
0.0003868724605809
1021
0.0
1031
0.0
1021
0.0005308535710356
1031
0.0
1001
DCO15
1071
        3
1071
        3
1000
collections
1004
073034413132353400
  0
VERTEX
  5
62F
  8
COLLECTIONS
 10
631.77395285443629
 20
4499.2589885809293
 30
0.25
  0
VERTEX
  5
630
  8
COLLECTIONS
 10
631.77395285443629
 20
4499.2389885809289
 30
0.25
  0
VERTEX
  5
631
  8
COLLECTIONS
 10
631.79395285443616
 20
4499.2389885809289
 30
0.25
  0
VERTEX
  5
632
  8
COLLECTIONS
 10
631.79395285443616
 20
4499.2589885809293
 30
0.25
  0
SEQEND
  5
633
  8
COLLECTIONS
  0
POLYLINE
  5
F0
  8
COLLECTIONS
 66
     1
 10
0.0
 20
0.0
 30
0.25
 70
     1
1001
IRD
1002
{
1000
TPMLINK_area-_-ade
1070
   515
1071
        1
1004
0100301D00004906000049060000000000000000AF47E17AB43F0000AF47E17AB43F6C12000000000000
1002
}
1001
ADE
1011
0.0005145320892552
1021
0.0
1031
0.0
1021
0.0004357836496638
1031
0.0
1001
DCO15
1071
        3
1071
        3
1000
collections
1004
0730344239393300
  0
VERTEX
  5
634
  8
COLLECTIONS
 10
627.0487906470056
 20
4495.2171125012646
 30
0.25
  0
VERTEX
  5
635
  8
COLLECTIONS
 10
627.0487906470056
 20
4495.1971125012651
 30
0.25
  0
VERTEX
  5
636
  8
COLLECTIONS
 10
627.06879064700559
 20
4495.1971125012651
 30
0.25
  0
VERTEX
  5
637
  8
COLLECTIONS
 10
627.06879064700559
 20
4495.2171125012646
 30
0.25
  0
SEQEND
  5
638
  8
COLLECTIONS
  0
POLYLINE
  5
F1
  8
COLLECTIONS
 66
     1
 10
0.0
 20
0.0
 30
0.025
 70
     1
1001
IRD
1002
{
1000
TPMLINK_collections2-_-ade
1070
   515
1071
        2
1004
01009C0800002D0000002D0000000000000044E3B7BB75D3CF3F44E3B7BB75D3CF3F000000006F080000
1002
}
1002
{
1000
TPMLINK_area-_-ade
1070
   515
1071
        3
1004
0100EE4400008D3100008D31000000000000E537B9BB75D3CF3FE537B9BB75D3CF3F00000000CC370000
1002
}
1002
{
1000
TPMLINK_area-_-ade
1070
   515
1071
        4
1004
0100BA1D0000CE070000CE07000000000000E537B9BB75D3CF3FE537B9BB75D3CF3F00000000431C0000
1002
}
1001
ADE
1011
-0.0034748456648686
1021
0.0
1031
0.0
1021
0.0297803279090658
1031
0.0
1001
DCO15
1071
        7
1071
        7
1000
collections
1004
0730324135323900
  0
VERTEX
  5
639
  8
COLLECTIONS
 10
612.65217928442257
 20
4494.1653422799282
 30
0.025
  0
VERTEX
  5
63A
  8
COLLECTIONS
 10
612.69967897506956
 20
4494.14113779954
 30
0.025
  0
VERTEX
  5
63B
  8
COLLECTIONS
 10
612.66274626863833
 20
4494.0803578345322
 30
0.025
  0
VERTEX
  5
63C
  8
COLLECTIONS
 10
612.61441996153155
 20
4494.1096889964274
 30
0.025
  0
VERTEX
  5
63D
  8
COLLECTIONS
 10
612.63572920999025
 20
4494.1343670201013
 30
0.025
  0
SEQEND
  5
63E
  8
COLLECTIONS
  0
ENDSEC
  0
EOF
