  0
SECTION
  2
HEADER
  9
$ACADVER
  1
AC1009
  9
$INSBASE
 10
0.0
 20
0.0
 30
0.0
  9
$EXTMIN
 10
799747.81755174114
 20
8982797.5481887236
 30
0.0
  9
$EXTMAX
 10
813496.47603331506
 20
8993270.550057834
 30
0.0
  9
$LIMMIN
 10
0.0
 20
0.0
  9
$LIMMAX
 10
12.0
 20
9.0
  9
$ORTHOMODE
 70
     0
  9
$REGENMODE
 70
     1
  9
$FILLMODE
 70
     1
  9
$QTEXTMODE
 70
     0
  9
$MIRRTEXT
 70
     0
  9
$DRAGMODE
 70
     2
  9
$LTSCALE
 40
1.0
  9
$OSMODE
 70
    37
  9
$ATTMODE
 70
     1
  9
$TEXTSIZE
 40
50.0
  9
$TRACEWID
 40
0.05
  9
$TEXTSTYLE
  7
LEGEND
  9
$CLAYER
  8
SOILS
  9
$CELTYPE
  6
BYLAYER
  9
$CECOLOR
 62
   256
  9
$DIMSCALE
 40
1.0
  9
$DIMASZ
 40
0.18
  9
$DIMEXO
 40
0.0625
  9
$DIMDLI
 40
0.38
  9
$DIMRND
 40
0.0
  9
$DIMDLE
 40
0.0
  9
$DIMEXE
 40
0.18
  9
$DIMTP
 40
0.0
  9
$DIMTM
 40
0.0
  9
$DIMTXT
 40
0.18
  9
$DIMCEN
 40
0.09
  9
$DIMTSZ
 40
0.0
  9
$DIMTOL
 70
     0
  9
$DIMLIM
 70
     0
  9
$DIMTIH
 70
     1
  9
$DIMTOH
 70
     1
  9
$DIMSE1
 70
     0
  9
$DIMSE2
 70
     0
  9
$DIMTAD
 70
     0
  9
$DIMZIN
 70
     0
  9
$DIMBLK
  1

  9
$DIMASO
 70
     1
  9
$DIMSHO
 70
     1
  9
$DIMPOST
  1

  9
$DIMAPOST
  1

  9
$DIMALT
 70
     0
  9
$DIMALTD
 70
     2
  9
$DIMALTF
 40
25.399999999999999
  9
$DIMLFAC
 40
1.0
  9
$DIMTOFL
 70
     0
  9
$DIMTVP
 40
0.0
  9
$DIMTIX
 70
     0
  9
$DIMSOXD
 70
     0
  9
$DIMSAH
 70
     0
  9
$DIMBLK1
  1

  9
$DIMBLK2
  1

  9
$DIMSTYLE
  2
STANDARD
  9
$DIMCLRD
 70
     0
  9
$DIMCLRE
 70
     0
  9
$DIMCLRT
 70
     0
  9
$DIMTFAC
 40
1.0
  9
$DIMGAP
 40
0.09
  9
$LUNITS
 70
     2
  9
$LUPREC
 70
     4
  9
$SKETCHINC
 40
0.1
  9
$FILLETRAD
 40
0.0
  9
$AUNITS
 70
     0
  9
$AUPREC
 70
     0
  9
$MENU
  1
.
  9
$ELEVATION
 40
0.0
  9
$PELEVATION
 40
0.0
  9
$THICKNESS
 40
0.0
  9
$LIMCHECK
 70
     0
  9
$BLIPMODE
 70
     0
  9
$CHAMFERA
 40
0.0
  9
$CHAMFERB
 40
0.0
  9
$SKPOLY
 70
     0
  9
$TDCREATE
 40
2455860.054201019
  9
$TDUPDATE
 40
2457462.5617365162
  9
$TDINDWG
 40
29.8882127778
  9
$TDUSRTIMER
 40
29.888210243100001
  9
$USRTIMER
 70
     1
  9
$ANGBASE
 50
0.0
  9
$ANGDIR
 70
     0
  9
$PDMODE
 70
    34
  9
$PDSIZE
 40
-10.0
  9
$PLINEWID
 40
0.0
  9
$COORDS
 70
     1
  9
$SPLFRAME
 70
     0
  9
$SPLINETYPE
 70
     6
  9
$SPLINESEGS
 70
     8
  9
$ATTDIA
 70
     1
  9
$ATTREQ
 70
     1
  9
$HANDLING
 70
     1
  9
$HANDSEED
  5
B8A
  9
$SURFTAB1
 70
     6
  9
$SURFTAB2
 70
     6
  9
$SURFTYPE
 70
     6
  9
$SURFU
 70
     6
  9
$SURFV
 70
     6
  9
$UCSNAME
  2

  9
$UCSORG
 10
0.0
 20
0.0
 30
0.0
  9
$UCSXDIR
 10
1.0
 20
0.0
 30
0.0
  9
$UCSYDIR
 10
0.0
 20
1.0
 30
0.0
  9
$PUCSNAME
  2

  9
$PUCSORG
 10
0.0
 20
0.0
 30
0.0
  9
$PUCSXDIR
 10
1.0
 20
0.0
 30
0.0
  9
$PUCSYDIR
 10
0.0
 20
1.0
 30
0.0
  9
$USERI1
 70
     0
  9
$USERI2
 70
     0
  9
$USERI3
 70
     0
  9
$USERI4
 70
     0
  9
$USERI5
 70
     0
  9
$USERR1
 40
0.0
  9
$USERR2
 40
0.0
  9
$USERR3
 40
0.0
  9
$USERR4
 40
0.0
  9
$USERR5
 40
0.0
  9
$WORLDVIEW
 70
     1
  9
$SHADEDGE
 70
     3
  9
$SHADEDIF
 70
    70
  9
$TILEMODE
 70
     1
  9
$MAXACTVP
 70
    64
  9
$PLIMCHECK
 70
     0
  9
$PEXTMIN
 10
1.0499999523162831
 20
0.7999999523162842
 30
0.0
  9
$PEXTMAX
 10
9.4499995708465594
 20
7.1999995708465567
 30
0.0
  9
$PLIMMIN
 10
0.0
 20
0.0
  9
$PLIMMAX
 10
12.0
 20
9.0
  9
$UNITMODE
 70
     0
  9
$VISRETAIN
 70
     1
  9
$PLINEGEN
 70
     0
  9
$PSLTSCALE
 70
     1
  0
ENDSEC
  0
SECTION
  2
TABLES
  0
TABLE
  2
VPORT
 70
     1
  0
VPORT
  2
*ACTIVE
 70
     0
 10
0.0
 20
0.0
 11
1.0
 21
1.0
 12
814271.11165995116
 22
8986522.1042345669
 13
0.0
 23
0.0
 14
1000.0
 24
1000.0
 15
0.0
 25
0.0
 16
0.0
 26
0.0
 36
1.0
 17
0.0
 27
0.0
 37
0.0
 40
23334.848046647719
 41
1.601837672281776
 42
50.0
 43
0.0
 44
0.0
 50
0.0
 51
0.0
 71
     0
 72
   100
 73
     1
 74
     3
 75
     0
 76
     0
 77
     0
 78
     0
  0
ENDTAB
  0
TABLE
  2
LTYPE
 70
     1
  0
LTYPE
  2
CONTINUOUS
 70
     0
  3
GS Solid
 72
    65
 73
     0
 40
0.0012700000079349
  0
ENDTAB
  0
TABLE
  2
LAYER
 70
     3
  0
LAYER
  2
0
 70
     0
 62
    -7
  6
CONTINUOUS
  0
LAYER
  2
SOILS
 70
     0
 62
    30
  6
CONTINUOUS
  0
LAYER
  2
SOIL_NAMES
 70
     0
 62
     7
  6
CONTINUOUS
  0
ENDTAB
  0
TABLE
  2
STYLE
 70
     2
  0
STYLE
  2
STANDARD
 70
     0
 40
0.0
 41
1.0
 50
0.0
 71
     0
 42
100.0
  3
txt
  4

  0
STYLE
  2
LEGEND
 70
     0
 40
0.0
 41
1.0
 50
0.0
 71
     0
 42
50.0
  3
txt
  4

  0
ENDTAB
  0
TABLE
  2
VIEW
 70
     0
  0
ENDTAB
  0
TABLE
  2
UCS
 70
     0
  0
ENDTAB
  0
TABLE
  2
APPID
 70
     7
  0
APPID
  2
ACAD
 70
     0
  0
APPID
  2
ADE
 70
     0
  0
APPID
  2
ACAECLAYERSTANDARD
 70
     0
  0
APPID
  2
ACAD_PSEXT
 70
     0
  0
APPID
  2
ACAD_NAV_VCDISPLAY
 70
     0
  0
APPID
  2
ACCMTRANSPARENCY
 70
     0
  0
APPID
  2
ADE_PROJECTION
 70
     0
  0
ENDTAB
  0
TABLE
  2
DIMSTYLE
 70
     1
  0
DIMSTYLE
  2
STANDARD
 70
     0
  3

  4

  5

  6

  7

 40
1.0
 41
0.18
 42
0.0625
 43
0.38
 44
0.18
 45
0.0
 46
0.0
 47
0.0
 48
0.0
140
0.18
141
0.09
142
0.0
143
25.399999999999999
144
1.0
145
0.0
146
1.0
147
0.09
 71
     0
 72
     0
 73
     1
 74
     1
 75
     0
 76
     0
 77
     0
 78
     0
170
     0
171
     2
172
     0
173
     0
174
     0
175
     0
176
     0
177
     0
178
     0
  0
ENDTAB
  0
ENDSEC
  0
SECTION
  2
BLOCKS
  0
BLOCK
  8
0
  2
$MODEL_SPACE
 70
     0
 10
0.0
 20
0.0
 30
0.0
  3
$MODEL_SPACE
  1

  0
ENDBLK
  5
19
  8
0
  0
BLOCK
 67
     1
  8
0
  2
$PAPER_SPACE
 70
     0
 10
0.0
 20
0.0
 30
0.0
  3
$PAPER_SPACE
  1

  0
ENDBLK
  5
21
 67
     1
  8
0
  0
ENDSEC
  0
SECTION
  2
ENTITIES
  0
POLYLINE
  5
78
  8
SOILS
 66
     1
 10
0.0
 20
0.0
 30
0.0
  0
VERTEX
  5
1C0
  8
SOILS
 10
805505.06140453951
 20
8982891.6340000127
 30
0.0
  0
VERTEX
  5
1C1
  8
SOILS
 10
805419.46064168192
 20
8982931.1541491672
 30
0.0
  0
SEQEND
  5
1C2
  8
SOILS
  0
POLYLINE
  5
79
  8
SOILS
 66
     1
 10
0.0
 20
0.0
 30
0.0
  0
VERTEX
  5
1C3
  8
SOILS
 10
806318.38393585628
 20
8982804.5530972648
 30
0.0
  0
VERTEX
  5
1C4
  8
SOILS
 10
806225.50794210425
 20
8982805.6859946847
 30
0.0
  0
SEQEND
  5
1C5
  8
SOILS
  0
POLYLINE
  5
7A
  8
SOILS
 66
     1
 10
0.0
 20
0.0
 30
0.0
 40
1.0
 41
1.0
  0
VERTEX
  5
1C6
  8
SOILS
 10
812571.46134825982
 20
8988073.7988236882
 30
0.0
  0
VERTEX
  5
1C7
  8
SOILS
 10
812568.54864830803
 20
8988003.5852141734
 30
0.0
  0
VERTEX
  5
1C8
  8
SOILS
 10
812536.59718045185
 20
8987912.6025520675
 30
0.0
  0
VERTEX
  5
1C9
  8
SOILS
 10
812469.18137693626
 20
8987783.0656024087
 30
0.0
  0
SEQEND
  5
1CA
  8
SOILS
  0
POLYLINE
  5
7B
  8
SOILS
 66
     1
 10
0.0
 20
0.0
 30
0.0
 40
1.0
 41
1.0
  0
VERTEX
  5
1CB
  8
SOILS
 10
807037.18060406018
 20
8983958.3416515086
 30
0.0
  0
VERTEX
  5
1CC
  8
SOILS
 10
806957.80831873964
 20
8984091.9307827968
 30
0.0
  0
VERTEX
  5
1CD
  8
SOILS
 10
806951.61234889366
 20
8984165.1822482571
 30
0.0
  0
VERTEX
  5
1CE
  8
SOILS
 10
806929.92667383375
 20
8984246.6874237191
 30
0.0
  0
VERTEX
  5
1CF
  8
SOILS
 10
806894.42426948377
 20
8984342.9478963036
 30
0.0
  0
SEQEND
  5
1D0
  8
SOILS
  0
TEXT
  5
7C
  8
SOIL_NAMES
 10
805283.9194129894
 20
8985517.8037158921
 30
0.0
 40
100.0
  1
RW
  7
LEGEND
  0
TEXT
  5
7F
  8
SOIL_NAMES
 10
810920.53740180435
 20
8986096.1269609742
 30
0.0
 40
100.0
  1
MO
  7
LEGEND
  0
POLYLINE
  5
80
  8
SOILS
 66
     1
 10
0.0
 20
0.0
 30
0.0
 40
1.0
 41
1.0
  0
VERTEX
  5
1D1
  8
SOILS
 10
811415.48386562883
 20
8986777.8715064451
 30
0.0
  0
VERTEX
  5
1D2
  8
SOILS
 10
811473.4221471101
 20
8986444.8505037371
 30
0.0
  0
VERTEX
  5
1D3
  8
SOILS
 10
811455.2851496659
 20
8986290.0310357735
 30
0.0
  0
VERTEX
  5
1D4
  8
SOILS
 10
811439.00855033135
 20
8986242.4014886096
 30
0.0
  0
VERTEX
  5
1D5
  8
SOILS
 10
811398.3170519952
 20
8986200.5804075338
 30
0.0
  0
VERTEX
  5
1D6
  8
SOILS
 10
811213.46140141657
 20
8986109.9680571686
 30
0.0
  0
VERTEX
  5
1D7
  8
SOILS
 10
810929.74087365437
 20
8985979.6507985555
 30
0.0
  0
VERTEX
  5
1D8
  8
SOILS
 10
810866.21066927025
 20
8985947.6843125578
 30
0.0
  0
SEQEND
  5
1D9
  8
SOILS
  0
TEXT
  5
81
  8
SOIL_NAMES
 10
808818.24605476693
 20
8983737.7005461063
 30
0.0
 40
100.0
  1
LD
  7
LEGEND
  0
TEXT
  5
82
  8
SOIL_NAMES
 10
806163.68516383809
 20
8985251.3970123027
 30
0.0
 40
100.0
  1
LD
  7
LEGEND
  0
TEXT
  5
83
  8
SOIL_NAMES
 10
806854.61329572066
 20
8984947.0354997683
 30
0.0
 40
100.0
  1
LD
  7
LEGEND
  0
POLYLINE
  5
84
  8
SOILS
 66
     1
 10
0.0
 20
0.0
 30
0.0
 40
1.0
 41
1.0
  0
VERTEX
  5
1DA
  8
SOILS
 10
806370.94674128608
 20
8985020.069486266
 30
0.0
  0
VERTEX
  5
1DB
  8
SOILS
 10
806345.39697768074
 20
8985001.5071720406
 30
0.0
  0
SEQEND
  5
1DC
  8
SOILS
  0
POLYLINE
  5
85
  8
SOILS
 66
     1
 10
0.0
 20
0.0
 30
0.0
 40
1.0
 41
1.0
  0
VERTEX
  5
1DD
  8
SOILS
 10
806714.96352056554
 20
8985275.2652177755
 30
0.0
  0
VERTEX
  5
1DE
  8
SOILS
 10
806642.39085864695
 20
8985149.7724400517
 30
0.0
  0
VERTEX
  5
1DF
  8
SOILS
 10
806495.77604244824
 20
8985091.0177846868
 30
0.0
  0
VERTEX
  5
1E0
  8
SOILS
 10
806370.94674128608
 20
8985020.069486266
 30
0.0
  0
SEQEND
  5
1E1
  8
SOILS
  0
TEXT
  5
86
  8
SOIL_NAMES
 10
809042.51162710926
 20
8985750.2714823335
 30
0.0
 40
100.0
  1
RW
  7
LEGEND
  0
TEXT
  5
87
  8
SOIL_NAMES
 10
806724.06470825721
 20
8984532.6822886895
 30
0.0
 40
100.0
  1
M
  7
LEGEND
  0
TEXT
  5
88
  8
SOIL_NAMES
 10
809456.43034177029
 20
8984093.3337434195
 30
0.0
 40
100.0
  1
LD
  7
LEGEND
  0
TEXT
  5
89
  8
SOIL_NAMES
 10
811112.35790565296
 20
8989171.8649846483
 30
0.0
 40
100.0
  1
MO
  7
LEGEND
  0
TEXT
  5
8A
  8
SOIL_NAMES
 10
811429.65492082655
 20
8992184.5143277124
 30
0.0
 40
100.0
  1
MO
  7
LEGEND
  0
TEXT
  5
8B
  8
SOIL_NAMES
 10
810307.2370169796
 20
8989967.9834197126
 30
0.0
 40
100.0
  1
PI
  7
LEGEND
  0
TEXT
  5
8C
  8
SOIL_NAMES
 10
811042.56120230339
 20
8987131.8974588923
 30
0.0
 40
100.0
  1
M
  7
LEGEND
  0
TEXT
  5
8D
  8
SOIL_NAMES
 10
809839.62601684243
 20
8986217.0564140119
 30
0.0
 40
100.0
  1
LD
  7
LEGEND
  0
TEXT
  5
8E
  8
SOIL_NAMES
 10
809835.4638238427
 20
8985875.9592455141
 30
0.0
 40
100.0
  1
LD
  7
LEGEND
  0
TEXT
  5
8F
  8
SOIL_NAMES
 10
809138.10315265995
 20
8985978.6143450718
 30
0.0
 40
100.0
  1
LD
  7
LEGEND
  0
TEXT
  5
90
  8
SOIL_NAMES
 10
807328.5853264028
 20
8984081.9638795592
 30
0.0
 40
100.0
  1
LD
  7
LEGEND
  0
TEXT
  5
91
  8
SOIL_NAMES
 10
806973.26445351308
 20
8984131.3278192673
 30
0.0
 40
100.0
  1
LD
  7
LEGEND
  0
TEXT
  5
92
  8
SOIL_NAMES
 10
806363.94224972941
 20
8984212.6993427202
 30
0.0
 40
100.0
  1
LD
  7
LEGEND
  0
TEXT
  5
93
  8
SOIL_NAMES
 10
809744.44118297193
 20
8991377.386682028
 30
0.0
 40
100.0
  1
RI
  7
LEGEND
  0
TEXT
  5
94
  8
SOIL_NAMES
 10
811527.2644596101
 20
8992400.3671840224
 30
0.0
 40
100.0
  1
PI
  7
LEGEND
  0
TEXT
  5
95
  8
SOIL_NAMES
 10
808039.75635331532
 20
8984490.716401875
 30
0.0
 40
100.0
  1
PI
  7
LEGEND
  0
TEXT
  5
96
  8
SOIL_NAMES
 10
810614.80594534334
 20
8986785.8285706677
 30
0.0
 40
100.0
  1
M
  7
LEGEND
  0
TEXT
  5
97
  8
SOIL_NAMES
 10
811266.16700555419
 20
8985860.9956651814
 30
0.0
 40
100.0
  1
MO
  7
LEGEND
  0
TEXT
  5
98
  8
SOIL_NAMES
 10
805803.46910388442
 20
8983689.1145728528
 30
0.0
 40
100.0
  1
MO
  7
LEGEND
  0
TEXT
  5
99
  8
SOIL_NAMES
 10
801965.65565801715
 20
8984763.594652202
 30
0.0
 40
100.0
  1
MO
  7
LEGEND
  0
TEXT
  5
9A
  8
SOIL_NAMES
 10
804493.52581028547
 20
8986943.4196555447
 30
0.0
 40
100.0
  1
MO
  7
LEGEND
  0
TEXT
  5
9B
  8
SOIL_NAMES
 10
806536.90521583857
 20
8991568.5979917124
 30
0.0
 40
100.0
  1
MO
  7
LEGEND
  0
TEXT
  5
9C
  8
SOIL_NAMES
 10
810965.63106548204
 20
8985150.0145457983
 30
0.0
 40
100.0
  1
RW
  7
LEGEND
  0
TEXT
  5
9D
  8
SOIL_NAMES
 10
807458.25726115308
 20
8984411.898648344
 30
0.0
 40
100.0
  1
RW
  7
LEGEND
  0
TEXT
  5
9E
  8
SOIL_NAMES
 10
809354.95337073714
 20
8989755.4920751732
 30
0.0
 40
100.0
  1
LD
  7
LEGEND
  0
TEXT
  5
9F
  8
SOIL_NAMES
 10
812106.68510192062
 20
8986485.1106411628
 30
0.0
 40
100.0
  1
M
  7
LEGEND
  0
TEXT
  5
A0
  8
SOIL_NAMES
 10
806386.28318024578
 20
8992721.8161835168
 30
0.0
 40
100.0
  1
M
  7
LEGEND
  0
TEXT
  5
A1
  8
SOIL_NAMES
 10
801273.55890396622
 20
8985018.124587547
 30
0.0
 40
100.0
  1
M
  7
LEGEND
  0
TEXT
  5
A2
  8
SOIL_NAMES
 10
803655.45149268117
 20
8984117.2335069608
 30
0.0
 40
100.0
  1
M
  7
LEGEND
  0
TEXT
  5
A3
  8
SOIL_NAMES
 10
805580.27176013356
 20
8983137.9571628291
 30
0.0
 40
100.0
  1
M
  7
LEGEND
  0
TEXT
  5
A4
  8
SOIL_NAMES
 10
806868.3565157241
 20
8983370.4919961784
 30
0.0
 40
100.0
  1
M
  7
LEGEND
  0
TEXT
  5
A5
  8
SOIL_NAMES
 10
805479.26261014084
 20
8983828.8300150651
 30
0.0
 40
100.0
  1
M
  7
LEGEND
  0
TEXT
  5
A6
  8
SOIL_NAMES
 10
804900.81799064449
 20
8984746.2875846382
 30
0.0
 40
100.0
  1
M
  7
LEGEND
  0
TEXT
  5
A7
  8
SOIL_NAMES
 10
809439.98989341967
 20
8986651.4141601715
 30
0.0
 40
100.0
  1
M
  7
LEGEND
  0
TEXT
  5
A8
  8
SOIL_NAMES
 10
808687.55539038812
 20
8985273.1845056117
 30
0.0
 40
100.0
  1
M
  7
LEGEND
  0
TEXT
  5
A9
  8
SOIL_NAMES
 10
810204.37262769078
 20
8984862.9414068926
 30
0.0
 40
100.0
  1
M
  7
LEGEND
  0
TEXT
  5
AA
  8
SOIL_NAMES
 10
811402.93720345967
 20
8985096.4723186754
 30
0.0
 40
100.0
  1
M
  7
LEGEND
  0
TEXT
  5
AB
  8
SOIL_NAMES
 10
812227.81297575566
 20
8985146.2100407407
 30
0.0
 40
100.0
  1
M
  7
LEGEND
  0
TEXT
  5
AC
  8
SOIL_NAMES
 10
807473.4660971117
 20
8990448.6398541499
 30
0.0
 40
100.0
  1
M
  7
LEGEND
  0
TEXT
  5
AD
  8
SOIL_NAMES
 10
807175.52308399719
 20
8991219.1779263802
 30
0.0
 40
100.0
  1
M
  7
LEGEND
  0
TEXT
  5
AE
  8
SOIL_NAMES
 10
804969.51231856027
 20
8988209.3613891378
 30
0.0
 40
100.0
  1
M
  7
LEGEND
  0
TEXT
  5
AF
  8
SOIL_NAMES
 10
808126.26765162265
 20
8988330.6281328239
 30
0.0
 40
100.0
  1
M
  7
LEGEND
  0
TEXT
  5
B0
  8
SOIL_NAMES
 10
808555.79761393613
 20
8988592.5441964529
 30
0.0
 40
100.0
  1
M
  7
LEGEND
  0
TEXT
  5
B1
  8
SOIL_NAMES
 10
811731.19395927433
 20
8988518.5395773631
 30
0.0
 40
100.0
  1
M
  7
LEGEND
  0
TEXT
  5
B2
  8
SOIL_NAMES
 10
811187.4213174294
 20
8990949.9016072582
 30
0.0
 40
100.0
  1
M
  7
LEGEND
  0
TEXT
  5
B3
  8
SOIL_NAMES
 10
808309.38981497067
 20
8992274.494215969
 30
0.0
 40
100.0
  1
M
  7
LEGEND
  0
TEXT
  5
B4
  8
SOIL_NAMES
 10
807154.92304785585
 20
8989887.6843644753
 30
0.0
 40
100.0
  1
M
  7
LEGEND
  0
TEXT
  5
B5
  8
SOIL_NAMES
 10
809832.71002525045
 20
8992940.2544151228
 30
0.0
 40
100.0
  1
PI
  7
LEGEND
  0
TEXT
  5
B6
  8
SOIL_NAMES
 10
812525.71956755279
 20
8988375.7027537376
 30
0.0
 40
100.0
  1
PI
  7
LEGEND
  0
TEXT
  5
B7
  8
SOIL_NAMES
 10
806528.21340237511
 20
8990702.3954847399
 30
0.0
 40
100.0
  1
PI
  7
LEGEND
  0
TEXT
  5
B8
  8
SOIL_NAMES
 10
807925.34493491985
 20
8990576.0275128223
 30
0.0
 40
100.0
  1
PI
  7
LEGEND
  0
TEXT
  5
B9
  8
SOIL_NAMES
 10
808396.02295838646
 20
8990576.0275128223
 30
0.0
 40
100.0
  1
RI
  7
LEGEND
  0
TEXT
  5
BA
  8
SOIL_NAMES
 10
808120.07283761224
 20
8989235.2049541548
 30
0.0
 40
100.0
  1
RI
  7
LEGEND
  0
TEXT
  5
BB
  8
SOIL_NAMES
 10
812092.49899644544
 20
8987822.2278978992
 30
0.0
 40
100.0
  1
RI
  7
LEGEND
  0
TEXT
  5
BC
  8
SOIL_NAMES
 10
809304.58910483553
 20
8986431.8831274137
 30
0.0
 40
100.0
  1
RI
  7
LEGEND
  0
TEXT
  5
BD
  8
SOIL_NAMES
 10
808305.47604722471
 20
8986919.6740687918
 30
0.0
 40
100.0
  1
RI-p
  7
LEGEND
  0
TEXT
  5
BE
  8
SOIL_NAMES
 10
807110.42589793249
 20
8987138.8456287254
 30
0.0
 40
100.0
  1
RI
  7
LEGEND
  0
TEXT
  5
BF
  8
SOIL_NAMES
 10
803706.05050649145
 20
8985472.5463713855
 30
0.0
 40
100.0
  1
PL
  7
LEGEND
  0
TEXT
  5
C0
  8
SOIL_NAMES
 10
803428.69441043213
 20
8986078.1866315044
 30
0.0
 40
100.0
  1
RW
  7
LEGEND
  0
TEXT
  5
C1
  8
SOIL_NAMES
 10
810224.35575076751
 20
8986791.5625500865
 30
0.0
 40
100.0
  1
LC
  7
LEGEND
  0
TEXT
  5
C2
  8
SOIL_NAMES
 10
810894.13483565708
 20
8986982.3645203896
 30
0.0
 40
100.0
  1
LC
  7
LEGEND
  0
TEXT
  5
C3
  8
SOIL_NAMES
 10
807572.32362388482
 20
8989688.9770273603
 30
0.0
 40
100.0
  1
LC
  7
LEGEND
  0
TEXT
  5
C4
  8
SOIL_NAMES
 10
806011.97818819236
 20
8989131.6466194987
 30
0.0
 40
100.0
  1
LC
  7
LEGEND
  0
TEXT
  5
C5
  8
SOIL_NAMES
 10
805411.09918653138
 20
8984946.7861669883
 30
0.0
 40
100.0
  1
LC
  7
LEGEND
  0
TEXT
  5
C6
  8
SOIL_NAMES
 10
801023.05692655535
 20
8986407.1985076498
 30
0.0
 40
100.0
  1
LC
  7
LEGEND
  0
TEXT
  5
C7
  8
SOIL_NAMES
 10
806603.27318546805
 20
8985614.2383118868
 30
0.0
 40
100.0
  1
MO
  7
LEGEND
  0
TEXT
  5
C8
  8
SOIL_NAMES
 10
808988.50034821918
 20
8988537.9666239955
 30
0.0
 40
100.0
  1
MO
  7
LEGEND
  0
TEXT
  5
C9
  8
SOIL_NAMES
 10
806670.92626731016
 20
8989908.8604986276
 30
0.0
 40
100.0
  1
MO
  7
LEGEND
  0
TEXT
  5
CA
  8
SOIL_NAMES
 10
801858.33129615698
 20
8986572.7307572588
 30
0.0
 40
100.0
  1
MO
  7
LEGEND
  0
POLYLINE
  5
CB
  8
SOILS
 66
     1
 10
0.0
 20
0.0
 30
0.0
 40
1.0
 41
1.0
  0
VERTEX
  5
1E2
  8
SOILS
 10
810151.47075926291
 20
8990135.1468125451
 30
0.0
  0
VERTEX
  5
1E3
  8
SOILS
 10
810180.24832791125
 20
8990138.1285184789
 30
0.0
  0
VERTEX
  5
1E4
  8
SOILS
 10
810206.52553774184
 20
8990196.4907457288
 30
0.0
  0
VERTEX
  5
1E5
  8
SOILS
 10
810248.04488078435
 20
8990231.1506520957
 30
0.0
  0
VERTEX
  5
1E6
  8
SOILS
 10
810285.63492880366
 20
8990204.3251430355
 30
0.0
  0
VERTEX
  5
1E7
  8
SOILS
 10
810336.64994382439
 20
8990188.2298568729
 30
0.0
  0
VERTEX
  5
1E8
  8
SOILS
 10
810350.62762563233
 20
8990173.4652127791
 30
0.0
  0
VERTEX
  5
1E9
  8
SOILS
 10
810350.1416964666
 20
8990149.1912332624
 30
0.0
  0
VERTEX
  5
1EA
  8
SOILS
 10
810336.53585534368
 20
8990133.1704337634
 30
0.0
  0
VERTEX
  5
1EB
  8
SOILS
 10
810343.3387759052
 20
8990120.5479316488
 30
0.0
  0
VERTEX
  5
1EC
  8
SOILS
 10
810360.83196259395
 20
8990110.3528467622
 30
0.0
  0
VERTEX
  5
1ED
  8
SOILS
 10
810373.4660331452
 20
8990093.846534906
 30
0.0
  0
VERTEX
  5
1EE
  8
SOILS
 10
810396.30444065807
 20
8990089.4772609919
 30
0.0
  0
VERTEX
  5
1EF
  8
SOILS
 10
810439.45717969711
 20
8990062.3617550228
 30
0.0
  0
VERTEX
  5
1F0
  8
SOILS
 10
810476.18112063035
 20
8990017.4830109049
 30
0.0
  0
VERTEX
  5
1F1
  8
SOILS
 10
810501.83707480552
 20
8990017.0485214349
 30
0.0
  0
VERTEX
  5
1F2
  8
SOILS
 10
810548.3656042174
 20
8990044.8532940224
 30
0.0
  0
VERTEX
  5
1F3
  8
SOILS
 10
810564.02012340503
 20
8990043.5499701519
 30
0.0
  0
VERTEX
  5
1F4
  8
SOILS
 10
810567.02354652982
 20
8989975.6396223735
 30
0.0
  0
VERTEX
  5
1F5
  8
SOILS
 10
810585.47788478539
 20
8989960.7333765365
 30
0.0
  0
VERTEX
  5
1F6
  8
SOILS
 10
810589.65677029896
 20
8989934.6395808924
 30
0.0
  0
VERTEX
  5
1F7
  8
SOILS
 10
810591.98652360938
 20
8989918.6370473672
 30
0.0
  0
VERTEX
  5
1F8
  8
SOILS
 10
810584.34261664562
 20
8989907.9974458572
 30
0.0
  0
VERTEX
  5
1F9
  8
SOILS
 10
810562.64500617574
 20
8989900.2553137243
 30
0.0
  0
VERTEX
  5
1FA
  8
SOILS
 10
810548.69646081026
 20
8989870.3192397095
 30
0.0
  0
VERTEX
  5
1FB
  8
SOILS
 10
810553.34600518551
 20
8989828.5119863655
 30
0.0
  0
VERTEX
  5
1FC
  8
SOILS
 10
810479.74524475576
 20
8989802.8567755129
 30
0.0
  0
VERTEX
  5
1FD
  8
SOILS
 10
810433.80084836332
 20
8989783.3482560832
 30
0.0
  0
VERTEX
  5
1FE
  8
SOILS
 10
810406.23426318401
 20
8989790.2336470578
 30
0.0
  0
VERTEX
  5
1FF
  8
SOILS
 10
810347.65518191818
 20
8989806.2994950917
 30
0.0
  0
VERTEX
  5
200
  8
SOILS
 10
810276.44141577766
 20
8989774.1677990258
 30
0.0
  0
VERTEX
  5
201
  8
SOILS
 10
810259.18052128225
 20
8989771.2646607682
 30
0.0
  0
SEQEND
  5
202
  8
SOILS
  0
POLYLINE
  5
CC
  8
SOILS
 66
     1
 10
0.0
 20
0.0
 30
0.0
 40
1.0
 41
1.0
  0
VERTEX
  5
203
  8
SOILS
 10
809668.50924035942
 20
8983857.6105117183
 30
0.0
  0
VERTEX
  5
204
  8
SOILS
 10
809450.5403384564
 20
8983845.8913633674
 30
0.0
  0
VERTEX
  5
205
  8
SOILS
 10
809301.95808370423
 20
8983863.8848549183
 30
0.0
  0
VERTEX
  5
206
  8
SOILS
 10
809067.82860046579
 20
8983947.1048617456
 30
0.0
  0
VERTEX
  5
207
  8
SOILS
 10
808833.69911722711
 20
8983992.0886869803
 30
0.0
  0
VERTEX
  5
208
  8
SOILS
 10
808689.61949599138
 20
8983913.3670289516
 30
0.0
  0
VERTEX
  5
209
  8
SOILS
 10
808511.77108874428
 20
8983983.0919412058
 30
0.0
  0
VERTEX
  5
20A
  8
SOILS
 10
808230.75794532115
 20
8983947.5712690521
 30
0.0
  0
SEQEND
  5
20B
  8
SOILS
  0
POLYLINE
  5
CD
  8
SOILS
 66
     1
 10
0.0
 20
0.0
 30
0.0
 40
1.0
 41
1.0
  0
VERTEX
  5
20C
  8
SOILS
 10
806370.94674128655
 20
8985020.069486266
 30
0.0
  0
VERTEX
  5
20D
  8
SOILS
 10
806074.95374547609
 20
8985185.1104352213
 30
0.0
  0
VERTEX
  5
20E
  8
SOILS
 10
805919.10932014894
 20
8985338.4474933352
 30
0.0
  0
VERTEX
  5
20F
  8
SOILS
 10
805741.12505984958
 20
8985417.7729462236
 30
0.0
  0
VERTEX
  5
210
  8
SOILS
 10
805503.92132270522
 20
8985584.8488909621
 30
0.0
  0
SEQEND
  5
211
  8
SOILS
  0
POLYLINE
  5
CE
  8
SOILS
 66
     1
 10
0.0
 20
0.0
 30
0.0
 40
1.0
 41
1.0
  0
VERTEX
  5
212
  8
SOILS
 10
806714.96352056554
 20
8985275.2652177755
 30
0.0
  0
VERTEX
  5
213
  8
SOILS
 10
806905.02712628327
 20
8985115.3195160292
 30
0.0
  0
VERTEX
  5
214
  8
SOILS
 10
807131.60105603212
 20
8985028.5807611924
 30
0.0
  0
VERTEX
  5
215
  8
SOILS
 10
807190.89134733239
 20
8984882.6057894211
 30
0.0
  0
VERTEX
  5
216
  8
SOILS
 10
807347.58731152466
 20
8984747.2086946052
 30
0.0
  0
VERTEX
  5
217
  8
SOILS
 10
807406.87769058545
 20
8984609.6960051246
 30
0.0
  0
VERTEX
  5
218
  8
SOILS
 10
807375.1150188602
 20
8984607.5804104637
 30
0.0
  0
VERTEX
  5
219
  8
SOILS
 10
807248.06424419838
 20
8984668.9322220627
 30
0.0
  0
VERTEX
  5
21A
  8
SOILS
 10
807072.31067697098
 20
8984774.711232502
 30
0.0
  0
VERTEX
  5
21B
  8
SOILS
 10
806838.17961404566
 20
8984829.5375113972
 30
0.0
  0
VERTEX
  5
21C
  8
SOILS
 10
806700.25962986297
 20
8984847.4191765934
 30
0.0
  0
VERTEX
  5
21D
  8
SOILS
 10
806597.08292283444
 20
8984925.2570161615
 30
0.0
  0
VERTEX
  5
21E
  8
SOILS
 10
806370.94674128655
 20
8985020.069486266
 30
0.0
  0
SEQEND
  5
21F
  8
SOILS
  0
POLYLINE
  5
CF
  8
SOILS
 66
     1
 10
0.0
 20
0.0
 30
0.0
 40
1.0
 41
1.0
  0
VERTEX
  5
220
  8
SOILS
 10
808230.75794532162
 20
8983947.5712690521
 30
0.0
  0
VERTEX
  5
221
  8
SOILS
 10
807988.15884890209
 20
8984186.7597238701
 30
0.0
  0
VERTEX
  5
222
  8
SOILS
 10
807486.30652939226
 20
8984644.2360390369
 30
0.0
  0
VERTEX
  5
223
  8
SOILS
 10
807290.31682512769
 20
8984953.3318390381
 30
0.0
  0
VERTEX
  5
224
  8
SOILS
 10
807217.42367655737
 20
8985055.7443028707
 30
0.0
  0
VERTEX
  5
225
  8
SOILS
 10
807059.8236846358
 20
8985179.3608453982
 30
0.0
  0
SEQEND
  5
226
  8
SOILS
  0
POLYLINE
  5
D0
  8
SOILS
 66
     1
 10
0.0
 20
0.0
 30
0.0
 40
1.0
 41
1.0
  0
VERTEX
  5
227
  8
SOILS
 10
808866.20655238535
 20
8983555.8328852989
 30
0.0
  0
VERTEX
  5
228
  8
SOILS
 10
808742.76875543746
 20
8983604.8497773632
 30
0.0
  0
VERTEX
  5
229
  8
SOILS
 10
808603.56887402595
 20
8983623.1488280408
 30
0.0
  0
VERTEX
  5
22A
  8
SOILS
 10
808230.75794532162
 20
8983947.5712690521
 30
0.0
  0
SEQEND
  5
22B
  8
SOILS
  0
POLYLINE
  5
D1
  8
SOILS
 66
     1
 10
0.0
 20
0.0
 30
0.0
 40
1.0
 41
1.0
  0
VERTEX
  5
22C
  8
SOILS
 10
806763.55749843596
 20
8984398.4865201581
 30
0.0
  0
VERTEX
  5
22D
  8
SOILS
 10
806637.03074094048
 20
8984379.0713740457
 30
0.0
  0
VERTEX
  5
22E
  8
SOILS
 10
806521.39425545419
 20
8984382.9482458327
 30
0.0
  0
VERTEX
  5
22F
  8
SOILS
 10
806456.97928513784
 20
8984390.7019894049
 30
0.0
  0
VERTEX
  5
230
  8
SOILS
 10
806375.52300627565
 20
8984361.263231907
 30
0.0
  0
VERTEX
  5
231
  8
SOILS
 10
806302.16999336879
 20
8984370.9425472468
 30
0.0
  0
VERTEX
  5
232
  8
SOILS
 10
806202.52046335011
 20
8984384.7701337058
 30
0.0
  0
VERTEX
  5
233
  8
SOILS
 10
806110.62982759764
 20
8984383.6843436509
 30
0.0
  0
VERTEX
  5
234
  8
SOILS
 10
806065.58558931481
 20
8984356.5592016336
 30
0.0
  0
VERTEX
  5
235
  8
SOILS
 10
805963.77329275047
 20
8984339.9142270274
 30
0.0
  0
VERTEX
  5
236
  8
SOILS
 10
805921.81427025713
 20
8984311.5561042987
 30
0.0
  0
VERTEX
  5
237
  8
SOILS
 10
805895.28141446994
 20
8984289.9792550262
 30
0.0
  0
VERTEX
  5
238
  8
SOILS
 10
805831.11076902237
 20
8984265.9334571604
 30
0.0
  0
VERTEX
  5
239
  8
SOILS
 10
805835.05770387955
 20
8984232.4155672006
 30
0.0
  0
VERTEX
  5
23A
  8
SOILS
 10
805876.49999331776
 20
8984211.7133339588
 30
0.0
  0
VERTEX
  5
23B
  8
SOILS
 10
805966.29157655302
 20
8984223.5431746412
 30
0.0
  0
VERTEX
  5
23C
  8
SOILS
 10
806079.76450565015
 20
8984240.3021437135
 30
0.0
  0
VERTEX
  5
23D
  8
SOILS
 10
806266.25485200086
 20
8984199.8834932782
 30
0.0
  0
VERTEX
  5
23E
  8
SOILS
 10
806398.20783314179
 20
8984157.84439658
 30
0.0
  0
VERTEX
  5
23F
  8
SOILS
 10
806486.19076292252
 20
8984127.0784659889
 30
0.0
  0
VERTEX
  5
240
  8
SOILS
 10
806575.93337587186
 20
8984136.7477598358
 30
0.0
  0
VERTEX
  5
241
  8
SOILS
 10
806646.99996787205
 20
8984153.2064696066
 30
0.0
  0
SEQEND
  5
242
  8
SOILS
  0
POLYLINE
  5
D2
  8
SOILS
 66
     1
 10
0.0
 20
0.0
 30
0.0
 40
1.0
 41
1.0
  0
VERTEX
  5
243
  8
SOILS
 10
807037.18060406018
 20
8983958.3416515086
 30
0.0
  0
VERTEX
  5
244
  8
SOILS
 10
807055.39433919068
 20
8984040.1340778582
 30
0.0
  0
VERTEX
  5
245
  8
SOILS
 10
807008.32204652973
 20
8984198.7213857081
 30
0.0
  0
VERTEX
  5
246
  8
SOILS
 10
806955.77613962383
 20
8984304.8107733019
 30
0.0
  0
VERTEX
  5
247
  8
SOILS
 10
806894.42426948377
 20
8984342.9478963036
 30
0.0
  0
SEQEND
  5
248
  8
SOILS
  0
POLYLINE
  5
D3
  8
SOILS
 66
     1
 10
0.0
 20
0.0
 30
0.0
 40
1.0
 41
1.0
  0
VERTEX
  5
249
  8
SOILS
 10
806838.37646055454
 20
8984464.4850757197
 30
0.0
  0
VERTEX
  5
24A
  8
SOILS
 10
806908.15929387044
 20
8984436.4083738122
 30
0.0
  0
VERTEX
  5
24B
  8
SOILS
 10
806967.99852628191
 20
8984355.1281519271
 30
0.0
  0
VERTEX
  5
24C
  8
SOILS
 10
807036.50391965953
 20
8984239.8609090075
 30
0.0
  0
VERTEX
  5
24D
  8
SOILS
 10
807088.46139328775
 20
8984112.2134624403
 30
0.0
  0
VERTEX
  5
24E
  8
SOILS
 10
807118.50492713542
 20
8983938.3847669493
 30
0.0
  0
VERTEX
  5
24F
  8
SOILS
 10
807072.18188597634
 20
8983899.4320355579
 30
0.0
  0
SEQEND
  5
250
  8
SOILS
  0
POLYLINE
  5
D4
  8
SOILS
 66
     1
 10
0.0
 20
0.0
 30
0.0
 40
1.0
 41
1.0
  0
VERTEX
  5
251
  8
SOILS
 10
805966.61680831912
 20
8984705.1189604681
 30
0.0
  0
VERTEX
  5
252
  8
SOILS
 10
806098.53030545695
 20
8984732.7810231633
 30
0.0
  0
VERTEX
  5
253
  8
SOILS
 10
806278.69356796995
 20
8984716.8987418711
 30
0.0
  0
VERTEX
  5
254
  8
SOILS
 10
806454.61774135556
 20
8984677.7225636579
 30
0.0
  0
VERTEX
  5
255
  8
SOILS
 10
806603.86565851059
 20
8984629.0785332061
 30
0.0
  0
SEQEND
  5
256
  8
SOILS
  0
POLYLINE
  5
D5
  8
SOILS
 66
     1
 10
0.0
 20
0.0
 30
0.0
 40
1.0
 41
1.0
  0
VERTEX
  5
257
  8
SOILS
 10
806345.39697768074
 20
8985001.5071720406
 30
0.0
  0
VERTEX
  5
258
  8
SOILS
 10
806163.54836503195
 20
8985060.1480256636
 30
0.0
  0
VERTEX
  5
259
  8
SOILS
 10
806025.90078087314
 20
8985129.0563790835
 30
0.0
  0
SEQEND
  5
25A
  8
SOILS
  0
POLYLINE
  5
D6
  8
SOILS
 66
     1
 10
0.0
 20
0.0
 30
0.0
 40
1.0
 41
1.0
  0
VERTEX
  5
25B
  8
SOILS
 10
808471.24325596413
 20
8983407.2716403902
 30
0.0
  0
VERTEX
  5
25C
  8
SOILS
 10
808344.69886502635
 20
8983644.1642810684
 30
0.0
  0
VERTEX
  5
25D
  8
SOILS
 10
808043.63314381696
 20
8983767.3798193987
 30
0.0
  0
VERTEX
  5
25E
  8
SOILS
 10
807923.77319054934
 20
8983916.6819263324
 30
0.0
  0
VERTEX
  5
25F
  8
SOILS
 10
807846.18600309617
 20
8984101.8599608988
 30
0.0
  0
VERTEX
  5
260
  8
SOILS
 10
807689.57472766074
 20
8984255.4572405294
 30
0.0
  0
VERTEX
  5
261
  8
SOILS
 10
807426.23183590942
 20
8984370.1688206531
 30
0.0
  0
VERTEX
  5
262
  8
SOILS
 10
807299.21239169955
 20
8984497.0722196568
 30
0.0
  0
VERTEX
  5
263
  8
SOILS
 10
807149.65731325105
 20
8984529.8215383161
 30
0.0
  0
VERTEX
  5
264
  8
SOILS
 10
806952.98211274075
 20
8984583.0390787479
 30
0.0
  0
VERTEX
  5
265
  8
SOILS
 10
806867.03899722814
 20
8984605.326923931
 30
0.0
  0
VERTEX
  5
266
  8
SOILS
 10
806782.50408460363
 20
8984728.5894861817
 30
0.0
  0
VERTEX
  5
267
  8
SOILS
 10
806673.6551616143
 20
8984819.5637183841
 30
0.0
  0
VERTEX
  5
268
  8
SOILS
 10
806528.05149380222
 20
8984860.7995539997
 30
0.0
  0
VERTEX
  5
269
  8
SOILS
 10
806429.98998766916
 20
8984898.5597147439
 30
0.0
  0
VERTEX
  5
26A
  8
SOILS
 10
806345.39697768074
 20
8985001.5071720406
 30
0.0
  0
SEQEND
  5
26B
  8
SOILS
  0
POLYLINE
  5
D7
  8
SOILS
 66
     1
 10
0.0
 20
0.0
 30
0.0
 40
1.0
 41
1.0
  0
VERTEX
  5
26C
  8
SOILS
 10
809477.03580832633
 20
8985438.4812983535
 30
0.0
  0
VERTEX
  5
26D
  8
SOILS
 10
809429.83143630915
 20
8985482.1175220739
 30
0.0
  0
VERTEX
  5
26E
  8
SOILS
 10
809347.28341845016
 20
8985289.5938788094
 30
0.0
  0
VERTEX
  5
26F
  8
SOILS
 10
809324.80684694066
 20
8985249.0155108534
 30
0.0
  0
VERTEX
  5
270
  8
SOILS
 10
809328.15060477855
 20
8985156.07624726
 30
0.0
  0
VERTEX
  5
271
  8
SOILS
 10
809344.58522589074
 20
8985095.1823407318
 30
0.0
  0
VERTEX
  5
272
  8
SOILS
 10
809335.10304440977
 20
8984993.5087561924
 30
0.0
  0
SEQEND
  5
273
  8
SOILS
  0
POLYLINE
  5
D8
  8
SOILS
 66
     1
 10
0.0
 20
0.0
 30
0.0
 40
1.0
 41
1.0
  0
VERTEX
  5
274
  8
SOILS
 10
807712.54889230209
 20
8985578.987378424
 30
0.0
  0
VERTEX
  5
275
  8
SOILS
 10
807790.42069479637
 20
8985335.5634719059
 30
0.0
  0
VERTEX
  5
276
  8
SOILS
 10
807896.99688749725
 20
8985183.2166624181
 30
0.0
  0
VERTEX
  5
277
  8
SOILS
 10
808302.67261808994
 20
8984769.2633473873
 30
0.0
  0
VERTEX
  5
278
  8
SOILS
 10
808699.08120470657
 20
8984491.0877029505
 30
0.0
  0
VERTEX
  5
279
  8
SOILS
 10
808853.55744587362
 20
8984325.7673500683
 30
0.0
  0
VERTEX
  5
27A
  8
SOILS
 10
808934.25837123604
 20
8984141.057820227
 30
0.0
  0
VERTEX
  5
27B
  8
SOILS
 10
809255.59445602645
 20
8983988.5991843827
 30
0.0
  0
VERTEX
  5
27C
  8
SOILS
 10
809668.50924036023
 20
8983857.6105117183
 30
0.0
  0
SEQEND
  5
27D
  8
SOILS
  0
POLYLINE
  5
D9
  8
SOILS
 66
     1
 10
0.0
 20
0.0
 30
0.0
 40
1.0
 41
1.0
  0
VERTEX
  5
27E
  8
SOILS
 10
811193.99564112886
 20
8987235.2343089469
 30
0.0
  0
VERTEX
  5
27F
  8
SOILS
 10
811209.96478940407
 20
8987220.1057112664
 30
0.0
  0
VERTEX
  5
280
  8
SOILS
 10
811211.35710766597
 20
8987196.4580267854
 30
0.0
  0
VERTEX
  5
281
  8
SOILS
 10
811150.09536742535
 20
8987135.2522495147
 30
0.0
  0
VERTEX
  5
282
  8
SOILS
 10
811119.46454118541
 20
8987108.1270111352
 30
0.0
  0
VERTEX
  5
283
  8
SOILS
 10
811041.49515732308
 20
8987093.5210727789
 30
0.0
  0
VERTEX
  5
284
  8
SOILS
 10
810988.22776425665
 20
8987116.8557783738
 30
0.0
  0
SEQEND
  5
285
  8
SOILS
  0
POLYLINE
  5
DA
  8
SOILS
 66
     1
 10
0.0
 20
0.0
 30
0.0
 40
1.0
 41
1.0
  0
VERTEX
  5
286
  8
SOILS
 10
810649.16856877203
 20
8986084.9825035781
 30
0.0
  0
VERTEX
  5
287
  8
SOILS
 10
810519.27497246198
 20
8986233.6799484082
 30
0.0
  0
VERTEX
  5
288
  8
SOILS
 10
810431.50038579816
 20
8986241.2235297412
 30
0.0
  0
VERTEX
  5
289
  8
SOILS
 10
810268.22081420792
 20
8986317.6025677826
 30
0.0
  0
VERTEX
  5
28A
  8
SOILS
 10
810132.31177113147
 20
8986287.4281460866
 30
0.0
  0
VERTEX
  5
28B
  8
SOILS
 10
809999.4870662404
 20
8986336.5210237224
 30
0.0
  0
VERTEX
  5
28C
  8
SOILS
 10
809753.61370419629
 20
8986374.2187728956
 30
0.0
  0
SEQEND
  5
28D
  8
SOILS
  0
POLYLINE
  5
DB
  8
SOILS
 66
     1
 10
0.0
 20
0.0
 30
0.0
 40
1.0
 41
1.0
  0
VERTEX
  5
28E
  8
SOILS
 10
810576.094019518
 20
8986055.5614764094
 30
0.0
  0
VERTEX
  5
28F
  8
SOILS
 10
810480.67445154802
 20
8986099.1244179718
 30
0.0
  0
VERTEX
  5
290
  8
SOILS
 10
810340.42662356456
 20
8986227.4694663398
 30
0.0
  0
VERTEX
  5
291
  8
SOILS
 10
810201.35732958326
 20
8986249.8415305912
 30
0.0
  0
VERTEX
  5
292
  8
SOILS
 10
809958.57528823602
 20
8986170.9505671728
 30
0.0
  0
VERTEX
  5
293
  8
SOILS
 10
809848.46349352994
 20
8986171.3177970238
 30
0.0
  0
VERTEX
  5
294
  8
SOILS
 10
809727.20841366879
 20
8986232.3341777399
 30
0.0
  0
VERTEX
  5
295
  8
SOILS
 10
809599.37077137083
 20
8986285.8992422968
 30
0.0
  0
SEQEND
  5
296
  8
SOILS
  0
POLYLINE
  5
DC
  8
SOILS
 66
     1
 10
0.0
 20
0.0
 30
0.0
 70
     1
 40
1.0
 41
1.0
  0
VERTEX
  5
297
  8
SOILS
 10
810110.17009319179
 20
8986003.1226251349
 30
0.0
  0
VERTEX
  5
298
  8
SOILS
 10
810031.94374696771
 20
8985995.7668504044
 30
0.0
  0
VERTEX
  5
299
  8
SOILS
 10
809978.56578399893
 20
8985975.5385180805
 30
0.0
  0
VERTEX
  5
29A
  8
SOILS
 10
809946.35492006689
 20
8985988.4111238569
 30
0.0
  0
VERTEX
  5
29B
  8
SOILS
 10
809827.63488623814
 20
8985981.0553491265
 30
0.0
  0
VERTEX
  5
29C
  8
SOILS
 10
809714.43673485797
 20
8985964.5049041659
 30
0.0
  0
VERTEX
  5
29D
  8
SOILS
 10
809673.94313501415
 20
8985936.001325272
 30
0.0
  0
VERTEX
  5
29E
  8
SOILS
 10
809657.37748767075
 20
8985898.3030279633
 30
0.0
  0
VERTEX
  5
29F
  8
SOILS
 10
809747.56794178521
 20
8985857.8463633116
 30
0.0
  0
VERTEX
  5
2A0
  8
SOILS
 10
809922.42687980598
 20
8985855.0879477877
 30
0.0
  0
VERTEX
  5
2A1
  8
SOILS
 10
809998.81262780109
 20
8985874.3968082722
 30
0.0
  0
VERTEX
  5
2A2
  8
SOILS
 10
810088.08265116042
 20
8985940.5986844748
 30
0.0
  0
VERTEX
  5
2A3
  8
SOILS
 10
810117.34871589497
 20
8985985.7029121518
 30
0.0
  0
SEQEND
  5
2A4
  8
SOILS
  0
POLYLINE
  5
DD
  8
SOILS
 66
     1
 10
0.0
 20
0.0
 30
0.0
 70
     1
 40
1.0
 41
1.0
  0
VERTEX
  5
2A5
  8
SOILS
 10
808873.42068910075
 20
8986045.2366421167
 30
0.0
  0
VERTEX
  5
2A6
  8
SOILS
 10
808944.02969853464
 20
8986057.1467510909
 30
0.0
  0
VERTEX
  5
2A7
  8
SOILS
 10
809011.8877714267
 20
8986062.6437318772
 30
0.0
  0
VERTEX
  5
2A8
  8
SOILS
 10
809110.9238564627
 20
8986089.2124883961
 30
0.0
  0
VERTEX
  5
2A9
  8
SOILS
 10
809276.90100629022
 20
8986101.1225973703
 30
0.0
  0
VERTEX
  5
2AA
  8
SOILS
 10
809379.6051237291
 20
8986091.9609787893
 30
0.0
  0
VERTEX
  5
2AB
  8
SOILS
 10
809495.14726681798
 20
8986021.4163759872
 30
0.0
  0
VERTEX
  5
2AC
  8
SOILS
 10
809530.91023170506
 20
8985996.6799624544
 30
0.0
  0
VERTEX
  5
2AD
  8
SOILS
 10
809394.27716558066
 20
8985956.3687539697
 30
0.0
  0
VERTEX
  5
2AE
  8
SOILS
 10
809269.56502924464
 20
8985951.7879205886
 30
0.0
  0
VERTEX
  5
2AF
  8
SOILS
 10
809196.20499550842
 20
8985934.3808308281
 30
0.0
  0
VERTEX
  5
2B0
  8
SOILS
 10
809098.08583081281
 20
8985952.704067992
 30
0.0
  0
VERTEX
  5
2B1
  8
SOILS
 10
809006.38581058267
 20
8985977.4405297078
 30
0.0
  0
VERTEX
  5
2B2
  8
SOILS
 10
808896.34562833782
 20
8986013.1709048096
 30
0.0
  0
VERTEX
  5
2B3
  8
SOILS
 10
808873.42068910075
 20
8986045.2366421167
 30
0.0
  0
SEQEND
  5
2B4
  8
SOILS
  0
POLYLINE
  5
DE
  8
SOILS
 66
     1
 10
0.0
 20
0.0
 30
0.0
 40
1.0
 41
1.0
  0
VERTEX
  5
2B5
  8
SOILS
 10
804952.70142583095
 20
8986863.1276587062
 30
0.0
  0
VERTEX
  5
2B6
  8
SOILS
 10
804800.50415410171
 20
8987010.0551539697
 30
0.0
  0
VERTEX
  5
2B7
  8
SOILS
 10
804707.40198644833
 20
8987198.0685479138
 30
0.0
  0
VERTEX
  5
2B8
  8
SOILS
 10
804588.54820581712
 20
8987138.6958845165
 30
0.0
  0
VERTEX
  5
2B9
  8
SOILS
 10
804340.93609701504
 20
8987109.0095769074
 30
0.0
  0
VERTEX
  5
2BA
  8
SOILS
 10
804416.2101844094
 20
8986964.5360943656
 30
0.0
  0
VERTEX
  5
2BB
  8
SOILS
 10
804430.07649830857
 20
8986875.4771233574
 30
0.0
  0
VERTEX
  5
2BC
  8
SOILS
 10
804341.86713861185
 20
8986739.7384305857
 30
0.0
  0
SEQEND
  5
2BD
  8
SOILS
  0
POLYLINE
  5
DF
  8
SOILS
 66
     1
 10
0.0
 20
0.0
 30
0.0
 70
     1
 40
1.0
 41
1.0
  0
VERTEX
  5
2BE
  8
SOILS
 10
805493.03483255464
 20
8984344.447891945
 30
0.0
  0
VERTEX
  5
2BF
  8
SOILS
 10
805507.44034616358
 20
8984341.5694112461
 30
0.0
  0
VERTEX
  5
2C0
  8
SOILS
 10
805594.83431610477
 20
8984258.0932782236
 30
0.0
  0
VERTEX
  5
2C1
  8
SOILS
 10
805615.96253729751
 20
8984215.8754328061
 30
0.0
  0
VERTEX
  5
2C2
  8
SOILS
 10
805610.29760544747
 20
8984145.6561430376
 30
0.0
  0
VERTEX
  5
2C3
  8
SOILS
 10
805600.7119790907
 20
8984111.4530817773
 30
0.0
  0
VERTEX
  5
2C4
  8
SOILS
 10
805610.29760544747
 20
8984032.1019488163
 30
0.0
  0
VERTEX
  5
2C5
  8
SOILS
 10
805642.40052412543
 20
8983880.6395841278
 30
0.0
  0
VERTEX
  5
2C6
  8
SOILS
 10
805682.694381368
 20
8983803.7850552257
 30
0.0
  0
VERTEX
  5
2C7
  8
SOILS
 10
805703.45190276043
 20
8983762.3079811167
 30
0.0
  0
VERTEX
  5
2C8
  8
SOILS
 10
805702.23089273996
 20
8983725.7106024604
 30
0.0
  0
VERTEX
  5
2C9
  8
SOILS
 10
805643.62153414614
 20
8983708.6318129078
 30
0.0
  0
VERTEX
  5
2CA
  8
SOILS
 10
805522.73969913623
 20
8983718.3911074568
 30
0.0
  0
VERTEX
  5
2CB
  8
SOILS
 10
805459.24630046007
 20
8983750.1088870168
 30
0.0
  0
VERTEX
  5
2CC
  8
SOILS
 10
805411.62620757264
 20
8983840.382433882
 30
0.0
  0
VERTEX
  5
2CD
  8
SOILS
 10
805421.39437549782
 20
8983948.9547423422
 30
0.0
  0
VERTEX
  5
2CE
  8
SOILS
 10
805442.15189689014
 20
8983992.8716160022
 30
0.0
  0
VERTEX
  5
2CF
  8
SOILS
 10
805427.49951336149
 20
8984046.5478323903
 30
0.0
  0
VERTEX
  5
2D0
  8
SOILS
 10
805407.96308975038
 20
8984205.1365374699
 30
0.0
  0
VERTEX
  5
2D1
  8
SOILS
 10
805408.36590984627
 20
8984277.7742829397
 30
0.0
  0
SEQEND
  5
2D2
  8
SOILS
  0
POLYLINE
  5
E0
  8
SOILS
 66
     1
 10
0.0
 20
0.0
 30
0.0
 40
1.0
 41
1.0
  0
VERTEX
  5
2D3
  8
SOILS
 10
809684.11973153614
 20
8986722.6463432834
 30
0.0
  0
VERTEX
  5
2D4
  8
SOILS
 10
809633.0395187242
 20
8986748.5823004358
 30
0.0
  0
VERTEX
  5
2D5
  8
SOILS
 10
809550.07130421605
 20
8986762.2228511758
 30
0.0
  0
VERTEX
  5
2D6
  8
SOILS
 10
809486.00728761777
 20
8986784.2575573381
 30
0.0
  0
VERTEX
  5
2D7
  8
SOILS
 10
809430.34509775182
 20
8986787.4053656179
 30
0.0
  0
VERTEX
  5
2D8
  8
SOILS
 10
809348.42711158528
 20
8986765.3706594575
 30
0.0
  0
VERTEX
  5
2D9
  8
SOILS
 10
809262.0435186153
 20
8986738.2982748114
 30
0.0
  0
SEQEND
  5
2DA
  8
SOILS
  0
POLYLINE
  5
E1
  8
SOILS
 66
     1
 10
0.0
 20
0.0
 30
0.0
 40
1.0
 41
1.0
  0
VERTEX
  5
2DB
  8
SOILS
 10
808062.89750211965
 20
8988393.7095671222
 30
0.0
  0
VERTEX
  5
2DC
  8
SOILS
 10
808105.90009132947
 20
8988407.3006849289
 30
0.0
  0
VERTEX
  5
2DD
  8
SOILS
 10
808165.88816532807
 20
8988404.0434593037
 30
0.0
  0
VERTEX
  5
2DE
  8
SOILS
 10
808203.70682910981
 20
8988396.2260696217
 30
0.0
  0
VERTEX
  5
2DF
  8
SOILS
 10
808223.26808890537
 20
8988423.5869575925
 30
0.0
  0
VERTEX
  5
2E0
  8
SOILS
 10
808278.03986206255
 20
8988445.7361882031
 30
0.0
  0
VERTEX
  5
2E1
  8
SOILS
 10
808311.29410902748
 20
8988429.4499637187
 30
0.0
  0
VERTEX
  5
2E2
  8
SOILS
 10
808319.11864805035
 20
8988403.3920141812
 30
0.0
  0
VERTEX
  5
2E3
  8
SOILS
 10
808306.72986773169
 20
8988370.8195170313
 30
0.0
  0
VERTEX
  5
2E4
  8
SOILS
 10
808273.47553300613
 20
8988323.9151789527
 30
0.0
  0
VERTEX
  5
2E5
  8
SOILS
 10
808242.82943646156
 20
8988287.434011057
 30
0.0
  0
VERTEX
  5
2E6
  8
SOILS
 10
808222.6161171206
 20
8988293.2970653586
 30
0.0
  0
VERTEX
  5
2E7
  8
SOILS
 10
808208.27107040596
 20
8988309.5832898449
 30
0.0
  0
VERTEX
  5
2E8
  8
SOILS
 10
808162.62795536185
 20
8988293.2970653586
 30
0.0
  0
VERTEX
  5
2E9
  8
SOILS
 10
808131.32979927235
 20
8988279.6166213751
 30
0.0
  0
VERTEX
  5
2EA
  8
SOILS
 10
808069.00421966985
 20
8988311.3445187882
 30
0.0
  0
SEQEND
  5
2EB
  8
SOILS
  0
POLYLINE
  5
E2
  8
SOILS
 66
     1
 10
0.0
 20
0.0
 30
0.0
 70
     1
 40
1.0
 41
1.0
  0
VERTEX
  5
2EC
  8
SOILS
 10
808836.07242089906
 20
8988803.5195735972
 30
0.0
  0
VERTEX
  5
2ED
  8
SOILS
 10
808863.66085841029
 20
8988772.329560468
 30
0.0
  0
VERTEX
  5
2EE
  8
SOILS
 10
808868.01693210995
 20
8988716.4775722884
 30
0.0
  0
VERTEX
  5
2EF
  8
SOILS
 10
808857.85278939747
 20
8988685.2875109781
 30
0.0
  0
VERTEX
  5
2F0
  8
SOILS
 10
808805.57981724082
 20
8988650.4707297217
 30
0.0
  0
VERTEX
  5
2F1
  8
SOILS
 10
808773.63530602981
 20
8988568.5062037818
 30
0.0
  0
VERTEX
  5
2F2
  8
SOILS
 10
808770.73122764344
 20
8988515.5556301009
 30
0.0
  0
VERTEX
  5
2F3
  8
SOILS
 10
808752.63126575993
 20
8988485.2280915789
 30
0.0
  0
VERTEX
  5
2F4
  8
SOILS
 10
808685.59699945606
 20
8988483.0441773273
 30
0.0
  0
VERTEX
  5
2F5
  8
SOILS
 10
808668.10978047235
 20
8988461.9331346881
 30
0.0
  0
VERTEX
  5
2F6
  8
SOILS
 10
808665.19525860215
 20
8988430.6305243205
 30
0.0
  0
VERTEX
  5
2F7
  8
SOILS
 10
808638.96447400656
 20
8988427.7186547071
 30
0.0
  0
VERTEX
  5
2F8
  8
SOILS
 10
808565.37257737434
 20
8988469.9407881647
 30
0.0
  0
VERTEX
  5
2F9
  8
SOILS
 10
808485.22287489264
 20
8988539.097703483
 30
0.0
  0
VERTEX
  5
2FA
  8
SOILS
 10
808418.18869634904
 20
8988580.5918815807
 30
0.0
  0
VERTEX
  5
2FB
  8
SOILS
 10
808407.25919545442
 20
8988601.7029723991
 30
0.0
  0
VERTEX
  5
2FC
  8
SOILS
 10
808410.48535439686
 20
8988661.4132347926
 30
0.0
  0
VERTEX
  5
2FD
  8
SOILS
 10
808476.09377797763
 20
8988746.626313908
 30
0.0
  0
VERTEX
  5
2FE
  8
SOILS
 10
808579.62205304659
 20
8988799.8754605856
 30
0.0
  0
VERTEX
  5
2FF
  8
SOILS
 10
808675.56686682778
 20
8988795.4513093699
 30
0.0
  0
VERTEX
  5
300
  8
SOILS
 10
808725.75333619968
 20
8988773.3304087445
 30
0.0
  0
VERTEX
  5
301
  8
SOILS
 10
808743.46627485403
 20
8988791.0271099731
 30
0.0
  0
VERTEX
  5
302
  8
SOILS
 10
808777.4159349869
 20
8988813.1480105966
 30
0.0
  0
SEQEND
  5
303
  8
SOILS
  0
POLYLINE
  5
E3
  8
SOILS
 66
     1
 10
0.0
 20
0.0
 30
0.0
 40
1.0
 41
1.0
  0
VERTEX
  5
304
  8
SOILS
 10
811553.35469584155
 20
8992371.1155586056
 30
0.0
  0
VERTEX
  5
305
  8
SOILS
 10
811507.03864244733
 20
8992308.8372408506
 30
0.0
  0
VERTEX
  5
306
  8
SOILS
 10
811480.14166888746
 20
8992229.8007730823
 30
0.0
  0
VERTEX
  5
307
  8
SOILS
 10
811475.39514930372
 20
8992148.3932108022
 30
0.0
  0
VERTEX
  5
308
  8
SOILS
 10
811487.29642076977
 20
8992053.7923068386
 30
0.0
  0
VERTEX
  5
309
  8
SOILS
 10
811432.17650222708
 20
8992122.8795535192
 30
0.0
  0
VERTEX
  5
30A
  8
SOILS
 10
811414.13727051916
 20
8992201.9794746693
 30
0.0
  0
VERTEX
  5
30B
  8
SOILS
 10
811417.14385301783
 20
8992262.0553287789
 30
0.0
  0
VERTEX
  5
30C
  8
SOILS
 10
811390.08496157581
 20
8992362.1818325948
 30
0.0
  0
VERTEX
  5
30D
  8
SOILS
 10
811385.38627139363
 20
8992435.8081885614
 30
0.0
  0
VERTEX
  5
30E
  8
SOILS
 10
811319.15123061161
 20
8992471.2039036658
 30
0.0
  0
SEQEND
  5
30F
  8
SOILS
  0
POLYLINE
  5
E4
  8
SOILS
 66
     1
 10
0.0
 20
0.0
 30
0.0
 40
1.0
 41
1.0
  0
VERTEX
  5
310
  8
SOILS
 10
812461.99171359208
 20
8990323.3079468906
 30
0.0
  0
VERTEX
  5
311
  8
SOILS
 10
812420.61671690131
 20
8990218.0478892773
 30
0.0
  0
VERTEX
  5
312
  8
SOILS
 10
812390.60354814143
 20
8990156.3211871702
 30
0.0
  0
VERTEX
  5
313
  8
SOILS
 10
812380.11091836588
 20
8990100.1619535536
 30
0.0
  0
VERTEX
  5
314
  8
SOILS
 10
812329.59025750693
 20
8990029.4915039446
 30
0.0
  0
VERTEX
  5
315
  8
SOILS
 10
812240.29715317022
 20
8989939.6957605947
 30
0.0
  0
VERTEX
  5
316
  8
SOILS
 10
812197.12019226921
 20
8989921.9332451504
 30
0.0
  0
VERTEX
  5
317
  8
SOILS
 10
812173.41515110747
 20
8989864.4165330622
 30
0.0
  0
VERTEX
  5
318
  8
SOILS
 10
812172.56852682296
 20
8989790.8289140146
 30
0.0
  0
VERTEX
  5
319
  8
SOILS
 10
812103.64091830805
 20
8989634.8442549482
 30
0.0
  0
VERTEX
  5
31A
  8
SOILS
 10
812017.93273730425
 20
8989493.7357772421
 30
0.0
  0
VERTEX
  5
31B
  8
SOILS
 10
811918.43090798752
 20
8989338.0550873559
 30
0.0
  0
VERTEX
  5
31C
  8
SOILS
 10
811850.2453133961
 20
8989317.6180863809
 30
0.0
  0
VERTEX
  5
31D
  8
SOILS
 10
811592.34637288528
 20
8989266.1511270516
 30
0.0
  0
VERTEX
  5
31E
  8
SOILS
 10
811456.78635279799
 20
8989255.4035592675
 30
0.0
  0
VERTEX
  5
31F
  8
SOILS
 10
811299.90345901879
 20
8989326.0225041918
 30
0.0
  0
VERTEX
  5
320
  8
SOILS
 10
811258.5277797014
 20
8989395.7802753747
 30
0.0
  0
VERTEX
  5
321
  8
SOILS
 10
811148.66504892346
 20
8989437.9354382884
 30
0.0
  0
VERTEX
  5
322
  8
SOILS
 10
811039.46438237291
 20
8989372.4748151898
 30
0.0
  0
VERTEX
  5
323
  8
SOILS
 10
810997.96812030766
 20
8989279.7389686015
 30
0.0
  0
VERTEX
  5
324
  8
SOILS
 10
810967.39188101783
 20
8989154.2727863751
 30
0.0
  0
VERTEX
  5
325
  8
SOILS
 10
810761.59485954
 20
8989032.13894278
 30
0.0
  0
SEQEND
  5
326
  8
SOILS
  0
POLYLINE
  5
E5
  8
SOILS
 66
     1
 10
0.0
 20
0.0
 30
0.0
 40
1.0
 41
1.0
  0
VERTEX
  5
327
  8
SOILS
 10
812418.89075490378
 20
8989912.2857495416
 30
0.0
  0
VERTEX
  5
328
  8
SOILS
 10
812377.66056108975
 20
8989930.4420695603
 30
0.0
  0
VERTEX
  5
329
  8
SOILS
 10
812320.32574634196
 20
8989913.7347015329
 30
0.0
  0
VERTEX
  5
32A
  8
SOILS
 10
812268.56511922239
 20
8989835.7669198383
 30
0.0
  0
VERTEX
  5
32B
  8
SOILS
 10
812235.11981793295
 20
8989710.0637389701
 30
0.0
  0
VERTEX
  5
32C
  8
SOILS
 10
812210.74235682015
 20
8989651.1688309088
 30
0.0
  0
VERTEX
  5
32D
  8
SOILS
 10
812211.87780048046
 20
8989591.0449410938
 30
0.0
  0
VERTEX
  5
32E
  8
SOILS
 10
812163.06144599675
 20
8989540.101845596
 30
0.0
  0
VERTEX
  5
32F
  8
SOILS
 10
812130.99380698765
 20
8989471.0414353143
 30
0.0
  0
VERTEX
  5
330
  8
SOILS
 10
812092.59724117245
 20
8989384.1186801158
 30
0.0
  0
VERTEX
  5
331
  8
SOILS
 10
812063.11598801217
 20
8989335.7989509106
 30
0.0
  0
VERTEX
  5
332
  8
SOILS
 10
811980.20420342172
 20
8989284.3279926255
 30
0.0
  0
VERTEX
  5
333
  8
SOILS
 10
811952.03031648591
 20
8989250.5501220468
 30
0.0
  0
VERTEX
  5
334
  8
SOILS
 10
811764.47245300072
 20
8989181.3859796915
 30
0.0
  0
VERTEX
  5
335
  8
SOILS
 10
811618.81191646878
 20
8989135.2317598853
 30
0.0
  0
VERTEX
  5
336
  8
SOILS
 10
811524.99344867945
 20
8989152.5519324802
 30
0.0
  0
VERTEX
  5
337
  8
SOILS
 10
811198.6725749023
 20
8989094.4432778694
 30
0.0
  0
VERTEX
  5
338
  8
SOILS
 10
811125.83173151209
 20
8989072.9293038249
 30
0.0
  0
VERTEX
  5
339
  8
SOILS
 10
811110.42346792098
 20
8989021.0450553782
 30
0.0
  0
VERTEX
  5
33A
  8
SOILS
 10
811091.02044007147
 20
8989004.5105580781
 30
0.0
  0
VERTEX
  5
33B
  8
SOILS
 10
811092.73246935941
 20
8988982.8445753511
 30
0.0
  0
VERTEX
  5
33C
  8
SOILS
 10
811146.37617072719
 20
8988970.871302072
 30
0.0
  0
VERTEX
  5
33D
  8
SOILS
 10
811156.60499283194
 20
8988950.8492775671
 30
0.0
  0
VERTEX
  5
33E
  8
SOILS
 10
811149.79996602167
 20
8988929.0214573871
 30
0.0
  0
VERTEX
  5
33F
  8
SOILS
 10
811114.34214393923
 20
8988927.5901185982
 30
0.0
  0
VERTEX
  5
340
  8
SOILS
 10
811096.79226405174
 20
8988906.4779678136
 30
0.0
  0
VERTEX
  5
341
  8
SOILS
 10
811099.299402287
 20
8988894.6695191618
 30
0.0
  0
VERTEX
  5
342
  8
SOILS
 10
811051.56943341705
 20
8988889.2788721826
 30
0.0
  0
VERTEX
  5
343
  8
SOILS
 10
811017.07855508558
 20
8988890.5551669355
 30
0.0
  0
VERTEX
  5
344
  8
SOILS
 10
810981.62959680066
 20
8988888.9598225858
 30
0.0
  0
VERTEX
  5
345
  8
SOILS
 10
810951.54499109986
 20
8988894.5549465325
 30
0.0
  0
VERTEX
  5
346
  8
SOILS
 10
810904.20941733045
 20
8988879.1950354856
 30
0.0
  0
VERTEX
  5
347
  8
SOILS
 10
810877.91193485446
 20
8988875.9613700006
 30
0.0
  0
VERTEX
  5
348
  8
SOILS
 10
810854.85096704448
 20
8988851.3046465982
 30
0.0
  0
VERTEX
  5
349
  8
SOILS
 10
810847.56861158484
 20
8988817.7553912923
 30
0.0
  0
VERTEX
  5
34A
  8
SOILS
 10
810867.79746451089
 20
8988789.0566342156
 30
0.0
  0
VERTEX
  5
34B
  8
SOILS
 10
810906.63686915068
 20
8988786.2271528281
 30
0.0
  0
VERTEX
  5
34C
  8
SOILS
 10
810965.30063917313
 20
8988812.0964766964
 30
0.0
  0
VERTEX
  5
34D
  8
SOILS
 10
811010.20876112289
 20
8988819.7764081303
 30
0.0
  0
VERTEX
  5
34E
  8
SOILS
 10
811020.72771900904
 20
8988810.0754598621
 30
0.0
  0
VERTEX
  5
34F
  8
SOILS
 10
811029.22388813924
 20
8988806.4375621025
 30
0.0
  0
VERTEX
  5
350
  8
SOILS
 10
811058.35348549904
 20
8988818.1595753916
 30
0.0
  0
VERTEX
  5
351
  8
SOILS
 10
811082.62809145846
 20
8988830.2858209535
 30
0.0
  0
VERTEX
  5
352
  8
SOILS
 10
811126.87055100536
 20
8988792.498149287
 30
0.0
  0
VERTEX
  5
353
  8
SOILS
 10
811126.35803044785
 20
8988767.9189478997
 30
0.0
  0
VERTEX
  5
354
  8
SOILS
 10
811140.19643654942
 20
8988755.6293231193
 30
0.0
  0
VERTEX
  5
355
  8
SOILS
 10
811163.26047597255
 20
8988744.8759255223
 30
0.0
  0
VERTEX
  5
356
  8
SOILS
 10
811157.62257431599
 20
8988726.9535961971
 30
0.0
  0
VERTEX
  5
357
  8
SOILS
 10
811157.76772996713
 20
8988680.9059510976
 30
0.0
  0
VERTEX
  5
358
  8
SOILS
 10
811133.65100491222
 20
8988666.3030962795
 30
0.0
  0
VERTEX
  5
359
  8
SOILS
 10
811128.53527745418
 20
8988642.9385189284
 30
0.0
  0
VERTEX
  5
35A
  8
SOILS
 10
811073.72445093282
 20
8988610.8121708706
 30
0.0
  0
VERTEX
  5
35B
  8
SOILS
 10
810963.78518494975
 20
8988603.3753087856
 30
0.0
  0
SEQEND
  5
35C
  8
SOILS
  0
POLYLINE
  5
E6
  8
SOILS
 66
     1
 10
0.0
 20
0.0
 30
0.0
 40
1.0
 41
1.0
  0
VERTEX
  5
35D
  8
SOILS
 10
811415.48386562883
 20
8986777.8715064451
 30
0.0
  0
VERTEX
  5
35E
  8
SOILS
 10
811374.52785639802
 20
8986882.6617136672
 30
0.0
  0
VERTEX
  5
35F
  8
SOILS
 10
811324.7049782367
 20
8987031.9939332586
 30
0.0
  0
VERTEX
  5
360
  8
SOILS
 10
811272.99744614051
 20
8987188.5595979299
 30
0.0
  0
VERTEX
  5
361
  8
SOILS
 10
811284.3956670058
 20
8987263.3162143193
 30
0.0
  0
SEQEND
  5
362
  8
SOILS
  0
POLYLINE
  5
E7
  8
SOILS
 66
     1
 10
0.0
 20
0.0
 30
0.0
 40
1.0
 41
1.0
  0
VERTEX
  5
363
  8
SOILS
 10
813023.16204627301
 20
8985460.0577719957
 30
0.0
  0
VERTEX
  5
364
  8
SOILS
 10
812989.96913475578
 20
8985515.0375433434
 30
0.0
  0
VERTEX
  5
365
  8
SOILS
 10
812944.22544632829
 20
8985650.799218094
 30
0.0
  0
VERTEX
  5
366
  8
SOILS
 10
812924.04442280356
 20
8985726.7451157104
 30
0.0
  0
VERTEX
  5
367
  8
SOILS
 10
812901.35801625054
 20
8985763.2924832683
 30
0.0
  0
VERTEX
  5
368
  8
SOILS
 10
812833.84501713107
 20
8985775.4337128885
 30
0.0
  0
VERTEX
  5
369
  8
SOILS
 10
812751.47927755967
 20
8985773.4101424981
 30
0.0
  0
VERTEX
  5
36A
  8
SOILS
 10
812714.34707538784
 20
8985786.9004190471
 30
0.0
  0
VERTEX
  5
36B
  8
SOILS
 10
812634.00666962354
 20
8985824.6731548347
 30
0.0
  0
VERTEX
  5
36C
  8
SOILS
 10
812521.67322116345
 20
8985842.2380349077
 30
0.0
  0
VERTEX
  5
36D
  8
SOILS
 10
812341.20911610406
 20
8985832.8385022618
 30
0.0
  0
VERTEX
  5
36E
  8
SOILS
 10
812139.90710115375
 20
8985842.4086411633
 30
0.0
  0
VERTEX
  5
36F
  8
SOILS
 10
812019.41202609241
 20
8985811.9314066134
 30
0.0
  0
VERTEX
  5
370
  8
SOILS
 10
811876.2376530678
 20
8985819.5768891703
 30
0.0
  0
VERTEX
  5
371
  8
SOILS
 10
811832.71702255972
 20
8985784.9279678967
 30
0.0
  0
VERTEX
  5
372
  8
SOILS
 10
811788.51624918822
 20
8985779.4928505532
 30
0.0
  0
VERTEX
  5
373
  8
SOILS
 10
811700.11479020561
 20
8985818.8974995017
 30
0.0
  0
VERTEX
  5
374
  8
SOILS
 10
811664.24502094858
 20
8985853.3060976975
 30
0.0
  0
VERTEX
  5
375
  8
SOILS
 10
811631.38306283555
 20
8985895.0921517331
 30
0.0
  0
VERTEX
  5
376
  8
SOILS
 10
811621.56715326873
 20
8985919.8227354586
 30
0.0
  0
VERTEX
  5
377
  8
SOILS
 10
811628.82239077415
 20
8985930.9088176619
 30
0.0
  0
VERTEX
  5
378
  8
SOILS
 10
811609.63955369184
 20
8985976.3044394702
 30
0.0
  0
VERTEX
  5
379
  8
SOILS
 10
811625.26555075962
 20
8986023.1395425349
 30
0.0
  0
VERTEX
  5
37A
  8
SOILS
 10
811646.75121993723
 20
8986043.6298790481
 30
0.0
  0
VERTEX
  5
37B
  8
SOILS
 10
811618.4291934974
 20
8986102.1737458296
 30
0.0
  0
VERTEX
  5
37C
  8
SOILS
 10
811628.19534293434
 20
8986198.7711428814
 30
0.0
  0
VERTEX
  5
37D
  8
SOILS
 10
811636.0873696811
 20
8986266.8895329684
 30
0.0
  0
VERTEX
  5
37E
  8
SOILS
 10
811686.59521752608
 20
8986307.7809279934
 30
0.0
  0
VERTEX
  5
37F
  8
SOILS
 10
811706.62415233091
 20
8986368.6829769816
 30
0.0
  0
VERTEX
  5
380
  8
SOILS
 10
811672.6620302255
 20
8986459.1660597418
 30
0.0
  0
VERTEX
  5
381
  8
SOILS
 10
811611.93527719704
 20
8986547.4651800655
 30
0.0
  0
VERTEX
  5
382
  8
SOILS
 10
811519.53317401092
 20
8986652.1953065228
 30
0.0
  0
VERTEX
  5
383
  8
SOILS
 10
811415.48386562883
 20
8986777.8715064451
 30
0.0
  0
SEQEND
  5
384
  8
SOILS
  0
POLYLINE
  5
E8
  8
SOILS
 66
     1
 10
0.0
 20
0.0
 30
0.0
 40
1.0
 41
1.0
  0
VERTEX
  5
385
  8
SOILS
 10
812880.32727364462
 20
8985333.8116796985
 30
0.0
  0
VERTEX
  5
386
  8
SOILS
 10
812764.32134018652
 20
8985476.8815818671
 30
0.0
  0
VERTEX
  5
387
  8
SOILS
 10
812632.04145166965
 20
8985563.7730199043
 30
0.0
  0
VERTEX
  5
388
  8
SOILS
 10
812567.50537204335
 20
8985661.8903110437
 30
0.0
  0
VERTEX
  5
389
  8
SOILS
 10
812514.193053831
 20
8985674.0381895378
 30
0.0
  0
VERTEX
  5
38A
  8
SOILS
 10
812420.66261557455
 20
8985699.2683542483
 30
0.0
  0
VERTEX
  5
38B
  8
SOILS
 10
812379.50923327322
 20
8985704.8750414532
 30
0.0
  0
VERTEX
  5
38C
  8
SOILS
 10
812218.63684085722
 20
8985696.4649865516
 30
0.0
  0
VERTEX
  5
38D
  8
SOILS
 10
812114.17558530031
 20
8985676.3427471314
 30
0.0
  0
VERTEX
  5
38E
  8
SOILS
 10
811972.65172154468
 20
8985602.3141342793
 30
0.0
  0
VERTEX
  5
38F
  8
SOILS
 10
811946.71809356054
 20
8985557.8970051128
 30
0.0
  0
VERTEX
  5
390
  8
SOILS
 10
811967.46499594825
 20
8985435.7498155888
 30
0.0
  0
VERTEX
  5
391
  8
SOILS
 10
811922.56073545467
 20
8985404.6400225703
 30
0.0
  0
VERTEX
  5
392
  8
SOILS
 10
811901.43032025243
 20
8985268.4732482992
 30
0.0
  0
VERTEX
  5
393
  8
SOILS
 10
811896.07158433145
 20
8985209.7526563704
 30
0.0
  0
VERTEX
  5
394
  8
SOILS
 10
811957.63987154292
 20
8985100.100628566
 30
0.0
  0
VERTEX
  5
395
  8
SOILS
 10
811993.77774872829
 20
8984999.8091555815
 30
0.0
  0
VERTEX
  5
396
  8
SOILS
 10
812000.04901697126
 20
8984945.8885207977
 30
0.0
  0
VERTEX
  5
397
  8
SOILS
 10
812021.33389042364
 20
8984908.0833115205
 30
0.0
  0
VERTEX
  5
398
  8
SOILS
 10
812055.97562883026
 20
8984874.1726561841
 30
0.0
  0
VERTEX
  5
399
  8
SOILS
 10
812069.57386062702
 20
8984760.7454417776
 30
0.0
  0
SEQEND
  5
39A
  8
SOILS
  0
POLYLINE
  5
E9
  8
SOILS
 66
     1
 10
0.0
 20
0.0
 30
0.0
 40
1.0
 41
1.0
  0
VERTEX
  5
39B
  8
SOILS
 10
811438.36272246973
 20
8984523.3220828641
 30
0.0
  0
VERTEX
  5
39C
  8
SOILS
 10
811389.08054414694
 20
8984677.5265182313
 30
0.0
  0
VERTEX
  5
39D
  8
SOILS
 10
811280.55563244154
 20
8984769.2714416701
 30
0.0
  0
VERTEX
  5
39E
  8
SOILS
 10
811190.81389709597
 20
8985036.1658257227
 30
0.0
  0
VERTEX
  5
39F
  8
SOILS
 10
811061.41877968423
 20
8985250.9324101787
 30
0.0
  0
VERTEX
  5
3A0
  8
SOILS
 10
811016.63308345003
 20
8985310.2606032044
 30
0.0
  0
VERTEX
  5
3A1
  8
SOILS
 10
810929.00461780175
 20
8985539.8688237816
 30
0.0
  0
VERTEX
  5
3A2
  8
SOILS
 10
810873.0998582748
 20
8985603.9401212689
 30
0.0
  0
VERTEX
  5
3A3
  8
SOILS
 10
810783.17014021776
 20
8985684.9502446875
 30
0.0
  0
VERTEX
  5
3A4
  8
SOILS
 10
810769.90182547609
 20
8985798.3644271102
 30
0.0
  0
VERTEX
  5
3A5
  8
SOILS
 10
810725.67410967138
 20
8985849.9162800331
 30
0.0
  0
VERTEX
  5
3A6
  8
SOILS
 10
810635.6582986922
 20
8985937.8081809077
 30
0.0
  0
VERTEX
  5
3A7
  8
SOILS
 10
810603.2564681957
 20
8985992.725424109
 30
0.0
  0
VERTEX
  5
3A8
  8
SOILS
 10
810581.74587507325
 20
8986012.2977341861
 30
0.0
  0
SEQEND
  5
3A9
  8
SOILS
  0
POLYLINE
  5
EA
  8
SOILS
 66
     1
 10
0.0
 20
0.0
 30
0.0
 40
1.0
 41
1.0
  0
VERTEX
  5
3AA
  8
SOILS
 10
810409.08158772544
 20
8986034.0075517409
 30
0.0
  0
VERTEX
  5
3AB
  8
SOILS
 10
810449.2427241758
 20
8985938.9299616069
 30
0.0
  0
VERTEX
  5
3AC
  8
SOILS
 10
810552.46603196068
 20
8985827.6591256708
 30
0.0
  0
VERTEX
  5
3AD
  8
SOILS
 10
810556.08790240937
 20
8985783.3317563031
 30
0.0
  0
VERTEX
  5
3AE
  8
SOILS
 10
810594.38336827862
 20
8985719.9408120923
 30
0.0
  0
VERTEX
  5
3AF
  8
SOILS
 10
810708.97278479661
 20
8985592.1321544182
 30
0.0
  0
VERTEX
  5
3B0
  8
SOILS
 10
810778.75324858201
 20
8985533.6600280236
 30
0.0
  0
VERTEX
  5
3B1
  8
SOILS
 10
810851.78005619533
 20
8985455.97732885
 30
0.0
  0
VERTEX
  5
3B2
  8
SOILS
 10
810850.06908003171
 20
8985403.5551961195
 30
0.0
  0
VERTEX
  5
3B3
  8
SOILS
 10
810964.26102983626
 20
8985083.2501170225
 30
0.0
  0
VERTEX
  5
3B4
  8
SOILS
 10
810981.8251269036
 20
8985014.5202714168
 30
0.0
  0
VERTEX
  5
3B5
  8
SOILS
 10
811044.7630902013
 20
8984931.1670462098
 30
0.0
  0
VERTEX
  5
3B6
  8
SOILS
 10
811139.9019127494
 20
8984833.1904413924
 30
0.0
  0
VERTEX
  5
3B7
  8
SOILS
 10
811216.05869394029
 20
8984704.9738415647
 30
0.0
  0
VERTEX
  5
3B8
  8
SOILS
 10
811284.26954924047
 20
8984465.3615739923
 30
0.0
  0
SEQEND
  5
3B9
  8
SOILS
  0
POLYLINE
  5
EB
  8
SOILS
 66
     1
 10
0.0
 20
0.0
 30
0.0
 40
1.0
 41
1.0
  0
VERTEX
  5
3BA
  8
SOILS
 10
810866.21066927025
 20
8985947.6843125578
 30
0.0
  0
VERTEX
  5
3BB
  8
SOILS
 10
810924.62555088534
 20
8985923.1621565856
 30
0.0
  0
VERTEX
  5
3BC
  8
SOILS
 10
811073.69943922793
 20
8985860.3867150359
 30
0.0
  0
VERTEX
  5
3BD
  8
SOILS
 10
811147.62034948496
 20
8985775.4552494604
 30
0.0
  0
VERTEX
  5
3BE
  8
SOILS
 10
811195.66897625662
 20
8985705.2944986895
 30
0.0
  0
VERTEX
  5
3BF
  8
SOILS
 10
811296.69423782756
 20
8985659.7515416816
 30
0.0
  0
VERTEX
  5
3C0
  8
SOILS
 10
811457.29044836073
 20
8985638.0752002001
 30
0.0
  0
VERTEX
  5
3C1
  8
SOILS
 10
811509.50593747501
 20
8985627.6006216984
 30
0.0
  0
VERTEX
  5
3C2
  8
SOILS
 10
811571.66783582547
 20
8985588.152369624
 30
0.0
  0
VERTEX
  5
3C3
  8
SOILS
 10
811604.26019408379
 20
8985530.0047853757
 30
0.0
  0
VERTEX
  5
3C4
  8
SOILS
 10
811640.6821515857
 20
8985487.2274709307
 30
0.0
  0
VERTEX
  5
3C5
  8
SOILS
 10
811689.97592247964
 20
8985455.5115703978
 30
0.0
  0
VERTEX
  5
3C6
  8
SOILS
 10
811725.76109073986
 20
8985408.0470405836
 30
0.0
  0
VERTEX
  5
3C7
  8
SOILS
 10
811758.46130649245
 20
8985368.5960422382
 30
0.0
  0
VERTEX
  5
3C8
  8
SOILS
 10
811819.285473531
 20
8985326.692428397
 30
0.0
  0
VERTEX
  5
3C9
  8
SOILS
 10
811845.62200937152
 20
8985282.8654590808
 30
0.0
  0
VERTEX
  5
3CA
  8
SOILS
 10
811860.63991483895
 20
8985180.2030843012
 30
0.0
  0
VERTEX
  5
3CB
  8
SOILS
 10
811919.92134234216
 20
8985080.7459968459
 30
0.0
  0
VERTEX
  5
3CC
  8
SOILS
 10
811936.69910649909
 20
8985029.3411900382
 30
0.0
  0
VERTEX
  5
3CD
  8
SOILS
 10
811955.71388247435
 20
8984928.7665617429
 30
0.0
  0
VERTEX
  5
3CE
  8
SOILS
 10
812023.49016270204
 20
8984877.8163837548
 30
0.0
  0
VERTEX
  5
3CF
  8
SOILS
 10
812039.13871418452
 20
8984841.5450408291
 30
0.0
  0
VERTEX
  5
3D0
  8
SOILS
 10
812038.14684647077
 20
8984748.9245045166
 30
0.0
  0
SEQEND
  5
3D1
  8
SOILS
  0
POLYLINE
  5
EC
  8
SOILS
 66
     1
 10
0.0
 20
0.0
 30
0.0
 40
1.0
 41
1.0
  0
VERTEX
  5
3D2
  8
SOILS
 10
810649.16856877203
 20
8986084.9825035781
 30
0.0
  0
VERTEX
  5
3D3
  8
SOILS
 10
810763.68830355653
 20
8985999.9884036817
 30
0.0
  0
VERTEX
  5
3D4
  8
SOILS
 10
810789.86423792085
 20
8985948.7739570327
 30
0.0
  0
VERTEX
  5
3D5
  8
SOILS
 10
810818.2214562688
 20
8985929.1599228606
 30
0.0
  0
VERTEX
  5
3D6
  8
SOILS
 10
810866.21066927025
 20
8985947.6843125578
 30
0.0
  0
SEQEND
  5
3D7
  8
SOILS
  0
POLYLINE
  5
ED
  8
SOILS
 66
     1
 10
0.0
 20
0.0
 30
0.0
 40
1.0
 41
1.0
  0
VERTEX
  5
3D8
  8
SOILS
 10
810576.094019518
 20
8986055.5614764094
 30
0.0
  0
VERTEX
  5
3D9
  8
SOILS
 10
810613.17663708085
 20
8986082.8031664453
 30
0.0
  0
VERTEX
  5
3DA
  8
SOILS
 10
810649.16856877203
 20
8986084.9825035781
 30
0.0
  0
SEQEND
  5
3DB
  8
SOILS
  0
POLYLINE
  5
EE
  8
SOILS
 66
     1
 10
0.0
 20
0.0
 30
0.0
 40
1.0
 41
1.0
  0
VERTEX
  5
3DC
  8
SOILS
 10
810581.74587507325
 20
8986012.2977341861
 30
0.0
  0
VERTEX
  5
3DD
  8
SOILS
 10
810576.094019518
 20
8986055.5614764094
 30
0.0
  0
SEQEND
  5
3DE
  8
SOILS
  0
POLYLINE
  5
EF
  8
SOILS
 66
     1
 10
0.0
 20
0.0
 30
0.0
 40
1.0
 41
1.0
  0
VERTEX
  5
3DF
  8
SOILS
 10
810409.08158772544
 20
8986034.0075517409
 30
0.0
  0
VERTEX
  5
3E0
  8
SOILS
 10
810463.01864489447
 20
8986019.668974774
 30
0.0
  0
VERTEX
  5
3E1
  8
SOILS
 10
810532.45482475066
 20
8985999.7620046996
 30
0.0
  0
VERTEX
  5
3E2
  8
SOILS
 10
810581.74587507325
 20
8986012.2977341861
 30
0.0
  0
SEQEND
  5
3E3
  8
SOILS
  0
POLYLINE
  5
F0
  8
SOILS
 66
     1
 10
0.0
 20
0.0
 30
0.0
 40
1.0
 41
1.0
  0
VERTEX
  5
3E4
  8
SOILS
 10
809477.03580832633
 20
8985438.4812983535
 30
0.0
  0
VERTEX
  5
3E5
  8
SOILS
 10
809510.7381597379
 20
8985421.1503815651
 30
0.0
  0
VERTEX
  5
3E6
  8
SOILS
 10
809534.21675479307
 20
8985424.424460113
 30
0.0
  0
VERTEX
  5
3E7
  8
SOILS
 10
809617.96211172605
 20
8985384.2697512358
 30
0.0
  0
VERTEX
  5
3E8
  8
SOILS
 10
809585.66366294492
 20
8985516.4483573474
 30
0.0
  0
VERTEX
  5
3E9
  8
SOILS
 10
809551.50188599888
 20
8985533.8239854034
 30
0.0
  0
VERTEX
  5
3EA
  8
SOILS
 10
809442.09682554821
 20
8985684.8069084529
 30
0.0
  0
VERTEX
  5
3EB
  8
SOILS
 10
809439.71992370125
 20
8985729.9256865606
 30
0.0
  0
VERTEX
  5
3EC
  8
SOILS
 10
809458.05762842542
 20
8985747.7468855474
 30
0.0
  0
VERTEX
  5
3ED
  8
SOILS
 10
809461.04104218632
 20
8985784.2606714722
 30
0.0
  0
VERTEX
  5
3EE
  8
SOILS
 10
809522.20159472048
 20
8985826.7358957697
 30
0.0
  0
VERTEX
  5
3EF
  8
SOILS
 10
809632.58886922675
 20
8985869.2111200672
 30
0.0
  0
VERTEX
  5
3F0
  8
SOILS
 10
809691.51179562067
 20
8985860.2689625081
 30
0.0
  0
VERTEX
  5
3F1
  8
SOILS
 10
809772.81054462015
 20
8985823.0099726971
 30
0.0
  0
VERTEX
  5
3F2
  8
SOILS
 10
809825.76664349297
 20
8985814.8130190317
 30
0.0
  0
VERTEX
  5
3F3
  8
SOILS
 10
809919.71903360565
 20
8985719.3024238143
 30
0.0
  0
VERTEX
  5
3F4
  8
SOILS
 10
809997.11753626447
 20
8985717.1636062711
 30
0.0
  0
VERTEX
  5
3F5
  8
SOILS
 10
810048.88360452699
 20
8985690.9683430307
 30
0.0
  0
VERTEX
  5
3F6
  8
SOILS
 10
810095.27145406639
 20
8985725.8953606877
 30
0.0
  0
VERTEX
  5
3F7
  8
SOILS
 10
810145.02070127777
 20
8985811.1979105268
 30
0.0
  0
VERTEX
  5
3F8
  8
SOILS
 10
810144.1309866521
 20
8985847.9128971659
 30
0.0
  0
VERTEX
  5
3F9
  8
SOILS
 10
810121.98737798445
 20
8985852.1674057338
 30
0.0
  0
VERTEX
  5
3FA
  8
SOILS
 10
810058.96305848286
 20
8985836.0002828185
 30
0.0
  0
VERTEX
  5
3FB
  8
SOILS
 10
810030.00599800958
 20
8985851.3164943811
 30
0.0
  0
VERTEX
  5
3FC
  8
SOILS
 10
810035.96773542941
 20
8985875.1417230759
 30
0.0
  0
VERTEX
  5
3FD
  8
SOILS
 10
810093.88194413634
 20
8985906.6251057349
 30
0.0
  0
VERTEX
  5
3FE
  8
SOILS
 10
810125.42512717773
 20
8985958.2130456585
 30
0.0
  0
VERTEX
  5
3FF
  8
SOILS
 10
810125.42512717773
 20
8985990.7888672445
 30
0.0
  0
VERTEX
  5
400
  8
SOILS
 10
810176.20433008531
 20
8986031.3751849439
 30
0.0
  0
VERTEX
  5
401
  8
SOILS
 10
810246.00866469159
 20
8986044.1914198287
 30
0.0
  0
VERTEX
  5
402
  8
SOILS
 10
810317.50624786655
 20
8986057.1550380923
 30
0.0
  0
VERTEX
  5
403
  8
SOILS
 10
810409.08158772544
 20
8986034.0075517409
 30
0.0
  0
SEQEND
  5
404
  8
SOILS
  0
POLYLINE
  5
F1
  8
SOILS
 66
     1
 10
0.0
 20
0.0
 30
0.0
 40
1.0
 41
1.0
  0
VERTEX
  5
405
  8
SOILS
 10
810039.62028189166
 20
8983997.1999845356
 30
0.0
  0
VERTEX
  5
406
  8
SOILS
 10
809961.93914319843
 20
8984141.2139242291
 30
0.0
  0
VERTEX
  5
407
  8
SOILS
 10
809847.49944587098
 20
8984207.6879224703
 30
0.0
  0
VERTEX
  5
408
  8
SOILS
 10
809770.31920325093
 20
8984258.2081399336
 30
0.0
  0
VERTEX
  5
409
  8
SOILS
 10
809653.14410296734
 20
8984387.723486511
 30
0.0
  0
VERTEX
  5
40A
  8
SOILS
 10
809655.78103878896
 20
8984447.0008975603
 30
0.0
  0
VERTEX
  5
40B
  8
SOILS
 10
809601.72345951921
 20
8984551.0657029767
 30
0.0
  0
VERTEX
  5
40C
  8
SOILS
 10
809608.31584295386
 20
8984582.680328628
 30
0.0
  0
VERTEX
  5
40D
  8
SOILS
 10
809659.73648640222
 20
8984724.9460958745
 30
0.0
  0
VERTEX
  5
40E
  8
SOILS
 10
809627.79013222351
 20
8984756.6751977913
 30
0.0
  0
VERTEX
  5
40F
  8
SOILS
 10
809547.37346269796
 20
8984845.322275864
 30
0.0
  0
VERTEX
  5
410
  8
SOILS
 10
809525.95203411055
 20
8984896.5006355084
 30
0.0
  0
VERTEX
  5
411
  8
SOILS
 10
809482.17777613457
 20
8984908.5973465815
 30
0.0
  0
VERTEX
  5
412
  8
SOILS
 10
809420.34322396235
 20
8985017.3973067105
 30
0.0
  0
VERTEX
  5
413
  8
SOILS
 10
809419.01523405139
 20
8985115.5806047916
 30
0.0
  0
VERTEX
  5
414
  8
SOILS
 10
809436.27936617564
 20
8985183.2474495955
 30
0.0
  0
VERTEX
  5
415
  8
SOILS
 10
809455.59217636555
 20
8985208.1696461625
 30
0.0
  0
VERTEX
  5
416
  8
SOILS
 10
809468.88041271071
 20
8985322.1630033366
 30
0.0
  0
VERTEX
  5
417
  8
SOILS
 10
809477.03580832633
 20
8985438.4812983535
 30
0.0
  0
SEQEND
  5
418
  8
SOILS
  0
POLYLINE
  5
F2
  8
SOILS
 66
     1
 10
0.0
 20
0.0
 30
0.0
 40
1.0
 41
1.0
  0
VERTEX
  5
419
  8
SOILS
 10
809335.10304440977
 20
8984993.5087561924
 30
0.0
  0
VERTEX
  5
41A
  8
SOILS
 10
809120.91160083271
 20
8985307.7155779973
 30
0.0
  0
VERTEX
  5
41B
  8
SOILS
 10
809096.99435509753
 20
8985408.8116611112
 30
0.0
  0
VERTEX
  5
41C
  8
SOILS
 10
809074.28741261829
 20
8985509.745473152
 30
0.0
  0
VERTEX
  5
41D
  8
SOILS
 10
808819.82595801936
 20
8985611.9612652138
 30
0.0
  0
VERTEX
  5
41E
  8
SOILS
 10
808680.79036401969
 20
8986068.0011344831
 30
0.0
  0
VERTEX
  5
41F
  8
SOILS
 10
808586.94100458
 20
8986167.2876638658
 30
0.0
  0
VERTEX
  5
420
  8
SOILS
 10
808476.47360485676
 20
8986229.6122828424
 30
0.0
  0
VERTEX
  5
421
  8
SOILS
 10
808327.25508742547
 20
8986251.7671505418
 30
0.0
  0
VERTEX
  5
422
  8
SOILS
 10
808204.41926778923
 20
8986271.4492633995
 30
0.0
  0
VERTEX
  5
423
  8
SOILS
 10
808167.21061817254
 20
8986331.1853985842
 30
0.0
  0
SEQEND
  5
424
  8
SOILS
  0
POLYLINE
  5
F3
  8
SOILS
 66
     1
 10
0.0
 20
0.0
 30
0.0
 40
1.0
 41
1.0
  0
VERTEX
  5
425
  8
SOILS
 10
807715.25665074203
 20
8985701.6274036989
 30
0.0
  0
VERTEX
  5
426
  8
SOILS
 10
807834.7622358005
 20
8985666.5263589881
 30
0.0
  0
VERTEX
  5
427
  8
SOILS
 10
807868.96025777922
 20
8985633.4449820668
 30
0.0
  0
VERTEX
  5
428
  8
SOILS
 10
807866.53614085296
 20
8985589.8501451816
 30
0.0
  0
VERTEX
  5
429
  8
SOILS
 10
807901.16682145325
 20
8985583.968300581
 30
0.0
  0
VERTEX
  5
42A
  8
SOILS
 10
807966.96507071331
 20
8985569.436704345
 30
0.0
  0
VERTEX
  5
42B
  8
SOILS
 10
808031.33440563735
 20
8985522.8200987056
 30
0.0
  0
VERTEX
  5
42C
  8
SOILS
 10
808055.46376818547
 20
8985498.2744789515
 30
0.0
  0
VERTEX
  5
42D
  8
SOILS
 10
808184.85204028862
 20
8985435.6876148898
 30
0.0
  0
VERTEX
  5
42E
  8
SOILS
 10
808251.3759800439
 20
8985402.4248875175
 30
0.0
  0
VERTEX
  5
42F
  8
SOILS
 10
808367.54999779304
 20
8985372.8803261947
 30
0.0
  0
VERTEX
  5
430
  8
SOILS
 10
808483.30206368549
 20
8985245.438464744
 30
0.0
  0
VERTEX
  5
431
  8
SOILS
 10
808434.09500003688
 20
8985178.8095188253
 30
0.0
  0
VERTEX
  5
432
  8
SOILS
 10
808467.33625846729
 20
8985108.7974041216
 30
0.0
  0
VERTEX
  5
433
  8
SOILS
 10
808518.54566270637
 20
8985072.8937728461
 30
0.0
  0
VERTEX
  5
434
  8
SOILS
 10
808525.73297368595
 20
8985032.5021515321
 30
0.0
  0
VERTEX
  5
435
  8
SOILS
 10
808538.31078984006
 20
8984985.8274405133
 30
0.0
  0
VERTEX
  5
436
  8
SOILS
 10
808558.0758292136
 20
8984932.8695434295
 30
0.0
  0
VERTEX
  5
437
  8
SOILS
 10
808613.62463268207
 20
8984790.726394916
 30
0.0
  0
VERTEX
  5
438
  8
SOILS
 10
808723.58161809668
 20
8984698.6407407653
 30
0.0
  0
VERTEX
  5
439
  8
SOILS
 10
809000.11752619233
 20
8984443.3937869798
 30
0.0
  0
VERTEX
  5
43A
  8
SOILS
 10
809196.09898098209
 20
8984295.966036208
 30
0.0
  0
VERTEX
  5
43B
  8
SOILS
 10
809332.13308258506
 20
8984270.6268877815
 30
0.0
  0
VERTEX
  5
43C
  8
SOILS
 10
809442.80496396951
 20
8984335.1265076641
 30
0.0
  0
VERTEX
  5
43D
  8
SOILS
 10
809451.99926683877
 20
8984446.1844832692
 30
0.0
  0
VERTEX
  5
43E
  8
SOILS
 10
809433.65734961687
 20
8984475.96295969
 30
0.0
  0
VERTEX
  5
43F
  8
SOILS
 10
809416.46175834071
 20
8984609.96605541
 30
0.0
  0
VERTEX
  5
440
  8
SOILS
 10
809463.46296510275
 20
8984743.9691511318
 30
0.0
  0
VERTEX
  5
441
  8
SOILS
 10
809342.82001381856
 20
8984976.3098662607
 30
0.0
  0
VERTEX
  5
442
  8
SOILS
 10
809335.10304440977
 20
8984993.5087561924
 30
0.0
  0
SEQEND
  5
443
  8
SOILS
  0
POLYLINE
  5
F4
  8
SOILS
 66
     1
 10
0.0
 20
0.0
 30
0.0
 40
1.0
 41
1.0
  0
VERTEX
  5
444
  8
SOILS
 10
806838.37646055454
 20
8984464.4850757197
 30
0.0
  0
VERTEX
  5
445
  8
SOILS
 10
806853.03331986186
 20
8984490.2577500101
 30
0.0
  0
VERTEX
  5
446
  8
SOILS
 10
806846.58433687093
 20
8984544.1459594872
 30
0.0
  0
VERTEX
  5
447
  8
SOILS
 10
806797.33707897284
 20
8984610.3347788434
 30
0.0
  0
VERTEX
  5
448
  8
SOILS
 10
806738.12305143324
 20
8984640.7933676373
 30
0.0
  0
VERTEX
  5
449
  8
SOILS
 10
806694.73853725835
 20
8984651.3367475346
 30
0.0
  0
VERTEX
  5
44A
  8
SOILS
 10
806641.38734120224
 20
8984644.3078276068
 30
0.0
  0
VERTEX
  5
44B
  8
SOILS
 10
806603.86565851059
 20
8984629.0785332061
 30
0.0
  0
SEQEND
  5
44C
  8
SOILS
  0
POLYLINE
  5
F5
  8
SOILS
 66
     1
 10
0.0
 20
0.0
 30
0.0
 40
1.0
 41
1.0
  0
VERTEX
  5
44D
  8
SOILS
 10
806603.86565851059
 20
8984629.0785332061
 30
0.0
  0
VERTEX
  5
44E
  8
SOILS
 10
806599.77479664749
 20
8984612.6339884307
 30
0.0
  0
VERTEX
  5
44F
  8
SOILS
 10
806602.55153473804
 20
8984598.3007020932
 30
0.0
  0
VERTEX
  5
450
  8
SOILS
 10
806613.65839933965
 20
8984582.5802582577
 30
0.0
  0
VERTEX
  5
451
  8
SOILS
 10
806664.10226987512
 20
8984555.300698543
 30
0.0
  0
VERTEX
  5
452
  8
SOILS
 10
806705.29154616804
 20
8984521.8877933398
 30
0.0
  0
VERTEX
  5
453
  8
SOILS
 10
806747.50349404616
 20
8984480.8858728278
 30
0.0
  0
VERTEX
  5
454
  8
SOILS
 10
806793.23314081458
 20
8984460.9706639312
 30
0.0
  0
VERTEX
  5
455
  8
SOILS
 10
806838.37646055454
 20
8984464.4850757197
 30
0.0
  0
SEQEND
  5
456
  8
SOILS
  0
POLYLINE
  5
F6
  8
SOILS
 66
     1
 10
0.0
 20
0.0
 30
0.0
 40
1.0
 41
1.0
  0
VERTEX
  5
457
  8
SOILS
 10
807072.18188597634
 20
8983899.4320355579
 30
0.0
  0
VERTEX
  5
458
  8
SOILS
 10
807152.72111551033
 20
8983721.9665154368
 30
0.0
  0
VERTEX
  5
459
  8
SOILS
 10
807257.35789180605
 20
8983627.2160599865
 30
0.0
  0
VERTEX
  5
45A
  8
SOILS
 10
807421.4164244358
 20
8983579.5335145518
 30
0.0
  0
VERTEX
  5
45B
  8
SOILS
 10
807493.00554167619
 20
8983421.5850767791
 30
0.0
  0
VERTEX
  5
45C
  8
SOILS
 10
807627.23529008287
 20
8983296.4184311517
 30
0.0
  0
VERTEX
  5
45D
  8
SOILS
 10
807770.41361232358
 20
8983287.4779599048
 30
0.0
  0
VERTEX
  5
45E
  8
SOILS
 10
807935.45593869535
 20
8983261.8707847632
 30
0.0
  0
VERTEX
  5
45F
  8
SOILS
 10
808013.62103960256
 20
8983235.1419089064
 30
0.0
  0
SEQEND
  5
460
  8
SOILS
  0
POLYLINE
  5
F7
  8
SOILS
 66
     1
 10
0.0
 20
0.0
 30
0.0
 40
1.0
 41
1.0
  0
VERTEX
  5
461
  8
SOILS
 10
807037.18060406018
 20
8983958.3416515086
 30
0.0
  0
VERTEX
  5
462
  8
SOILS
 10
807072.18188597634
 20
8983899.4320355579
 30
0.0
  0
SEQEND
  5
463
  8
SOILS
  0
POLYLINE
  5
F8
  8
SOILS
 66
     1
 10
0.0
 20
0.0
 30
0.0
 40
1.0
 41
1.0
  0
VERTEX
  5
464
  8
SOILS
 10
806763.55749843596
 20
8984398.4865201581
 30
0.0
  0
VERTEX
  5
465
  8
SOILS
 10
806793.66843224724
 20
8984420.4705888759
 30
0.0
  0
VERTEX
  5
466
  8
SOILS
 10
806848.09978293092
 20
8984396.1724228747
 30
0.0
  0
VERTEX
  5
467
  8
SOILS
 10
806894.42426948377
 20
8984342.9478963036
 30
0.0
  0
SEQEND
  5
468
  8
SOILS
  0
POLYLINE
  5
F9
  8
SOILS
 66
     1
 10
0.0
 20
0.0
 30
0.0
 40
1.0
 41
1.0
  0
VERTEX
  5
469
  8
SOILS
 10
806646.99996787205
 20
8984153.2064696066
 30
0.0
  0
VERTEX
  5
46A
  8
SOILS
 10
806721.03242155944
 20
8984176.5637717377
 30
0.0
  0
VERTEX
  5
46B
  8
SOILS
 10
806717.13594891457
 20
8984240.1475814786
 30
0.0
  0
VERTEX
  5
46C
  8
SOILS
 10
806710.64185709355
 20
8984279.0764504876
 30
0.0
  0
VERTEX
  5
46D
  8
SOILS
 10
806745.02768626274
 20
8984340.633750841
 30
0.0
  0
VERTEX
  5
46E
  8
SOILS
 10
806769.34810313524
 20
8984366.0889654849
 30
0.0
  0
VERTEX
  5
46F
  8
SOILS
 10
806763.55749843596
 20
8984398.4865201581
 30
0.0
  0
SEQEND
  5
470
  8
SOILS
  0
POLYLINE
  5
FA
  8
SOILS
 66
     1
 10
0.0
 20
0.0
 30
0.0
 40
1.0
 41
1.0
  0
VERTEX
  5
471
  8
SOILS
 10
806318.38393585628
 20
8982804.5530972648
 30
0.0
  0
VERTEX
  5
472
  8
SOILS
 10
806362.22406316502
 20
8982855.7706573363
 30
0.0
  0
VERTEX
  5
473
  8
SOILS
 10
806363.11869237165
 20
8982915.656054927
 30
0.0
  0
VERTEX
  5
474
  8
SOILS
 10
806377.4327596759
 20
8982985.3734510615
 30
0.0
  0
VERTEX
  5
475
  8
SOILS
 10
806381.90590570855
 20
8983043.4712169338
 30
0.0
  0
VERTEX
  5
476
  8
SOILS
 10
806428.84524140984
 20
8983089.8752995022
 30
0.0
  0
VERTEX
  5
477
  8
SOILS
 10
806467.3791522031
 20
8983180.4605725687
 30
0.0
  0
VERTEX
  5
478
  8
SOILS
 10
806496.84627594356
 20
8983240.4733587317
 30
0.0
  0
VERTEX
  5
479
  8
SOILS
 10
806491.33940051915
 20
8983383.174097253
 30
0.0
  0
VERTEX
  5
47A
  8
SOILS
 10
806454.95869039115
 20
8983542.6990408991
 30
0.0
  0
VERTEX
  5
47B
  8
SOILS
 10
806402.4460446653
 20
8983650.2660685014
 30
0.0
  0
VERTEX
  5
47C
  8
SOILS
 10
806395.34649405512
 20
8983784.0210359469
 30
0.0
  0
VERTEX
  5
47D
  8
SOILS
 10
806409.5455075152
 20
8983875.2176199909
 30
0.0
  0
VERTEX
  5
47E
  8
SOILS
 10
806448.0859125756
 20
8983920.8158879206
 30
0.0
  0
VERTEX
  5
47F
  8
SOILS
 10
806465.16601120529
 20
8983993.5981741324
 30
0.0
  0
VERTEX
  5
480
  8
SOILS
 10
806478.15410708706
 20
8984074.0511411708
 30
0.0
  0
VERTEX
  5
481
  8
SOILS
 10
806506.72809354775
 20
8984092.2179370709
 30
0.0
  0
VERTEX
  5
482
  8
SOILS
 10
806600.24264717719
 20
8984118.1705164071
 30
0.0
  0
VERTEX
  5
483
  8
SOILS
 10
806646.99996787205
 20
8984153.2064696066
 30
0.0
  0
SEQEND
  5
484
  8
SOILS
  0
POLYLINE
  5
FB
  8
SOILS
 66
     1
 10
0.0
 20
0.0
 30
0.0
 40
1.0
 41
1.0
  0
VERTEX
  5
485
  8
SOILS
 10
805505.06140453951
 20
8982891.6340000127
 30
0.0
  0
VERTEX
  5
486
  8
SOILS
 10
805502.13918104523
 20
8982923.4028605446
 30
0.0
  0
VERTEX
  5
487
  8
SOILS
 10
805502.92261786375
 20
8982957.8442213107
 30
0.0
  0
VERTEX
  5
488
  8
SOILS
 10
805499.00525825098
 20
8982993.0683665518
 30
0.0
  0
VERTEX
  5
489
  8
SOILS
 10
805521.72597910825
 20
8983043.9476232212
 30
0.0
  0
VERTEX
  5
48A
  8
SOILS
 10
805509.97390027042
 20
8983141.7924068794
 30
0.0
  0
VERTEX
  5
48B
  8
SOILS
 10
805491.46769563702
 20
8983185.498058334
 30
0.0
  0
VERTEX
  5
48C
  8
SOILS
 10
805471.61700214248
 20
8983281.6859714631
 30
0.0
  0
VERTEX
  5
48D
  8
SOILS
 10
805439.85591010365
 20
8983304.4934406132
 30
0.0
  0
VERTEX
  5
48E
  8
SOILS
 10
805417.02759503329
 20
8983348.1250872072
 30
0.0
  0
VERTEX
  5
48F
  8
SOILS
 10
805416.56887158193
 20
8983452.1294264141
 30
0.0
  0
VERTEX
  5
490
  8
SOILS
 10
805448.44457866321
 20
8983560.6070125103
 30
0.0
  0
VERTEX
  5
491
  8
SOILS
 10
805446.4523305156
 20
8983611.3625904825
 30
0.0
  0
VERTEX
  5
492
  8
SOILS
 10
805459.4018995954
 20
8983615.3433870636
 30
0.0
  0
VERTEX
  5
493
  8
SOILS
 10
805492.27368687
 20
8983600.4152673911
 30
0.0
  0
VERTEX
  5
494
  8
SOILS
 10
805546.06403581519
 20
8983607.3817457221
 30
0.0
  0
VERTEX
  5
495
  8
SOILS
 10
805576.9435749423
 20
8983623.3050284032
 30
0.0
  0
VERTEX
  5
496
  8
SOILS
 10
805615.79219442047
 20
8983600.4152673911
 30
0.0
  0
VERTEX
  5
497
  8
SOILS
 10
805644.67957316071
 20
8983548.6645264104
 30
0.0
  0
VERTEX
  5
498
  8
SOILS
 10
805635.71450037626
 20
8983479.9952433761
 30
0.0
  0
VERTEX
  5
499
  8
SOILS
 10
805629.73775593331
 20
8983437.2013549246
 30
0.0
  0
VERTEX
  5
49A
  8
SOILS
 10
805612.80377831892
 20
8983415.306805104
 30
0.0
  0
VERTEX
  5
49B
  8
SOILS
 10
805631.73000408115
 20
8983399.3834742419
 30
0.0
  0
VERTEX
  5
49C
  8
SOILS
 10
805665.59795931005
 20
8983383.4601433817
 30
0.0
  0
VERTEX
  5
49D
  8
SOILS
 10
805677.55136043555
 20
8983404.3595301919
 30
0.0
  0
VERTEX
  5
49E
  8
SOILS
 10
805713.41156381194
 20
8983418.2923904937
 30
0.0
  0
VERTEX
  5
49F
  8
SOILS
 10
805735.32611791533
 20
8983413.3163827229
 30
0.0
  0
VERTEX
  5
4A0
  8
SOILS
 10
805741.30286235828
 20
8983381.4697691835
 30
0.0
  0
VERTEX
  5
4A1
  8
SOILS
 10
805756.24459182518
 20
8983349.6231074594
 30
0.0
  0
VERTEX
  5
4A2
  8
SOILS
 10
805805.05427652062
 20
8983324.7429722492
 30
0.0
  0
VERTEX
  5
4A3
  8
SOILS
 10
805832.69686218002
 20
8983291.9391617328
 30
0.0
  0
VERTEX
  5
4A4
  8
SOILS
 10
805824.7029456445
 20
8983210.2987924963
 30
0.0
  0
VERTEX
  5
4A5
  8
SOILS
 10
805811.37986843276
 20
8983169.4785597008
 30
0.0
  0
VERTEX
  5
4A6
  8
SOILS
 10
805786.51007164724
 20
8983133.9827742185
 30
0.0
  0
VERTEX
  5
4A7
  8
SOILS
 10
805796.28034582129
 20
8983087.8381904624
 30
0.0
  0
VERTEX
  5
4A8
  8
SOILS
 10
805824.7029456445
 20
8983077.1894403677
 30
0.0
  0
VERTEX
  5
4A9
  8
SOILS
 10
805866.44871044031
 20
8983078.0768241622
 30
0.0
  0
VERTEX
  5
4AA
  8
SOILS
 10
805877.89810376382
 20
8983071.0335946977
 30
0.0
  0
VERTEX
  5
4AB
  8
SOILS
 10
805883.44201406441
 20
8983045.7131883875
 30
0.0
  0
VERTEX
  5
4AC
  8
SOILS
 10
805934.12915634469
 20
8983039.3830747623
 30
0.0
  0
VERTEX
  5
4AD
  8
SOILS
 10
805964.2246443308
 20
8983018.0189412851
 30
0.0
  0
VERTEX
  5
4AE
  8
SOILS
 10
805985.60824819887
 20
8982989.5334781613
 30
0.0
  0
VERTEX
  5
4AF
  8
SOILS
 10
806004.6159155838
 20
8982946.0139951855
 30
0.0
  0
VERTEX
  5
4B0
  8
SOILS
 10
806050.55109713739
 20
8982908.8245776501
 30
0.0
  0
VERTEX
  5
4B1
  8
SOILS
 10
806163.29034954566
 20
8982869.8736902736
 30
0.0
  0
VERTEX
  5
4B2
  8
SOILS
 10
806207.43636044709
 20
8982846.8184301089
 30
0.0
  0
VERTEX
  5
4B3
  8
SOILS
 10
806225.50794210425
 20
8982805.6859946847
 30
0.0
  0
SEQEND
  5
4B4
  8
SOILS
  0
POLYLINE
  5
FC
  8
SOILS
 66
     1
 10
0.0
 20
0.0
 30
0.0
 40
1.0
 41
1.0
  0
VERTEX
  5
4B5
  8
SOILS
 10
804805.67025601165
 20
8984381.3749680333
 30
0.0
  0
VERTEX
  5
4B6
  8
SOILS
 10
805034.71042766352
 20
8984277.9609813988
 30
0.0
  0
VERTEX
  5
4B7
  8
SOILS
 10
805072.14961560792
 20
8984266.9594555292
 30
0.0
  0
VERTEX
  5
4B8
  8
SOILS
 10
805140.4212153611
 20
8984280.1612769365
 30
0.0
  0
VERTEX
  5
4B9
  8
SOILS
 10
805160.24198256957
 20
8984268.0596032981
 30
0.0
  0
VERTEX
  5
4BA
  8
SOILS
 10
805182.26509624976
 20
8984187.7487679906
 30
0.0
  0
VERTEX
  5
4BB
  8
SOILS
 10
805169.05119293742
 20
8984109.638180038
 30
0.0
  0
VERTEX
  5
4BC
  8
SOILS
 10
805157.75441489625
 20
8984055.6187275667
 30
0.0
  0
VERTEX
  5
4BD
  8
SOILS
 10
805166.12429685472
 20
8983874.4362809155
 30
0.0
  0
VERTEX
  5
4BE
  8
SOILS
 10
805232.32001282834
 20
8983751.2079266421
 30
0.0
  0
VERTEX
  5
4BF
  8
SOILS
 10
805272.96605243359
 20
8983526.9758507889
 30
0.0
  0
VERTEX
  5
4C0
  8
SOILS
 10
805264.12998739269
 20
8983442.2266992684
 30
0.0
  0
VERTEX
  5
4C1
  8
SOILS
 10
805317.14655315981
 20
8983369.8368411697
 30
0.0
  0
VERTEX
  5
4C2
  8
SOILS
 10
805358.20594410575
 20
8983209.6616087276
 30
0.0
  0
VERTEX
  5
4C3
  8
SOILS
 10
805410.33446269436
 20
8983116.5808879267
 30
0.0
  0
VERTEX
  5
4C4
  8
SOILS
 10
805419.46064168192
 20
8982931.1541491672
 30
0.0
  0
SEQEND
  5
4C5
  8
SOILS
  0
POLYLINE
  5
FD
  8
SOILS
 66
     1
 10
0.0
 20
0.0
 30
0.0
 40
1.0
 41
1.0
  0
VERTEX
  5
4C6
  8
SOILS
 10
804890.34145232639
 20
8984652.4935552757
 30
0.0
  0
VERTEX
  5
4C7
  8
SOILS
 10
804974.51831080613
 20
8984582.3586291168
 30
0.0
  0
VERTEX
  5
4C8
  8
SOILS
 10
805084.12495682552
 20
8984527.6053432971
 30
0.0
  0
VERTEX
  5
4C9
  8
SOILS
 10
805117.00692430348
 20
8984504.3351510521
 30
0.0
  0
VERTEX
  5
4CA
  8
SOILS
 10
805137.55820882739
 20
8984445.4753663875
 30
0.0
  0
VERTEX
  5
4CB
  8
SOILS
 10
805188.25131881249
 20
8984397.5661810692
 30
0.0
  0
VERTEX
  5
4CC
  8
SOILS
 10
805240.3144559256
 20
8984396.1973802429
 30
0.0
  0
VERTEX
  5
4CD
  8
SOILS
 10
805299.22807972052
 20
8984430.4181718342
 30
0.0
  0
VERTEX
  5
4CE
  8
SOILS
 10
805344.56082205474
 20
8984521.6626952235
 30
0.0
  0
SEQEND
  5
4CF
  8
SOILS
  0
POLYLINE
  5
FE
  8
SOILS
 66
     1
 10
0.0
 20
0.0
 30
0.0
 40
1.0
 41
1.0
  0
VERTEX
  5
4D0
  8
SOILS
 10
801905.55652371701
 20
8985188.4719710834
 30
0.0
  0
VERTEX
  5
4D1
  8
SOILS
 10
801859.79836299154
 20
8985164.7607368547
 30
0.0
  0
VERTEX
  5
4D2
  8
SOILS
 10
801770.61039557739
 20
8985147.4714477975
 30
0.0
  0
VERTEX
  5
4D3
  8
SOILS
 10
801790.57789812353
 20
8985049.0553427655
 30
0.0
  0
VERTEX
  5
4D4
  8
SOILS
 10
801842.49324677454
 20
8984858.872874083
 30
0.0
  0
VERTEX
  5
4D5
  8
SOILS
 10
801893.07735838089
 20
8984825.6242153421
 30
0.0
  0
VERTEX
  5
4D6
  8
SOILS
 10
801972.66486793547
 20
8984705.2883622199
 30
0.0
  0
VERTEX
  5
4D7
  8
SOILS
 10
802023.35481854738
 20
8984530.7240988947
 30
0.0
  0
VERTEX
  5
4D8
  8
SOILS
 10
802009.48657392012
 20
8984488.1409508418
 30
0.0
  0
VERTEX
  5
4D9
  8
SOILS
 10
802021.02179688495
 20
8984456.7099401131
 30
0.0
  0
VERTEX
  5
4DA
  8
SOILS
 10
802042.51931371272
 20
8984417.9450284876
 30
0.0
  0
VERTEX
  5
4DB
  8
SOILS
 10
802129.05349531386
 20
8984376.116383113
 30
0.0
  0
VERTEX
  5
4DC
  8
SOILS
 10
802171.56488157285
 20
8984344.9255990963
 30
0.0
  0
VERTEX
  5
4DD
  8
SOILS
 10
802199.06143397721
 20
8984297.2603021916
 30
0.0
  0
VERTEX
  5
4DE
  8
SOILS
 10
802205.79335639975
 20
8984249.3394572567
 30
0.0
  0
VERTEX
  5
4DF
  8
SOILS
 10
802204.59095157729
 20
8984220.8837695252
 30
0.0
  0
VERTEX
  5
4E0
  8
SOILS
 10
802187.16297084314
 20
8984157.5672156177
 30
0.0
  0
VERTEX
  5
4E1
  8
SOILS
 10
802192.25719701045
 20
8984089.694496613
 30
0.0
  0
VERTEX
  5
4E2
  8
SOILS
 10
802219.36646290438
 20
8984019.7262741104
 30
0.0
  0
VERTEX
  5
4E3
  8
SOILS
 10
802242.55959783075
 20
8983878.0260947887
 30
0.0
  0
VERTEX
  5
4E4
  8
SOILS
 10
802252.09932551451
 20
8983816.0744872876
 30
0.0
  0
VERTEX
  5
4E5
  8
SOILS
 10
802230.18749198236
 20
8983748.9307836108
 30
0.0
  0
VERTEX
  5
4E6
  8
SOILS
 10
802212.80523440056
 20
8983721.7485479973
 30
0.0
  0
VERTEX
  5
4E7
  8
SOILS
 10
802229.27129028935
 20
8983643.4371220917
 30
0.0
  0
SEQEND
  5
4E8
  8
SOILS
  0
POLYLINE
  5
FF
  8
SOILS
 66
     1
 10
0.0
 20
0.0
 30
0.0
 40
1.0
 41
1.0
  0
VERTEX
  5
4E9
  8
SOILS
 10
802533.2761693059
 20
8984925.6941073667
 30
0.0
  0
VERTEX
  5
4EA
  8
SOILS
 10
802276.44817674649
 20
8984847.9953641705
 30
0.0
  0
VERTEX
  5
4EB
  8
SOILS
 10
802176.02302058216
 20
8984724.0539904144
 30
0.0
  0
VERTEX
  5
4EC
  8
SOILS
 10
802147.96304660593
 20
8984603.0636086296
 30
0.0
  0
VERTEX
  5
4ED
  8
SOILS
 10
802153.87765670707
 20
8984485.3179256078
 30
0.0
  0
VERTEX
  5
4EE
  8
SOILS
 10
802247.37430722162
 20
8984320.8614445552
 30
0.0
  0
VERTEX
  5
4EF
  8
SOILS
 10
802247.37430722162
 20
8984286.6545288768
 30
0.0
  0
VERTEX
  5
4F0
  8
SOILS
 10
802236.68026739778
 20
8984218.5146504026
 30
0.0
  0
VERTEX
  5
4F1
  8
SOILS
 10
802247.24802004965
 20
8984098.8557779342
 30
0.0
  0
VERTEX
  5
4F2
  8
SOILS
 10
802368.11089881975
 20
8983774.8733414542
 30
0.0
  0
VERTEX
  5
4F3
  8
SOILS
 10
802454.98798144271
 20
8983616.1120602153
 30
0.0
  0
SEQEND
  5
4F4
  8
SOILS
  0
POLYLINE
  5
100
  8
SOILS
 66
     1
 10
0.0
 20
0.0
 30
0.0
 40
1.0
 41
1.0
  0
VERTEX
  5
4F5
  8
SOILS
 10
807492.89215550176
 20
8990106.0611151345
 30
0.0
  0
VERTEX
  5
4F6
  8
SOILS
 10
807342.19250609202
 20
8990128.6621116549
 30
0.0
  0
VERTEX
  5
4F7
  8
SOILS
 10
807241.87152148644
 20
8990080.8048646431
 30
0.0
  0
VERTEX
  5
4F8
  8
SOILS
 10
807137.93542398047
 20
8990002.2466821931
 30
0.0
  0
VERTEX
  5
4F9
  8
SOILS
 10
807097.26472371107
 20
8989923.6885479223
 30
0.0
  0
VERTEX
  5
4FA
  8
SOILS
 10
807040.88676027185
 20
8989856.9055215754
 30
0.0
  0
VERTEX
  5
4FB
  8
SOILS
 10
807011.11782862025
 20
8989761.9606588259
 30
0.0
  0
VERTEX
  5
4FC
  8
SOILS
 10
806968.75431858376
 20
8989694.4697682839
 30
0.0
  0
VERTEX
  5
4FD
  8
SOILS
 10
806901.38902016648
 20
8989621.0148376375
 30
0.0
  0
VERTEX
  5
4FE
  8
SOILS
 10
806864.98812515358
 20
8989464.9681705926
 30
0.0
  0
VERTEX
  5
4FF
  8
SOILS
 10
806871.15179918346
 20
8989341.6614270527
 30
0.0
  0
VERTEX
  5
500
  8
SOILS
 10
806877.29941306566
 20
8989293.5487765521
 30
0.0
  0
VERTEX
  5
501
  8
SOILS
 10
806892.66853553196
 20
8989290.4777675793
 30
0.0
  0
VERTEX
  5
502
  8
SOILS
 10
806925.50959486095
 20
8989308.3638466131
 30
0.0
  0
SEQEND
  5
503
  8
SOILS
  0
POLYLINE
  5
101
  8
SOILS
 66
     1
 10
0.0
 20
0.0
 30
0.0
 40
1.0
 41
1.0
  0
VERTEX
  5
504
  8
SOILS
 10
807650.27575073775
 20
8990700.3716093786
 30
0.0
  0
VERTEX
  5
505
  8
SOILS
 10
807577.67516646744
 20
8990790.2498050183
 30
0.0
  0
VERTEX
  5
506
  8
SOILS
 10
807539.44148389797
 20
8990826.2016165406
 30
0.0
  0
VERTEX
  5
507
  8
SOILS
 10
807484.33999503299
 20
8990830.6955809351
 30
0.0
  0
VERTEX
  5
508
  8
SOILS
 10
807389.88017446361
 20
8990809.3492259663
 30
0.0
  0
VERTEX
  5
509
  8
SOILS
 10
807316.78631792823
 20
8990761.0389400925
 30
0.0
  0
VERTEX
  5
50A
  8
SOILS
 10
807277.42807398445
 20
8990707.1112228129
 30
0.0
  0
VERTEX
  5
50B
  8
SOILS
 10
807292.04684529128
 20
8990649.8130563255
 30
0.0
  0
VERTEX
  5
50C
  8
SOILS
 10
807292.53902990674
 20
8990612.2805920951
 30
0.0
  0
SEQEND
  5
50D
  8
SOILS
  0
POLYLINE
  5
102
  8
SOILS
 66
     1
 10
0.0
 20
0.0
 30
0.0
 40
1.0
 41
1.0
  0
VERTEX
  5
50E
  8
SOILS
 10
807265.55953713576
 20
8991683.5990869459
 30
0.0
  0
VERTEX
  5
50F
  8
SOILS
 10
807300.61804953741
 20
8991688.6028465368
 30
0.0
  0
VERTEX
  5
510
  8
SOILS
 10
807379.4995269198
 20
8991648.5726252552
 30
0.0
  0
VERTEX
  5
511
  8
SOILS
 10
807509.71669571265
 20
8991519.7253459878
 30
0.0
  0
VERTEX
  5
512
  8
SOILS
 10
807582.3377871376
 20
8991434.6610956509
 30
0.0
  0
VERTEX
  5
513
  8
SOILS
 10
807599.86695557775
 20
8991380.8704993557
 30
0.0
  0
VERTEX
  5
514
  8
SOILS
 10
807577.32939061173
 20
8991287.049633598
 30
0.0
  0
VERTEX
  5
515
  8
SOILS
 10
807531.00218348776
 20
8991239.5137488358
 30
0.0
  0
VERTEX
  5
516
  8
SOILS
 10
807441.44439387624
 20
8991202.4183309637
 30
0.0
  0
VERTEX
  5
517
  8
SOILS
 10
807357.37610313692
 20
8991120.0116067138
 30
0.0
  0
VERTEX
  5
518
  8
SOILS
 10
807351.03137946466
 20
8991050.2828400433
 30
0.0
  0
VERTEX
  5
519
  8
SOILS
 10
807366.89327640552
 20
8990944.1049453337
 30
0.0
  0
VERTEX
  5
51A
  8
SOILS
 10
807347.85901762859
 20
8990898.1473491173
 30
0.0
  0
VERTEX
  5
51B
  8
SOILS
 10
807325.65230925533
 20
8990872.7914339639
 30
0.0
  0
VERTEX
  5
51C
  8
SOILS
 10
807114.68866746803
 20
8990893.3931150232
 30
0.0
  0
VERTEX
  5
51D
  8
SOILS
 10
806929.10409589065
 20
8990942.5202006362
 30
0.0
  0
VERTEX
  5
51E
  8
SOILS
 10
806872.00114403921
 20
8990990.06254155
 30
0.0
  0
VERTEX
  5
51F
  8
SOILS
 10
806867.24251352448
 20
8991040.7743718587
 30
0.0
  0
VERTEX
  5
520
  8
SOILS
 10
806957.65552793629
 20
8991132.6895642933
 30
0.0
  0
VERTEX
  5
521
  8
SOILS
 10
807027.44801489287
 20
8991257.8843953628
 30
0.0
  0
VERTEX
  5
522
  8
SOILS
 10
807000.48276376515
 20
8991341.8758643121
 30
0.0
  0
VERTEX
  5
523
  8
SOILS
 10
806995.72413325077
 20
8991375.1555029508
 30
0.0
  0
VERTEX
  5
524
  8
SOILS
 10
807025.8618339746
 20
8991413.1893756818
 30
0.0
  0
VERTEX
  5
525
  8
SOILS
 10
807144.82628043182
 20
8991448.053759018
 30
0.0
  0
VERTEX
  5
526
  8
SOILS
 10
807213.03258647013
 20
8991473.4096741714
 30
0.0
  0
VERTEX
  5
527
  8
SOILS
 10
807224.13594065676
 20
8991517.7825256921
 30
0.0
  0
VERTEX
  5
528
  8
SOILS
 10
807208.34144367999
 20
8991615.2665356584
 30
0.0
  0
VERTEX
  5
529
  8
SOILS
 10
807224.01105765102
 20
8991667.0847771689
 30
0.0
  0
VERTEX
  5
52A
  8
SOILS
 10
807265.55953713576
 20
8991683.5990869459
 30
0.0
  0
SEQEND
  5
52B
  8
SOILS
  0
POLYLINE
  5
103
  8
SOILS
 66
     1
 10
0.0
 20
0.0
 30
0.0
 40
1.0
 41
1.0
  0
VERTEX
  5
52C
  8
SOILS
 10
806119.53055703058
 20
8992680.8096828219
 30
0.0
  0
VERTEX
  5
52D
  8
SOILS
 10
806143.54549505725
 20
8992633.8771855775
 30
0.0
  0
VERTEX
  5
52E
  8
SOILS
 10
806195.05293351074
 20
8992554.5423857197
 30
0.0
  0
VERTEX
  5
52F
  8
SOILS
 10
806213.29515495314
 20
8992485.9285099711
 30
0.0
  0
VERTEX
  5
530
  8
SOILS
 10
806205.21093299729
 20
8992382.6434054971
 30
0.0
  0
VERTEX
  5
531
  8
SOILS
 10
806144.0375674488
 20
8992245.4684595503
 30
0.0
  0
VERTEX
  5
532
  8
SOILS
 10
806084.92621954158
 20
8992113.8214742914
 30
0.0
  0
VERTEX
  5
533
  8
SOILS
 10
806064.4615545026
 20
8992049.7572111208
 30
0.0
  0
VERTEX
  5
534
  8
SOILS
 10
806090.38351035782
 20
8991961.1577351317
 30
0.0
  0
VERTEX
  5
535
  8
SOILS
 10
806145.43409820856
 20
8991862.1753194723
 30
0.0
  0
VERTEX
  5
536
  8
SOILS
 10
806192.87831931561
 20
8991813.5590408426
 30
0.0
  0
VERTEX
  5
537
  8
SOILS
 10
806212.34260390268
 20
8991754.0041115694
 30
0.0
  0
VERTEX
  5
538
  8
SOILS
 10
806212.34260390268
 20
8991682.2950885482
 30
0.0
  0
VERTEX
  5
539
  8
SOILS
 10
806183.23687736341
 20
8991613.3834106904
 30
0.0
  0
VERTEX
  5
53A
  8
SOILS
 10
806140.50512481667
 20
8991579.2292042021
 30
0.0
  0
VERTEX
  5
53B
  8
SOILS
 10
806130.73783449514
 20
8991534.0968392584
 30
0.0
  0
VERTEX
  5
53C
  8
SOILS
 10
806086.78515968798
 20
8991502.3821914159
 30
0.0
  0
VERTEX
  5
53D
  8
SOILS
 10
806029.51563865505
 20
8991500.0756584331
 30
0.0
  0
VERTEX
  5
53E
  8
SOILS
 10
805996.56697329658
 20
8991467.9226185177
 30
0.0
  0
VERTEX
  5
53F
  8
SOILS
 10
805991.96947082039
 20
8991422.7552747186
 30
0.0
  0
VERTEX
  5
540
  8
SOILS
 10
806009.59324493911
 20
8991389.0711147226
 30
0.0
  0
VERTEX
  5
541
  8
SOILS
 10
806077.20163957996
 20
8991325.3009919673
 30
0.0
  0
VERTEX
  5
542
  8
SOILS
 10
806099.52805309719
 20
8991294.2665528543
 30
0.0
  0
VERTEX
  5
543
  8
SOILS
 10
806095.6451833098
 20
8991240.9261046089
 30
0.0
  0
VERTEX
  5
544
  8
SOILS
 10
806052.559931995
 20
8991181.3068547063
 30
0.0
  0
VERTEX
  5
545
  8
SOILS
 10
806000.62668022874
 20
8991125.9619636294
 30
0.0
  0
VERTEX
  5
546
  8
SOILS
 10
806001.79257673735
 20
8991090.2623757031
 30
0.0
  0
VERTEX
  5
547
  8
SOILS
 10
806022.43521980545
 20
8991053.3566916436
 30
0.0
  0
VERTEX
  5
548
  8
SOILS
 10
806031.45511444344
 20
8991001.2205916457
 30
0.0
  0
SEQEND
  5
549
  8
SOILS
  0
POLYLINE
  5
104
  8
SOILS
 66
     1
 10
0.0
 20
0.0
 30
0.0
 40
1.0
 41
1.0
  0
VERTEX
  5
54A
  8
SOILS
 10
806540.79501578852
 20
8992847.8045431934
 30
0.0
  0
VERTEX
  5
54B
  8
SOILS
 10
806544.28610903234
 20
8992800.8586970326
 30
0.0
  0
VERTEX
  5
54C
  8
SOILS
 10
806522.77972840727
 20
8992751.916575389
 30
0.0
  0
VERTEX
  5
54D
  8
SOILS
 10
806500.07849035168
 20
8992736.3983440492
 30
0.0
  0
VERTEX
  5
54E
  8
SOILS
 10
806491.71483937965
 20
8992706.5555951782
 30
0.0
  0
VERTEX
  5
54F
  8
SOILS
 10
806418.83195877238
 20
8992680.2939877305
 30
0.0
  0
VERTEX
  5
550
  8
SOILS
 10
806371.03994332126
 20
8992691.0373638347
 30
0.0
  0
VERTEX
  5
551
  8
SOILS
 10
806324.44269754004
 20
8992665.96942202
 30
0.0
  0
VERTEX
  5
552
  8
SOILS
 10
806293.37789627281
 20
8992673.1317048762
 30
0.0
  0
VERTEX
  5
553
  8
SOILS
 10
806274.26105498802
 20
8992668.3568496387
 30
0.0
  0
VERTEX
  5
554
  8
SOILS
 10
806231.24820597796
 20
8992685.0687947888
 30
0.0
  0
VERTEX
  5
555
  8
SOILS
 10
806205.47259672265
 20
8992714.8782557119
 30
0.0
  0
SEQEND
  5
556
  8
SOILS
  0
POLYLINE
  5
105
  8
SOILS
 66
     1
 10
0.0
 20
0.0
 30
0.0
 40
1.0
 41
1.0
  0
VERTEX
  5
557
  8
SOILS
 10
808501.24795722752
 20
8990787.7960353065
 30
0.0
  0
VERTEX
  5
558
  8
SOILS
 10
808434.38302956952
 20
8990872.0288851876
 30
0.0
  0
VERTEX
  5
559
  8
SOILS
 10
808390.42903835699
 20
8990971.4129795749
 30
0.0
  0
VERTEX
  5
55A
  8
SOILS
 10
808323.34132598806
 20
8991129.7340915557
 30
0.0
  0
VERTEX
  5
55B
  8
SOILS
 10
808264.78778298933
 20
8991282.7793219108
 30
0.0
  0
VERTEX
  5
55C
  8
SOILS
 10
808179.43117002572
 20
8991376.3779321872
 30
0.0
  0
VERTEX
  5
55D
  8
SOILS
 10
808110.72936894151
 20
8991492.8562338036
 30
0.0
  0
VERTEX
  5
55E
  8
SOILS
 10
808019.12711376266
 20
8991544.8554885034
 30
0.0
  0
VERTEX
  5
55F
  8
SOILS
 10
807974.35914512351
 20
8991550.7824298143
 30
0.0
  0
VERTEX
  5
560
  8
SOILS
 10
807948.60893631133
 20
8991514.9488044437
 30
0.0
  0
VERTEX
  5
561
  8
SOILS
 10
807907.22465647745
 20
8991521.3804820254
 30
0.0
  0
VERTEX
  5
562
  8
SOILS
 10
807870.4386689635
 20
8991513.1112098079
 30
0.0
  0
VERTEX
  5
563
  8
SOILS
 10
807786.75046838424
 20
8991471.7647041697
 30
0.0
  0
VERTEX
  5
564
  8
SOILS
 10
807771.11648512282
 20
8991481.8716192022
 30
0.0
  0
VERTEX
  5
565
  8
SOILS
 10
807812.50067719619
 20
8991547.1071923636
 30
0.0
  0
VERTEX
  5
566
  8
SOILS
 10
807804.22382122965
 20
8991577.4279374685
 30
0.0
  0
VERTEX
  5
567
  8
SOILS
 10
807808.82211354887
 20
8991690.4416456781
 30
0.0
  0
VERTEX
  5
568
  8
SOILS
 10
807805.14354990178
 20
8991752.0019813888
 30
0.0
  0
VERTEX
  5
569
  8
SOILS
 10
807708.08102005476
 20
8991863.0573070794
 30
0.0
  0
VERTEX
  5
56A
  8
SOILS
 10
807596.61982190702
 20
8992024.2009143177
 30
0.0
  0
VERTEX
  5
56B
  8
SOILS
 10
807523.18659602257
 20
8992043.8525772616
 30
0.0
  0
VERTEX
  5
56C
  8
SOILS
 10
807460.24380590452
 20
8992153.9018512089
 30
0.0
  0
VERTEX
  5
56D
  8
SOILS
 10
807432.70635716827
 20
8992190.5849425234
 30
0.0
  0
VERTEX
  5
56E
  8
SOILS
 10
807383.00581696176
 20
8992135.7034490649
 30
0.0
  0
VERTEX
  5
56F
  8
SOILS
 10
807289.5669127705
 20
8992037.0905277207
 30
0.0
  0
VERTEX
  5
570
  8
SOILS
 10
807236.92534706218
 20
8992019.9976213574
 30
0.0
  0
VERTEX
  5
571
  8
SOILS
 10
807179.01956335048
 20
8992064.7021456975
 30
0.0
  0
VERTEX
  5
572
  8
SOILS
 10
807090.84347299661
 20
8992043.9045637492
 30
0.0
  0
VERTEX
  5
573
  8
SOILS
 10
806975.80595203233
 20
8991980.6083900854
 30
0.0
  0
VERTEX
  5
574
  8
SOILS
 10
806862.43561480695
 20
8992000.5966402367
 30
0.0
  0
VERTEX
  5
575
  8
SOILS
 10
806840.76187515736
 20
8992020.5849385727
 30
0.0
  0
VERTEX
  5
576
  8
SOILS
 10
806827.42414196359
 20
8992038.9075012114
 30
0.0
  0
VERTEX
  5
577
  8
SOILS
 10
806745.73082234315
 20
8992017.2535635456
 30
0.0
  0
VERTEX
  5
578
  8
SOILS
 10
806632.36048511835
 20
8992053.898688823
 30
0.0
  0
VERTEX
  5
579
  8
SOILS
 10
806577.34254412435
 20
8992097.2066123374
 30
0.0
  0
VERTEX
  5
57A
  8
SOILS
 10
806557.33598821401
 20
8992192.1508487444
 30
0.0
  0
VERTEX
  5
57B
  8
SOILS
 10
806634.0277566174
 20
8992308.7490228154
 30
0.0
  0
VERTEX
  5
57C
  8
SOILS
 10
806662.37031898357
 20
8992407.0246824268
 30
0.0
  0
VERTEX
  5
57D
  8
SOILS
 10
806812.41922503093
 20
8992440.3384326827
 30
0.0
  0
VERTEX
  5
57E
  8
SOILS
 10
806959.9728404925
 20
8992509.3109140117
 30
0.0
  0
VERTEX
  5
57F
  8
SOILS
 10
807046.56836659205
 20
8992595.8274133652
 30
0.0
  0
VERTEX
  5
580
  8
SOILS
 10
807080.36181326734
 20
8992646.4712131657
 30
0.0
  0
VERTEX
  5
581
  8
SOILS
 10
807236.65618600906
 20
8992749.8690112364
 30
0.0
  0
VERTEX
  5
582
  8
SOILS
 10
807213.12517667457
 20
8992734.301882945
 30
0.0
  0
VERTEX
  5
583
  8
SOILS
 10
807107.81896126561
 20
8992756.1994621214
 30
0.0
  0
VERTEX
  5
584
  8
SOILS
 10
807076.13764340326
 20
8992792.0721616745
 30
0.0
  0
VERTEX
  5
585
  8
SOILS
 10
806968.42118022125
 20
8992794.1823601518
 30
0.0
  0
VERTEX
  5
586
  8
SOILS
 10
806837.78244768875
 20
8992965.5343295336
 30
0.0
  0
SEQEND
  5
587
  8
SOILS
  0
POLYLINE
  5
106
  8
SOILS
 66
     1
 10
0.0
 20
0.0
 30
0.0
 40
1.0
 41
1.0
1001
ACAD
1000
ASC_BOUNDS
1002
{
1070
    19
1005
0
1002
}
  0
VERTEX
  5
588
  8
SOILS
 10
799795.77333519969
 20
8985814.0944358818
 30
0.0
  0
VERTEX
  5
589
  8
SOILS
 10
800078.81470148568
 20
8985507.5658711586
 30
0.0
  0
VERTEX
  5
58A
  8
SOILS
 10
800078.81470148568
 20
8985507.5658711586
 30
0.0
  0
SEQEND
  5
58B
  8
SOILS
  0
POLYLINE
  5
107
  8
SOILS
 66
     1
 10
0.0
 20
0.0
 30
0.0
 40
1.0
 41
1.0
  0
VERTEX
  5
58C
  8
SOILS
 10
813136.99076367344
 20
8985560.6665418241
 30
0.0
  0
VERTEX
  5
58D
  8
SOILS
 10
812816.09701061528
 20
8986735.7617728468
 30
0.0
  0
VERTEX
  5
58E
  8
SOILS
 10
812460.20793807763
 20
8987091.3707222473
 30
0.0
  0
VERTEX
  5
58F
  8
SOILS
 10
812403.6286576346
 20
8987128.5313249789
 30
0.0
  0
VERTEX
  5
590
  8
SOILS
 10
812391.62569710531
 20
8987305.5370016769
 30
0.0
  0
VERTEX
  5
591
  8
SOILS
 10
812393.64436269412
 20
8987360.2489301972
 30
0.0
  0
VERTEX
  5
592
  8
SOILS
 10
812397.28910372965
 20
8987459.0324098039
 30
0.0
  0
VERTEX
  5
593
  8
SOILS
 10
812360.08395708259
 20
8987516.0645691585
 30
0.0
  0
SEQEND
  5
594
  8
SOILS
  0
POLYLINE
  5
108
  8
SOILS
 66
     1
 10
0.0
 20
0.0
 30
0.0
 40
1.0
 41
1.0
  0
VERTEX
  5
595
  8
SOILS
 10
813023.16204627301
 20
8985460.0577719957
 30
0.0
  0
VERTEX
  5
596
  8
SOILS
 10
813136.99076367344
 20
8985560.6665418241
 30
0.0
  0
SEQEND
  5
597
  8
SOILS
  0
POLYLINE
  5
109
  8
SOILS
 66
     1
 10
0.0
 20
0.0
 30
0.0
 40
1.0
 41
1.0
  0
VERTEX
  5
598
  8
SOILS
 10
812880.32727364462
 20
8985333.8116796985
 30
0.0
  0
VERTEX
  5
599
  8
SOILS
 10
813023.16204627301
 20
8985460.0577719957
 30
0.0
  0
SEQEND
  5
59A
  8
SOILS
  0
POLYLINE
  5
10A
  8
SOILS
 66
     1
 10
0.0
 20
0.0
 30
0.0
 40
1.0
 41
1.0
  0
VERTEX
  5
59B
  8
SOILS
 10
812069.57386062702
 20
8984760.7454417776
 30
0.0
  0
VERTEX
  5
59C
  8
SOILS
 10
812352.26244951796
 20
8984867.0757490918
 30
0.0
  0
VERTEX
  5
59D
  8
SOILS
 10
812880.32727364462
 20
8985333.8116796985
 30
0.0
  0
SEQEND
  5
59E
  8
SOILS
  0
POLYLINE
  5
10B
  8
SOILS
 66
     1
 10
0.0
 20
0.0
 30
0.0
 40
1.0
 41
1.0
  0
VERTEX
  5
59F
  8
SOILS
 10
812038.14684647077
 20
8984748.9245045166
 30
0.0
  0
VERTEX
  5
5A0
  8
SOILS
 10
812069.57386062702
 20
8984760.7454417776
 30
0.0
  0
SEQEND
  5
5A1
  8
SOILS
  0
POLYLINE
  5
10C
  8
SOILS
 66
     1
 10
0.0
 20
0.0
 30
0.0
 40
1.0
 41
1.0
  0
VERTEX
  5
5A2
  8
SOILS
 10
811438.36272247019
 20
8984523.3220828623
 30
0.0
  0
VERTEX
  5
5A3
  8
SOILS
 10
812038.14684647077
 20
8984748.9245045166
 30
0.0
  0
SEQEND
  5
5A4
  8
SOILS
  0
POLYLINE
  5
10D
  8
SOILS
 66
     1
 10
0.0
 20
0.0
 30
0.0
 40
1.0
 41
1.0
  0
VERTEX
  5
5A5
  8
SOILS
 10
811284.26954924047
 20
8984465.3615739923
 30
0.0
  0
VERTEX
  5
5A6
  8
SOILS
 10
811438.36272247019
 20
8984523.3220828623
 30
0.0
  0
SEQEND
  5
5A7
  8
SOILS
  0
POLYLINE
  5
10E
  8
SOILS
 66
     1
 10
0.0
 20
0.0
 30
0.0
 40
1.0
 41
1.0
  0
VERTEX
  5
5A8
  8
SOILS
 10
810039.62028189166
 20
8983997.1999845356
 30
0.0
  0
VERTEX
  5
5A9
  8
SOILS
 10
811284.26954924047
 20
8984465.3615739923
 30
0.0
  0
SEQEND
  5
5AA
  8
SOILS
  0
POLYLINE
  5
10F
  8
SOILS
 66
     1
 10
0.0
 20
0.0
 30
0.0
 40
1.0
 41
1.0
  0
VERTEX
  5
5AB
  8
SOILS
 10
809668.50924035942
 20
8983857.6105117183
 30
0.0
  0
VERTEX
  5
5AC
  8
SOILS
 10
810039.62028189166
 20
8983997.1999845356
 30
0.0
  0
VERTEX
  5
5AD
  8
SOILS
 10
810039.62028189166
 20
8983997.1999845356
 30
0.0
  0
SEQEND
  5
5AE
  8
SOILS
  0
POLYLINE
  5
110
  8
SOILS
 66
     1
 10
0.0
 20
0.0
 30
0.0
 40
1.0
 41
1.0
  0
VERTEX
  5
5AF
  8
SOILS
 10
808866.20655238535
 20
8983555.8328852989
 30
0.0
  0
VERTEX
  5
5B0
  8
SOILS
 10
809668.50924035942
 20
8983857.6105117183
 30
0.0
  0
SEQEND
  5
5B1
  8
SOILS
  0
POLYLINE
  5
111
  8
SOILS
 66
     1
 10
0.0
 20
0.0
 30
0.0
 40
1.0
 41
1.0
  0
VERTEX
  5
5B2
  8
SOILS
 10
808471.2432559639
 20
8983407.2716403902
 30
0.0
  0
VERTEX
  5
5B3
  8
SOILS
 10
808866.20655238535
 20
8983555.8328852989
 30
0.0
  0
SEQEND
  5
5B4
  8
SOILS
  0
POLYLINE
  5
112
  8
SOILS
 66
     1
 10
0.0
 20
0.0
 30
0.0
 40
1.0
 41
1.0
  0
VERTEX
  5
5B5
  8
SOILS
 10
808013.62103960256
 20
8983235.1419089064
 30
0.0
  0
VERTEX
  5
5B6
  8
SOILS
 10
808471.2432559639
 20
8983407.2716403902
 30
0.0
  0
SEQEND
  5
5B7
  8
SOILS
  0
POLYLINE
  5
113
  8
SOILS
 66
     1
 10
0.0
 20
0.0
 30
0.0
 40
1.0
 41
1.0
  0
VERTEX
  5
5B8
  8
SOILS
 10
806318.38393585628
 20
8982804.5530972648
 30
0.0
  0
VERTEX
  5
5B9
  8
SOILS
 10
806851.5714205883
 20
8982798.0492990147
 30
0.0
  0
VERTEX
  5
5BA
  8
SOILS
 10
808013.62103960256
 20
8983235.1419089064
 30
0.0
  0
SEQEND
  5
5BB
  8
SOILS
  0
POLYLINE
  5
114
  8
SOILS
 66
     1
 10
0.0
 20
0.0
 30
0.0
 40
1.0
 41
1.0
  0
VERTEX
  5
5BC
  8
SOILS
 10
805505.06140453951
 20
8982891.6340000127
 30
0.0
  0
VERTEX
  5
5BD
  8
SOILS
 10
805676.72577364405
 20
8982812.3800162226
 30
0.0
  0
VERTEX
  5
5BE
  8
SOILS
 10
806225.50794210425
 20
8982805.6859946847
 30
0.0
  0
SEQEND
  5
5BF
  8
SOILS
  0
POLYLINE
  5
115
  8
SOILS
 66
     1
 10
0.0
 20
0.0
 30
0.0
 40
1.0
 41
1.0
  0
VERTEX
  5
5C0
  8
SOILS
 10
802454.98798144271
 20
8983616.1120602153
 30
0.0
  0
VERTEX
  5
5C1
  8
SOILS
 10
802750.73006831668
 20
8983580.3097862154
 30
0.0
  0
VERTEX
  5
5C2
  8
SOILS
 10
803035.14499172394
 20
8983475.3571257759
 30
0.0
  0
VERTEX
  5
5C3
  8
SOILS
 10
803619.46770548634
 20
8983608.0678851996
 30
0.0
  0
VERTEX
  5
5C4
  8
SOILS
 10
803619.46770548634
 20
8983608.0678851996
 30
0.0
  0
VERTEX
  5
5C5
  8
SOILS
 10
803619.46770548634
 20
8983608.0678851996
 30
0.0
  0
VERTEX
  5
5C6
  8
SOILS
 10
803865.18775321939
 20
8983563.5541076772
 30
0.0
  0
VERTEX
  5
5C7
  8
SOILS
 10
803993.87546848971
 20
8983438.6160295084
 30
0.0
  0
VERTEX
  5
5C8
  8
SOILS
 10
803993.87546848971
 20
8983438.6160295084
 30
0.0
  0
VERTEX
  5
5C9
  8
SOILS
 10
804746.24312323728
 20
8983375.8201357257
 30
0.0
  0
VERTEX
  5
5CA
  8
SOILS
 10
804963.16028259404
 20
8983119.2747016829
 30
0.0
  0
VERTEX
  5
5CB
  8
SOILS
 10
805291.51047117752
 20
8982990.2261673864
 30
0.0
  0
VERTEX
  5
5CC
  8
SOILS
 10
805419.46064168192
 20
8982931.1541491672
 30
0.0
  0
SEQEND
  5
5CD
  8
SOILS
  0
POLYLINE
  5
116
  8
SOILS
 66
     1
 10
0.0
 20
0.0
 30
0.0
 40
1.0
 41
1.0
  0
VERTEX
  5
5CE
  8
SOILS
 10
802229.27129028901
 20
8983643.4371220917
 30
0.0
  0
VERTEX
  5
5CF
  8
SOILS
 10
802454.98798144271
 20
8983616.1120602153
 30
0.0
  0
SEQEND
  5
5D0
  8
SOILS
  0
POLYLINE
  5
117
  8
SOILS
 66
     1
 10
0.0
 20
0.0
 30
0.0
 40
1.0
 41
1.0
1001
ACAD
1000
ASC_BOUNDS
1002
{
1070
    19
1005
0
1002
}
  0
VERTEX
  5
5D1
  8
SOILS
 10
800078.81470148568
 20
8985507.5658711586
 30
0.0
  0
VERTEX
  5
5D2
  8
SOILS
 10
800252.99198261183
 20
8985544.1018203869
 30
0.0
  0
VERTEX
  5
5D3
  8
SOILS
 10
800752.34668254689
 20
8985347.3613591436
 30
0.0
  0
VERTEX
  5
5D4
  8
SOILS
 10
800996.78058600205
 20
8985090.8746875729
 30
0.0
  0
VERTEX
  5
5D5
  8
SOILS
 10
801082.16998326231
 20
8984698.0136332866
 30
0.0
  0
VERTEX
  5
5D6
  8
SOILS
 10
801190.29873849405
 20
8984215.562074814
 30
0.0
  0
VERTEX
  5
5D7
  8
SOILS
 10
801436.74739872583
 20
8983739.3793595321
 30
0.0
  0
VERTEX
  5
5D8
  8
SOILS
 10
802229.27129028901
 20
8983643.4371220917
 30
0.0
  0
SEQEND
  5
5D9
  8
SOILS
  0
POLYLINE
  5
118
  8
SOILS
 66
     1
 10
0.0
 20
0.0
 30
0.0
 40
1.0
 41
1.0
  0
VERTEX
  5
5DA
  8
SOILS
 10
806119.53055703058
 20
8992680.8096828219
 30
0.0
  0
VERTEX
  5
5DB
  8
SOILS
 10
806119.53055703058
 20
8992680.8096828219
 30
0.0
  0
VERTEX
  5
5DC
  8
SOILS
 10
805831.21750537516
 20
8992742.2713671122
 30
0.0
  0
VERTEX
  5
5DD
  8
SOILS
 10
805474.54921093525
 20
8992275.0121372957
 30
0.0
  0
VERTEX
  5
5DE
  8
SOILS
 10
805440.38220319699
 20
8991994.6907197963
 30
0.0
  0
VERTEX
  5
5DF
  8
SOILS
 10
805440.38220319699
 20
8991994.6907197963
 30
0.0
  0
VERTEX
  5
5E0
  8
SOILS
 10
805724.31446070969
 20
8991597.1941454262
 30
0.0
  0
VERTEX
  5
5E1
  8
SOILS
 10
805707.44921076659
 20
8991328.9533766229
 30
0.0
  0
VERTEX
  5
5E2
  8
SOILS
 10
805765.86492954858
 20
8991236.6197118387
 30
0.0
  0
VERTEX
  5
5E3
  8
SOILS
 10
805719.41711336921
 20
8991109.1098385584
 30
0.0
  0
VERTEX
  5
5E4
  8
SOILS
 10
805553.59147458628
 20
8990777.8312833067
 30
0.0
  0
VERTEX
  5
5E5
  8
SOILS
 10
805224.53922652185
 20
8990632.4868468121
 30
0.0
  0
VERTEX
  5
5E6
  8
SOILS
 10
804979.50498444459
 20
8990528.9408824258
 30
0.0
  0
VERTEX
  5
5E7
  8
SOILS
 10
804869.64996676974
 20
8990129.5470051654
 30
0.0
  0
VERTEX
  5
5E8
  8
SOILS
 10
804649.83972764143
 20
8990003.4762401134
 30
0.0
  0
VERTEX
  5
5E9
  8
SOILS
 10
804663.8680249349
 20
8989513.0425790437
 30
0.0
  0
VERTEX
  5
5EA
  8
SOILS
 10
804494.4265588437
 20
8989047.497305572
 30
0.0
  0
VERTEX
  5
5EB
  8
SOILS
 10
803655.38656002085
 20
8988561.2474562731
 30
0.0
  0
VERTEX
  5
5EC
  8
SOILS
 10
803492.96660394815
 20
8988520.3852916677
 30
0.0
  0
VERTEX
  5
5ED
  8
SOILS
 10
803535.22849628027
 20
8988345.2582403962
 30
0.0
  0
VERTEX
  5
5EE
  8
SOILS
 10
803390.42853337806
 20
8988146.6202473193
 30
0.0
  0
VERTEX
  5
5EF
  8
SOILS
 10
803441.05867020157
 20
8987858.9985083174
 30
0.0
  0
VERTEX
  5
5F0
  8
SOILS
 10
803475.35603118408
 20
8987750.8676592056
 30
0.0
  0
VERTEX
  5
5F1
  8
SOILS
 10
803367.44839820371
 20
8987620.8005880937
 30
0.0
  0
VERTEX
  5
5F2
  8
SOILS
 10
803353.83264716971
 20
8987450.8038823009
 30
0.0
  0
VERTEX
  5
5F3
  8
SOILS
 10
803274.25788249774
 20
8987273.3187387735
 30
0.0
  0
VERTEX
  5
5F4
  8
SOILS
 10
803148.47428666265
 20
8987151.3927122634
 30
0.0
  0
VERTEX
  5
5F5
  8
SOILS
 10
802572.67084397457
 20
8987140.7117135767
 30
0.0
  0
VERTEX
  5
5F6
  8
SOILS
 10
802251.77361331577
 20
8987108.7277786471
 30
0.0
  0
VERTEX
  5
5F7
  8
SOILS
 10
802240.11981385702
 20
8987075.6392496638
 30
0.0
  0
VERTEX
  5
5F8
  8
SOILS
 10
802241.26450004941
 20
8987033.331669692
 30
0.0
  0
VERTEX
  5
5F9
  8
SOILS
 10
802206.31855991634
 20
8986986.7545716558
 30
0.0
  0
SEQEND
  5
5FA
  8
SOILS
  0
POLYLINE
  5
119
  8
SOILS
 66
     1
 10
0.0
 20
0.0
 30
0.0
 40
1.0
 41
1.0
  0
VERTEX
  5
5FB
  8
SOILS
 10
806205.47259672324
 20
8992714.8782557119
 30
0.0
  0
VERTEX
  5
5FC
  8
SOILS
 10
806119.53055703058
 20
8992680.8096828219
 30
0.0
  0
SEQEND
  5
5FD
  8
SOILS
  0
POLYLINE
  5
11A
  8
SOILS
 66
     1
 10
0.0
 20
0.0
 30
0.0
 40
1.0
 41
1.0
  0
VERTEX
  5
5FE
  8
SOILS
 10
806540.79501578852
 20
8992847.8045431934
 30
0.0
  0
VERTEX
  5
5FF
  8
SOILS
 10
806205.47259672324
 20
8992714.8782557119
 30
0.0
  0
SEQEND
  5
600
  8
SOILS
  0
POLYLINE
  5
11B
  8
SOILS
 66
     1
 10
0.0
 20
0.0
 30
0.0
 40
1.0
 41
1.0
  0
VERTEX
  5
601
  8
SOILS
 10
806837.78244768875
 20
8992965.5343295336
 30
0.0
  0
VERTEX
  5
602
  8
SOILS
 10
806540.79501578852
 20
8992847.8045431934
 30
0.0
  0
SEQEND
  5
603
  8
SOILS
  0
POLYLINE
  5
11C
  8
SOILS
 66
     1
 10
0.0
 20
0.0
 30
0.0
 40
1.0
 41
1.0
1001
ACAD
1000
ASC_BOUNDS
1002
{
1070
    19
1005
0
1002
}
  0
VERTEX
  5
604
  8
SOILS
 10
809547.00630394742
 20
8993115.452927582
 30
0.0
  0
VERTEX
  5
605
  8
SOILS
 10
809248.89862310374
 20
8993237.5179573018
 30
0.0
  0
VERTEX
  5
606
  8
SOILS
 10
809178.92408748996
 20
8993172.5444169119
 30
0.0
  0
VERTEX
  5
607
  8
SOILS
 10
808932.74208057439
 20
8993172.4967651237
 30
0.0
  0
VERTEX
  5
608
  8
SOILS
 10
808289.2711935651
 20
8993270.0494193062
 30
0.0
  0
VERTEX
  5
609
  8
SOILS
 10
808013.41164772864
 20
8993265.3780316394
 30
0.0
  0
VERTEX
  5
60A
  8
SOILS
 10
807367.3907211601
 20
8993022.4475755561
 30
0.0
  0
VERTEX
  5
60B
  8
SOILS
 10
807367.3907211601
 20
8993022.4475755561
 30
0.0
  0
VERTEX
  5
60C
  8
SOILS
 10
807367.3907211601
 20
8993022.4475755561
 30
0.0
  0
VERTEX
  5
60D
  8
SOILS
 10
807367.3907211601
 20
8993022.4475755561
 30
0.0
  0
VERTEX
  5
60E
  8
SOILS
 10
807367.3907211601
 20
8993022.4475755561
 30
0.0
  0
VERTEX
  5
60F
  8
SOILS
 10
807367.3907211601
 20
8993022.4475755561
 30
0.0
  0
VERTEX
  5
610
  8
SOILS
 10
807367.3907211601
 20
8993022.4475755561
 30
0.0
  0
VERTEX
  5
611
  8
SOILS
 10
807367.3907211601
 20
8993022.4475755561
 30
0.0
  0
VERTEX
  5
612
  8
SOILS
 10
807367.3907211601
 20
8993022.4475755561
 30
0.0
  0
VERTEX
  5
613
  8
SOILS
 10
807367.3907211601
 20
8993022.4475755561
 30
0.0
  0
VERTEX
  5
614
  8
SOILS
 10
806992.02167805005
 20
8993026.6768213846
 30
0.0
  0
VERTEX
  5
615
  8
SOILS
 10
806837.78244768875
 20
8992965.5343295336
 30
0.0
  0
SEQEND
  5
616
  8
SOILS
  0
POLYLINE
  5
11D
  8
SOILS
 66
     1
 10
0.0
 20
0.0
 30
0.0
 40
1.0
 41
1.0
  0
VERTEX
  5
617
  8
SOILS
 10
806925.50959486095
 20
8989308.3638466131
 30
0.0
  0
VERTEX
  5
618
  8
SOILS
 10
807028.84329892125
 20
8988988.9806005582
 30
0.0
  0
VERTEX
  5
619
  8
SOILS
 10
807047.95333382592
 20
8988821.3511472438
 30
0.0
  0
VERTEX
  5
61A
  8
SOILS
 10
806761.56456263131
 20
8988520.110224383
 30
0.0
  0
VERTEX
  5
61B
  8
SOILS
 10
806526.02084567875
 20
8988422.9698451832
 30
0.0
  0
SEQEND
  5
61C
  8
SOILS
  0
POLYLINE
  5
11E
  8
SOILS
 66
     1
 10
0.0
 20
0.0
 30
0.0
 40
1.0
 41
1.0
  0
VERTEX
  5
61D
  8
SOILS
 10
807524.29463639762
 20
8990063.3781242538
 30
0.0
  0
VERTEX
  5
61E
  8
SOILS
 10
807441.7729544387
 20
8989986.9304039124
 30
0.0
  0
VERTEX
  5
61F
  8
SOILS
 10
807276.80147831747
 20
8989861.5737294778
 30
0.0
  0
VERTEX
  5
620
  8
SOILS
 10
807104.85945661762
 20
8989736.2170550376
 30
0.0
  0
VERTEX
  5
621
  8
SOILS
 10
807039.80035793607
 20
8989548.1820433848
 30
0.0
  0
VERTEX
  5
622
  8
SOILS
 10
806925.50959486095
 20
8989308.3638466131
 30
0.0
  0
SEQEND
  5
623
  8
SOILS
  0
POLYLINE
  5
11F
  8
SOILS
 66
     1
 10
0.0
 20
0.0
 30
0.0
 40
1.0
 41
1.0
  0
VERTEX
  5
624
  8
SOILS
 10
806495.77132385108
 20
8989445.758379586
 30
0.0
  0
VERTEX
  5
625
  8
SOILS
 10
806591.77844034578
 20
8989316.4126914535
 30
0.0
  0
VERTEX
  5
626
  8
SOILS
 10
806488.76735916885
 20
8988905.5378293544
 30
0.0
  0
VERTEX
  5
627
  8
SOILS
 10
806065.79645660659
 20
8988521.1302477606
 30
0.0
  0
SEQEND
  5
628
  8
SOILS
  0
POLYLINE
  5
120
  8
SOILS
 66
     1
 10
0.0
 20
0.0
 30
0.0
 40
1.0
 41
1.0
  0
VERTEX
  5
629
  8
SOILS
 10
807376.24017682194
 20
8990341.8982839994
 30
0.0
  0
VERTEX
  5
62A
  8
SOILS
 10
807268.05467066623
 20
8990376.4097754136
 30
0.0
  0
VERTEX
  5
62B
  8
SOILS
 10
807130.86300790356
 20
8990401.8333931193
 30
0.0
  0
VERTEX
  5
62C
  8
SOILS
 10
806935.03302942449
 20
8990501.3170488309
 30
0.0
  0
VERTEX
  5
62D
  8
SOILS
 10
806700.50372915843
 20
8990579.1325289384
 30
0.0
  0
VERTEX
  5
62E
  8
SOILS
 10
806431.39465427957
 20
8990642.1474128831
 30
0.0
  0
VERTEX
  5
62F
  8
SOILS
 10
806296.84007093485
 20
8990696.7602719776
 30
0.0
  0
VERTEX
  5
630
  8
SOILS
 10
806113.18933582492
 20
8990675.3594385684
 30
0.0
  0
VERTEX
  5
631
  8
SOILS
 10
805985.49595148698
 20
8990642.0785107743
 30
0.0
  0
VERTEX
  5
632
  8
SOILS
 10
805933.0829537051
 20
8990586.5919003692
 30
0.0
  0
VERTEX
  5
633
  8
SOILS
 10
805907.45215395745
 20
8990522.0166634228
 30
0.0
  0
VERTEX
  5
634
  8
SOILS
 10
805905.76702515245
 20
8990496.5472840574
 30
0.0
  0
SEQEND
  5
635
  8
SOILS
  0
POLYLINE
  5
121
  8
SOILS
 66
     1
 10
0.0
 20
0.0
 30
0.0
 40
1.0
 41
1.0
  0
VERTEX
  5
636
  8
SOILS
 10
807763.22626086732
 20
8990458.9827772155
 30
0.0
  0
VERTEX
  5
637
  8
SOILS
 10
807843.65897342935
 20
8990463.8445845414
 30
0.0
  0
VERTEX
  5
638
  8
SOILS
 10
807919.65401465842
 20
8990486.9106110334
 30
0.0
  0
VERTEX
  5
639
  8
SOILS
 10
808049.01954770798
 20
8990557.8708606474
 30
0.0
  0
VERTEX
  5
63A
  8
SOILS
 10
808117.00235888665
 20
8990555.0134141222
 30
0.0
  0
VERTEX
  5
63B
  8
SOILS
 10
808196.54487467115
 20
8990554.2492912598
 30
0.0
  0
VERTEX
  5
63C
  8
SOILS
 10
808247.78866288613
 20
8990570.2960730232
 30
0.0
  0
VERTEX
  5
63D
  8
SOILS
 10
808321.63937285205
 20
8990605.761101868
 30
0.0
  0
SEQEND
  5
63E
  8
SOILS
  0
POLYLINE
  5
122
  8
SOILS
 66
     1
 10
0.0
 20
0.0
 30
0.0
 40
1.0
 41
1.0
  0
VERTEX
  5
63F
  8
SOILS
 10
808321.63937285205
 20
8990605.761101868
 30
0.0
  0
VERTEX
  5
640
  8
SOILS
 10
808335.08982750191
 20
8990498.0705851391
 30
0.0
  0
VERTEX
  5
641
  8
SOILS
 10
808395.0605118142
 20
8990362.8180828802
 30
0.0
  0
SEQEND
  5
642
  8
SOILS
  0
POLYLINE
  5
123
  8
SOILS
 66
     1
 10
0.0
 20
0.0
 30
0.0
 40
1.0
 41
1.0
  0
VERTEX
  5
643
  8
SOILS
 10
808415.50794215838
 20
8990791.1553028896
 30
0.0
  0
VERTEX
  5
644
  8
SOILS
 10
808344.95002380025
 20
8990687.2739083972
 30
0.0
  0
VERTEX
  5
645
  8
SOILS
 10
808321.63937285205
 20
8990605.761101868
 30
0.0
  0
SEQEND
  5
646
  8
SOILS
  0
POLYLINE
  5
124
  8
SOILS
 66
     1
 10
0.0
 20
0.0
 30
0.0
 40
1.0
 41
1.0
  0
VERTEX
  5
647
  8
SOILS
 10
806526.02084567875
 20
8988422.9698451832
 30
0.0
  0
VERTEX
  5
648
  8
SOILS
 10
806554.09911434341
 20
8988271.855698945
 30
0.0
  0
SEQEND
  5
649
  8
SOILS
  0
POLYLINE
  5
125
  8
SOILS
 66
     1
 10
0.0
 20
0.0
 30
0.0
 40
1.0
 41
1.0
  0
VERTEX
  5
64A
  8
SOILS
 10
806065.79645660659
 20
8988521.1302477606
 30
0.0
  0
VERTEX
  5
64B
  8
SOILS
 10
806156.28997189761
 20
8988464.3005250879
 30
0.0
  0
VERTEX
  5
64C
  8
SOILS
 10
806254.54011618393
 20
8988469.4668726772
 30
0.0
  0
VERTEX
  5
64D
  8
SOILS
 10
806363.13237125752
 20
8988497.8817592151
 30
0.0
  0
VERTEX
  5
64E
  8
SOILS
 10
806474.31019993313
 20
8988459.1341774985
 30
0.0
  0
VERTEX
  5
64F
  8
SOILS
 10
806526.02084567875
 20
8988422.9698451832
 30
0.0
  0
SEQEND
  5
650
  8
SOILS
  0
POLYLINE
  5
126
  8
SOILS
 66
     1
 10
0.0
 20
0.0
 30
0.0
 40
1.0
 41
1.0
  0
VERTEX
  5
651
  8
SOILS
 10
806495.77132385108
 20
8989445.758379586
 30
0.0
  0
VERTEX
  5
652
  8
SOILS
 10
806434.29210891004
 20
8989460.0283740722
 30
0.0
  0
VERTEX
  5
653
  8
SOILS
 10
806362.2559460887
 20
8989496.6340427883
 30
0.0
  0
VERTEX
  5
654
  8
SOILS
 10
806269.72671162011
 20
8989574.808751367
 30
0.0
  0
VERTEX
  5
655
  8
SOILS
 10
806250.88531489321
 20
8989597.2510298043
 30
0.0
  0
VERTEX
  5
656
  8
SOILS
 10
806217.35383512441
 20
8989653.0857798308
 30
0.0
  0
VERTEX
  5
657
  8
SOILS
 10
806184.94015091704
 20
8989653.0857798308
 30
0.0
  0
VERTEX
  5
658
  8
SOILS
 10
806133.52522751282
 20
8989620.7015875168
 30
0.0
  0
VERTEX
  5
659
  8
SOILS
 10
806102.22915524559
 20
8989624.0516815912
 30
0.0
  0
VERTEX
  5
65A
  8
SOILS
 10
806013.80845066474
 20
8989661.3958175909
 30
0.0
  0
VERTEX
  5
65B
  8
SOILS
 10
805963.97680319136
 20
8989660.4000888877
 30
0.0
  0
VERTEX
  5
65C
  8
SOILS
 10
805916.13845834171
 20
8989651.4385809377
 30
0.0
  0
VERTEX
  5
65D
  8
SOILS
 10
805881.25625920494
 20
8989675.3359186668
 30
0.0
  0
VERTEX
  5
65E
  8
SOILS
 10
805808.50204471278
 20
8989764.9510485586
 30
0.0
  0
VERTEX
  5
65F
  8
SOILS
 10
805737.29263745865
 20
8989897.4960223455
 30
0.0
  0
VERTEX
  5
660
  8
SOILS
 10
805684.26450782735
 20
8989947.9528796878
 30
0.0
  0
VERTEX
  5
661
  8
SOILS
 10
805624.92356464243
 20
8989983.2726445366
 30
0.0
  0
VERTEX
  5
662
  8
SOILS
 10
805593.3593132511
 20
8989983.2726445366
 30
0.0
  0
VERTEX
  5
663
  8
SOILS
 10
805532.75578899309
 20
8989883.6204382405
 30
0.0
  0
VERTEX
  5
664
  8
SOILS
 10
805497.71650170814
 20
8989765.1712631211
 30
0.0
  0
VERTEX
  5
665
  8
SOILS
 10
805485.71371855016
 20
8989681.2286870144
 30
0.0
  0
VERTEX
  5
666
  8
SOILS
 10
805418.69831696746
 20
8989595.2874457408
 30
0.0
  0
VERTEX
  5
667
  8
SOILS
 10
805398.92072629055
 20
8989552.2171766274
 30
0.0
  0
VERTEX
  5
668
  8
SOILS
 10
805418.05922251928
 20
8989519.5988582782
 30
0.0
  0
VERTEX
  5
669
  8
SOILS
 10
805482.22977701633
 20
8989508.3511310108
 30
0.0
  0
VERTEX
  5
66A
  8
SOILS
 10
805568.91617702576
 20
8989438.6153933257
 30
0.0
  0
VERTEX
  5
66B
  8
SOILS
 10
805649.46558101743
 20
8989257.678659685
 30
0.0
  0
VERTEX
  5
66C
  8
SOILS
 10
805668.53852438927
 20
8989174.4360423014
 30
0.0
  0
VERTEX
  5
66D
  8
SOILS
 10
805656.49240657024
 20
8989128.3015699368
 30
0.0
  0
VERTEX
  5
66E
  8
SOILS
 10
805646.45400565711
 20
8989105.2343337536
 30
0.0
  0
VERTEX
  5
66F
  8
SOILS
 10
805662.60736801405
 20
8989060.8942396194
 30
0.0
  0
VERTEX
  5
670
  8
SOILS
 10
805698.41116319562
 20
8989026.911740182
 30
0.0
  0
VERTEX
  5
671
  8
SOILS
 10
805718.99824902415
 20
8989005.4491620138
 30
0.0
  0
VERTEX
  5
672
  8
SOILS
 10
805738.69036391692
 20
8988990.2464436721
 30
0.0
  0
VERTEX
  5
673
  8
SOILS
 10
805736.90014661453
 20
8988974.1494596452
 30
0.0
  0
VERTEX
  5
674
  8
SOILS
 10
805719.8934035803
 20
8988961.6296391822
 30
0.0
  0
VERTEX
  5
675
  8
SOILS
 10
805710.94240887964
 20
8988950.8982996959
 30
0.0
  0
VERTEX
  5
676
  8
SOILS
 10
805719.8934035803
 20
8988932.1185185984
 30
0.0
  0
VERTEX
  5
677
  8
SOILS
 10
805762.85779253882
 20
8988925.85855796
 30
0.0
  0
VERTEX
  5
678
  8
SOILS
 10
805872.05921176425
 20
8988903.5016636979
 30
0.0
  0
VERTEX
  5
679
  8
SOILS
 10
805892.17494133697
 20
8988874.417464003
 30
0.0
  0
VERTEX
  5
67A
  8
SOILS
 10
805886.50526190281
 20
8988823.4368095119
 30
0.0
  0
VERTEX
  5
67B
  8
SOILS
 10
805912.58584238612
 20
8988774.7219607718
 30
0.0
  0
VERTEX
  5
67C
  8
SOILS
 10
805929.59497249918
 20
8988726.0071120262
 30
0.0
  0
VERTEX
  5
67D
  8
SOILS
 10
805938.66642286954
 20
8988706.7477883864
 30
0.0
  0
VERTEX
  5
67E
  8
SOILS
 10
806065.79645660659
 20
8988521.1302477606
 30
0.0
  0
SEQEND
  5
67F
  8
SOILS
  0
POLYLINE
  5
127
  8
SOILS
 66
     1
 10
0.0
 20
0.0
 30
0.0
 40
1.0
 41
1.0
  0
VERTEX
  5
680
  8
SOILS
 10
805905.76702515245
 20
8990496.5472840574
 30
0.0
  0
VERTEX
  5
681
  8
SOILS
 10
806045.04952830833
 20
8990447.3277361728
 30
0.0
  0
VERTEX
  5
682
  8
SOILS
 10
806201.46525489446
 20
8990380.6658288781
 30
0.0
  0
VERTEX
  5
683
  8
SOILS
 10
806278.03246055439
 20
8990303.0757549349
 30
0.0
  0
VERTEX
  5
684
  8
SOILS
 10
806310.84689857077
 20
8990248.4348712806
 30
0.0
  0
VERTEX
  5
685
  8
SOILS
 10
806299.55978000443
 20
8990192.0335312095
 30
0.0
  0
VERTEX
  5
686
  8
SOILS
 10
806264.89829384757
 20
8990135.7599649839
 30
0.0
  0
VERTEX
  5
687
  8
SOILS
 10
806192.10909946985
 20
8990127.1024932545
 30
0.0
  0
VERTEX
  5
688
  8
SOILS
 10
806106.32180187781
 20
8990161.7323801648
 30
0.0
  0
VERTEX
  5
689
  8
SOILS
 10
805991.07225941506
 20
8990248.3070974369
 30
0.0
  0
VERTEX
  5
68A
  8
SOILS
 10
805936.48040953721
 20
8990249.1728345286
 30
0.0
  0
VERTEX
  5
68B
  8
SOILS
 10
805766.58719004248
 20
8990346.0036834832
 30
0.0
  0
VERTEX
  5
68C
  8
SOILS
 10
805655.61855210119
 20
8990422.9223777074
 30
0.0
  0
VERTEX
  5
68D
  8
SOILS
 10
805600.53441312246
 20
8990404.0536337551
 30
0.0
  0
VERTEX
  5
68E
  8
SOILS
 10
805604.97235988686
 20
8990351.0020349305
 30
0.0
  0
VERTEX
  5
68F
  8
SOILS
 10
805848.99084931635
 20
8990142.2457854152
 30
0.0
  0
VERTEX
  5
690
  8
SOILS
 10
805898.91182862385
 20
8990099.2160410248
 30
0.0
  0
VERTEX
  5
691
  8
SOILS
 10
805951.76937393018
 20
8990064.0098865218
 30
0.0
  0
VERTEX
  5
692
  8
SOILS
 10
806076.08237923053
 20
8990034.6714496389
 30
0.0
  0
VERTEX
  5
693
  8
SOILS
 10
806113.2783922269
 20
8990004.3550262172
 30
0.0
  0
VERTEX
  5
694
  8
SOILS
 10
806147.43354224216
 20
8989957.7041660734
 30
0.0
  0
VERTEX
  5
695
  8
SOILS
 10
806159.86893753055
 20
8989873.0467620995
 30
0.0
  0
VERTEX
  5
696
  8
SOILS
 10
806181.4811818999
 20
8989783.7322409619
 30
0.0
  0
VERTEX
  5
697
  8
SOILS
 10
806238.83598369826
 20
8989733.2019451689
 30
0.0
  0
VERTEX
  5
698
  8
SOILS
 10
806294.89698877744
 20
8989731.4516199324
 30
0.0
  0
VERTEX
  5
699
  8
SOILS
 10
806343.95044855634
 20
8989693.8199801836
 30
0.0
  0
VERTEX
  5
69A
  8
SOILS
 10
806426.2677598442
 20
8989619.0269185062
 30
0.0
  0
VERTEX
  5
69B
  8
SOILS
 10
806506.16558312962
 20
8989530.3326675557
 30
0.0
  0
VERTEX
  5
69C
  8
SOILS
 10
806528.68436658499
 20
8989494.1523068044
 30
0.0
  0
VERTEX
  5
69D
  8
SOILS
 10
806525.579327908
 20
8989468.0940538123
 30
0.0
  0
VERTEX
  5
69E
  8
SOILS
 10
806495.77132385108
 20
8989445.758379586
 30
0.0
  0
SEQEND
  5
69F
  8
SOILS
  0
POLYLINE
  5
128
  8
SOILS
 66
     1
 10
0.0
 20
0.0
 30
0.0
 40
1.0
 41
1.0
  0
VERTEX
  5
6A0
  8
SOILS
 10
806031.45511444344
 20
8991001.2205916457
 30
0.0
  0
VERTEX
  5
6A1
  8
SOILS
 10
805968.46919371502
 20
8990964.3315018974
 30
0.0
  0
VERTEX
  5
6A2
  8
SOILS
 10
805876.16223300865
 20
8990908.9979176838
 30
0.0
  0
VERTEX
  5
6A3
  8
SOILS
 10
805844.5303171142
 20
8990857.3669522963
 30
0.0
  0
VERTEX
  5
6A4
  8
SOILS
 10
805829.03716567135
 20
8990844.7902762536
 30
0.0
  0
VERTEX
  5
6A5
  8
SOILS
 10
805825.16394666873
 20
8990828.3438421022
 30
0.0
  0
VERTEX
  5
6A6
  8
SOILS
 10
805836.78378729802
 20
8990807.0602481253
 30
0.0
  0
VERTEX
  5
6A7
  8
SOILS
 10
805850.34028333391
 20
8990782.8743481673
 30
0.0
  0
VERTEX
  5
6A8
  8
SOILS
 10
805841.62542581465
 20
8990769.3302199952
 30
0.0
  0
VERTEX
  5
6A9
  8
SOILS
 10
805800.95593770675
 20
8990758.6883978043
 30
0.0
  0
VERTEX
  5
6AA
  8
SOILS
 10
805788.36776937451
 20
8990747.079173889
 30
0.0
  0
VERTEX
  5
6AB
  8
SOILS
 10
805799.98761000345
 20
8990733.5350457206
 30
0.0
  0
VERTEX
  5
6AC
  8
SOILS
 10
805816.44899733865
 20
8990712.2514517382
 30
0.0
  0
VERTEX
  5
6AD
  8
SOILS
 10
805816.44899733865
 20
8990696.772469718
 30
0.0
  0
VERTEX
  5
6AE
  8
SOILS
 10
805802.89259311359
 20
8990680.3260355685
 30
0.0
  0
VERTEX
  5
6AF
  8
SOILS
 10
805790.30433296994
 20
8990665.8144552708
 30
0.0
  0
VERTEX
  5
6B0
  8
SOILS
 10
805797.08262689353
 20
8990640.6611031853
 30
0.0
  0
VERTEX
  5
6B1
  8
SOILS
 10
805833.0341455295
 20
8990548.7026463747
 30
0.0
  0
VERTEX
  5
6B2
  8
SOILS
 10
805905.76702515245
 20
8990496.5472840574
 30
0.0
  0
SEQEND
  5
6B3
  8
SOILS
  0
POLYLINE
  5
129
  8
SOILS
 66
     1
 10
0.0
 20
0.0
 30
0.0
 40
1.0
 41
1.0
  0
VERTEX
  5
6B4
  8
SOILS
 10
807292.53902990674
 20
8990612.2805920951
 30
0.0
  0
VERTEX
  5
6B5
  8
SOILS
 10
807201.85225304216
 20
8990650.9383036885
 30
0.0
  0
VERTEX
  5
6B6
  8
SOILS
 10
807125.6609204855
 20
8990730.5466499086
 30
0.0
  0
VERTEX
  5
6B7
  8
SOILS
 10
807051.90422470076
 20
8990775.5790413748
 30
0.0
  0
VERTEX
  5
6B8
  8
SOILS
 10
806897.56149244588
 20
8990757.8389915712
 30
0.0
  0
VERTEX
  5
6B9
  8
SOILS
 10
806765.07265038555
 20
8990790.5898217261
 30
0.0
  0
VERTEX
  5
6BA
  8
SOILS
 10
806593.8566678887
 20
8990854.4941325895
 30
0.0
  0
VERTEX
  5
6BB
  8
SOILS
 10
806363.72271421133
 20
8990982.4217074756
 30
0.0
  0
VERTEX
  5
6BC
  8
SOILS
 10
806229.10055817384
 20
8991051.1293067578
 30
0.0
  0
VERTEX
  5
6BD
  8
SOILS
 10
806167.20057468582
 20
8991060.8941013869
 30
0.0
  0
VERTEX
  5
6BE
  8
SOILS
 10
806082.49535828433
 20
8991041.3645625319
 30
0.0
  0
VERTEX
  5
6BF
  8
SOILS
 10
806031.45511444344
 20
8991001.2205916457
 30
0.0
  0
SEQEND
  5
6C0
  8
SOILS
  0
POLYLINE
  5
12A
  8
SOILS
 66
     1
 10
0.0
 20
0.0
 30
0.0
 40
1.0
 41
1.0
  0
VERTEX
  5
6C1
  8
SOILS
 10
807376.24017682194
 20
8990341.8982839994
 30
0.0
  0
VERTEX
  5
6C2
  8
SOILS
 10
807383.84470285987
 20
8990437.500793552
 30
0.0
  0
VERTEX
  5
6C3
  8
SOILS
 10
807352.9968505461
 20
8990554.2941003125
 30
0.0
  0
VERTEX
  5
6C4
  8
SOILS
 10
807292.53902990674
 20
8990612.2805920951
 30
0.0
  0
SEQEND
  5
6C5
  8
SOILS
  0
POLYLINE
  5
12B
  8
SOILS
 66
     1
 10
0.0
 20
0.0
 30
0.0
 40
1.0
 41
1.0
  0
VERTEX
  5
6C6
  8
SOILS
 10
807492.89215550176
 20
8990106.0611151345
 30
0.0
  0
VERTEX
  5
6C7
  8
SOILS
 10
807403.79673391185
 20
8990220.2472054474
 30
0.0
  0
VERTEX
  5
6C8
  8
SOILS
 10
807376.24017682194
 20
8990341.8982839994
 30
0.0
  0
SEQEND
  5
6C9
  8
SOILS
  0
POLYLINE
  5
12C
  8
SOILS
 66
     1
 10
0.0
 20
0.0
 30
0.0
 40
1.0
 41
1.0
  0
VERTEX
  5
6CA
  8
SOILS
 10
807524.29463639762
 20
8990063.3781242538
 30
0.0
  0
VERTEX
  5
6CB
  8
SOILS
 10
807492.89215550176
 20
8990106.0611151345
 30
0.0
  0
SEQEND
  5
6CC
  8
SOILS
  0
POLYLINE
  5
12D
  8
SOILS
 66
     1
 10
0.0
 20
0.0
 30
0.0
 40
1.0
 41
1.0
  0
VERTEX
  5
6CD
  8
SOILS
 10
807763.22626086732
 20
8990458.9827772155
 30
0.0
  0
VERTEX
  5
6CE
  8
SOILS
 10
807765.47029857687
 20
8990428.342105614
 30
0.0
  0
VERTEX
  5
6CF
  8
SOILS
 10
807754.99809199467
 20
8990392.4700654149
 30
0.0
  0
VERTEX
  5
6D0
  8
SOILS
 10
807717.25130646653
 20
8990364.7348248344
 30
0.0
  0
VERTEX
  5
6D1
  8
SOILS
 10
807709.99284245796
 20
8990330.5477360357
 30
0.0
  0
VERTEX
  5
6D2
  8
SOILS
 10
807714.14057552465
 20
8990298.4325996507
 30
0.0
  0
VERTEX
  5
6D3
  8
SOILS
 10
807694.43909593765
 20
8990271.4973190948
 30
0.0
  0
VERTEX
  5
6D4
  8
SOILS
 10
807670.73053731304
 20
8990231.9650497269
 30
0.0
  0
VERTEX
  5
6D5
  8
SOILS
 10
807627.89449974615
 20
8990191.1372493636
 30
0.0
  0
VERTEX
  5
6D6
  8
SOILS
 10
807592.78681347205
 20
8990146.6776980273
 30
0.0
  0
VERTEX
  5
6D7
  8
SOILS
 10
807524.29463639762
 20
8990063.3781242538
 30
0.0
  0
SEQEND
  5
6D8
  8
SOILS
  0
POLYLINE
  5
12E
  8
SOILS
 66
     1
 10
0.0
 20
0.0
 30
0.0
 40
1.0
 41
1.0
  0
VERTEX
  5
6D9
  8
SOILS
 10
807650.27575073775
 20
8990700.3716093786
 30
0.0
  0
VERTEX
  5
6DA
  8
SOILS
 10
807651.77180648129
 20
8990688.4142458402
 30
0.0
  0
VERTEX
  5
6DB
  8
SOILS
 10
807702.63687546097
 20
8990627.1329026408
 30
0.0
  0
VERTEX
  5
6DC
  8
SOILS
 10
807737.79368047207
 20
8990554.6415342763
 30
0.0
  0
VERTEX
  5
6DD
  8
SOILS
 10
807763.22626086732
 20
8990458.9827772155
 30
0.0
  0
SEQEND
  5
6DE
  8
SOILS
  0
POLYLINE
  5
12F
  8
SOILS
 66
     1
 10
0.0
 20
0.0
 30
0.0
 40
1.0
 41
1.0
  0
VERTEX
  5
6DF
  8
SOILS
 10
808415.50794215838
 20
8990791.1553028896
 30
0.0
  0
VERTEX
  5
6E0
  8
SOILS
 10
808249.07153412909
 20
8990759.2421348616
 30
0.0
  0
VERTEX
  5
6E1
  8
SOILS
 10
808124.66451464756
 20
8990698.7750663888
 30
0.0
  0
VERTEX
  5
6E2
  8
SOILS
 10
808022.11285433231
 20
8990695.4157484025
 30
0.0
  0
VERTEX
  5
6E3
  8
SOILS
 10
807853.99520832952
 20
8990708.8528691307
 30
0.0
  0
VERTEX
  5
6E4
  8
SOILS
 10
807663.75558481924
 20
8990712.6683422532
 30
0.0
  0
VERTEX
  5
6E5
  8
SOILS
 10
807650.27575073775
 20
8990700.3716093786
 30
0.0
  0
SEQEND
  5
6E6
  8
SOILS
  0
POLYLINE
  5
130
  8
SOILS
 66
     1
 10
0.0
 20
0.0
 30
0.0
 40
1.0
 41
1.0
  0
VERTEX
  5
6E7
  8
SOILS
 10
808501.24795722752
 20
8990787.7960353065
 30
0.0
  0
VERTEX
  5
6E8
  8
SOILS
 10
808415.50794215838
 20
8990791.1553028896
 30
0.0
  0
SEQEND
  5
6E9
  8
SOILS
  0
POLYLINE
  5
131
  8
SOILS
 66
     1
 10
0.0
 20
0.0
 30
0.0
 40
1.0
 41
1.0
  0
VERTEX
  5
6EA
  8
SOILS
 10
808685.94717080286
 20
8990725.6868083291
 30
0.0
  0
VERTEX
  5
6EB
  8
SOILS
 10
808613.88667813945
 20
8990727.3289164305
 30
0.0
  0
VERTEX
  5
6EC
  8
SOILS
 10
808548.32087607379
 20
8990739.0864285696
 30
0.0
  0
VERTEX
  5
6ED
  8
SOILS
 10
808501.24795722752
 20
8990787.7960353065
 30
0.0
  0
SEQEND
  5
6EE
  8
SOILS
  0
POLYLINE
  5
132
  8
SOILS
 66
     1
 10
0.0
 20
0.0
 30
0.0
 40
1.0
 41
1.0
  0
VERTEX
  5
6EF
  8
SOILS
 10
808069.00421966985
 20
8988311.3445187882
 30
0.0
  0
VERTEX
  5
6F0
  8
SOILS
 10
808091.25085901131
 20
8988264.8001835179
 30
0.0
  0
VERTEX
  5
6F1
  8
SOILS
 10
808111.20124828524
 20
8988188.5601454899
 30
0.0
  0
VERTEX
  5
6F2
  8
SOILS
 10
808074.65695282852
 20
8988084.3703605123
 30
0.0
  0
VERTEX
  5
6F3
  8
SOILS
 10
808054.15648155857
 20
8987979.2901082002
 30
0.0
  0
VERTEX
  5
6F4
  8
SOILS
 10
808172.07693066041
 20
8987911.9227036312
 30
0.0
  0
VERTEX
  5
6F5
  8
SOILS
 10
808389.92765520292
 20
8987966.0211235266
 30
0.0
  0
VERTEX
  5
6F6
  8
SOILS
 10
808650.23149311927
 20
8988002.7768224776
 30
0.0
  0
VERTEX
  5
6F7
  8
SOILS
 10
808711.18300045375
 20
8988075.0907003246
 30
0.0
  0
VERTEX
  5
6F8
  8
SOILS
 10
808764.51559131185
 20
8988158.8225740977
 30
0.0
  0
VERTEX
  5
6F9
  8
SOILS
 10
808859.7524421924
 20
8988158.8225740977
 30
0.0
  0
VERTEX
  5
6FA
  8
SOILS
 10
809012.13129828905
 20
8988124.5686344951
 30
0.0
  0
VERTEX
  5
6FB
  8
SOILS
 10
809071.17814232456
 20
8988097.9266921766
 30
0.0
  0
VERTEX
  5
6FC
  8
SOILS
 10
809088.32072633738
 20
8988014.1948184036
 30
0.0
  0
VERTEX
  5
6FD
  8
SOILS
 10
809159.6928121841
 20
8988006.0521638747
 30
0.0
  0
VERTEX
  5
6FE
  8
SOILS
 10
809229.65853810974
 20
8987976.4783089627
 30
0.0
  0
VERTEX
  5
6FF
  8
SOILS
 10
809314.42461154691
 20
8987957.6586225294
 30
0.0
  0
VERTEX
  5
700
  8
SOILS
 10
809436.86463191686
 20
8987949.5930082183
 30
0.0
  0
VERTEX
  5
701
  8
SOILS
 10
809521.38137814461
 20
8987941.8356029466
 30
0.0
  0
VERTEX
  5
702
  8
SOILS
 10
809661.93750830565
 20
8987941.0806184672
 30
0.0
  0
VERTEX
  5
703
  8
SOILS
 10
809700.47703576263
 20
8987936.5506634284
 30
0.0
  0
VERTEX
  5
704
  8
SOILS
 10
809727.681433897
 20
8987913.9010327701
 30
0.0
  0
VERTEX
  5
705
  8
SOILS
 10
809749.59616352094
 20
8987888.9864005018
 30
0.0
  0
VERTEX
  5
706
  8
SOILS
 10
809796.44817765476
 20
8987875.3966317456
 30
0.0
  0
VERTEX
  5
707
  8
SOILS
 10
809821.38554992469
 20
8987860.2968458533
 30
0.0
  0
VERTEX
  5
708
  8
SOILS
 10
809844.05589633016
 20
8987832.3623238578
 30
0.0
  0
VERTEX
  5
709
  8
SOILS
 10
809893.93064087001
 20
8987805.1827381551
 30
0.0
  0
VERTEX
  5
70A
  8
SOILS
 10
810027.19844786625
 20
8987766.2928951532
 30
0.0
  0
VERTEX
  5
70B
  8
SOILS
 10
810183.55583255307
 20
8987727.2392393053
 30
0.0
  0
VERTEX
  5
70C
  8
SOILS
 10
810336.24851973145
 20
8987677.2017397415
 30
0.0
  0
VERTEX
  5
70D
  8
SOILS
 10
810414.42721207475
 20
8987624.7233806606
 30
0.0
  0
VERTEX
  5
70E
  8
SOILS
 10
810491.38436783513
 20
8987608.8578179162
 30
0.0
  0
VERTEX
  5
70F
  8
SOILS
 10
810593.99387959589
 20
8987616.1803964563
 30
0.0
  0
VERTEX
  5
710
  8
SOILS
 10
810796.35665413202
 20
8987535.6031725593
 30
0.0
  0
SEQEND
  5
711
  8
SOILS
  0
POLYLINE
  5
133
  8
SOILS
 66
     1
 10
0.0
 20
0.0
 30
0.0
 40
1.0
 41
1.0
  0
VERTEX
  5
712
  8
SOILS
 10
808062.89750211965
 20
8988393.7095671222
 30
0.0
  0
VERTEX
  5
713
  8
SOILS
 10
808057.80862933456
 20
8988357.1028896794
 30
0.0
  0
VERTEX
  5
714
  8
SOILS
 10
808069.00421966985
 20
8988311.3445187882
 30
0.0
  0
SEQEND
  5
715
  8
SOILS
  0
POLYLINE
  5
134
  8
SOILS
 66
     1
 10
0.0
 20
0.0
 30
0.0
 40
1.0
 41
1.0
  0
VERTEX
  5
716
  8
SOILS
 10
807983.86832403531
 20
8988445.5929001477
 30
0.0
  0
VERTEX
  5
717
  8
SOILS
 10
807999.40471776575
 20
8988442.7678513378
 30
0.0
  0
VERTEX
  5
718
  8
SOILS
 10
808045.59528199467
 20
8988414.046594087
 30
0.0
  0
VERTEX
  5
719
  8
SOILS
 10
808062.89750211965
 20
8988393.7095671222
 30
0.0
  0
SEQEND
  5
71A
  8
SOILS
  0
POLYLINE
  5
135
  8
SOILS
 66
     1
 10
0.0
 20
0.0
 30
0.0
 70
     1
 40
1.0
 41
1.0
  0
VERTEX
  5
71B
  8
SOILS
 10
807324.65076298569
 20
8988497.7595752273
 30
0.0
  0
VERTEX
  5
71C
  8
SOILS
 10
807407.29612386448
 20
8988547.0352065191
 30
0.0
  0
VERTEX
  5
71D
  8
SOILS
 10
807489.76998421096
 20
8988626.2645879947
 30
0.0
  0
VERTEX
  5
71E
  8
SOILS
 10
807507.21639462293
 20
8988689.6480642669
 30
0.0
  0
VERTEX
  5
71F
  8
SOILS
 10
807543.69513308338
 20
8988751.4469885621
 30
0.0
  0
VERTEX
  5
720
  8
SOILS
 10
807651.54560634948
 20
8988786.307902921
 30
0.0
  0
VERTEX
  5
721
  8
SOILS
 10
807743.53567460063
 20
8988854.4451796655
 30
0.0
  0
VERTEX
  5
722
  8
SOILS
 10
807875.17657986761
 20
8988920.9978562482
 30
0.0
  0
VERTEX
  5
723
  8
SOILS
 10
808186.08857573185
 20
8989100.8486972209
 30
0.0
  0
VERTEX
  5
724
  8
SOILS
 10
808303.54626440513
 20
8989182.3973312657
 30
0.0
  0
VERTEX
  5
725
  8
SOILS
 10
808401.29736211116
 20
8989339.6125138532
 30
0.0
  0
VERTEX
  5
726
  8
SOILS
 10
808609.89779266855
 20
8989533.0016670767
 30
0.0
  0
VERTEX
  5
727
  8
SOILS
 10
808686.29143909703
 20
8989635.4473271016
 30
0.0
  0
VERTEX
  5
728
  8
SOILS
 10
808738.47472015594
 20
8989780.6262166463
 30
0.0
  0
VERTEX
  5
729
  8
SOILS
 10
808786.00450762291
 20
8989960.0158762932
 30
0.0
  0
VERTEX
  5
72A
  8
SOILS
 10
808921.44621102326
 20
8990170.1774413064
 30
0.0
  0
VERTEX
  5
72B
  8
SOILS
 10
808926.25839107216
 20
8990435.4523422774
 30
0.0
  0
VERTEX
  5
72C
  8
SOILS
 10
808907.06862092018
 20
8990494.2473245077
 30
0.0
  0
VERTEX
  5
72D
  8
SOILS
 10
808866.13033928454
 20
8990498.0817494951
 30
0.0
  0
VERTEX
  5
72E
  8
SOILS
 10
808771.46068367141
 20
8990440.5649410468
 30
0.0
  0
VERTEX
  5
72F
  8
SOILS
 10
808719.0085926007
 20
8990330.6438747402
 30
0.0
  0
VERTEX
  5
730
  8
SOILS
 10
808565.49025586655
 20
8990228.3917547707
 30
0.0
  0
VERTEX
  5
731
  8
SOILS
 10
808507.92085765139
 20
8990220.7228566147
 30
0.0
  0
VERTEX
  5
732
  8
SOILS
 10
808513.03816479573
 20
8990201.5505871326
 30
0.0
  0
VERTEX
  5
733
  8
SOILS
 10
808520.71412551275
 20
8990184.9346170332
 30
0.0
  0
VERTEX
  5
734
  8
SOILS
 10
808492.56902397785
 20
8990151.7026768383
 30
0.0
  0
VERTEX
  5
735
  8
SOILS
 10
808487.89595982328
 20
8990095.8323801626
 30
0.0
  0
VERTEX
  5
736
  8
SOILS
 10
808503.25893906388
 20
8990057.0085922778
 30
0.0
  0
VERTEX
  5
737
  8
SOILS
 10
808501.45151425444
 20
8990027.2135900296
 30
0.0
  0
VERTEX
  5
738
  8
SOILS
 10
808397.29154004599
 20
8989974.0630201381
 30
0.0
  0
VERTEX
  5
739
  8
SOILS
 10
808356.93221356766
 20
8989932.5884032194
 30
0.0
  0
VERTEX
  5
73A
  8
SOILS
 10
808350.01344931847
 20
8989861.1599337794
 30
0.0
  0
VERTEX
  5
73B
  8
SOILS
 10
808376.53533505939
 20
8989819.6853168625
 30
0.0
  0
VERTEX
  5
73C
  8
SOILS
 10
808351.16653281311
 20
8989759.7775636353
 30
0.0
  0
VERTEX
  5
73D
  8
SOILS
 10
808284.28532059374
 20
8989703.3260204569
 30
0.0
  0
VERTEX
  5
73E
  8
SOILS
 10
808235.85405861121
 20
8989650.3306873217
 30
0.0
  0
VERTEX
  5
73F
  8
SOILS
 10
808229.50661436771
 20
8989542.0488575734
 30
0.0
  0
VERTEX
  5
740
  8
SOILS
 10
808159.38713227469
 20
8989502.6426186766
 30
0.0
  0
VERTEX
  5
741
  8
SOILS
 10
808111.17992251529
 20
8989450.1009989325
 30
0.0
  0
VERTEX
  5
742
  8
SOILS
 10
808067.65341206244
 20
8989299.2633875124
 30
0.0
  0
VERTEX
  5
743
  8
SOILS
 10
808030.98054766457
 20
8989240.6404569428
 30
0.0
  0
VERTEX
  5
744
  8
SOILS
 10
807931.96403319074
 20
8989182.0175263733
 30
0.0
  0
VERTEX
  5
745
  8
SOILS
 10
807809.22553980432
 20
8989089.9062885158
 30
0.0
  0
VERTEX
  5
746
  8
SOILS
 10
807651.35455202474
 20
8988948.8798617758
 30
0.0
  0
VERTEX
  5
747
  8
SOILS
 10
807510.19928182126
 20
8988844.9656678084
 30
0.0
  0
VERTEX
  5
748
  8
SOILS
 10
807439.62160283909
 20
8988750.3295440841
 30
0.0
  0
VERTEX
  5
749
  8
SOILS
 10
807326.70454792248
 20
8988636.7226888519
 30
0.0
  0
VERTEX
  5
74A
  8
SOILS
 10
807279.47297019057
 20
8988579.0478010122
 30
0.0
  0
VERTEX
  5
74B
  8
SOILS
 10
807284.72086476488
 20
8988541.0348385107
 30
0.0
  0
SEQEND
  5
74C
  8
SOILS
  0
POLYLINE
  5
136
  8
SOILS
 66
     1
 10
0.0
 20
0.0
 30
0.0
 40
1.0
 41
1.0
  0
VERTEX
  5
74D
  8
SOILS
 10
800996.71144354518
 20
8986960.690858284
 30
0.0
  0
VERTEX
  5
74E
  8
SOILS
 10
801469.34116150683
 20
8987170.9920193907
 30
0.0
  0
VERTEX
  5
74F
  8
SOILS
 10
801780.25149439496
 20
8987107.2070719153
 30
0.0
  0
VERTEX
  5
750
  8
SOILS
 10
801973.02978471585
 20
8987218.5776411705
 30
0.0
  0
VERTEX
  5
751
  8
SOILS
 10
802022.87358925689
 20
8987228.2141907122
 30
0.0
  0
VERTEX
  5
752
  8
SOILS
 10
802049.37723736395
 20
8987121.5242050719
 30
0.0
  0
VERTEX
  5
753
  8
SOILS
 10
802206.31855991634
 20
8986986.7545716558
 30
0.0
  0
SEQEND
  5
754
  8
SOILS
  0
POLYLINE
  5
137
  8
SOILS
 66
     1
 10
0.0
 20
0.0
 30
0.0
 40
1.0
 41
1.0
  0
VERTEX
  5
755
  8
SOILS
 10
800321.72862050729
 20
8986298.0403011981
 30
0.0
  0
VERTEX
  5
756
  8
SOILS
 10
800628.19913304015
 20
8986610.0715917349
 30
0.0
  0
VERTEX
  5
757
  8
SOILS
 10
800824.62962226348
 20
8986556.8463723622
 30
0.0
  0
VERTEX
  5
758
  8
SOILS
 10
800828.27979343419
 20
8986911.1503540222
 30
0.0
  0
VERTEX
  5
759
  8
SOILS
 10
800943.61369119375
 20
8987018.3042960968
 30
0.0
  0
VERTEX
  5
75A
  8
SOILS
 10
800996.71144354518
 20
8986960.690858284
 30
0.0
  0
SEQEND
  5
75B
  8
SOILS
  0
POLYLINE
  5
138
  8
SOILS
 66
     1
 10
0.0
 20
0.0
 30
0.0
 40
1.0
 41
1.0
  0
VERTEX
  5
75C
  8
SOILS
 10
800996.71144354518
 20
8986960.690858284
 30
0.0
  0
VERTEX
  5
75D
  8
SOILS
 10
801104.31058131717
 20
8986817.4094219562
 30
0.0
  0
VERTEX
  5
75E
  8
SOILS
 10
801249.57786363328
 20
8986694.6031266507
 30
0.0
  0
VERTEX
  5
75F
  8
SOILS
 10
801358.52841313055
 20
8986610.8715901393
 30
0.0
  0
VERTEX
  5
760
  8
SOILS
 10
801576.68340287404
 20
8986399.1281234883
 30
0.0
  0
VERTEX
  5
761
  8
SOILS
 10
801571.00123881456
 20
8986350.5100534819
 30
0.0
  0
SEQEND
  5
762
  8
SOILS
  0
POLYLINE
  5
139
  8
SOILS
 66
     1
 10
0.0
 20
0.0
 30
0.0
 40
1.0
 41
1.0
  0
VERTEX
  5
763
  8
SOILS
 10
802805.86768759496
 20
8986430.8698004503
 30
0.0
  0
VERTEX
  5
764
  8
SOILS
 10
802769.3554246733
 20
8986468.1086990982
 30
0.0
  0
VERTEX
  5
765
  8
SOILS
 10
802700.89496460487
 20
8986522.0671071969
 30
0.0
  0
VERTEX
  5
766
  8
SOILS
 10
802655.25465789298
 20
8986567.6657605711
 30
0.0
  0
VERTEX
  5
767
  8
SOILS
 10
802576.90544715151
 20
8986611.7444716804
 30
0.0
  0
VERTEX
  5
768
  8
SOILS
 10
802398.73048356944
 20
8986741.0246022902
 30
0.0
  0
VERTEX
  5
769
  8
SOILS
 10
802327.97544088075
 20
8986813.89014397
 30
0.0
  0
VERTEX
  5
76A
  8
SOILS
 10
802280.07978043309
 20
8986890.0182592813
 30
0.0
  0
VERTEX
  5
76B
  8
SOILS
 10
802260.48604930076
 20
8986931.3449628372
 30
0.0
  0
VERTEX
  5
76C
  8
SOILS
 10
802206.31855991634
 20
8986986.7545716558
 30
0.0
  0
SEQEND
  5
76D
  8
SOILS
  0
POLYLINE
  5
13A
  8
SOILS
 66
     1
 10
0.0
 20
0.0
 30
0.0
 40
1.0
 41
1.0
  0
VERTEX
  5
76E
  8
SOILS
 10
801905.55652371701
 20
8985188.4719710834
 30
0.0
  0
VERTEX
  5
76F
  8
SOILS
 10
801831.58453692414
 20
8985285.1161993369
 30
0.0
  0
VERTEX
  5
770
  8
SOILS
 10
801664.97235306306
 20
8985400.3908138331
 30
0.0
  0
VERTEX
  5
771
  8
SOILS
 10
801597.05495416105
 20
8985460.3150447011
 30
0.0
  0
VERTEX
  5
772
  8
SOILS
 10
801533.96428782062
 20
8985482.9118216299
 30
0.0
  0
VERTEX
  5
773
  8
SOILS
 10
801481.58723186562
 20
8985504.3192691505
 30
0.0
  0
VERTEX
  5
774
  8
SOILS
 10
801471.32137488527
 20
8985593.8998876959
 30
0.0
  0
VERTEX
  5
775
  8
SOILS
 10
801482.96063776792
 20
8985635.8377336022
 30
0.0
  0
SEQEND
  5
776
  8
SOILS
  0
POLYLINE
  5
13B
  8
SOILS
 66
     1
 10
0.0
 20
0.0
 30
0.0
 40
1.0
 41
1.0
  0
VERTEX
  5
777
  8
SOILS
 10
802533.2761693059
 20
8984925.6941073667
 30
0.0
  0
VERTEX
  5
778
  8
SOILS
 10
802365.64947557391
 20
8985000.8695546463
 30
0.0
  0
VERTEX
  5
779
  8
SOILS
 10
802233.96881485917
 20
8985055.8857600745
 30
0.0
  0
VERTEX
  5
77A
  8
SOILS
 10
802070.57085453067
 20
8985125.9374307673
 30
0.0
  0
VERTEX
  5
77B
  8
SOILS
 10
801905.55652371701
 20
8985188.4719710834
 30
0.0
  0
SEQEND
  5
77C
  8
SOILS
  0
POLYLINE
  5
13C
  8
SOILS
 66
     1
 10
0.0
 20
0.0
 30
0.0
 40
1.0
 41
1.0
  0
VERTEX
  5
77D
  8
SOILS
 10
804805.67025601165
 20
8984381.3749680333
 30
0.0
  0
VERTEX
  5
77E
  8
SOILS
 10
804713.13237937121
 20
8984396.931984473
 30
0.0
  0
VERTEX
  5
77F
  8
SOILS
 10
804658.51462566305
 20
8984393.6248441134
 30
0.0
  0
VERTEX
  5
780
  8
SOILS
 10
804598.93174129014
 20
8984421.7355612721
 30
0.0
  0
VERTEX
  5
781
  8
SOILS
 10
804549.27929376625
 20
8984436.6176688056
 30
0.0
  0
VERTEX
  5
782
  8
SOILS
 10
804516.17766208376
 20
8984426.696247723
 30
0.0
  0
VERTEX
  5
783
  8
SOILS
 10
804488.04124882573
 20
8984396.931984473
 30
0.0
  0
VERTEX
  5
784
  8
SOILS
 10
804458.24976275919
 20
8984340.7105983384
 30
0.0
  0
VERTEX
  5
785
  8
SOILS
 10
804401.97702400258
 20
8984325.8284426238
 30
0.0
  0
VERTEX
  5
786
  8
SOILS
 10
804234.18095275736
 20
8984391.9740924761
 30
0.0
  0
VERTEX
  5
787
  8
SOILS
 10
804137.73178013274
 20
8984469.4819455333
 30
0.0
  0
VERTEX
  5
788
  8
SOILS
 10
804112.57114548294
 20
8984523.9469207525
 30
0.0
  0
VERTEX
  5
789
  8
SOILS
 10
804083.2170570977
 20
8984576.3171151746
 30
0.0
  0
VERTEX
  5
78A
  8
SOILS
 10
803997.25147493056
 20
8984622.4028708488
 30
0.0
  0
VERTEX
  5
78B
  8
SOILS
 10
803961.60724982328
 20
8984662.2041877769
 30
0.0
  0
VERTEX
  5
78C
  8
SOILS
 10
803978.38097700302
 20
8984720.8588209469
 30
0.0
  0
VERTEX
  5
78D
  8
SOILS
 10
804001.44492866565
 20
8984789.9874062799
 30
0.0
  0
VERTEX
  5
78E
  8
SOILS
 10
803976.28429401584
 20
8984997.3733068146
 30
0.0
  0
VERTEX
  5
78F
  8
SOILS
 10
803954.37421569135
 20
8985110.3789207395
 30
0.0
  0
VERTEX
  5
790
  8
SOILS
 10
803938.59582056385
 20
8985160.0704506803
 30
0.0
  0
VERTEX
  5
791
  8
SOILS
 10
803884.29978375672
 20
8985185.8377495743
 30
0.0
  0
VERTEX
  5
792
  8
SOILS
 10
803838.14818017487
 20
8985233.3037782647
 30
0.0
  0
VERTEX
  5
793
  8
SOILS
 10
803812.35755576531
 20
8985265.8519111313
 30
0.0
  0
VERTEX
  5
794
  8
SOILS
 10
803794.71136458183
 20
8985306.537105849
 30
0.0
  0
VERTEX
  5
795
  8
SOILS
 10
803708.49475986359
 20
8985289.0692922734
 30
0.0
  0
VERTEX
  5
796
  8
SOILS
 10
803610.38867146336
 20
8985174.7166068126
 30
0.0
  0
VERTEX
  5
797
  8
SOILS
 10
803528.38292492705
 20
8985077.4159226865
 30
0.0
  0
VERTEX
  5
798
  8
SOILS
 10
803479.42229239608
 20
8985056.7207237631
 30
0.0
  0
VERTEX
  5
799
  8
SOILS
 10
803389.03349984635
 20
8985096.2297311295
 30
0.0
  0
VERTEX
  5
79A
  8
SOILS
 10
803283.5798500313
 20
8985109.3994163107
 30
0.0
  0
VERTEX
  5
79B
  8
SOILS
 10
803183.77551072091
 20
8985088.7042173874
 30
0.0
  0
VERTEX
  5
79C
  8
SOILS
 10
803131.04864193324
 20
8985066.1276279856
 30
0.0
  0
VERTEX
  5
79D
  8
SOILS
 10
803026.93246014917
 20
8984997.8296219371
 30
0.0
  0
VERTEX
  5
79E
  8
SOILS
 10
802954.7310388108
 20
8984991.1193661634
 30
0.0
  0
VERTEX
  5
79F
  8
SOILS
 10
802895.96239514661
 20
8984996.1520820837
 30
0.0
  0
VERTEX
  5
7A0
  8
SOILS
 10
802805.29083868663
 20
8984925.6941073667
 30
0.0
  0
VERTEX
  5
7A1
  8
SOILS
 10
802776.74607642891
 20
8984882.0773002896
 30
0.0
  0
VERTEX
  5
7A2
  8
SOILS
 10
802694.47002795502
 20
8984882.0773002896
 30
0.0
  0
VERTEX
  5
7A3
  8
SOILS
 10
802608.83582894283
 20
8984920.6613914445
 30
0.0
  0
VERTEX
  5
7A4
  8
SOILS
 10
802533.2761693059
 20
8984925.6941073667
 30
0.0
  0
SEQEND
  5
7A5
  8
SOILS
  0
POLYLINE
  5
13D
  8
SOILS
 66
     1
 10
0.0
 20
0.0
 30
0.0
 40
1.0
 41
1.0
  0
VERTEX
  5
7A6
  8
SOILS
 10
804890.34145232639
 20
8984652.4935552757
 30
0.0
  0
VERTEX
  5
7A7
  8
SOILS
 10
804890.34145232639
 20
8984606.3601011578
 30
0.0
  0
VERTEX
  5
7A8
  8
SOILS
 10
804845.81500022381
 20
8984504.2073288541
 30
0.0
  0
VERTEX
  5
7A9
  8
SOILS
 10
804805.67025601165
 20
8984381.3749680333
 30
0.0
  0
SEQEND
  5
7AA
  8
SOILS
  0
POLYLINE
  5
13E
  8
SOILS
 66
     1
 10
0.0
 20
0.0
 30
0.0
 40
1.0
 41
1.0
  0
VERTEX
  5
7AB
  8
SOILS
 10
804930.55974789115
 20
8985173.3902045991
 30
0.0
  0
VERTEX
  5
7AC
  8
SOILS
 10
804851.52196929138
 20
8985160.3547495902
 30
0.0
  0
VERTEX
  5
7AD
  8
SOILS
 10
804791.92276148987
 20
8985099.7833616361
 30
0.0
  0
VERTEX
  5
7AE
  8
SOILS
 10
804765.205872208
 20
8985027.9189573172
 30
0.0
  0
VERTEX
  5
7AF
  8
SOILS
 10
804801.82774783135
 20
8984878.5970964804
 30
0.0
  0
VERTEX
  5
7B0
  8
SOILS
 10
804855.70971860189
 20
8984693.6841978133
 30
0.0
  0
VERTEX
  5
7B1
  8
SOILS
 10
804890.34145232639
 20
8984652.4935552757
 30
0.0
  0
SEQEND
  5
7B2
  8
SOILS
  0
POLYLINE
  5
13F
  8
SOILS
 66
     1
 10
0.0
 20
0.0
 30
0.0
 40
1.0
 41
1.0
  0
VERTEX
  5
7B3
  8
SOILS
 10
805060.22578156379
 20
8985527.4401508067
 30
0.0
  0
VERTEX
  5
7B4
  8
SOILS
 10
804903.12375014182
 20
8985631.0933523718
 30
0.0
  0
VERTEX
  5
7B5
  8
SOILS
 10
804866.27124026755
 20
8985699.9285681769
 30
0.0
  0
VERTEX
  5
7B6
  8
SOILS
 10
804715.54355931806
 20
8985862.1509219054
 30
0.0
  0
SEQEND
  5
7B7
  8
SOILS
  0
POLYLINE
  5
140
  8
SOILS
 66
     1
 10
0.0
 20
0.0
 30
0.0
 40
1.0
 41
1.0
  0
VERTEX
  5
7B8
  8
SOILS
 10
804930.55974789115
 20
8985173.3902045991
 30
0.0
  0
VERTEX
  5
7B9
  8
SOILS
 10
804952.42752571777
 20
8985359.3415803183
 30
0.0
  0
VERTEX
  5
7BA
  8
SOILS
 10
805060.22578156379
 20
8985527.4401508067
 30
0.0
  0
SEQEND
  5
7BB
  8
SOILS
  0
POLYLINE
  5
141
  8
SOILS
 66
     1
 10
0.0
 20
0.0
 30
0.0
 40
1.0
 41
1.0
  0
VERTEX
  5
7BC
  8
SOILS
 10
805344.56082205474
 20
8984521.6626952235
 30
0.0
  0
VERTEX
  5
7BD
  8
SOILS
 10
805310.14238990843
 20
8984575.8222076725
 30
0.0
  0
VERTEX
  5
7BE
  8
SOILS
 10
805267.11936069524
 20
8984623.9640072249
 30
0.0
  0
VERTEX
  5
7BF
  8
SOILS
 10
805187.9569623702
 20
8984637.7187933326
 30
0.0
  0
VERTEX
  5
7C0
  8
SOILS
 10
805108.49731967377
 20
8984725.4700078834
 30
0.0
  0
VERTEX
  5
7C1
  8
SOILS
 10
805088.86681694677
 20
8984825.9848444927
 30
0.0
  0
VERTEX
  5
7C2
  8
SOILS
 10
805091.32059687737
 20
8984892.1775182746
 30
0.0
  0
VERTEX
  5
7C3
  8
SOILS
 10
805101.13589212112
 20
8984973.0797179341
 30
0.0
  0
VERTEX
  5
7C4
  8
SOILS
 10
805029.97504548379
 20
8985080.9492693096
 30
0.0
  0
VERTEX
  5
7C5
  8
SOILS
 10
804958.29360433482
 20
8985131.8274178281
 30
0.0
  0
VERTEX
  5
7C6
  8
SOILS
 10
804930.55974789115
 20
8985173.3902045991
 30
0.0
  0
SEQEND
  5
7C7
  8
SOILS
  0
POLYLINE
  5
142
  8
SOILS
 66
     1
 10
0.0
 20
0.0
 30
0.0
 40
1.0
 41
1.0
  0
VERTEX
  5
7C8
  8
SOILS
 10
805966.61680831912
 20
8984705.1189604681
 30
0.0
  0
VERTEX
  5
7C9
  8
SOILS
 10
805883.28492300294
 20
8984676.8813365381
 30
0.0
  0
VERTEX
  5
7CA
  8
SOILS
 10
805728.27606415376
 20
8984649.3493605107
 30
0.0
  0
VERTEX
  5
7CB
  8
SOILS
 10
805630.10380443442
 20
8984613.213644987
 30
0.0
  0
VERTEX
  5
7CC
  8
SOILS
 10
805535.37613921764
 20
8984590.8439415656
 30
0.0
  0
VERTEX
  5
7CD
  8
SOILS
 10
805444.09315626312
 20
8984559.8704504687
 30
0.0
  0
VERTEX
  5
7CE
  8
SOILS
 10
805344.56082205474
 20
8984521.6626952235
 30
0.0
  0
SEQEND
  5
7CF
  8
SOILS
  0
POLYLINE
  5
143
  8
SOILS
 66
     1
 10
0.0
 20
0.0
 30
0.0
 40
1.0
 41
1.0
  0
VERTEX
  5
7D0
  8
SOILS
 10
806025.90078087314
 20
8985129.0563790835
 30
0.0
  0
VERTEX
  5
7D1
  8
SOILS
 10
806017.76302509184
 20
8984961.0305607673
 30
0.0
  0
VERTEX
  5
7D2
  8
SOILS
 10
805955.37391514517
 20
8984760.4836536273
 30
0.0
  0
VERTEX
  5
7D3
  8
SOILS
 10
805966.61680831912
 20
8984705.1189604681
 30
0.0
  0
SEQEND
  5
7D4
  8
SOILS
  0
POLYLINE
  5
144
  8
SOILS
 66
     1
 10
0.0
 20
0.0
 30
0.0
 40
1.0
 41
1.0
  0
VERTEX
  5
7D5
  8
SOILS
 10
805060.22578156379
 20
8985527.4401508067
 30
0.0
  0
VERTEX
  5
7D6
  8
SOILS
 10
805060.22578156379
 20
8985527.4401508067
 30
0.0
  0
VERTEX
  5
7D7
  8
SOILS
 10
805328.77023041423
 20
8985473.2382879239
 30
0.0
  0
VERTEX
  5
7D8
  8
SOILS
 10
805648.85353593051
 20
8985343.1537880804
 30
0.0
  0
VERTEX
  5
7D9
  8
SOILS
 10
805901.12256097922
 20
8985213.0692882426
 30
0.0
  0
VERTEX
  5
7DA
  8
SOILS
 10
806025.90078087314
 20
8985129.0563790835
 30
0.0
  0
SEQEND
  5
7DB
  8
SOILS
  0
POLYLINE
  5
145
  8
SOILS
 66
     1
 10
0.0
 20
0.0
 30
0.0
 40
1.0
 41
1.0
  0
VERTEX
  5
7DC
  8
SOILS
 10
805503.92132270522
 20
8985584.8488909621
 30
0.0
  0
VERTEX
  5
7DD
  8
SOILS
 10
805406.24131089845
 20
8985621.2984526176
 30
0.0
  0
VERTEX
  5
7DE
  8
SOILS
 10
805225.4921601587
 20
8985684.1053076871
 30
0.0
  0
VERTEX
  5
7DF
  8
SOILS
 10
805315.67971818126
 20
8985797.4621556178
 30
0.0
  0
SEQEND
  5
7E0
  8
SOILS
  0
POLYLINE
  5
146
  8
SOILS
 66
     1
 10
0.0
 20
0.0
 30
0.0
 40
1.0
 41
1.0
  0
VERTEX
  5
7E1
  8
SOILS
 10
806714.96352056554
 20
8985275.2652177755
 30
0.0
  0
VERTEX
  5
7E2
  8
SOILS
 10
806615.41623137705
 20
8985280.5932786129
 30
0.0
  0
VERTEX
  5
7E3
  8
SOILS
 10
806460.7624509827
 20
8985319.6653874945
 30
0.0
  0
VERTEX
  5
7E4
  8
SOILS
 10
806325.66255851311
 20
8985397.8097016197
 30
0.0
  0
VERTEX
  5
7E5
  8
SOILS
 10
806249.80310945376
 20
8985455.7186972816
 30
0.0
  0
VERTEX
  5
7E6
  8
SOILS
 10
806156.90322945209
 20
8985476.0994719099
 30
0.0
  0
VERTEX
  5
7E7
  8
SOILS
 10
806100.3619439652
 20
8985483.4677253217
 30
0.0
  0
VERTEX
  5
7E8
  8
SOILS
 10
806032.34853521897
 20
8985515.3966307286
 30
0.0
  0
VERTEX
  5
7E9
  8
SOILS
 10
805962.69620157301
 20
8985524.4022416696
 30
0.0
  0
VERTEX
  5
7EA
  8
SOILS
 10
805897.14113629656
 20
8985530.9517681375
 30
0.0
  0
VERTEX
  5
7EB
  8
SOILS
 10
805795.78431604989
 20
8985496.6644396242
 30
0.0
  0
VERTEX
  5
7EC
  8
SOILS
 10
805672.21324003825
 20
8985533.1140012834
 30
0.0
  0
VERTEX
  5
7ED
  8
SOILS
 10
805569.82584977266
 20
8985581.3215186894
 30
0.0
  0
VERTEX
  5
7EE
  8
SOILS
 10
805503.92132270522
 20
8985584.8488909621
 30
0.0
  0
SEQEND
  5
7EF
  8
SOILS
  0
POLYLINE
  5
147
  8
SOILS
 66
     1
 10
0.0
 20
0.0
 30
0.0
 40
1.0
 41
1.0
  0
VERTEX
  5
7F0
  8
SOILS
 10
807059.8236846358
 20
8985179.3608453982
 30
0.0
  0
VERTEX
  5
7F1
  8
SOILS
 10
806974.49743676011
 20
8985214.8810100816
 30
0.0
  0
VERTEX
  5
7F2
  8
SOILS
 10
806905.16990424157
 20
8985277.0412380546
 30
0.0
  0
VERTEX
  5
7F3
  8
SOILS
 10
806834.06469767843
 20
8985298.3533368651
 30
0.0
  0
VERTEX
  5
7F4
  8
SOILS
 10
806764.73716515955
 20
8985298.3533368651
 30
0.0
  0
VERTEX
  5
7F5
  8
SOILS
 10
806714.96352056554
 20
8985275.2652177755
 30
0.0
  0
SEQEND
  5
7F6
  8
SOILS
  0
POLYLINE
  5
148
  8
SOILS
 66
     1
 10
0.0
 20
0.0
 30
0.0
 40
1.0
 41
1.0
  0
VERTEX
  5
7F7
  8
SOILS
 10
807712.54889230209
 20
8985578.987378424
 30
0.0
  0
VERTEX
  5
7F8
  8
SOILS
 10
807665.61429566063
 20
8985550.1308792159
 30
0.0
  0
VERTEX
  5
7F9
  8
SOILS
 10
807624.99783129955
 20
8985529.3902945034
 30
0.0
  0
VERTEX
  5
7FA
  8
SOILS
 10
807579.868377698
 20
8985511.3549824953
 30
0.0
  0
VERTEX
  5
7FB
  8
SOILS
 10
807532.03116565663
 20
8985497.8285225816
 30
0.0
  0
VERTEX
  5
7FC
  8
SOILS
 10
807454.40852301416
 20
8985487.0073353797
 30
0.0
  0
VERTEX
  5
7FD
  8
SOILS
 10
807379.12697598815
 20
8985488.7486176994
 30
0.0
  0
VERTEX
  5
7FE
  8
SOILS
 10
807351.3645974244
 20
8985462.3984067794
 30
0.0
  0
VERTEX
  5
7FF
  8
SOILS
 10
807306.94486193114
 20
8985434.6613756176
 30
0.0
  0
VERTEX
  5
800
  8
SOILS
 10
807308.3329676952
 20
8985359.7713963054
 30
0.0
  0
VERTEX
  5
801
  8
SOILS
 10
807243.09138245892
 20
8985370.8661991358
 30
0.0
  0
VERTEX
  5
802
  8
SOILS
 10
807187.56662533164
 20
8985345.9028566349
 30
0.0
  0
VERTEX
  5
803
  8
SOILS
 10
807137.68215053936
 20
8985284.1469737291
 30
0.0
  0
VERTEX
  5
804
  8
SOILS
 10
807129.15121715458
 20
8985230.8650480546
 30
0.0
  0
VERTEX
  5
805
  8
SOILS
 10
807100.70913452934
 20
8985186.4648783375
 30
0.0
  0
VERTEX
  5
806
  8
SOILS
 10
807059.8236846358
 20
8985179.3608453982
 30
0.0
  0
SEQEND
  5
807
  8
SOILS
  0
POLYLINE
  5
149
  8
SOILS
 66
     1
 10
0.0
 20
0.0
 30
0.0
 40
1.0
 41
1.0
  0
VERTEX
  5
808
  8
SOILS
 10
807715.25665074203
 20
8985701.6274036989
 30
0.0
  0
VERTEX
  5
809
  8
SOILS
 10
807730.60067374236
 20
8985662.8515069801
 30
0.0
  0
VERTEX
  5
80A
  8
SOILS
 10
807712.54889230209
 20
8985578.987378424
 30
0.0
  0
SEQEND
  5
80B
  8
SOILS
  0
POLYLINE
  5
14A
  8
SOILS
 66
     1
 10
0.0
 20
0.0
 30
0.0
 40
1.0
 41
1.0
  0
VERTEX
  5
80C
  8
SOILS
 10
807897.30948177027
 20
8986478.8516415805
 30
0.0
  0
VERTEX
  5
80D
  8
SOILS
 10
807678.34025131864
 20
8986386.7139527667
 30
0.0
  0
VERTEX
  5
80E
  8
SOILS
 10
807539.91757573956
 20
8986320.3882051446
 30
0.0
  0
VERTEX
  5
80F
  8
SOILS
 10
807528.61781384598
 20
8986299.2204061784
 30
0.0
  0
VERTEX
  5
810
  8
SOILS
 10
807550.41081983782
 20
8986208.8609539308
 30
0.0
  0
VERTEX
  5
811
  8
SOILS
 10
807598.30288210989
 20
8986133.9056422003
 30
0.0
  0
VERTEX
  5
812
  8
SOILS
 10
807664.73256722849
 20
8985992.5701873507
 30
0.0
  0
VERTEX
  5
813
  8
SOILS
 10
807646.39872396062
 20
8985894.5451132059
 30
0.0
  0
VERTEX
  5
814
  8
SOILS
 10
807660.80923991045
 20
8985759.2099781856
 30
0.0
  0
VERTEX
  5
815
  8
SOILS
 10
807685.52808886045
 20
8985721.2177331895
 30
0.0
  0
VERTEX
  5
816
  8
SOILS
 10
807715.25665074203
 20
8985701.6274036989
 30
0.0
  0
SEQEND
  5
817
  8
SOILS
  0
POLYLINE
  5
14B
  8
SOILS
 66
     1
 10
0.0
 20
0.0
 30
0.0
 40
1.0
 41
1.0
  0
VERTEX
  5
818
  8
SOILS
 10
809753.61370419629
 20
8986374.2187728956
 30
0.0
  0
VERTEX
  5
819
  8
SOILS
 10
809798.07929188199
 20
8986403.4742227029
 30
0.0
  0
VERTEX
  5
81A
  8
SOILS
 10
809826.02517737832
 20
8986508.1755373683
 30
0.0
  0
VERTEX
  5
81B
  8
SOILS
 10
809802.73041594389
 20
8986603.3124947641
 30
0.0
  0
VERTEX
  5
81C
  8
SOILS
 10
809828.17320018169
 20
8986675.1485209186
 30
0.0
  0
VERTEX
  5
81D
  8
SOILS
 10
809839.84339859476
 20
8986750.816803949
 30
0.0
  0
SEQEND
  5
81E
  8
SOILS
  0
POLYLINE
  5
14C
  8
SOILS
 66
     1
 10
0.0
 20
0.0
 30
0.0
 40
1.0
 41
1.0
  0
VERTEX
  5
81F
  8
SOILS
 10
809599.37077137083
 20
8986285.8992422968
 30
0.0
  0
VERTEX
  5
820
  8
SOILS
 10
809753.61370419629
 20
8986374.2187728956
 30
0.0
  0
SEQEND
  5
821
  8
SOILS
  0
POLYLINE
  5
14D
  8
SOILS
 66
     1
 10
0.0
 20
0.0
 30
0.0
 40
1.0
 41
1.0
  0
VERTEX
  5
822
  8
SOILS
 10
808771.21627104236
 20
8986445.7022823319
 30
0.0
  0
VERTEX
  5
823
  8
SOILS
 10
808864.22980072268
 20
8986377.1817799006
 30
0.0
  0
VERTEX
  5
824
  8
SOILS
 10
809006.78853475512
 20
8986334.2580938619
 30
0.0
  0
VERTEX
  5
825
  8
SOILS
 10
809124.60753286956
 20
8986342.2959081735
 30
0.0
  0
VERTEX
  5
826
  8
SOILS
 10
809229.95648456423
 20
8986312.7207523957
 30
0.0
  0
VERTEX
  5
827
  8
SOILS
 10
809307.44450279989
 20
8986275.3168363981
 30
0.0
  0
VERTEX
  5
828
  8
SOILS
 10
809460.39581978682
 20
8986270.4716379996
 30
0.0
  0
VERTEX
  5
829
  8
SOILS
 10
809599.37077137083
 20
8986285.8992422968
 30
0.0
  0
SEQEND
  5
82A
  8
SOILS
  0
POLYLINE
  5
14E
  8
SOILS
 66
     1
 10
0.0
 20
0.0
 30
0.0
 40
1.0
 41
1.0
  0
VERTEX
  5
82B
  8
SOILS
 10
812068.70736850949
 20
8988110.3965110872
 30
0.0
  0
VERTEX
  5
82C
  8
SOILS
 10
812009.27148275624
 20
8988070.3074135426
 30
0.0
  0
VERTEX
  5
82D
  8
SOILS
 10
811966.58864754217
 20
8988034.4178034272
 30
0.0
  0
SEQEND
  5
82E
  8
SOILS
  0
POLYLINE
  5
14F
  8
SOILS
 66
     1
 10
0.0
 20
0.0
 30
0.0
 40
1.0
 41
1.0
  0
VERTEX
  5
82F
  8
SOILS
 10
812896.50271175418
 20
8988798.4283278231
 30
0.0
  0
VERTEX
  5
830
  8
SOILS
 10
812802.87858707516
 20
8988731.213260049
 30
0.0
  0
VERTEX
  5
831
  8
SOILS
 10
812631.67583380698
 20
8988668.057676347
 30
0.0
  0
VERTEX
  5
832
  8
SOILS
 10
812444.66980752512
 20
8988539.1150001902
 30
0.0
  0
VERTEX
  5
833
  8
SOILS
 10
812262.9315974213
 20
8988347.0167403314
 30
0.0
  0
VERTEX
  5
834
  8
SOILS
 10
812140.95811117545
 20
8988193.4476943258
 30
0.0
  0
VERTEX
  5
835
  8
SOILS
 10
812068.70736850949
 20
8988110.3965110872
 30
0.0
  0
SEQEND
  5
836
  8
SOILS
  0
POLYLINE
  5
150
  8
SOILS
 66
     1
 10
0.0
 20
0.0
 30
0.0
 40
1.0
 41
1.0
  0
VERTEX
  5
837
  8
SOILS
 10
812896.50271175418
 20
8988798.4283278231
 30
0.0
  0
VERTEX
  5
838
  8
SOILS
 10
812907.80707979482
 20
8988697.6586995032
 30
0.0
  0
VERTEX
  5
839
  8
SOILS
 10
812884.43504379783
 20
8988613.4477255885
 30
0.0
  0
VERTEX
  5
83A
  8
SOILS
 10
812911.98060551705
 20
8988599.2735683993
 30
0.0
  0
VERTEX
  5
83B
  8
SOILS
 10
812950.37747240742
 20
8988490.8832104672
 30
0.0
  0
VERTEX
  5
83C
  8
SOILS
 10
812890.27807200456
 20
8988486.7143564187
 30
0.0
  0
VERTEX
  5
83D
  8
SOILS
 10
812917.56740773295
 20
8988296.433608057
 30
0.0
  0
VERTEX
  5
83E
  8
SOILS
 10
812717.0500179003
 20
8988375.5873080101
 30
0.0
  0
VERTEX
  5
83F
  8
SOILS
 10
812704.48941262497
 20
8988318.7981855907
 30
0.0
  0
VERTEX
  5
840
  8
SOILS
 10
812666.33006446925
 20
8988311.3703390267
 30
0.0
  0
VERTEX
  5
841
  8
SOILS
 10
812678.41728480521
 20
8988264.497386802
 30
0.0
  0
VERTEX
  5
842
  8
SOILS
 10
812712.98674234247
 20
8988229.8745376486
 30
0.0
  0
VERTEX
  5
843
  8
SOILS
 10
812691.15298424358
 20
8988180.9692404568
 30
0.0
  0
VERTEX
  5
844
  8
SOILS
 10
812662.70291020302
 20
8988165.7689149641
 30
0.0
  0
VERTEX
  5
845
  8
SOILS
 10
812610.36410502763
 20
8988173.506176874
 30
0.0
  0
SEQEND
  5
846
  8
SOILS
  0
POLYLINE
  5
151
  8
SOILS
 66
     1
 10
0.0
 20
0.0
 30
0.0
 40
1.0
 41
1.0
  0
VERTEX
  5
847
  8
SOILS
 10
812418.89075490378
 20
8989912.2857495416
 30
0.0
  0
VERTEX
  5
848
  8
SOILS
 10
812592.82645227783
 20
8989582.2916326076
 30
0.0
  0
VERTEX
  5
849
  8
SOILS
 10
812702.68591969751
 20
8989329.2283355892
 30
0.0
  0
VERTEX
  5
84A
  8
SOILS
 10
812751.80371229665
 20
8989276.9772405475
 30
0.0
  0
VERTEX
  5
84B
  8
SOILS
 10
812800.40482729801
 20
8989204.1577917766
 30
0.0
  0
VERTEX
  5
84C
  8
SOILS
 10
812745.63392872596
 20
8989169.1979741789
 30
0.0
  0
VERTEX
  5
84D
  8
SOILS
 10
812759.21674893715
 20
8989136.7182763666
 30
0.0
  0
VERTEX
  5
84E
  8
SOILS
 10
812812.65258332714
 20
8989114.1080793254
 30
0.0
  0
VERTEX
  5
84F
  8
SOILS
 10
812883.64469993883
 20
8989049.4448236655
 30
0.0
  0
VERTEX
  5
850
  8
SOILS
 10
812916.29296193377
 20
8988953.9889255296
 30
0.0
  0
VERTEX
  5
851
  8
SOILS
 10
812928.12107587548
 20
8988895.2820096686
 30
0.0
  0
VERTEX
  5
852
  8
SOILS
 10
812896.50271175418
 20
8988798.4283278231
 30
0.0
  0
SEQEND
  5
853
  8
SOILS
  0
POLYLINE
  5
152
  8
SOILS
 66
     1
 10
0.0
 20
0.0
 30
0.0
 40
1.0
 41
1.0
  0
VERTEX
  5
854
  8
SOILS
 10
812461.99171359208
 20
8990323.3079468906
 30
0.0
  0
VERTEX
  5
855
  8
SOILS
 10
812461.99171359208
 20
8990323.3079468906
 30
0.0
  0
VERTEX
  5
856
  8
SOILS
 10
812459.13816354983
 20
8990185.0598325692
 30
0.0
  0
VERTEX
  5
857
  8
SOILS
 10
812423.79906958621
 20
8990066.1520577967
 30
0.0
  0
VERTEX
  5
858
  8
SOILS
 10
812418.89075490378
 20
8989912.2857495416
 30
0.0
  0
SEQEND
  5
859
  8
SOILS
  0
POLYLINE
  5
153
  8
SOILS
 66
     1
 10
0.0
 20
0.0
 30
0.0
 40
1.0
 41
1.0
  0
VERTEX
  5
85A
  8
SOILS
 10
811753.46108137746
 20
8992364.9027817566
 30
0.0
  0
VERTEX
  5
85B
  8
SOILS
 10
812055.92205679137
 20
8992236.5940033142
 30
0.0
  0
VERTEX
  5
85C
  8
SOILS
 10
812173.18990027637
 20
8992228.8481160067
 30
0.0
  0
VERTEX
  5
85D
  8
SOILS
 10
812469.75175462454
 20
8992193.991828138
 30
0.0
  0
VERTEX
  5
85E
  8
SOILS
 10
812784.96267970058
 20
8992115.3075138424
 30
0.0
  0
VERTEX
  5
85F
  8
SOILS
 10
812982.46043506637
 20
8992046.4184255712
 30
0.0
  0
VERTEX
  5
860
  8
SOILS
 10
813146.45307869755
 20
8991964.8477021195
 30
0.0
  0
VERTEX
  5
861
  8
SOILS
 10
813276.16245559871
 20
8991940.2548174504
 30
0.0
  0
VERTEX
  5
862
  8
SOILS
 10
813352.85183839453
 20
8991922.2831492368
 30
0.0
  0
VERTEX
  5
863
  8
SOILS
 10
813433.80489382357
 20
8991898.394273052
 30
0.0
  0
VERTEX
  5
864
  8
SOILS
 10
813495.84438577387
 20
8991890.2081946358
 30
0.0
  0
VERTEX
  5
865
  8
SOILS
 10
813482.75242290134
 20
8991841.7442710511
 30
0.0
  0
VERTEX
  5
866
  8
SOILS
 10
813422.974872194
 20
8991841.9169543162
 30
0.0
  0
VERTEX
  5
867
  8
SOILS
 10
813342.90504552599
 20
8991858.9067011215
 30
0.0
  0
VERTEX
  5
868
  8
SOILS
 10
813296.84714019997
 20
8991857.1369667985
 30
0.0
  0
VERTEX
  5
869
  8
SOILS
 10
813024.50459865655
 20
8991665.6994532049
 30
0.0
  0
VERTEX
  5
86A
  8
SOILS
 10
812897.1780359
 20
8991487.6651642695
 30
0.0
  0
VERTEX
  5
86B
  8
SOILS
 10
812781.17183901614
 20
8991381.6633730214
 30
0.0
  0
VERTEX
  5
86C
  8
SOILS
 10
812530.22494315635
 20
8991432.2562367134
 30
0.0
  0
VERTEX
  5
86D
  8
SOILS
 10
812552.73833614378
 20
8991370.9629357494
 30
0.0
  0
VERTEX
  5
86E
  8
SOILS
 10
812389.28417173598
 20
8991251.1640344523
 30
0.0
  0
VERTEX
  5
86F
  8
SOILS
 10
812411.59678542486
 20
8991208.6978069618
 30
0.0
  0
VERTEX
  5
870
  8
SOILS
 10
812380.22256629681
 20
8990956.5769805778
 30
0.0
  0
VERTEX
  5
871
  8
SOILS
 10
812284.82666891441
 20
8990876.7429490667
 30
0.0
  0
VERTEX
  5
872
  8
SOILS
 10
812258.92381514749
 20
8990768.4253556896
 30
0.0
  0
VERTEX
  5
873
  8
SOILS
 10
812266.42708426528
 20
8990733.0314082783
 30
0.0
  0
VERTEX
  5
874
  8
SOILS
 10
812299.87425434531
 20
8990699.5933260322
 30
0.0
  0
VERTEX
  5
875
  8
SOILS
 10
812384.7212865582
 20
8990586.6957829818
 30
0.0
  0
VERTEX
  5
876
  8
SOILS
 10
812440.29215707688
 20
8990443.3284118511
 30
0.0
  0
VERTEX
  5
877
  8
SOILS
 10
812462.43452311307
 20
8990344.7610773277
 30
0.0
  0
VERTEX
  5
878
  8
SOILS
 10
812461.99171359208
 20
8990323.3079468906
 30
0.0
  0
SEQEND
  5
879
  8
SOILS
  0
POLYLINE
  5
154
  8
SOILS
 66
     1
 10
0.0
 20
0.0
 30
0.0
 40
1.0
 41
1.0
  0
VERTEX
  5
87A
  8
SOILS
 10
811159.74973362847
 20
8992561.5461100806
 30
0.0
  0
VERTEX
  5
87B
  8
SOILS
 10
811582.56489355967
 20
8992437.3996751811
 30
0.0
  0
VERTEX
  5
87C
  8
SOILS
 10
811753.46108137676
 20
8992364.9027817566
 30
0.0
  0
SEQEND
  5
87D
  8
SOILS
  0
POLYLINE
  5
155
  8
SOILS
 66
     1
 10
0.0
 20
0.0
 30
0.0
 40
1.0
 41
1.0
  0
VERTEX
  5
87E
  8
SOILS
 10
809547.00630394742
 20
8993115.452927582
 30
0.0
  0
VERTEX
  5
87F
  8
SOILS
 10
809565.77083631034
 20
8993067.823279703
 30
0.0
  0
VERTEX
  5
880
  8
SOILS
 10
809646.27719693328
 20
8993009.8643211219
 30
0.0
  0
VERTEX
  5
881
  8
SOILS
 10
809699.55344563455
 20
8992951.9053625427
 30
0.0
  0
VERTEX
  5
882
  8
SOILS
 10
809756.38144424825
 20
8992864.3754880466
 30
0.0
  0
VERTEX
  5
883
  8
SOILS
 10
809807.2898304197
 20
8992818.2448765617
 30
0.0
  0
VERTEX
  5
884
  8
SOILS
 10
809839.72281701874
 20
8992792.9592845235
 30
0.0
  0
SEQEND
  5
885
  8
SOILS
  0
POLYLINE
  5
156
  8
SOILS
 66
     1
 10
0.0
 20
0.0
 30
0.0
 40
1.0
 41
1.0
  0
VERTEX
  5
886
  8
SOILS
 10
810252.50147944957
 20
8992871.2378792316
 30
0.0
  0
VERTEX
  5
887
  8
SOILS
 10
810354.56823339709
 20
8992805.9706783891
 30
0.0
  0
VERTEX
  5
888
  8
SOILS
 10
810453.80872626591
 20
8992781.6960694883
 30
0.0
  0
VERTEX
  5
889
  8
SOILS
 10
810608.1045838159
 20
8992702.8165356424
 30
0.0
  0
SEQEND
  5
88A
  8
SOILS
  0
POLYLINE
  5
157
  8
SOILS
 66
     1
 10
0.0
 20
0.0
 30
0.0
 40
1.0
 41
1.0
  0
VERTEX
  5
88B
  8
SOILS
 10
809547.00630394742
 20
8993115.452927582
 30
0.0
  0
VERTEX
  5
88C
  8
SOILS
 10
809547.00630394742
 20
8993115.452927582
 30
0.0
  0
VERTEX
  5
88D
  8
SOILS
 10
809548.86078842403
 20
8993188.0162523258
 30
0.0
  0
VERTEX
  5
88E
  8
SOILS
 10
809676.97430120339
 20
8993171.4674012568
 30
0.0
  0
VERTEX
  5
88F
  8
SOILS
 10
809715.12802798289
 20
8993151.8781888913
 30
0.0
  0
VERTEX
  5
890
  8
SOILS
 10
809728.90573922184
 20
8993182.5855994169
 30
0.0
  0
VERTEX
  5
891
  8
SOILS
 10
809768.64920781227
 20
8993176.2323494107
 30
0.0
  0
VERTEX
  5
892
  8
SOILS
 10
809793.29009085626
 20
8993189.7330003455
 30
0.0
  0
VERTEX
  5
893
  8
SOILS
 10
809800.17894647585
 20
8993224.1464769263
 30
0.0
  0
VERTEX
  5
894
  8
SOILS
 10
809835.17259075597
 20
8993232.4900674224
 30
0.0
  0
VERTEX
  5
895
  8
SOILS
 10
809895.18869905814
 20
8993200.6219551079
 30
0.0
  0
VERTEX
  5
896
  8
SOILS
 10
809938.61734138452
 20
8993139.0105542596
 30
0.0
  0
VERTEX
  5
897
  8
SOILS
 10
810033.62698331184
 20
8993023.2403942067
 30
0.0
  0
VERTEX
  5
898
  8
SOILS
 10
810125.47933734464
 20
8992912.9495265577
 30
0.0
  0
VERTEX
  5
899
  8
SOILS
 10
810168.06679583166
 20
8992908.1866233144
 30
0.0
  0
VERTEX
  5
89A
  8
SOILS
 10
810193.02093415975
 20
8992892.7875678204
 30
0.0
  0
VERTEX
  5
89B
  8
SOILS
 10
810239.39016765833
 20
8992906.3111989032
 30
0.0
  0
VERTEX
  5
89C
  8
SOILS
 10
810252.50147944957
 20
8992871.2378792316
 30
0.0
  0
SEQEND
  5
89D
  8
SOILS
  0
POLYLINE
  5
158
  8
SOILS
 66
     1
 10
0.0
 20
0.0
 30
0.0
 40
1.0
 41
1.0
  0
VERTEX
  5
89E
  8
SOILS
 10
809839.72281701874
 20
8992792.9592845235
 30
0.0
  0
VERTEX
  5
89F
  8
SOILS
 10
809980.84482487105
 20
8992704.0550885163
 30
0.0
  0
VERTEX
  5
8A0
  8
SOILS
 10
810141.97330204467
 20
8992788.9361575544
 30
0.0
  0
VERTEX
  5
8A1
  8
SOILS
 10
810252.50147944957
 20
8992871.2378792316
 30
0.0
  0
VERTEX
  5
8A2
  8
SOILS
 10
810252.50147944957
 20
8992871.2378792316
 30
0.0
  0
VERTEX
  5
8A3
  8
SOILS
 10
810252.50147944957
 20
8992871.2378792316
 30
0.0
  0
SEQEND
  5
8A4
  8
SOILS
  0
POLYLINE
  5
159
  8
SOILS
 66
     1
 10
0.0
 20
0.0
 30
0.0
 40
1.0
 41
1.0
  0
VERTEX
  5
8A5
  8
SOILS
 10
808685.94717080286
 20
8990725.6868083291
 30
0.0
  0
VERTEX
  5
8A6
  8
SOILS
 10
808805.22859207925
 20
8990796.5527449828
 30
0.0
  0
VERTEX
  5
8A7
  8
SOILS
 10
809135.93081454257
 20
8991227.3252543937
 30
0.0
  0
VERTEX
  5
8A8
  8
SOILS
 10
809210.91388855199
 20
8991358.8811789881
 30
0.0
  0
VERTEX
  5
8A9
  8
SOILS
 10
809207.15370776108
 20
8991653.0131577551
 30
0.0
  0
VERTEX
  5
8AA
  8
SOILS
 10
809230.20844458486
 20
8991878.5002326947
 30
0.0
  0
VERTEX
  5
8AB
  8
SOILS
 10
809259.86188359
 20
8992108.4823801741
 30
0.0
  0
VERTEX
  5
8AC
  8
SOILS
 10
809306.13766313775
 20
8992191.2160555832
 30
0.0
  0
VERTEX
  5
8AD
  8
SOILS
 10
809360.93787065439
 20
8992270.2996918149
 30
0.0
  0
VERTEX
  5
8AE
  8
SOILS
 10
809415.88586663315
 20
8992432.9773099441
 30
0.0
  0
VERTEX
  5
8AF
  8
SOILS
 10
809433.1805348437
 20
8992533.1948926169
 30
0.0
  0
VERTEX
  5
8B0
  8
SOILS
 10
809505.47165180219
 20
8992587.5583338663
 30
0.0
  0
VERTEX
  5
8B1
  8
SOILS
 10
809628.00452264305
 20
8992636.526761923
 30
0.0
  0
VERTEX
  5
8B2
  8
SOILS
 10
809765.70817751496
 20
8992722.8043836076
 30
0.0
  0
VERTEX
  5
8B3
  8
SOILS
 10
809839.72281701874
 20
8992792.9592845235
 30
0.0
  0
SEQEND
  5
8B4
  8
SOILS
  0
POLYLINE
  5
15A
  8
SOILS
 66
     1
 10
0.0
 20
0.0
 30
0.0
 40
1.0
 41
1.0
  0
VERTEX
  5
8B5
  8
SOILS
 10
808395.0605118142
 20
8990362.8180828802
 30
0.0
  0
VERTEX
  5
8B6
  8
SOILS
 10
808558.78220426466
 20
8990568.7979221605
 30
0.0
  0
VERTEX
  5
8B7
  8
SOILS
 10
808685.94717080286
 20
8990725.6868083291
 30
0.0
  0
SEQEND
  5
8B8
  8
SOILS
  0
POLYLINE
  5
15B
  8
SOILS
 66
     1
 10
0.0
 20
0.0
 30
0.0
 40
1.0
 41
1.0
  0
VERTEX
  5
8B9
  8
SOILS
 10
806554.09911434341
 20
8988271.855698945
 30
0.0
  0
VERTEX
  5
8BA
  8
SOILS
 10
806774.05468358763
 20
8988426.2537824679
 30
0.0
  0
VERTEX
  5
8BB
  8
SOILS
 10
806921.36037600564
 20
8988522.676285224
 30
0.0
  0
VERTEX
  5
8BC
  8
SOILS
 10
807077.69643492263
 20
8988705.3353119157
 30
0.0
  0
VERTEX
  5
8BD
  8
SOILS
 10
807286.17040278774
 20
8988898.3320852071
 30
0.0
  0
VERTEX
  5
8BE
  8
SOILS
 10
807556.97248714312
 20
8989154.2881076951
 30
0.0
  0
VERTEX
  5
8BF
  8
SOILS
 10
807767.27766287781
 20
8989413.2648871522
 30
0.0
  0
VERTEX
  5
8C0
  8
SOILS
 10
808124.42032945924
 20
8989919.3887981046
 30
0.0
  0
VERTEX
  5
8C1
  8
SOILS
 10
808155.22614987625
 20
8990036.3439878076
 30
0.0
  0
VERTEX
  5
8C2
  8
SOILS
 10
808309.25516420032
 20
8990254.865548024
 30
0.0
  0
VERTEX
  5
8C3
  8
SOILS
 10
808395.0605118142
 20
8990362.8180828802
 30
0.0
  0
SEQEND
  5
8C4
  8
SOILS
  0
POLYLINE
  5
15C
  8
SOILS
 66
     1
 10
0.0
 20
0.0
 30
0.0
 40
1.0
 41
1.0
  0
VERTEX
  5
8C5
  8
SOILS
 10
804952.70142583095
 20
8986863.1276587062
 30
0.0
  0
VERTEX
  5
8C6
  8
SOILS
 10
805161.31967174343
 20
8986754.7452285998
 30
0.0
  0
VERTEX
  5
8C7
  8
SOILS
 10
805226.60303091572
 20
8986742.2514641099
 30
0.0
  0
VERTEX
  5
8C8
  8
SOILS
 10
805343.31738925981
 20
8986796.4328985717
 30
0.0
  0
VERTEX
  5
8C9
  8
SOILS
 10
805480.07367094315
 20
8986927.1750106066
 30
0.0
  0
VERTEX
  5
8CA
  8
SOILS
 10
805772.47191478184
 20
8987202.3790419251
 30
0.0
  0
VERTEX
  5
8CB
  8
SOILS
 10
805920.28872359125
 20
8987435.6030455325
 30
0.0
  0
VERTEX
  5
8CC
  8
SOILS
 10
805963.83296163881
 20
8987643.4577398766
 30
0.0
  0
VERTEX
  5
8CD
  8
SOILS
 10
806225.09830216318
 20
8988020.4965056814
 30
0.0
  0
VERTEX
  5
8CE
  8
SOILS
 10
806384.76047908352
 20
8988044.665644981
 30
0.0
  0
VERTEX
  5
8CF
  8
SOILS
 10
806554.09911434341
 20
8988271.855698945
 30
0.0
  0
SEQEND
  5
8D0
  8
SOILS
  0
POLYLINE
  5
15D
  8
SOILS
 66
     1
 10
0.0
 20
0.0
 30
0.0
 40
1.0
 41
1.0
  0
VERTEX
  5
8D1
  8
SOILS
 10
804341.86713861185
 20
8986739.7384305857
 30
0.0
  0
VERTEX
  5
8D2
  8
SOILS
 10
804463.70020826638
 20
8986758.0800726041
 30
0.0
  0
VERTEX
  5
8D3
  8
SOILS
 10
804545.47856768465
 20
8986809.770154655
 30
0.0
  0
VERTEX
  5
8D4
  8
SOILS
 10
804673.98739312531
 20
8986876.4670347199
 30
0.0
  0
VERTEX
  5
8D5
  8
SOILS
 10
804855.90252813383
 20
8986879.8018787242
 30
0.0
  0
VERTEX
  5
8D6
  8
SOILS
 10
804952.70142583095
 20
8986863.1276587062
 30
0.0
  0
SEQEND
  5
8D7
  8
SOILS
  0
POLYLINE
  5
15E
  8
SOILS
 66
     1
 10
0.0
 20
0.0
 30
0.0
 40
1.0
 41
1.0
  0
VERTEX
  5
8D8
  8
SOILS
 10
802805.86768759496
 20
8986430.8698004503
 30
0.0
  0
VERTEX
  5
8D9
  8
SOILS
 10
803044.18395478046
 20
8986453.0266435388
 30
0.0
  0
VERTEX
  5
8DA
  8
SOILS
 10
803158.26927573595
 20
8986460.2254470233
 30
0.0
  0
VERTEX
  5
8DB
  8
SOILS
 10
803353.10809051525
 20
8986474.5491936691
 30
0.0
  0
VERTEX
  5
8DC
  8
SOILS
 10
803490.99279502954
 20
8986519.9803243224
 30
0.0
  0
VERTEX
  5
8DD
  8
SOILS
 10
803586.33864428895
 20
8986533.1700043082
 30
0.0
  0
VERTEX
  5
8DE
  8
SOILS
 10
803721.28960741207
 20
8986467.2216043826
 30
0.0
  0
VERTEX
  5
8DF
  8
SOILS
 10
803785.83139146178
 20
8986445.2388365306
 30
0.0
  0
VERTEX
  5
8E0
  8
SOILS
 10
803838.54325322644
 20
8986452.630457364
 30
0.0
  0
VERTEX
  5
8E1
  8
SOILS
 10
803862.32455814921
 20
8986489.4640637711
 30
0.0
  0
VERTEX
  5
8E2
  8
SOILS
 10
803877.92343726242
 20
8986562.1919544842
 30
0.0
  0
VERTEX
  5
8E3
  8
SOILS
 10
803860.2447251525
 20
8986628.6860438883
 30
0.0
  0
VERTEX
  5
8E4
  8
SOILS
 10
803886.2427692482
 20
8986682.7124824971
 30
0.0
  0
VERTEX
  5
8E5
  8
SOILS
 10
803986.07501635596
 20
8986686.8683660962
 30
0.0
  0
VERTEX
  5
8E6
  8
SOILS
 10
804067.18876649661
 20
8986645.3095782846
 30
0.0
  0
VERTEX
  5
8E7
  8
SOILS
 10
804167.02101360448
 20
8986643.2316123955
 30
0.0
  0
VERTEX
  5
8E8
  8
SOILS
 10
804243.97509775194
 20
8986667.127955135
 30
0.0
  0
VERTEX
  5
8E9
  8
SOILS
 10
804341.86713861185
 20
8986739.7384305857
 30
0.0
  0
SEQEND
  5
8EA
  8
SOILS
  0
POLYLINE
  5
15F
  8
SOILS
 66
     1
 10
0.0
 20
0.0
 30
0.0
 40
1.0
 41
1.0
  0
VERTEX
  5
8EB
  8
SOILS
 10
801571.00123881456
 20
8986350.5100534819
 30
0.0
  0
VERTEX
  5
8EC
  8
SOILS
 10
801704.35297590122
 20
8986294.0635779388
 30
0.0
  0
VERTEX
  5
8ED
  8
SOILS
 10
801787.66959907627
 20
8986314.5886524059
 30
0.0
  0
VERTEX
  5
8EE
  8
SOILS
 10
801848.15975014819
 20
8986310.0275247488
 30
0.0
  0
VERTEX
  5
8EF
  8
SOILS
 10
801915.49784285109
 20
8986280.3801949583
 30
0.0
  0
VERTEX
  5
8F0
  8
SOILS
 10
802129.31834794604
 20
8986297.3837751448
 30
0.0
  0
VERTEX
  5
8F1
  8
SOILS
 10
802332.45955695945
 20
8986343.9213651791
 30
0.0
  0
VERTEX
  5
8F2
  8
SOILS
 10
802530.42518594314
 20
8986362.0193596855
 30
0.0
  0
VERTEX
  5
8F3
  8
SOILS
 10
802675.34125126025
 20
8986393.0444518328
 30
0.0
  0
VERTEX
  5
8F4
  8
SOILS
 10
802740.03591387405
 20
8986421.484095538
 30
0.0
  0
VERTEX
  5
8F5
  8
SOILS
 10
802805.86768759496
 20
8986430.8698004503
 30
0.0
  0
SEQEND
  5
8F6
  8
SOILS
  0
POLYLINE
  5
160
  8
SOILS
 66
     1
 10
0.0
 20
0.0
 30
0.0
 40
1.0
 41
1.0
  0
VERTEX
  5
8F7
  8
SOILS
 10
800321.72862050671
 20
8986298.0403011981
 30
0.0
  0
VERTEX
  5
8F8
  8
SOILS
 10
800786.220313792
 20
8986219.0420665462
 30
0.0
  0
VERTEX
  5
8F9
  8
SOILS
 10
801026.50311533641
 20
8986198.3914825339
 30
0.0
  0
VERTEX
  5
8FA
  8
SOILS
 10
801171.35494006367
 20
8986242.7508917619
 30
0.0
  0
VERTEX
  5
8FB
  8
SOILS
 10
801363.09730572649
 20
8986296.3441417664
 30
0.0
  0
VERTEX
  5
8FC
  8
SOILS
 10
801486.36025508086
 20
8986322.5706258118
 30
0.0
  0
VERTEX
  5
8FD
  8
SOILS
 10
801571.00123881456
 20
8986350.5100534819
 30
0.0
  0
SEQEND
  5
8FE
  8
SOILS
  0
POLYLINE
  5
161
  8
SOILS
 66
     1
 10
0.0
 20
0.0
 30
0.0
 40
1.0
 41
1.0
  0
VERTEX
  5
8FF
  8
SOILS
 10
799795.77333519969
 20
8985814.0944358818
 30
0.0
  0
VERTEX
  5
900
  8
SOILS
 10
799749.09062846075
 20
8986088.3883367795
 30
0.0
  0
VERTEX
  5
901
  8
SOILS
 10
799748.41094033455
 20
8986092.3819849789
 30
0.0
  0
VERTEX
  5
902
  8
SOILS
 10
800115.81290968705
 20
8986088.3883367795
 30
0.0
  0
VERTEX
  5
903
  8
SOILS
 10
800321.72862050671
 20
8986298.0403011981
 30
0.0
  0
SEQEND
  5
904
  8
SOILS
  0
POLYLINE
  5
162
  8
SOILS
 66
     1
 10
0.0
 20
0.0
 30
0.0
 40
1.0
 41
1.0
  0
VERTEX
  5
905
  8
SOILS
 10
801482.96063776792
 20
8985635.8377336022
 30
0.0
  0
VERTEX
  5
906
  8
SOILS
 10
801466.35220724402
 20
8985652.4310348928
 30
0.0
  0
VERTEX
  5
907
  8
SOILS
 10
801433.13525843597
 20
8985683.1593367122
 30
0.0
  0
VERTEX
  5
908
  8
SOILS
 10
801412.22090926359
 20
8985690.5341426395
 30
0.0
  0
VERTEX
  5
909
  8
SOILS
 10
801370.3922109186
 20
8985751.9907944575
 30
0.0
  0
VERTEX
  5
90A
  8
SOILS
 10
801270.90530086472
 20
8985866.4196528904
 30
0.0
  0
VERTEX
  5
90B
  8
SOILS
 10
801183.14677434892
 20
8985923.4105739426
 30
0.0
  0
VERTEX
  5
90C
  8
SOILS
 10
801054.97758153814
 20
8985960.9089232218
 30
0.0
  0
VERTEX
  5
90D
  8
SOILS
 10
800955.53455166891
 20
8985973.9434146285
 30
0.0
  0
VERTEX
  5
90E
  8
SOILS
 10
800869.19528584834
 20
8985966.1015493833
 30
0.0
  0
VERTEX
  5
90F
  8
SOILS
 10
800801.69369557709
 20
8985986.4903701115
 30
0.0
  0
VERTEX
  5
910
  8
SOILS
 10
800685.5281028233
 20
8986002.1741006039
 30
0.0
  0
VERTEX
  5
911
  8
SOILS
 10
800585.06055840058
 20
8986017.8578310944
 30
0.0
  0
VERTEX
  5
912
  8
SOILS
 10
800483.02324424917
 20
8986025.6996481605
 30
0.0
  0
VERTEX
  5
913
  8
SOILS
 10
800412.38202675944
 20
8986005.3108274303
 30
0.0
  0
VERTEX
  5
914
  8
SOILS
 10
800335.46155483299
 20
8986014.7210560888
 30
0.0
  0
VERTEX
  5
915
  8
SOILS
 10
800200.0802148584
 20
8986054.4259161595
 30
0.0
  0
VERTEX
  5
916
  8
SOILS
 10
800059.13706146774
 20
8986056.6357513871
 30
0.0
  0
VERTEX
  5
917
  8
SOILS
 10
799901.31969527423
 20
8985989.0615090169
 30
0.0
  0
VERTEX
  5
918
  8
SOILS
 10
799820.15653604572
 20
8985901.2149939332
 30
0.0
  0
VERTEX
  5
919
  8
SOILS
 10
799795.77333519969
 20
8985814.0944358818
 30
0.0
  0
SEQEND
  5
91A
  8
SOILS
  0
POLYLINE
  5
163
  8
SOILS
 66
     1
 10
0.0
 20
0.0
 30
0.0
 40
1.0
 41
1.0
  0
VERTEX
  5
91B
  8
SOILS
 10
804715.54355931806
 20
8985862.1509219054
 30
0.0
  0
VERTEX
  5
91C
  8
SOILS
 10
804569.29102753836
 20
8985881.4592134748
 30
0.0
  0
VERTEX
  5
91D
  8
SOILS
 10
804499.88556381175
 20
8985902.5633181576
 30
0.0
  0
VERTEX
  5
91E
  8
SOILS
 10
804468.20047225291
 20
8985919.1451284587
 30
0.0
  0
VERTEX
  5
91F
  8
SOILS
 10
804412.33634577692
 20
8985906.874872135
 30
0.0
  0
VERTEX
  5
920
  8
SOILS
 10
804341.34066415485
 20
8985820.8980397321
 30
0.0
  0
VERTEX
  5
921
  8
SOILS
 10
804152.01881724317
 20
8985799.4038677681
 30
0.0
  0
VERTEX
  5
922
  8
SOILS
 10
804057.3579376674
 20
8985795.1050333753
 30
0.0
  0
VERTEX
  5
923
  8
SOILS
 10
803915.3665744235
 20
8985810.1509537511
 30
0.0
  0
VERTEX
  5
924
  8
SOILS
 10
803786.2834451251
 20
8985777.9096476231
 30
0.0
  0
VERTEX
  5
925
  8
SOILS
 10
803726.04472751135
 20
8985756.4154274762
 30
0.0
  0
VERTEX
  5
926
  8
SOILS
 10
803661.50320674246
 20
8985756.4154274762
 30
0.0
  0
VERTEX
  5
927
  8
SOILS
 10
803609.79865849891
 20
8985773.6912742425
 30
0.0
  0
VERTEX
  5
928
  8
SOILS
 10
803556.38655674655
 20
8985778.4558670875
 30
0.0
  0
VERTEX
  5
929
  8
SOILS
 10
803516.3274584919
 20
8985751.7741760667
 30
0.0
  0
VERTEX
  5
92A
  8
SOILS
 10
803423.81012594094
 20
8985716.5163046494
 30
0.0
  0
VERTEX
  5
92B
  8
SOILS
 10
803291.69847405225
 20
8985660.3842446897
 30
0.0
  0
VERTEX
  5
92C
  8
SOILS
 10
803163.42976098252
 20
8985630.7372039817
 30
0.0
  0
VERTEX
  5
92D
  8
SOILS
 10
803115.56832707895
 20
8985628.8244963437
 30
0.0
  0
VERTEX
  5
92E
  8
SOILS
 10
803079.19358465599
 20
8985617.3482504971
 30
0.0
  0
VERTEX
  5
92F
  8
SOILS
 10
803015.05927200138
 20
8985598.2211259026
 30
0.0
  0
VERTEX
  5
930
  8
SOILS
 10
802950.92487158661
 20
8985571.4431707487
 30
0.0
  0
VERTEX
  5
931
  8
SOILS
 10
802929.8658933253
 20
8985569.5304631088
 30
0.0
  0
VERTEX
  5
932
  8
SOILS
 10
802909.76402965339
 20
8985585.7885021474
 30
0.0
  0
VERTEX
  5
933
  8
SOILS
 10
802893.49115090235
 20
8985600.1338335443
 30
0.0
  0
VERTEX
  5
934
  8
SOILS
 10
802860.30193437112
 20
8985608.8693460207
 30
0.0
  0
VERTEX
  5
935
  8
SOILS
 10
802780.26667141123
 20
8985587.0614724625
 30
0.0
  0
VERTEX
  5
936
  8
SOILS
 10
802709.932702975
 20
8985555.5612267181
 30
0.0
  0
VERTEX
  5
937
  8
SOILS
 10
802677.1909765678
 20
8985549.5034760348
 30
0.0
  0
VERTEX
  5
938
  8
SOILS
 10
802638.3860617535
 20
8985556.7727672178
 30
0.0
  0
VERTEX
  5
939
  8
SOILS
 10
802617.77088768058
 20
8985556.7727672178
 30
0.0
  0
VERTEX
  5
93A
  8
SOILS
 10
802569.26467834262
 20
8985557.9843077213
 30
0.0
  0
VERTEX
  5
93B
  8
SOILS
 10
802534.09769412468
 20
8985561.6189774033
 30
0.0
  0
VERTEX
  5
93C
  8
SOILS
 10
802503.78131328861
 20
8985566.4651394077
 30
0.0
  0
VERTEX
  5
93D
  8
SOILS
 10
802412.71615157125
 20
8985580.7014870867
 30
0.0
  0
VERTEX
  5
93E
  8
SOILS
 10
802355.87533994333
 20
8985631.3510685153
 30
0.0
  0
VERTEX
  5
93F
  8
SOILS
 10
802317.46938376862
 20
8985657.4432742093
 30
0.0
  0
VERTEX
  5
940
  8
SOILS
 10
802208.61888109252
 20
8985691.6524543613
 30
0.0
  0
VERTEX
  5
941
  8
SOILS
 10
802170.89087377198
 20
8985758.5280831456
 30
0.0
  0
VERTEX
  5
942
  8
SOILS
 10
802134.10751906922
 20
8985772.8102020584
 30
0.0
  0
VERTEX
  5
943
  8
SOILS
 10
802104.70165206608
 20
8985769.5458457582
 30
0.0
  0
VERTEX
  5
944
  8
SOILS
 10
802024.10779435455
 20
8985732.5500164572
 30
0.0
  0
VERTEX
  5
945
  8
SOILS
 10
801934.80108716059
 20
8985668.3514267579
 30
0.0
  0
VERTEX
  5
946
  8
SOILS
 10
801866.54589859664
 20
8985632.1973545607
 30
0.0
  0
VERTEX
  5
947
  8
SOILS
 10
801805.9027812006
 20
8985588.5161304921
 30
0.0
  0
VERTEX
  5
948
  8
SOILS
 10
801733.31775928719
 20
8985556.5587023832
 30
0.0
  0
VERTEX
  5
949
  8
SOILS
 10
801677.95623644721
 20
8985559.0169549622
 30
0.0
  0
VERTEX
  5
94A
  8
SOILS
 10
801569.19068580866
 20
8985588.6749807671
 30
0.0
  0
VERTEX
  5
94B
  8
SOILS
 10
801482.96063776792
 20
8985635.8377336022
 30
0.0
  0
SEQEND
  5
94C
  8
SOILS
  0
POLYLINE
  5
164
  8
SOILS
 66
     1
 10
0.0
 20
0.0
 30
0.0
 40
1.0
 41
1.0
  0
VERTEX
  5
94D
  8
SOILS
 10
805315.67971818126
 20
8985797.4621556178
 30
0.0
  0
VERTEX
  5
94E
  8
SOILS
 10
805220.41504726361
 20
8985792.4291506149
 30
0.0
  0
VERTEX
  5
94F
  8
SOILS
 10
805111.64335339889
 20
8985820.2290569991
 30
0.0
  0
VERTEX
  5
950
  8
SOILS
 10
805020.5787182441
 20
8985818.9654336479
 30
0.0
  0
VERTEX
  5
951
  8
SOILS
 10
804935.83791979309
 20
8985836.6562568862
 30
0.0
  0
VERTEX
  5
952
  8
SOILS
 10
804800.5057256252
 20
8985853.0835049544
 30
0.0
  0
VERTEX
  5
953
  8
SOILS
 10
804715.54355931806
 20
8985862.1509219054
 30
0.0
  0
SEQEND
  5
954
  8
SOILS
  0
POLYLINE
  5
165
  8
SOILS
 66
     1
 10
0.0
 20
0.0
 30
0.0
 40
1.0
 41
1.0
  0
VERTEX
  5
955
  8
SOILS
 10
807897.30948177027
 20
8986478.8516415805
 30
0.0
  0
VERTEX
  5
956
  8
SOILS
 10
807722.93287473975
 20
8986579.1387301646
 30
0.0
  0
VERTEX
  5
957
  8
SOILS
 10
807694.06813817553
 20
8986579.8328629844
 30
0.0
  0
VERTEX
  5
958
  8
SOILS
 10
807608.60296563501
 20
8986590.9015521165
 30
0.0
  0
VERTEX
  5
959
  8
SOILS
 10
807574.57519877295
 20
8986579.0422251299
 30
0.0
  0
VERTEX
  5
95A
  8
SOILS
 10
807534.21666213777
 20
8986548.9986128025
 30
0.0
  0
VERTEX
  5
95B
  8
SOILS
 10
807448.13936102018
 20
8986525.3386423551
 30
0.0
  0
VERTEX
  5
95C
  8
SOILS
 10
807329.92175530712
 20
8986515.3776171096
 30
0.0
  0
VERTEX
  5
95D
  8
SOILS
 10
807238.76602488849
 20
8986484.0714414027
 30
0.0
  0
VERTEX
  5
95E
  8
SOILS
 10
807150.45890830294
 20
8986466.9953499418
 30
0.0
  0
VERTEX
  5
95F
  8
SOILS
 10
807110.57831463998
 20
8986449.9192103017
 30
0.0
  0
VERTEX
  5
960
  8
SOILS
 10
806985.27914919285
 20
8986393.4167887829
 30
0.0
  0
VERTEX
  5
961
  8
SOILS
 10
806841.36074375536
 20
8986345.1900956351
 30
0.0
  0
VERTEX
  5
962
  8
SOILS
 10
806810.07417203474
 20
8986318.3974936828
 30
0.0
  0
VERTEX
  5
963
  8
SOILS
 10
806631.87990117155
 20
8986245.1524361949
 30
0.0
  0
VERTEX
  5
964
  8
SOILS
 10
806518.44093533745
 20
8986243.8790322561
 30
0.0
  0
VERTEX
  5
965
  8
SOILS
 10
806424.12082927627
 20
8986198.0354786832
 30
0.0
  0
VERTEX
  5
966
  8
SOILS
 10
806348.91967074864
 20
8986167.4731096383
 30
0.0
  0
VERTEX
  5
967
  8
SOILS
 10
806238.02988036675
 20
8986147.0981648192
 30
0.0
  0
VERTEX
  5
968
  8
SOILS
 10
806127.14000222471
 20
8986148.3716169391
 30
0.0
  0
VERTEX
  5
969
  8
SOILS
 10
806024.72057942464
 20
8986064.5783133488
 30
0.0
  0
VERTEX
  5
96A
  8
SOILS
 10
805938.25406106794
 20
8985995.6385945864
 30
0.0
  0
VERTEX
  5
96B
  8
SOILS
 10
805749.24490435247
 20
8985936.9936938211
 30
0.0
  0
VERTEX
  5
96C
  8
SOILS
 10
805539.10436707083
 20
8985890.077792488
 30
0.0
  0
VERTEX
  5
96D
  8
SOILS
 10
805399.40196978394
 20
8985843.1618911531
 30
0.0
  0
VERTEX
  5
96E
  8
SOILS
 10
805315.67971818126
 20
8985797.4621556178
 30
0.0
  0
SEQEND
  5
96F
  8
SOILS
  0
POLYLINE
  5
166
  8
SOILS
 66
     1
 10
0.0
 20
0.0
 30
0.0
 40
1.0
 41
1.0
  0
VERTEX
  5
970
  8
SOILS
 10
808167.21061817254
 20
8986331.1853985842
 30
0.0
  0
VERTEX
  5
971
  8
SOILS
 10
808126.86199845909
 20
8986366.4582058769
 30
0.0
  0
VERTEX
  5
972
  8
SOILS
 10
808102.90499727684
 20
8986423.1466513332
 30
0.0
  0
VERTEX
  5
973
  8
SOILS
 10
808060.03458334634
 20
8986458.4194586277
 30
0.0
  0
VERTEX
  5
974
  8
SOILS
 10
807980.40775950172
 20
8986495.2312743887
 30
0.0
  0
VERTEX
  5
975
  8
SOILS
 10
807897.30948177027
 20
8986478.8516415805
 30
0.0
  0
SEQEND
  5
976
  8
SOILS
  0
POLYLINE
  5
167
  8
SOILS
 66
     1
 10
0.0
 20
0.0
 30
0.0
 40
1.0
 41
1.0
  0
VERTEX
  5
977
  8
SOILS
 10
808771.21627104236
 20
8986445.7022823319
 30
0.0
  0
VERTEX
  5
978
  8
SOILS
 10
808663.44987221051
 20
8986373.5598298032
 30
0.0
  0
VERTEX
  5
979
  8
SOILS
 10
808532.06926419958
 20
8986384.4981913678
 30
0.0
  0
VERTEX
  5
97A
  8
SOILS
 10
808422.58539493685
 20
8986346.7110496834
 30
0.0
  0
VERTEX
  5
97B
  8
SOILS
 10
808310.11556686275
 20
8986320.8566616904
 30
0.0
  0
VERTEX
  5
97C
  8
SOILS
 10
808239.08162171976
 20
8986323.6269295551
 30
0.0
  0
VERTEX
  5
97D
  8
SOILS
 10
808167.21061817254
 20
8986331.1853985842
 30
0.0
  0
SEQEND
  5
97E
  8
SOILS
  0
POLYLINE
  5
168
  8
SOILS
 66
     1
 10
0.0
 20
0.0
 30
0.0
 40
1.0
 41
1.0
  0
VERTEX
  5
97F
  8
SOILS
 10
809262.0435186153
 20
8986738.2982748114
 30
0.0
  0
VERTEX
  5
980
  8
SOILS
 10
809171.89220562507
 20
8986719.7973488942
 30
0.0
  0
VERTEX
  5
981
  8
SOILS
 10
809162.71071576979
 20
8986722.9780161083
 30
0.0
  0
VERTEX
  5
982
  8
SOILS
 10
809100.91609456576
 20
8986711.8651456889
 30
0.0
  0
VERTEX
  5
983
  8
SOILS
 10
809047.77280282485
 20
8986690.2567865346
 30
0.0
  0
VERTEX
  5
984
  8
SOILS
 10
809011.93190672959
 20
8986637.1619611904
 30
0.0
  0
VERTEX
  5
985
  8
SOILS
 10
808989.06796094903
 20
8986589.0061893668
 30
0.0
  0
VERTEX
  5
986
  8
SOILS
 10
808939.16092059307
 20
8986526.8199440632
 30
0.0
  0
VERTEX
  5
987
  8
SOILS
 10
808860.19352580933
 20
8986482.3719313573
 30
0.0
  0
VERTEX
  5
988
  8
SOILS
 10
808771.21627104236
 20
8986445.7022823319
 30
0.0
  0
SEQEND
  5
989
  8
SOILS
  0
POLYLINE
  5
169
  8
SOILS
 66
     1
 10
0.0
 20
0.0
 30
0.0
 40
1.0
 41
1.0
  0
VERTEX
  5
98A
  8
SOILS
 10
809684.11973153614
 20
8986722.6463432834
 30
0.0
  0
VERTEX
  5
98B
  8
SOILS
 10
809682.95646783849
 20
8986645.1031741053
 30
0.0
  0
VERTEX
  5
98C
  8
SOILS
 10
809640.010755511
 20
8986628.5535000283
 30
0.0
  0
VERTEX
  5
98D
  8
SOILS
 10
809591.10470992955
 20
8986583.8469039332
 30
0.0
  0
VERTEX
  5
98E
  8
SOILS
 10
809518.22533973714
 20
8986583.8469039332
 30
0.0
  0
VERTEX
  5
98F
  8
SOILS
 10
809477.36876300501
 20
8986601.4985084534
 30
0.0
  0
VERTEX
  5
990
  8
SOILS
 10
809417.74024324049
 20
8986621.3565273955
 30
0.0
  0
VERTEX
  5
991
  8
SOILS
 10
809382.40475911298
 20
8986655.5564569402
 30
0.0
  0
VERTEX
  5
992
  8
SOILS
 10
809352.5905431112
 20
8986675.4145240635
 30
0.0
  0
VERTEX
  5
993
  8
SOILS
 10
809297.37891498208
 20
8986686.4467407484
 30
0.0
  0
VERTEX
  5
994
  8
SOILS
 10
809262.0435186153
 20
8986738.2982748114
 30
0.0
  0
SEQEND
  5
995
  8
SOILS
  0
POLYLINE
  5
16A
  8
SOILS
 66
     1
 10
0.0
 20
0.0
 30
0.0
 40
1.0
 41
1.0
  0
VERTEX
  5
996
  8
SOILS
 10
809839.84339859476
 20
8986750.816803949
 30
0.0
  0
VERTEX
  5
997
  8
SOILS
 10
809765.85333316622
 20
8986761.0012891833
 30
0.0
  0
VERTEX
  5
998
  8
SOILS
 10
809726.22496280505
 20
8986768.4248535205
 30
0.0
  0
VERTEX
  5
999
  8
SOILS
 10
809695.26529846026
 20
8986764.7130954433
 30
0.0
  0
VERTEX
  5
99A
  8
SOILS
 10
809684.11973153614
 20
8986722.6463432834
 30
0.0
  0
SEQEND
  5
99B
  8
SOILS
  0
POLYLINE
  5
16B
  8
SOILS
 66
     1
 10
0.0
 20
0.0
 30
0.0
 40
1.0
 41
1.0
  0
VERTEX
  5
99C
  8
SOILS
 10
809881.95467451809
 20
8986823.2534327209
 30
0.0
  0
VERTEX
  5
99D
  8
SOILS
 10
809892.68084544805
 20
8986819.1129309684
 30
0.0
  0
VERTEX
  5
99E
  8
SOILS
 10
809953.49957134353
 20
8986804.2596834004
 30
0.0
  0
VERTEX
  5
99F
  8
SOILS
 10
810172.50838172191
 20
8986741.1407166887
 30
0.0
  0
VERTEX
  5
9A0
  8
SOILS
 10
810371.46658048418
 20
8986583.7758862507
 30
0.0
  0
VERTEX
  5
9A1
  8
SOILS
 10
810486.00141005218
 20
8986516.1466702186
 30
0.0
  0
VERTEX
  5
9A2
  8
SOILS
 10
810532.47465043131
 20
8986488.0717509855
 30
0.0
  0
VERTEX
  5
9A3
  8
SOILS
 10
810575.31443599262
 20
8986493.4743948448
 30
0.0
  0
SEQEND
  5
9A4
  8
SOILS
  0
POLYLINE
  5
16C
  8
SOILS
 66
     1
 10
0.0
 20
0.0
 30
0.0
 40
1.0
 41
1.0
  0
VERTEX
  5
9A5
  8
SOILS
 10
810988.22776425665
 20
8987116.8557783738
 30
0.0
  0
VERTEX
  5
9A6
  8
SOILS
 10
810955.55106828315
 20
8987162.5613918975
 30
0.0
  0
VERTEX
  5
9A7
  8
SOILS
 10
810947.05835464271
 20
8987181.5889640935
 30
0.0
  0
SEQEND
  5
9A8
  8
SOILS
  0
POLYLINE
  5
16D
  8
SOILS
 66
     1
 10
0.0
 20
0.0
 30
0.0
 40
1.0
 41
1.0
  0
VERTEX
  5
9A9
  8
SOILS
 10
811204.69503433455
 20
8986580.0625382233
 30
0.0
  0
VERTEX
  5
9AA
  8
SOILS
 10
811239.1015749512
 20
8986768.6925429758
 30
0.0
  0
VERTEX
  5
9AB
  8
SOILS
 10
811232.16280133813
 20
8986901.5641255844
 30
0.0
  0
VERTEX
  5
9AC
  8
SOILS
 10
811173.48244460521
 20
8986965.7900334857
 30
0.0
  0
VERTEX
  5
9AD
  8
SOILS
 10
811122.35123485571
 20
8987024.7336517796
 30
0.0
  0
VERTEX
  5
9AE
  8
SOILS
 10
811056.16877069813
 20
8987068.5195233449
 30
0.0
  0
VERTEX
  5
9AF
  8
SOILS
 10
810988.22776425665
 20
8987116.8557783738
 30
0.0
  0
SEQEND
  5
9B0
  8
SOILS
  0
POLYLINE
  5
16E
  8
SOILS
 66
     1
 10
0.0
 20
0.0
 30
0.0
 40
1.0
 41
1.0
  0
VERTEX
  5
9B1
  8
SOILS
 10
810575.31443599262
 20
8986493.4743948448
 30
0.0
  0
VERTEX
  5
9B2
  8
SOILS
 10
810507.19729448983
 20
8986589.0409755055
 30
0.0
  0
VERTEX
  5
9B3
  8
SOILS
 10
810481.10982257791
 20
8986720.8069659807
 30
0.0
  0
VERTEX
  5
9B4
  8
SOILS
 10
810447.77588919725
 20
8986817.8215076141
 30
0.0
  0
VERTEX
  5
9B5
  8
SOILS
 10
810411.54340633343
 20
8986887.3244534694
 30
0.0
  0
VERTEX
  5
9B6
  8
SOILS
 10
810339.07835284516
 20
8986932.2118218504
 30
0.0
  0
VERTEX
  5
9B7
  8
SOILS
 10
810262.26538737165
 20
8986942.347645035
 30
0.0
  0
VERTEX
  5
9B8
  8
SOILS
 10
810220.23563002027
 20
8986916.2840584069
 30
0.0
  0
VERTEX
  5
9B9
  8
SOILS
 10
810201.39470733725
 20
8986868.5007680766
 30
0.0
  0
VERTEX
  5
9BA
  8
SOILS
 10
810159.36494998611
 20
8986872.8446991816
 30
0.0
  0
VERTEX
  5
9BB
  8
SOILS
 10
810111.53800590767
 20
8986904.7002260685
 30
0.0
  0
VERTEX
  5
9BC
  8
SOILS
 10
810013.58918408945
 20
8986998.0613559056
 30
0.0
  0
VERTEX
  5
9BD
  8
SOILS
 10
810007.12773912575
 20
8987075.5284484718
 30
0.0
  0
VERTEX
  5
9BE
  8
SOILS
 10
810026.51216177724
 20
8987089.7307327166
 30
0.0
  0
VERTEX
  5
9BF
  8
SOILS
 10
810069.15799692203
 20
8987091.0218669865
 30
0.0
  0
VERTEX
  5
9C0
  8
SOILS
 10
810116.9730055898
 20
8987151.7044067699
 30
0.0
  0
VERTEX
  5
9C1
  8
SOILS
 10
810177.52783605468
 20
8987211.4638611954
 30
0.0
  0
SEQEND
  5
9C2
  8
SOILS
  0
POLYLINE
  5
16F
  8
SOILS
 66
     1
 10
0.0
 20
0.0
 30
0.0
 40
1.0
 41
1.0
  0
VERTEX
  5
9C3
  8
SOILS
 10
811204.69503433455
 20
8986580.0625382233
 30
0.0
  0
VERTEX
  5
9C4
  8
SOILS
 10
811206.97487321298
 20
8986507.1744963694
 30
0.0
  0
VERTEX
  5
9C5
  8
SOILS
 10
811185.31649162807
 20
8986426.314309882
 30
0.0
  0
VERTEX
  5
9C6
  8
SOILS
 10
811113.50174247765
 20
8986369.3705091123
 30
0.0
  0
VERTEX
  5
9C7
  8
SOILS
 10
810966.4525736199
 20
8986352.2873833366
 30
0.0
  0
VERTEX
  5
9C8
  8
SOILS
 10
810846.76129578275
 20
8986391.0091736391
 30
0.0
  0
VERTEX
  5
9C9
  8
SOILS
 10
810784.06590214605
 20
8986444.5363203436
 30
0.0
  0
VERTEX
  5
9CA
  8
SOILS
 10
810725.93018626666
 20
8986471.8693601284
 30
0.0
  0
VERTEX
  5
9CB
  8
SOILS
 10
810646.1360888019
 20
8986480.9803412706
 30
0.0
  0
VERTEX
  5
9CC
  8
SOILS
 10
810575.31443599262
 20
8986493.4743948448
 30
0.0
  0
SEQEND
  5
9CD
  8
SOILS
  0
POLYLINE
  5
170
  8
SOILS
 66
     1
 10
0.0
 20
0.0
 30
0.0
 40
1.0
 41
1.0
  0
VERTEX
  5
9CE
  8
SOILS
 10
810547.57619153056
 20
8987189.925893385
 30
0.0
  0
VERTEX
  5
9CF
  8
SOILS
 10
810586.5990153423
 20
8987136.6280846596
 30
0.0
  0
VERTEX
  5
9D0
  8
SOILS
 10
810631.29151006427
 20
8987077.4645717144
 30
0.0
  0
VERTEX
  5
9D1
  8
SOILS
 10
810651.96179764916
 20
8987038.9525100272
 30
0.0
  0
VERTEX
  5
9D2
  8
SOILS
 10
810679.89460685011
 20
8987031.6966129504
 30
0.0
  0
VERTEX
  5
9D3
  8
SOILS
 10
810741.90546960454
 20
8987042.3013744857
 30
0.0
  0
VERTEX
  5
9D4
  8
SOILS
 10
810789.39120136632
 20
8987021.0918032397
 30
0.0
  0
VERTEX
  5
9D5
  8
SOILS
 10
810870.53566763608
 20
8986952.5359846875
 30
0.0
  0
VERTEX
  5
9D6
  8
SOILS
 10
810953.39418168238
 20
8986882.4096346125
 30
0.0
  0
VERTEX
  5
9D7
  8
SOILS
 10
811020.63740542566
 20
8986848.3708679955
 30
0.0
  0
VERTEX
  5
9D8
  8
SOILS
 10
811131.79021363484
 20
8986693.7530825455
 30
0.0
  0
VERTEX
  5
9D9
  8
SOILS
 10
811204.69503433455
 20
8986580.0625382233
 30
0.0
  0
SEQEND
  5
9DA
  8
SOILS
  0
POLYLINE
  5
171
  8
SOILS
 66
     1
 10
0.0
 20
0.0
 30
0.0
 40
1.0
 41
1.0
  0
VERTEX
  5
9DB
  8
SOILS
 10
812571.46134825982
 20
8988073.7988236882
 30
0.0
  0
VERTEX
  5
9DC
  8
SOILS
 10
812441.12569276383
 20
8988097.8629015312
 30
0.0
  0
VERTEX
  5
9DD
  8
SOILS
 10
812316.82453823858
 20
8988111.1256709527
 30
0.0
  0
VERTEX
  5
9DE
  8
SOILS
 10
812219.07326501166
 20
8988119.5655976068
 30
0.0
  0
VERTEX
  5
9DF
  8
SOILS
 10
812145.45802412089
 20
8988108.7142495699
 30
0.0
  0
VERTEX
  5
9E0
  8
SOILS
 10
812043.35006287193
 20
8988040.7400629651
 30
0.0
  0
VERTEX
  5
9E1
  8
SOILS
 10
811975.55745921528
 20
8987960.1082990281
 30
0.0
  0
VERTEX
  5
9E2
  8
SOILS
 10
811913.14526829123
 20
8987902.0534617584
 30
0.0
  0
VERTEX
  5
9E3
  8
SOILS
 10
811858.30609517056
 20
8987890.0793212336
 30
0.0
  0
VERTEX
  5
9E4
  8
SOILS
 10
811793.86348033778
 20
8987801.1684563067
 30
0.0
  0
VERTEX
  5
9E5
  8
SOILS
 10
811709.47442544776
 20
8987715.3234932423
 30
0.0
  0
VERTEX
  5
9E6
  8
SOILS
 10
811691.06229993026
 20
8987634.0773347933
 30
0.0
  0
VERTEX
  5
9E7
  8
SOILS
 10
811821.48175637459
 20
8987623.3467264529
 30
0.0
  0
VERTEX
  5
9E8
  8
SOILS
 10
812060.83982690622
 20
8987647.8738449905
 30
0.0
  0
VERTEX
  5
9E9
  8
SOILS
 10
812289.4574323789
 20
8987678.5327672549
 30
0.0
  0
VERTEX
  5
9EA
  8
SOILS
 10
812469.18137693626
 20
8987783.0656024087
 30
0.0
  0
SEQEND
  5
9EB
  8
SOILS
  0
POLYLINE
  5
172
  8
SOILS
 66
     1
 10
0.0
 20
0.0
 30
0.0
 40
1.0
 41
1.0
  0
VERTEX
  5
9EC
  8
SOILS
 10
812571.46134825982
 20
8988073.7988236882
 30
0.0
  0
VERTEX
  5
9ED
  8
SOILS
 10
812572.33290556725
 20
8988094.8086034376
 30
0.0
  0
VERTEX
  5
9EE
  8
SOILS
 10
812579.91459425469
 20
8988098.4981481992
 30
0.0
  0
VERTEX
  5
9EF
  8
SOILS
 10
812610.36410502763
 20
8988173.506176874
 30
0.0
  0
SEQEND
  5
9F0
  8
SOILS
  0
POLYLINE
  5
173
  8
SOILS
 66
     1
 10
0.0
 20
0.0
 30
0.0
 40
1.0
 41
1.0
  0
VERTEX
  5
9F1
  8
SOILS
 10
812360.08395708259
 20
8987516.0645691585
 30
0.0
  0
VERTEX
  5
9F2
  8
SOILS
 10
812439.10256174265
 20
8987667.1784121059
 30
0.0
  0
VERTEX
  5
9F3
  8
SOILS
 10
812469.89753370872
 20
8987753.7361073568
 30
0.0
  0
VERTEX
  5
9F4
  8
SOILS
 10
812469.18137693626
 20
8987783.0656024087
 30
0.0
  0
SEQEND
  5
9F5
  8
SOILS
  0
POLYLINE
  5
174
  8
SOILS
 66
     1
 10
0.0
 20
0.0
 30
0.0
 40
1.0
 41
1.0
  0
VERTEX
  5
9F6
  8
SOILS
 10
809881.95467451809
 20
8986823.2534327209
 30
0.0
  0
VERTEX
  5
9F7
  8
SOILS
 10
809839.84339859476
 20
8986750.816803949
 30
0.0
  0
SEQEND
  5
9F8
  8
SOILS
  0
POLYLINE
  5
175
  8
SOILS
 66
     1
 10
0.0
 20
0.0
 30
0.0
 40
1.0
 41
1.0
  0
VERTEX
  5
9F9
  8
SOILS
 10
810177.52783605468
 20
8987211.4638611954
 30
0.0
  0
VERTEX
  5
9FA
  8
SOILS
 10
810100.70302293089
 20
8987184.9171230458
 30
0.0
  0
VERTEX
  5
9FB
  8
SOILS
 10
810018.2683037091
 20
8987164.5486343801
 30
0.0
  0
VERTEX
  5
9FC
  8
SOILS
 10
809927.85599138052
 20
8987165.4342355076
 30
0.0
  0
VERTEX
  5
9FD
  8
SOILS
 10
809904.74192854692
 20
8987088.1628511064
 30
0.0
  0
VERTEX
  5
9FE
  8
SOILS
 10
809909.1598733071
 20
8987028.92889864
 30
0.0
  0
VERTEX
  5
9FF
  8
SOILS
 10
809900.35777152923
 20
8986945.3853614517
 30
0.0
  0
VERTEX
  5
A00
  8
SOILS
 10
809881.95467451809
 20
8986823.2534327209
 30
0.0
  0
SEQEND
  5
A01
  8
SOILS
  0
POLYLINE
  5
176
  8
SOILS
 66
     1
 10
0.0
 20
0.0
 30
0.0
 40
1.0
 41
1.0
  0
VERTEX
  5
A02
  8
SOILS
 10
810547.57619153056
 20
8987189.925893385
 30
0.0
  0
VERTEX
  5
A03
  8
SOILS
 10
810492.11883436737
 20
8987200.7977180276
 30
0.0
  0
VERTEX
  5
A04
  8
SOILS
 10
810449.16618897079
 20
8987217.7306659725
 30
0.0
  0
VERTEX
  5
A05
  8
SOILS
 10
810427.55379381939
 20
8987235.1441155244
 30
0.0
  0
VERTEX
  5
A06
  8
SOILS
 10
810368.99112374219
 20
8987256.736767916
 30
0.0
  0
VERTEX
  5
A07
  8
SOILS
 10
810286.72455338808
 20
8987255.3437324222
 30
0.0
  0
VERTEX
  5
A08
  8
SOILS
 10
810177.52783605468
 20
8987211.4638611954
 30
0.0
  0
SEQEND
  5
A09
  8
SOILS
  0
POLYLINE
  5
177
  8
SOILS
 66
     1
 10
0.0
 20
0.0
 30
0.0
 40
1.0
 41
1.0
  0
VERTEX
  5
A0A
  8
SOILS
 10
810947.05835464282
 20
8987181.5889640935
 30
0.0
  0
VERTEX
  5
A0B
  8
SOILS
 10
810868.47795025294
 20
8987192.7798503395
 30
0.0
  0
VERTEX
  5
A0C
  8
SOILS
 10
810805.34357924818
 20
8987184.0191877782
 30
0.0
  0
VERTEX
  5
A0D
  8
SOILS
 10
810749.22415785736
 20
8987185.7713588327
 30
0.0
  0
VERTEX
  5
A0E
  8
SOILS
 10
810703.18164537183
 20
8987177.4332852196
 30
0.0
  0
VERTEX
  5
A0F
  8
SOILS
 10
810635.79888264078
 20
8987191.3139663115
 30
0.0
  0
VERTEX
  5
A10
  8
SOILS
 10
810583.69888617226
 20
8987185.7616746034
 30
0.0
  0
VERTEX
  5
A11
  8
SOILS
 10
810547.57619153056
 20
8987189.925893385
 30
0.0
  0
SEQEND
  5
A12
  8
SOILS
  0
POLYLINE
  5
178
  8
SOILS
 66
     1
 10
0.0
 20
0.0
 30
0.0
 40
1.0
 41
1.0
  0
VERTEX
  5
A13
  8
SOILS
 10
811193.99564112886
 20
8987235.2343089469
 30
0.0
  0
VERTEX
  5
A14
  8
SOILS
 10
811138.95690909075
 20
8987247.9264796972
 30
0.0
  0
VERTEX
  5
A15
  8
SOILS
 10
810947.05835464282
 20
8987181.5889640935
 30
0.0
  0
SEQEND
  5
A16
  8
SOILS
  0
POLYLINE
  5
179
  8
SOILS
 66
     1
 10
0.0
 20
0.0
 30
0.0
 40
1.0
 41
1.0
  0
VERTEX
  5
A17
  8
SOILS
 10
811284.3956670058
 20
8987263.3162143193
 30
0.0
  0
VERTEX
  5
A18
  8
SOILS
 10
811247.93184780783
 20
8987245.8598843459
 30
0.0
  0
VERTEX
  5
A19
  8
SOILS
 10
811193.99564112886
 20
8987235.2343089469
 30
0.0
  0
VERTEX
  5
A1A
  8
SOILS
 10
811193.99564112886
 20
8987235.2343089469
 30
0.0
  0
SEQEND
  5
A1B
  8
SOILS
  0
POLYLINE
  5
17A
  8
SOILS
 66
     1
 10
0.0
 20
0.0
 30
0.0
 40
1.0
 41
1.0
  0
VERTEX
  5
A1C
  8
SOILS
 10
812360.08395708259
 20
8987516.0645691585
 30
0.0
  0
VERTEX
  5
A1D
  8
SOILS
 10
812366.44293473905
 20
8987459.7519973088
 30
0.0
  0
VERTEX
  5
A1E
  8
SOILS
 10
812305.37374074862
 20
8987410.2458295114
 30
0.0
  0
VERTEX
  5
A1F
  8
SOILS
 10
812271.80373197445
 20
8987416.7183639444
 30
0.0
  0
VERTEX
  5
A20
  8
SOILS
 10
812244.71201815445
 20
8987417.3067411277
 30
0.0
  0
VERTEX
  5
A21
  8
SOILS
 10
812224.09886257013
 20
8987402.5964925364
 30
0.0
  0
VERTEX
  5
A22
  8
SOILS
 10
812207.60825034219
 20
8987372.5875218138
 30
0.0
  0
VERTEX
  5
A23
  8
SOILS
 10
812187.58405459754
 20
8987351.4047387857
 30
0.0
  0
VERTEX
  5
A24
  8
SOILS
 10
812166.38185141317
 20
8987347.8742829729
 30
0.0
  0
VERTEX
  5
A25
  8
SOILS
 10
812125.53089134465
 20
8987363.3083434217
 30
0.0
  0
VERTEX
  5
A26
  8
SOILS
 10
812100.74894268916
 20
8987369.5323159639
 30
0.0
  0
VERTEX
  5
A27
  8
SOILS
 10
812067.25467111345
 20
8987359.4931905344
 30
0.0
  0
VERTEX
  5
A28
  8
SOILS
 10
812046.2011339952
 20
8987351.3662909456
 30
0.0
  0
VERTEX
  5
A29
  8
SOILS
 10
812030.4109372762
 20
8987348.019931864
 30
0.0
  0
VERTEX
  5
A2A
  8
SOILS
 10
812015.57776738668
 20
8987345.1516171955
 30
0.0
  0
VERTEX
  5
A2B
  8
SOILS
 10
811993.08873390453
 20
8987339.4149878621
 30
0.0
  0
VERTEX
  5
A2C
  8
SOILS
 10
811969.54561062471
 20
8987340.2076974697
 30
0.0
  0
VERTEX
  5
A2D
  8
SOILS
 10
811933.82196238323
 20
8987340.5381657872
 30
0.0
  0
VERTEX
  5
A2E
  8
SOILS
 10
811905.04454738577
 20
8987344.8343502674
 30
0.0
  0
VERTEX
  5
A2F
  8
SOILS
 10
811882.22105913586
 20
8987353.7570911832
 30
0.0
  0
VERTEX
  5
A30
  8
SOILS
 10
811871.96704980498
 20
8987364.3322218638
 30
0.0
  0
VERTEX
  5
A31
  8
SOILS
 10
811870.97474330699
 20
8987387.1348729879
 30
0.0
  0
VERTEX
  5
A32
  8
SOILS
 10
811872.62858747004
 20
8987401.3452033307
 30
0.0
  0
VERTEX
  5
A33
  8
SOILS
 10
811865.68235422543
 20
8987414.2336604092
 30
0.0
  0
VERTEX
  5
A34
  8
SOILS
 10
811820.04647941189
 20
8987420.7989899963
 30
0.0
  0
VERTEX
  5
A35
  8
SOILS
 10
811787.97239001573
 20
8987427.6947879083
 30
0.0
  0
VERTEX
  5
A36
  8
SOILS
 10
811749.19696268521
 20
8987428.728736015
 30
0.0
  0
VERTEX
  5
A37
  8
SOILS
 10
811680.68586488406
 20
8987405.6273673568
 30
0.0
  0
VERTEX
  5
A38
  8
SOILS
 10
811642.44015914435
 20
8987403.6820416916
 30
0.0
  0
VERTEX
  5
A39
  8
SOILS
 10
811614.86251615814
 20
8987384.9666173123
 30
0.0
  0
VERTEX
  5
A3A
  8
SOILS
 10
811606.72572574113
 20
8987372.5016164277
 30
0.0
  0
VERTEX
  5
A3B
  8
SOILS
 10
811599.13138216792
 20
8987363.2883004416
 30
0.0
  0
VERTEX
  5
A3C
  8
SOILS
 10
811589.38094183721
 20
8987356.8392297886
 30
0.0
  0
VERTEX
  5
A3D
  8
SOILS
 10
811568.20269312011
 20
8987355.6960254442
 30
0.0
  0
VERTEX
  5
A3E
  8
SOILS
 10
811550.13441684365
 20
8987361.0731653888
 30
0.0
  0
VERTEX
  5
A3F
  8
SOILS
 10
811517.75312227395
 20
8987360.4740440119
 30
0.0
  0
VERTEX
  5
A40
  8
SOILS
 10
811459.11848869361
 20
8987340.7312240396
 30
0.0
  0
VERTEX
  5
A41
  8
SOILS
 10
811314.78225613781
 20
8987306.5775475316
 30
0.0
  0
VERTEX
  5
A42
  8
SOILS
 10
811284.3956670058
 20
8987263.3162143193
 30
0.0
  0
SEQEND
  5
A43
  8
SOILS
  0
POLYLINE
  5
17B
  8
SOILS
 66
     1
 10
0.0
 20
0.0
 30
0.0
 40
1.0
 41
1.0
  0
VERTEX
  5
A44
  8
SOILS
 10
810761.59485954
 20
8989032.13894278
 30
0.0
  0
VERTEX
  5
A45
  8
SOILS
 10
810645.53036673216
 20
8988954.8332540412
 30
0.0
  0
VERTEX
  5
A46
  8
SOILS
 10
810594.29472214275
 20
8988853.0112391412
 30
0.0
  0
VERTEX
  5
A47
  8
SOILS
 10
810585.82145846903
 20
8988854.3136475887
 30
0.0
  0
VERTEX
  5
A48
  8
SOILS
 10
810534.98170090606
 20
8988854.3136475887
 30
0.0
  0
VERTEX
  5
A49
  8
SOILS
 10
810495.87427609833
 20
8988860.1744374186
 30
0.0
  0
VERTEX
  5
A4A
  8
SOILS
 10
810474.36517490214
 20
8988867.9887435641
 30
0.0
  0
VERTEX
  5
A4B
  8
SOILS
 10
810443.73101376777
 20
8988856.2672602609
 30
0.0
  0
VERTEX
  5
A4C
  8
SOILS
 10
810388.32877011632
 20
8988841.2897558361
 30
0.0
  0
VERTEX
  5
A4D
  8
SOILS
 10
810340.74808163487
 20
8988833.4754015114
 30
0.0
  0
VERTEX
  5
A4E
  8
SOILS
 10
810321.84607773484
 20
8988795.7060383353
 30
0.0
  0
VERTEX
  5
A4F
  8
SOILS
 10
810354.29275378003
 20
8988695.4260322545
 30
0.0
  0
VERTEX
  5
A50
  8
SOILS
 10
810325.21370639314
 20
8988657.0352402497
 30
0.0
  0
VERTEX
  5
A51
  8
SOILS
 10
810302.36590852076
 20
8988637.3210875243
 30
0.0
  0
VERTEX
  5
A52
  8
SOILS
 10
810282.63369152555
 20
8988624.8700107355
 30
0.0
  0
VERTEX
  5
A53
  8
SOILS
 10
810245.24636995897
 20
8988647.6969447024
 30
0.0
  0
VERTEX
  5
A54
  8
SOILS
 10
810210.97462927015
 20
8988682.9749554619
 30
0.0
  0
VERTEX
  5
A55
  8
SOILS
 10
810175.66442012927
 20
8988715.1402331591
 30
0.0
  0
VERTEX
  5
A56
  8
SOILS
 10
810118.54488156782
 20
8988684.0125652701
 30
0.0
  0
VERTEX
  5
A57
  8
SOILS
 10
810058.30976212944
 20
8988674.6742697209
 30
0.0
  0
VERTEX
  5
A58
  8
SOILS
 10
810025.91398709849
 20
8988652.8710696492
 30
0.0
  0
VERTEX
  5
A59
  8
SOILS
 10
809982.46532009356
 20
8988670.8899040092
 30
0.0
  0
VERTEX
  5
A5A
  8
SOILS
 10
809952.13323015114
 20
8988680.7183372155
 30
0.0
  0
VERTEX
  5
A5B
  8
SOILS
 10
809928.35947261995
 20
8988679.0802569836
 30
0.0
  0
VERTEX
  5
A5C
  8
SOILS
 10
809876.71293398098
 20
8988644.6806684937
 30
0.0
  0
VERTEX
  5
A5D
  8
SOILS
 10
809825.88616495312
 20
8988620.9285774156
 30
0.0
  0
VERTEX
  5
A5E
  8
SOILS
 10
809788.65338939754
 20
8988610.7624006774
 30
0.0
  0
VERTEX
  5
A5F
  8
SOILS
 10
809741.26524716686
 20
8988604.7947470546
 30
0.0
  0
SEQEND
  5
A60
  8
SOILS
  0
POLYLINE
  5
17C
  8
SOILS
 66
     1
 10
0.0
 20
0.0
 30
0.0
 40
1.0
 41
1.0
  0
VERTEX
  5
A61
  8
SOILS
 10
810963.78518494975
 20
8988603.3753087856
 30
0.0
  0
VERTEX
  5
A62
  8
SOILS
 10
810925.45163108024
 20
8988679.1487211157
 30
0.0
  0
VERTEX
  5
A63
  8
SOILS
 10
810863.43559046392
 20
8988741.1081338152
 30
0.0
  0
VERTEX
  5
A64
  8
SOILS
 10
810831.9020610631
 20
8988788.365295846
 30
0.0
  0
VERTEX
  5
A65
  8
SOILS
 10
810834.91896467074
 20
8988823.7236158494
 30
0.0
  0
VERTEX
  5
A66
  8
SOILS
 10
810849.18234109564
 20
8988880.9795077834
 30
0.0
  0
VERTEX
  5
A67
  8
SOILS
 10
810844.68953674019
 20
8988938.2353997175
 30
0.0
  0
VERTEX
  5
A68
  8
SOILS
 10
810761.59485954
 20
8989032.13894278
 30
0.0
  0
SEQEND
  5
A69
  8
SOILS
  0
POLYLINE
  5
17D
  8
SOILS
 66
     1
 10
0.0
 20
0.0
 30
0.0
 40
1.0
 41
1.0
  0
VERTEX
  5
A6A
  8
SOILS
 10
811966.58864754217
 20
8988034.4178034272
 30
0.0
  0
VERTEX
  5
A6B
  8
SOILS
 10
811906.64880694007
 20
8988019.7659004107
 30
0.0
  0
VERTEX
  5
A6C
  8
SOILS
 10
811756.8602906036
 20
8987990.0720208194
 30
0.0
  0
VERTEX
  5
A6D
  8
SOILS
 10
811549.74607720878
 20
8987943.0837604329
 30
0.0
  0
VERTEX
  5
A6E
  8
SOILS
 10
811475.47263354692
 20
8987953.509339625
 30
0.0
  0
VERTEX
  5
A6F
  8
SOILS
 10
811458.08607570711
 20
8987960.7889895644
 30
0.0
  0
VERTEX
  5
A70
  8
SOILS
 10
811440.36488757841
 20
8987985.8069202825
 30
0.0
  0
VERTEX
  5
A71
  8
SOILS
 10
811424.56995179935
 20
8987989.6558475271
 30
0.0
  0
VERTEX
  5
A72
  8
SOILS
 10
811378.72595326975
 20
8987980.0335294176
 30
0.0
  0
VERTEX
  5
A73
  8
SOILS
 10
811341.74268044473
 20
8987990.4256233368
 30
0.0
  0
VERTEX
  5
A74
  8
SOILS
 10
811282.77815563581
 20
8988019.1846057251
 30
0.0
  0
VERTEX
  5
A75
  8
SOILS
 10
811207.13187651394
 20
8988042.5892208591
 30
0.0
  0
VERTEX
  5
A76
  8
SOILS
 10
811135.87791612477
 20
8988056.7294489443
 30
0.0
  0
VERTEX
  5
A77
  8
SOILS
 10
811015.39539079624
 20
8988045.8227899838
 30
0.0
  0
VERTEX
  5
A78
  8
SOILS
 10
810935.03497566737
 20
8988044.5137326624
 30
0.0
  0
VERTEX
  5
A79
  8
SOILS
 10
810884.18907487905
 20
8988047.5286116414
 30
0.0
  0
VERTEX
  5
A7A
  8
SOILS
 10
810741.99445861939
 20
8988027.7729275431
 30
0.0
  0
VERTEX
  5
A7B
  8
SOILS
 10
810627.36914811051
 20
8987998.7803673167
 30
0.0
  0
VERTEX
  5
A7C
  8
SOILS
 10
810441.71041902085
 20
8988007.1655612122
 30
0.0
  0
VERTEX
  5
A7D
  8
SOILS
 10
810235.49110280827
 20
8987967.9250623621
 30
0.0
  0
VERTEX
  5
A7E
  8
SOILS
 10
810153.02979219391
 20
8987968.6580766495
 30
0.0
  0
VERTEX
  5
A7F
  8
SOILS
 10
810138.75460273365
 20
8988001.2874746695
 30
0.0
  0
VERTEX
  5
A80
  8
SOILS
 10
810271.35744941048
 20
8988108.6056994721
 30
0.0
  0
VERTEX
  5
A81
  8
SOILS
 10
810388.62057334499
 20
8988242.6630943306
 30
0.0
  0
VERTEX
  5
A82
  8
SOILS
 10
810469.7565268589
 20
8988237.9930793121
 30
0.0
  0
VERTEX
  5
A83
  8
SOILS
 10
810537.59827632236
 20
8988283.2755257245
 30
0.0
  0
VERTEX
  5
A84
  8
SOILS
 10
810616.40840452409
 20
8988284.7752804626
 30
0.0
  0
VERTEX
  5
A85
  8
SOILS
 10
810689.21396824589
 20
8988232.2831900138
 30
0.0
  0
VERTEX
  5
A86
  8
SOILS
 10
810726.63191818085
 20
8988197.7439269871
 30
0.0
  0
VERTEX
  5
A87
  8
SOILS
 10
810797.29138982715
 20
8988197.2733023316
 30
0.0
  0
VERTEX
  5
A88
  8
SOILS
 10
810831.20796430111
 20
8988230.688231105
 30
0.0
  0
VERTEX
  5
A89
  8
SOILS
 10
810825.55523114186
 20
8988279.6341108046
 30
0.0
  0
VERTEX
  5
A8A
  8
SOILS
 10
810809.93186688551
 20
8988373.1306271367
 30
0.0
  0
VERTEX
  5
A8B
  8
SOILS
 10
810826.15472222609
 20
8988430.3354684841
 30
0.0
  0
VERTEX
  5
A8C
  8
SOILS
 10
810880.75180836767
 20
8988429.4225009773
 30
0.0
  0
VERTEX
  5
A8D
  8
SOILS
 10
810935.34889450914
 20
8988443.1200971287
 30
0.0
  0
VERTEX
  5
A8E
  8
SOILS
 10
810959.79305350245
 20
8988537.3225504458
 30
0.0
  0
VERTEX
  5
A8F
  8
SOILS
 10
810963.78518494975
 20
8988603.3753087856
 30
0.0
  0
SEQEND
  5
A90
  8
SOILS
  0
POLYLINE
  5
17E
  8
SOILS
 66
     1
 10
0.0
 20
0.0
 30
0.0
 40
1.0
 41
1.0
  0
VERTEX
  5
A91
  8
SOILS
 10
809654.38098945189
 20
8987173.0267197937
 30
0.0
  0
VERTEX
  5
A92
  8
SOILS
 10
809501.51852983912
 20
8987302.3461413942
 30
0.0
  0
VERTEX
  5
A93
  8
SOILS
 10
809387.92427203106
 20
8987392.199484231
 30
0.0
  0
VERTEX
  5
A94
  8
SOILS
 10
809188.13175355643
 20
8987354.5047786813
 30
0.0
  0
VERTEX
  5
A95
  8
SOILS
 10
808967.02264389524
 20
8987355.9603738952
 30
0.0
  0
VERTEX
  5
A96
  8
SOILS
 10
808630.88708919671
 20
8987403.0548794083
 30
0.0
  0
VERTEX
  5
A97
  8
SOILS
 10
808315.45517102326
 20
8987409.4875687789
 30
0.0
  0
VERTEX
  5
A98
  8
SOILS
 10
807964.15260598925
 20
8987354.6466430891
 30
0.0
  0
VERTEX
  5
A99
  8
SOILS
 10
807775.80946271797
 20
8987336.4701629598
 30
0.0
  0
VERTEX
  5
A9A
  8
SOILS
 10
807550.87243938108
 20
8987243.1200663969
 30
0.0
  0
VERTEX
  5
A9B
  8
SOILS
 10
807374.38344025717
 20
8987084.0792378765
 30
0.0
  0
VERTEX
  5
A9C
  8
SOILS
 10
807253.26351136505
 20
8986852.4327519313
 30
0.0
  0
VERTEX
  5
A9D
  8
SOILS
 10
807185.05395819282
 20
8986736.7107838411
 30
0.0
  0
VERTEX
  5
A9E
  8
SOILS
 10
807145.55047083797
 20
8986571.3629200347
 30
0.0
  0
SEQEND
  5
A9F
  8
SOILS
  0
POLYLINE
  5
17F
  8
SOILS
 66
     1
 10
0.0
 20
0.0
 30
0.0
 40
1.0
 41
1.0
  0
VERTEX
  5
AA0
  8
SOILS
 10
812068.70736850949
 20
8988110.3965110872
 30
0.0
  0
VERTEX
  5
AA1
  8
SOILS
 10
812068.70736850949
 20
8988110.3965110872
 30
0.0
  0
VERTEX
  5
AA2
  8
SOILS
 10
812181.73333404504
 20
8988183.5290195197
 30
0.0
  0
VERTEX
  5
AA3
  8
SOILS
 10
812408.36711636558
 20
8988208.0784455109
 30
0.0
  0
VERTEX
  5
AA4
  8
SOILS
 10
812610.36410502763
 20
8988173.506176874
 30
0.0
  0
SEQEND
  5
AA5
  8
SOILS
  0
POLYLINE
  5
180
  8
SOILS
 66
     1
 10
0.0
 20
0.0
 30
0.0
 40
1.0
 41
1.0
  0
VERTEX
  5
AA6
  8
SOILS
 10
810796.35665413202
 20
8987535.6031725593
 30
0.0
  0
VERTEX
  5
AA7
  8
SOILS
 10
810955.85866837797
 20
8987549.1262598597
 30
0.0
  0
VERTEX
  5
AA8
  8
SOILS
 10
811148.76990656636
 20
8987648.3715416491
 30
0.0
  0
VERTEX
  5
AA9
  8
SOILS
 10
811257.98593901691
 20
8987663.7257245444
 30
0.0
  0
VERTEX
  5
AAA
  8
SOILS
 10
811448.86632233055
 20
8987734.0833398066
 30
0.0
  0
VERTEX
  5
AAB
  8
SOILS
 10
811573.03136052308
 20
8987801.6637010705
 30
0.0
  0
VERTEX
  5
AAC
  8
SOILS
 10
811799.49892470392
 20
8987962.8812168073
 30
0.0
  0
VERTEX
  5
AAD
  8
SOILS
 10
811855.19876376807
 20
8987990.6310639121
 30
0.0
  0
VERTEX
  5
AAE
  8
SOILS
 10
811966.58864754217
 20
8988034.4178034272
 30
0.0
  0
SEQEND
  5
AAF
  8
SOILS
  0
POLYLINE
  5
181
  8
SOILS
 66
     1
 10
0.0
 20
0.0
 30
0.0
 40
1.0
 41
1.0
  0
VERTEX
  5
AB0
  8
SOILS
 10
809654.38098945189
 20
8987173.0267197937
 30
0.0
  0
VERTEX
  5
AB1
  8
SOILS
 10
809845.88218961912
 20
8987220.6331886165
 30
0.0
  0
VERTEX
  5
AB2
  8
SOILS
 10
810075.4994734606
 20
8987236.8338449784
 30
0.0
  0
VERTEX
  5
AB3
  8
SOILS
 10
810187.14918088156
 20
8987298.6302639041
 30
0.0
  0
VERTEX
  5
AB4
  8
SOILS
 10
810319.39414077182
 20
8987326.5053708907
 30
0.0
  0
VERTEX
  5
AB5
  8
SOILS
 10
810539.12995805079
 20
8987414.4712853879
 30
0.0
  0
VERTEX
  5
AB6
  8
SOILS
 10
810664.1058142971
 20
8987444.7225063983
 30
0.0
  0
VERTEX
  5
AB7
  8
SOILS
 10
810796.35665413202
 20
8987535.6031725593
 30
0.0
  0
SEQEND
  5
AB8
  8
SOILS
  0
POLYLINE
  5
182
  8
SOILS
 66
     1
 10
0.0
 20
0.0
 30
0.0
 40
1.0
 41
1.0
  0
VERTEX
  5
AB9
  8
SOILS
 10
807145.55047083797
 20
8986571.3629200347
 30
0.0
  0
VERTEX
  5
ABA
  8
SOILS
 10
807393.10913357488
 20
8986608.4658540282
 30
0.0
  0
VERTEX
  5
ABB
  8
SOILS
 10
807668.48634151218
 20
8986728.9900437389
 30
0.0
  0
VERTEX
  5
ABC
  8
SOILS
 10
808651.45750548097
 20
8986782.3646517769
 30
0.0
  0
VERTEX
  5
ABD
  8
SOILS
 10
809103.57900745689
 20
8986865.0436907858
 30
0.0
  0
VERTEX
  5
ABE
  8
SOILS
 10
809654.38098945189
 20
8987173.0267197937
 30
0.0
  0
SEQEND
  5
ABF
  8
SOILS
  0
POLYLINE
  5
183
  8
SOILS
 66
     1
 10
0.0
 20
0.0
 30
0.0
 40
1.0
 41
1.0
  0
VERTEX
  5
AC0
  8
SOILS
 10
807983.86832403531
 20
8988445.5929001477
 30
0.0
  0
VERTEX
  5
AC1
  8
SOILS
 10
807909.36076194979
 20
8988399.7790670916
 30
0.0
  0
VERTEX
  5
AC2
  8
SOILS
 10
807797.56263020111
 20
8988211.6383672208
 30
0.0
  0
VERTEX
  5
AC3
  8
SOILS
 10
807303.50415785471
 20
8987688.86491381
 30
0.0
  0
VERTEX
  5
AC4
  8
SOILS
 10
806844.0352410156
 20
8987291.9467963483
 30
0.0
  0
VERTEX
  5
AC5
  8
SOILS
 10
806628.36334316642
 20
8986995.3060720973
 30
0.0
  0
VERTEX
  5
AC6
  8
SOILS
 10
806101.05911234044
 20
8986871.8525715265
 30
0.0
  0
VERTEX
  5
AC7
  8
SOILS
 10
805803.54268375388
 20
8986715.8236348107
 30
0.0
  0
VERTEX
  5
AC8
  8
SOILS
 10
805595.60782783839
 20
8986647.9738014229
 30
0.0
  0
VERTEX
  5
AC9
  8
SOILS
 10
805427.12415409787
 20
8986647.9738014229
 30
0.0
  0
VERTEX
  5
ACA
  8
SOILS
 10
805375.08427348302
 20
8986497.677639626
 30
0.0
  0
VERTEX
  5
ACB
  8
SOILS
 10
805294.76694869564
 20
8986389.8872965798
 30
0.0
  0
VERTEX
  5
ACC
  8
SOILS
 10
805415.8422075595
 20
8986295.2713121977
 30
0.0
  0
VERTEX
  5
ACD
  8
SOILS
 10
805472.00700106134
 20
8986167.2027220894
 30
0.0
  0
VERTEX
  5
ACE
  8
SOILS
 10
805718.64075726469
 20
8986149.1728062723
 30
0.0
  0
VERTEX
  5
ACF
  8
SOILS
 10
805954.8110201353
 20
8986199.6008549258
 30
0.0
  0
VERTEX
  5
AD0
  8
SOILS
 10
806156.48987811187
 20
8986286.4150600247
 30
0.0
  0
VERTEX
  5
AD1
  8
SOILS
 10
806436.19498867018
 20
8986290.2701543383
 30
0.0
  0
VERTEX
  5
AD2
  8
SOILS
 10
806663.49083521811
 20
8986409.8717404902
 30
0.0
  0
VERTEX
  5
AD3
  8
SOILS
 10
806939.62567842496
 20
8986544.4760775194
 30
0.0
  0
VERTEX
  5
AD4
  8
SOILS
 10
807145.55047083797
 20
8986571.3629200347
 30
0.0
  0
SEQEND
  5
AD5
  8
SOILS
  0
POLYLINE
  5
184
  8
SOILS
 66
     1
 10
0.0
 20
0.0
 30
0.0
 40
1.0
 41
1.0
  0
VERTEX
  5
AD6
  8
SOILS
 10
808954.39556107135
 20
8989421.2019169014
 30
0.0
  0
VERTEX
  5
AD7
  8
SOILS
 10
808709.01259875612
 20
8989055.4704202991
 30
0.0
  0
VERTEX
  5
AD8
  8
SOILS
 10
808490.50384696329
 20
8988896.3636812009
 30
0.0
  0
VERTEX
  5
AD9
  8
SOILS
 10
808397.55771724659
 20
8988808.5971935093
 30
0.0
  0
VERTEX
  5
ADA
  8
SOILS
 10
808344.60986784892
 20
8988811.8228128925
 30
0.0
  0
VERTEX
  5
ADB
  8
SOILS
 10
808313.90971091669
 20
8988781.7352601849
 30
0.0
  0
VERTEX
  5
ADC
  8
SOILS
 10
808293.75817487563
 20
8988712.1323884968
 30
0.0
  0
VERTEX
  5
ADD
  8
SOILS
 10
808256.90987749922
 20
8988658.6359807905
 30
0.0
  0
VERTEX
  5
ADE
  8
SOILS
 10
808165.94037458475
 20
8988644.8304608837
 30
0.0
  0
VERTEX
  5
ADF
  8
SOILS
 10
808094.88010133081
 20
8988601.5747647621
 30
0.0
  0
VERTEX
  5
AE0
  8
SOILS
 10
808037.18827739998
 20
8988477.0742110517
 30
0.0
  0
VERTEX
  5
AE1
  8
SOILS
 10
807983.86832403531
 20
8988445.5929001477
 30
0.0
  0
SEQEND
  5
AE2
  8
SOILS
  0
POLYLINE
  5
185
  8
SOILS
 66
     1
 10
0.0
 20
0.0
 30
0.0
 40
1.0
 41
1.0
  0
VERTEX
  5
AE3
  8
SOILS
 10
809328.87323920731
 20
8990378.1971896067
 30
0.0
  0
VERTEX
  5
AE4
  8
SOILS
 10
809275.69410073513
 20
8990149.7511418965
 30
0.0
  0
VERTEX
  5
AE5
  8
SOILS
 10
809090.21352177649
 20
8989762.6132575534
 30
0.0
  0
VERTEX
  5
AE6
  8
SOILS
 10
808954.39556107135
 20
8989421.2019169014
 30
0.0
  0
SEQEND
  5
AE7
  8
SOILS
  0
POLYLINE
  5
186
  8
SOILS
 66
     1
 10
0.0
 20
0.0
 30
0.0
 40
1.0
 41
1.0
  0
VERTEX
  5
AE8
  8
SOILS
 10
809741.26524716686
 20
8988604.7947470546
 30
0.0
  0
VERTEX
  5
AE9
  8
SOILS
 10
809692.55771554133
 20
8988584.0459235162
 30
0.0
  0
VERTEX
  5
AEA
  8
SOILS
 10
809571.09262511565
 20
8988672.3086677548
 30
0.0
  0
VERTEX
  5
AEB
  8
SOILS
 10
809514.7320382297
 20
8988749.9046424832
 30
0.0
  0
VERTEX
  5
AEC
  8
SOILS
 10
809554.84475806996
 20
8988876.0623557996
 30
0.0
  0
VERTEX
  5
AED
  8
SOILS
 10
809528.48026928573
 20
8988993.0479025524
 30
0.0
  0
VERTEX
  5
AEE
  8
SOILS
 10
809502.36835737689
 20
8989040.0530783962
 30
0.0
  0
VERTEX
  5
AEF
  8
SOILS
 10
809504.18780535692
 20
8989310.3727407735
 30
0.0
  0
VERTEX
  5
AF0
  8
SOILS
 10
809568.59847541526
 20
8989468.9911730699
 30
0.0
  0
VERTEX
  5
AF1
  8
SOILS
 10
809520.27147275163
 20
8989547.3518646825
 30
0.0
  0
VERTEX
  5
AF2
  8
SOILS
 10
809458.61393324449
 20
8989568.2002566867
 30
0.0
  0
VERTEX
  5
AF3
  8
SOILS
 10
808954.39556107135
 20
8989421.2019169014
 30
0.0
  0
SEQEND
  5
AF4
  8
SOILS
  0
POLYLINE
  5
187
  8
SOILS
 66
     1
 10
0.0
 20
0.0
 30
0.0
 40
1.0
 41
1.0
  0
VERTEX
  5
AF5
  8
SOILS
 10
810259.18052128225
 20
8989771.2646607682
 30
0.0
  0
VERTEX
  5
AF6
  8
SOILS
 10
810229.81804318074
 20
8989737.0397966169
 30
0.0
  0
VERTEX
  5
AF7
  8
SOILS
 10
810182.75338748924
 20
8989699.9037632793
 30
0.0
  0
VERTEX
  5
AF8
  8
SOILS
 10
810088.22124184098
 20
8989664.4826382659
 30
0.0
  0
VERTEX
  5
AF9
  8
SOILS
 10
810063.1979893524
 20
8989640.8685228564
 30
0.0
  0
VERTEX
  5
AFA
  8
SOILS
 10
810096.56229946692
 20
8989609.6145663857
 30
0.0
  0
VERTEX
  5
AFB
  8
SOILS
 10
810152.86451805197
 20
8989558.2191189285
 30
0.0
  0
VERTEX
  5
AFC
  8
SOILS
 10
810233.85562076385
 20
8989553.2737627532
 30
0.0
  0
VERTEX
  5
AFD
  8
SOILS
 10
810217.05273484462
 20
8989506.0675130058
 30
0.0
  0
VERTEX
  5
AFE
  8
SOILS
 10
810193.33463352907
 20
8989469.7289067488
 30
0.0
  0
VERTEX
  5
AFF
  8
SOILS
 10
810126.86904974503
 20
8989466.2484422531
 30
0.0
  0
VERTEX
  5
B00
  8
SOILS
 10
810058.93208594481
 20
8989442.8699139021
 30
0.0
  0
VERTEX
  5
B01
  8
SOILS
 10
810058.65018157102
 20
8989396.7976854034
 30
0.0
  0
VERTEX
  5
B02
  8
SOILS
 10
810120.6941418245
 20
8989385.2326118723
 30
0.0
  0
VERTEX
  5
B03
  8
SOILS
 10
809996.72993761115
 20
8989233.5443677045
 30
0.0
  0
VERTEX
  5
B04
  8
SOILS
 10
809908.48728599842
 20
8989220.3820119612
 30
0.0
  0
VERTEX
  5
B05
  8
SOILS
 10
809838.14419048384
 20
8989202.5334465969
 30
0.0
  0
VERTEX
  5
B06
  8
SOILS
 10
809810.23024976242
 20
8989227.0752601121
 30
0.0
  0
VERTEX
  5
B07
  8
SOILS
 10
809796.83161087206
 20
8989295.1231143139
 30
0.0
  0
VERTEX
  5
B08
  8
SOILS
 10
809739.88715424784
 20
8989354.2465894725
 30
0.0
  0
VERTEX
  5
B09
  8
SOILS
 10
809669.543970973
 20
8989349.7844722234
 30
0.0
  0
VERTEX
  5
B0A
  8
SOILS
 10
809610.3664517476
 20
8989320.7804450952
 30
0.0
  0
VERTEX
  5
B0B
  8
SOILS
 10
809567.93729695468
 20
8989271.6967698876
 30
0.0
  0
VERTEX
  5
B0C
  8
SOILS
 10
809565.70414659253
 20
8989219.2664946951
 30
0.0
  0
VERTEX
  5
B0D
  8
SOILS
 10
809598.08430027752
 20
8989153.4497232083
 30
0.0
  0
VERTEX
  5
B0E
  8
SOILS
 10
809709.74006316438
 20
8989141.1788405422
 30
0.0
  0
VERTEX
  5
B0F
  8
SOILS
 10
809782.31630904065
 20
8989172.4139022045
 30
0.0
  0
VERTEX
  5
B10
  8
SOILS
 10
809807.05525511527
 20
8989153.3946050089
 30
0.0
  0
VERTEX
  5
B11
  8
SOILS
 10
809836.59328923468
 20
8989109.8306516632
 30
0.0
  0
VERTEX
  5
B12
  8
SOILS
 10
809837.99982467631
 20
8989072.5905003268
 30
0.0
  0
VERTEX
  5
B13
  8
SOILS
 10
809759.23182145157
 20
8988988.9758490939
 30
0.0
  0
VERTEX
  5
B14
  8
SOILS
 10
809754.68012172531
 20
8988853.646592062
 30
0.0
  0
VERTEX
  5
B15
  8
SOILS
 10
809741.26524716686
 20
8988604.7947470546
 30
0.0
  0
SEQEND
  5
B16
  8
SOILS
  0
POLYLINE
  5
188
  8
SOILS
 66
     1
 10
0.0
 20
0.0
 30
0.0
 40
1.0
 41
1.0
  0
VERTEX
  5
B17
  8
SOILS
 10
810151.47075926291
 20
8990135.1468125451
 30
0.0
  0
VERTEX
  5
B18
  8
SOILS
 10
810177.31225890073
 20
8990118.7154088821
 30
0.0
  0
VERTEX
  5
B19
  8
SOILS
 10
810177.80922353256
 20
8990080.4633124694
 30
0.0
  0
VERTEX
  5
B1A
  8
SOILS
 10
810129.54471314477
 20
8990039.6882160939
 30
0.0
  0
VERTEX
  5
B1B
  8
SOILS
 10
810147.55538535526
 20
8989997.4360764679
 30
0.0
  0
VERTEX
  5
B1C
  8
SOILS
 10
810225.86286351527
 20
8989941.8823106121
 30
0.0
  0
VERTEX
  5
B1D
  8
SOILS
 10
810271.28123269335
 20
8989909.8019716889
 30
0.0
  0
VERTEX
  5
B1E
  8
SOILS
 10
810286.11516662897
 20
8989870.1815963499
 30
0.0
  0
VERTEX
  5
B1F
  8
SOILS
 10
810263.24536564085
 20
8989828.1190178059
 30
0.0
  0
VERTEX
  5
B20
  8
SOILS
 10
810259.18052128225
 20
8989771.2646607682
 30
0.0
  0
SEQEND
  5
B21
  8
SOILS
  0
POLYLINE
  5
189
  8
SOILS
 66
     1
 10
0.0
 20
0.0
 30
0.0
 40
1.0
 41
1.0
  0
VERTEX
  5
B22
  8
SOILS
 10
809638.43425519089
 20
8990718.4413690586
 30
0.0
  0
VERTEX
  5
B23
  8
SOILS
 10
809687.54182196304
 20
8990613.1521835364
 30
0.0
  0
VERTEX
  5
B24
  8
SOILS
 10
809714.71394845855
 20
8990615.6204125006
 30
0.0
  0
VERTEX
  5
B25
  8
SOILS
 10
809796.2302483333
 20
8990674.8574747499
 30
0.0
  0
VERTEX
  5
B26
  8
SOILS
 10
809828.34266737814
 20
8990660.0481971614
 30
0.0
  0
VERTEX
  5
B27
  8
SOILS
 10
809830.81285345834
 20
8990598.3429540489
 30
0.0
  0
VERTEX
  5
B28
  8
SOILS
 10
809800.59773603373
 20
8990435.5041983854
 30
0.0
  0
VERTEX
  5
B29
  8
SOILS
 10
809887.33185419824
 20
8990414.8489179034
 30
0.0
  0
VERTEX
  5
B2A
  8
SOILS
 10
809894.28034720744
 20
8990360.6941486076
 30
0.0
  0
VERTEX
  5
B2B
  8
SOILS
 10
809816.46542548924
 20
8990289.5794679783
 30
0.0
  0
VERTEX
  5
B2C
  8
SOILS
 10
809750.27044124377
 20
8990261.408585174
 30
0.0
  0
VERTEX
  5
B2D
  8
SOILS
 10
809750.27044124377
 20
8990261.408585174
 30
0.0
  0
VERTEX
  5
B2E
  8
SOILS
 10
809620.74218826287
 20
8990225.7587512042
 30
0.0
  0
VERTEX
  5
B2F
  8
SOILS
 10
809573.02925600659
 20
8990188.6587918345
 30
0.0
  0
VERTEX
  5
B30
  8
SOILS
 10
809580.46608604747
 20
8990142.8351851199
 30
0.0
  0
VERTEX
  5
B31
  8
SOILS
 10
809625.37929486949
 20
8990123.6557477359
 30
0.0
  0
VERTEX
  5
B32
  8
SOILS
 10
809641.65151572577
 20
8990082.2504475415
 30
0.0
  0
VERTEX
  5
B33
  8
SOILS
 10
809647.68320253096
 20
8990021.9107243493
 30
0.0
  0
VERTEX
  5
B34
  8
SOILS
 10
809685.74920948513
 20
8989963.6931605283
 30
0.0
  0
VERTEX
  5
B35
  8
SOILS
 10
809708.27799438115
 20
8989941.1823794413
 30
0.0
  0
VERTEX
  5
B36
  8
SOILS
 10
809718.58776515594
 20
8989883.535217192
 30
0.0
  0
VERTEX
  5
B37
  8
SOILS
 10
809729.98343699204
 20
8989842.8713903166
 30
0.0
  0
VERTEX
  5
B38
  8
SOILS
 10
809733.09576955019
 20
8989821.102145711
 30
0.0
  0
VERTEX
  5
B39
  8
SOILS
 10
809720.33800538315
 20
8989769.8193871584
 30
0.0
  0
VERTEX
  5
B3A
  8
SOILS
 10
809702.20004325965
 20
8989705.7905364726
 30
0.0
  0
VERTEX
  5
B3B
  8
SOILS
 10
809699.17704957246
 20
8989667.7357053328
 30
0.0
  0
VERTEX
  5
B3C
  8
SOILS
 10
809713.082855638
 20
8989659.2790601309
 30
0.0
  0
VERTEX
  5
B3D
  8
SOILS
 10
809736.66213618987
 20
8989670.1518483814
 30
0.0
  0
VERTEX
  5
B3E
  8
SOILS
 10
809742.62139971985
 20
8989719.6000550669
 30
0.0
  0
VERTEX
  5
B3F
  8
SOILS
 10
809762.05524805863
 20
8989808.4783022366
 30
0.0
  0
VERTEX
  5
B40
  8
SOILS
 10
809759.80610602396
 20
8989828.6964497231
 30
0.0
  0
VERTEX
  5
B41
  8
SOILS
 10
809790.08918091923
 20
8989902.0658666883
 30
0.0
  0
VERTEX
  5
B42
  8
SOILS
 10
809813.08565003064
 20
8989957.7813954689
 30
0.0
  0
VERTEX
  5
B43
  8
SOILS
 10
809854.47880923166
 20
8989976.5966263544
 30
0.0
  0
VERTEX
  5
B44
  8
SOILS
 10
809874.70928930817
 20
8990024.7999124657
 30
0.0
  0
VERTEX
  5
B45
  8
SOILS
 10
809879.44967734383
 20
8990075.198708348
 30
0.0
  0
VERTEX
  5
B46
  8
SOILS
 10
809867.00982087967
 20
8990091.6698895711
 30
0.0
  0
VERTEX
  5
B47
  8
SOILS
 10
809902.00241950201
 20
8990113.7871382721
 30
0.0
  0
VERTEX
  5
B48
  8
SOILS
 10
809927.61918163742
 20
8990068.9330449589
 30
0.0
  0
VERTEX
  5
B49
  8
SOILS
 10
809953.71054568375
 20
8990072.2888842355
 30
0.0
  0
VERTEX
  5
B4A
  8
SOILS
 10
809979.33792648255
 20
8990116.2308744844
 30
0.0
  0
VERTEX
  5
B4B
  8
SOILS
 10
810008.26532765559
 20
8990135.5003855284
 30
0.0
  0
VERTEX
  5
B4C
  8
SOILS
 10
810023.16732943698
 20
8990153.0180966035
 30
0.0
  0
VERTEX
  5
B4D
  8
SOILS
 10
810083.34328510799
 20
8990138.2765899785
 30
0.0
  0
VERTEX
  5
B4E
  8
SOILS
 10
810151.47075926291
 20
8990135.1468125451
 30
0.0
  0
SEQEND
  5
B4F
  8
SOILS
  0
POLYLINE
  5
18A
  8
SOILS
 66
     1
 10
0.0
 20
0.0
 30
0.0
 40
1.0
 41
1.0
  0
VERTEX
  5
B50
  8
SOILS
 10
811553.35469584155
 20
8992371.1155586056
 30
0.0
  0
VERTEX
  5
B51
  8
SOILS
 10
811625.01691746956
 20
8992371.7122227903
 30
0.0
  0
VERTEX
  5
B52
  8
SOILS
 10
811753.46108137676
 20
8992364.9027817566
 30
0.0
  0
SEQEND
  5
B53
  8
SOILS
  0
POLYLINE
  5
18B
  8
SOILS
 66
     1
 10
0.0
 20
0.0
 30
0.0
 40
1.0
 41
1.0
  0
VERTEX
  5
B54
  8
SOILS
 10
811319.15123061161
 20
8992471.2039036658
 30
0.0
  0
VERTEX
  5
B55
  8
SOILS
 10
811375.11470182589
 20
8992462.1840795521
 30
0.0
  0
VERTEX
  5
B56
  8
SOILS
 10
811440.313723283
 20
8992455.4686684906
 30
0.0
  0
VERTEX
  5
B57
  8
SOILS
 10
811486.02028907405
 20
8992405.7745977286
 30
0.0
  0
VERTEX
  5
B58
  8
SOILS
 10
811553.35469584155
 20
8992371.1155586056
 30
0.0
  0
SEQEND
  5
B59
  8
SOILS
  0
POLYLINE
  5
18C
  8
SOILS
 66
     1
 10
0.0
 20
0.0
 30
0.0
 40
1.0
 41
1.0
  0
VERTEX
  5
B5A
  8
SOILS
 10
811159.74973362847
 20
8992561.5461100806
 30
0.0
  0
VERTEX
  5
B5B
  8
SOILS
 10
811225.81210996048
 20
8992499.9319061544
 30
0.0
  0
VERTEX
  5
B5C
  8
SOILS
 10
811319.15123061161
 20
8992471.2039036658
 30
0.0
  0
SEQEND
  5
B5D
  8
SOILS
  0
POLYLINE
  5
18D
  8
SOILS
 66
     1
 10
0.0
 20
0.0
 30
0.0
 40
1.0
 41
1.0
  0
VERTEX
  5
B5E
  8
SOILS
 10
810608.10458381625
 20
8992702.8165356424
 30
0.0
  0
VERTEX
  5
B5F
  8
SOILS
 10
810621.25809389283
 20
8992680.6567311529
 30
0.0
  0
VERTEX
  5
B60
  8
SOILS
 10
810641.76714191691
 20
8992646.1050037555
 30
0.0
  0
VERTEX
  5
B61
  8
SOILS
 10
810914.60345281777
 20
8992624.4708396196
 30
0.0
  0
VERTEX
  5
B62
  8
SOILS
 10
810990.39443131292
 20
8992568.2220128626
 30
0.0
  0
VERTEX
  5
B63
  8
SOILS
 10
811083.50123165362
 20
8992585.5293441731
 30
0.0
  0
VERTEX
  5
B64
  8
SOILS
 10
811159.74973362847
 20
8992561.5461100806
 30
0.0
  0
SEQEND
  5
B65
  8
SOILS
  0
POLYLINE
  5
18E
  8
SOILS
 66
     1
 10
0.0
 20
0.0
 30
0.0
 40
1.0
 41
1.0
  0
VERTEX
  5
B66
  8
SOILS
 10
810230.37906128564
 20
8992110.9402412716
 30
0.0
  0
VERTEX
  5
B67
  8
SOILS
 10
810316.21940940595
 20
8992319.2030483857
 30
0.0
  0
VERTEX
  5
B68
  8
SOILS
 10
810490.16809687461
 20
8992524.6198021807
 30
0.0
  0
VERTEX
  5
B69
  8
SOILS
 10
810553.16301665199
 20
8992636.5090797711
 30
0.0
  0
VERTEX
  5
B6A
  8
SOILS
 10
810608.1045838159
 20
8992702.8165356424
 30
0.0
  0
SEQEND
  5
B6B
  8
SOILS
  0
POLYLINE
  5
18F
  8
SOILS
 66
     1
 10
0.0
 20
0.0
 30
0.0
 40
1.0
 41
1.0
  0
VERTEX
  5
B6C
  8
SOILS
 10
809638.43425519089
 20
8990718.4413690586
 30
0.0
  0
VERTEX
  5
B6D
  8
SOILS
 10
809745.19417222741
 20
8990960.7169734892
 30
0.0
  0
VERTEX
  5
B6E
  8
SOILS
 10
809847.77273328474
 20
8991130.177659044
 30
0.0
  0
VERTEX
  5
B6F
  8
SOILS
 10
809940.5660838387
 20
8991329.9573119283
 30
0.0
  0
VERTEX
  5
B70
  8
SOILS
 10
810036.96957775299
 20
8991447.3548930325
 30
0.0
  0
VERTEX
  5
B71
  8
SOILS
 10
810157.81070185371
 20
8991656.5854925476
 30
0.0
  0
VERTEX
  5
B72
  8
SOILS
 10
810178.32276785746
 20
8991689.2267095186
 30
0.0
  0
VERTEX
  5
B73
  8
SOILS
 10
810124.06887393584
 20
8991747.5561988391
 30
0.0
  0
VERTEX
  5
B74
  8
SOILS
 10
810106.79158299975
 20
8991832.5450717174
 30
0.0
  0
VERTEX
  5
B75
  8
SOILS
 10
810120.0817700529
 20
8991898.9426722452
 30
0.0
  0
VERTEX
  5
B76
  8
SOILS
 10
810200.09436763695
 20
8992061.81764617
 30
0.0
  0
VERTEX
  5
B77
  8
SOILS
 10
810230.37906128564
 20
8992110.9402412716
 30
0.0
  0
SEQEND
  5
B78
  8
SOILS
  0
POLYLINE
  5
190
  8
SOILS
 66
     1
 10
0.0
 20
0.0
 30
0.0
 40
1.0
 41
1.0
  0
VERTEX
  5
B79
  8
SOILS
 10
809328.87323920731
 20
8990378.1971896067
 30
0.0
  0
VERTEX
  5
B7A
  8
SOILS
 10
809469.36630650633
 20
8990501.9223370235
 30
0.0
  0
VERTEX
  5
B7B
  8
SOILS
 10
809638.43425519089
 20
8990718.4413690586
 30
0.0
  0
SEQEND
  5
B7C
  8
SOILS
  0
POLYLINE
  5
191
  8
SOILS
 66
     1
 10
0.0
 20
0.0
 30
0.0
 40
1.0
 41
1.0
  0
VERTEX
  5
B7D
  8
SOILS
 10
810230.37906128564
 20
8992110.9402412716
 30
0.0
  0
VERTEX
  5
B7E
  8
SOILS
 10
809979.00666296959
 20
8991966.9109333232
 30
0.0
  0
VERTEX
  5
B7F
  8
SOILS
 10
809780.80758724548
 20
8991855.8883437775
 30
0.0
  0
VERTEX
  5
B80
  8
SOILS
 10
809723.75025344279
 20
8991753.8675559238
 30
0.0
  0
VERTEX
  5
B81
  8
SOILS
 10
809651.67786950769
 20
8991510.8180927355
 30
0.0
  0
VERTEX
  5
B82
  8
SOILS
 10
809585.6114578587
 20
8991258.7668278683
 30
0.0
  0
VERTEX
  5
B83
  8
SOILS
 10
809549.57530569704
 20
8991063.7271500323
 30
0.0
  0
VERTEX
  5
B84
  8
SOILS
 10
809526.96030153008
 20
8990871.9586114883
 30
0.0
  0
VERTEX
  5
B85
  8
SOILS
 10
809505.08488833555
 20
8990818.3732336983
 30
0.0
  0
VERTEX
  5
B86
  8
SOILS
 10
809405.07292290265
 20
8990682.7514208388
 30
0.0
  0
VERTEX
  5
B87
  8
SOILS
 10
809340.77945968765
 20
8990537.6122852471
 30
0.0
  0
VERTEX
  5
B88
  8
SOILS
 10
809328.87323920731
 20
8990378.1971896067
 30
0.0
  0
SEQEND
  5
B89
  8
SOILS
  0
ENDSEC
  0
EOF
