  0
SECTION
  2
HEADER
  9
$ACADVER
  1
AC1009
  9
$INSBASE
 10
0.0
 20
0.0
 30
0.0
  9
$EXTMIN
 10
806688.7685850003
 20
8984993.6145500038
 30
0.0
  9
$EXTMAX
 10
813495.84438577387
 20
8993270.0494193062
 30
0.0
  9
$LIMMIN
 10
0.0
 20
0.0
  9
$LIMMAX
 10
12.0
 20
9.0
  9
$ORTHOMODE
 70
     0
  9
$REGENMODE
 70
     1
  9
$FILLMODE
 70
     1
  9
$QTEXTMODE
 70
     0
  9
$MIRRTEXT
 70
     1
  9
$DRAGMODE
 70
     2
  9
$LTSCALE
 40
1.0
  9
$OSMODE
 70
    37
  9
$ATTMODE
 70
     1
  9
$TEXTSIZE
 40
0.2
  9
$TRACEWID
 40
0.05
  9
$TEXTSTYLE
  7
STANDARD
  9
$CLAYER
  8
P3DISTRICTLABELS
  9
$CELTYPE
  6
BYLAYER
  9
$CECOLOR
 62
   256
  9
$DIMSCALE
 40
1.0
  9
$DIMASZ
 40
0.18
  9
$DIMEXO
 40
0.0625
  9
$DIMDLI
 40
0.38
  9
$DIMRND
 40
0.0
  9
$DIMDLE
 40
0.0
  9
$DIMEXE
 40
0.18
  9
$DIMTP
 40
0.0
  9
$DIMTM
 40
0.0
  9
$DIMTXT
 40
0.18
  9
$DIMCEN
 40
0.09
  9
$DIMTSZ
 40
0.0
  9
$DIMTOL
 70
     0
  9
$DIMLIM
 70
     0
  9
$DIMTIH
 70
     1
  9
$DIMTOH
 70
     1
  9
$DIMSE1
 70
     0
  9
$DIMSE2
 70
     0
  9
$DIMTAD
 70
     0
  9
$DIMZIN
 70
     0
  9
$DIMBLK
  1

  9
$DIMASO
 70
     1
  9
$DIMSHO
 70
     1
  9
$DIMPOST
  1

  9
$DIMAPOST
  1

  9
$DIMALT
 70
     0
  9
$DIMALTD
 70
     2
  9
$DIMALTF
 40
25.399999999999999
  9
$DIMLFAC
 40
1.0
  9
$DIMTOFL
 70
     0
  9
$DIMTVP
 40
0.0
  9
$DIMTIX
 70
     0
  9
$DIMSOXD
 70
     0
  9
$DIMSAH
 70
     0
  9
$DIMBLK1
  1

  9
$DIMBLK2
  1

  9
$DIMSTYLE
  2
STANDARD
  9
$DIMCLRD
 70
     0
  9
$DIMCLRE
 70
     0
  9
$DIMCLRT
 70
     0
  9
$DIMTFAC
 40
1.0
  9
$DIMGAP
 40
0.09
  9
$LUNITS
 70
     2
  9
$LUPREC
 70
     4
  9
$SKETCHINC
 40
0.1
  9
$FILLETRAD
 40
0.0
  9
$AUNITS
 70
     0
  9
$AUPREC
 70
     0
  9
$MENU
  1
.
  9
$ELEVATION
 40
0.0
  9
$PELEVATION
 40
0.0
  9
$THICKNESS
 40
0.0
  9
$LIMCHECK
 70
     0
  9
$BLIPMODE
 70
     0
  9
$CHAMFERA
 40
0.5
  9
$CHAMFERB
 40
0.5
  9
$SKPOLY
 70
     0
  9
$TDCREATE
 40
2456576.5693424069
  9
$TDUPDATE
 40
2457463.5476274421
  9
$TDINDWG
 40
1.2114213309999999
  9
$TDUSRTIMER
 40
1.2114211574
  9
$USRTIMER
 70
     1
  9
$ANGBASE
 50
0.0
  9
$ANGDIR
 70
     1
  9
$PDMODE
 70
    66
  9
$PDSIZE
 40
0.0
  9
$PLINEWID
 40
0.0
  9
$COORDS
 70
     1
  9
$SPLFRAME
 70
     0
  9
$SPLINETYPE
 70
     6
  9
$SPLINESEGS
 70
     8
  9
$ATTDIA
 70
     1
  9
$ATTREQ
 70
     1
  9
$HANDLING
 70
     1
  9
$HANDSEED
  5
3EC
  9
$SURFTAB1
 70
     6
  9
$SURFTAB2
 70
     6
  9
$SURFTYPE
 70
     6
  9
$SURFU
 70
     6
  9
$SURFV
 70
     6
  9
$UCSNAME
  2

  9
$UCSORG
 10
0.0
 20
0.0
 30
0.0
  9
$UCSXDIR
 10
1.0
 20
0.0
 30
0.0
  9
$UCSYDIR
 10
0.0
 20
1.0
 30
0.0
  9
$PUCSNAME
  2

  9
$PUCSORG
 10
0.0
 20
0.0
 30
0.0
  9
$PUCSXDIR
 10
1.0
 20
0.0
 30
0.0
  9
$PUCSYDIR
 10
0.0
 20
1.0
 30
0.0
  9
$USERI1
 70
     0
  9
$USERI2
 70
     0
  9
$USERI3
 70
     0
  9
$USERI4
 70
     0
  9
$USERI5
 70
     0
  9
$USERR1
 40
0.0
  9
$USERR2
 40
0.0
  9
$USERR3
 40
0.0
  9
$USERR4
 40
0.0
  9
$USERR5
 40
0.0
  9
$WORLDVIEW
 70
     1
  9
$SHADEDGE
 70
     3
  9
$SHADEDIF
 70
    70
  9
$TILEMODE
 70
     1
  9
$MAXACTVP
 70
    64
  9
$PLIMCHECK
 70
     0
  9
$PEXTMIN
 10
0.0
 20
0.0
 30
0.0
  9
$PEXTMAX
 10
0.0
 20
0.0
 30
0.0
  9
$PLIMMIN
 10
0.0
 20
0.0
  9
$PLIMMAX
 10
12.0
 20
9.0
  9
$UNITMODE
 70
     0
  9
$VISRETAIN
 70
     1
  9
$PLINEGEN
 70
     0
  9
$PSLTSCALE
 70
     1
  0
ENDSEC
  0
SECTION
  2
TABLES
  0
TABLE
  2
VPORT
 70
     1
  0
VPORT
  2
*ACTIVE
 70
     0
 10
0.0
 20
0.0
 11
1.0
 21
1.0
 12
811680.7563944977
 22
8990709.707848385
 13
0.0
 23
0.0
 14
0.5
 24
0.5
 15
0.5
 25
0.5
 16
0.0
 26
0.0
 36
1.0
 17
0.0
 27
0.0
 37
0.0
 40
22874.570765258741
 41
1.515942028985507
 42
50.0
 43
0.0
 44
0.0
 50
0.0
 51
0.0
 71
     0
 72
   100
 73
     1
 74
     2
 75
     0
 76
     0
 77
     0
 78
     0
  0
ENDTAB
  0
TABLE
  2
LTYPE
 70
     1
  0
LTYPE
  2
CONTINUOUS
 70
     0
  3
Solid line
 72
    65
 73
     0
 40
0.0
  0
ENDTAB
  0
TABLE
  2
LAYER
 70
     3
  0
LAYER
  2
0
 70
     0
 62
    -7
  6
CONTINUOUS
  0
LAYER
  2
P3DISTRICTS
 70
     0
 62
     7
  6
CONTINUOUS
  0
LAYER
  2
P3DISTRICTLABELS
 70
     0
 62
     1
  6
CONTINUOUS
  0
ENDTAB
  0
TABLE
  2
STYLE
 70
     1
  0
STYLE
  2
STANDARD
 70
     0
 40
0.0
 41
1.0
 50
0.0
 71
     0
 42
0.2
  3
txt
  4

  0
ENDTAB
  0
TABLE
  2
VIEW
 70
     0
  0
ENDTAB
  0
TABLE
  2
UCS
 70
     0
  0
ENDTAB
  0
TABLE
  2
APPID
 70
     6
  0
APPID
  2
ACAD
 70
     0
  0
APPID
  2
ADE
 70
     0
  0
APPID
  2
IRD
 70
     0
  0
APPID
  2
ACAD_NAV_VCDISPLAY
 70
     0
  0
APPID
  2
ACAECLAYERSTANDARD
 70
     0
  0
APPID
  2
ADE_PROJECTION
 70
     0
  0
ENDTAB
  0
TABLE
  2
DIMSTYLE
 70
     1
  0
DIMSTYLE
  2
STANDARD
 70
     0
  3

  4

  5

  6

  7

 40
1.0
 41
0.18
 42
0.0625
 43
0.38
 44
0.18
 45
0.0
 46
0.0
 47
0.0
 48
0.0
140
0.18
141
0.09
142
0.0
143
25.399999999999999
144
1.0
145
0.0
146
1.0
147
0.09
 71
     0
 72
     0
 73
     1
 74
     1
 75
     0
 76
     0
 77
     0
 78
     0
170
     0
171
     2
172
     0
173
     0
174
     0
175
     0
176
     0
177
     0
178
     0
  0
ENDTAB
  0
ENDSEC
  0
SECTION
  2
BLOCKS
  0
BLOCK
  8
0
  2
$MODEL_SPACE
 70
     0
 10
0.0
 20
0.0
 30
0.0
  3
$MODEL_SPACE
  1

  0
ENDBLK
  5
17
  8
0
  0
BLOCK
 67
     1
  8
0
  2
$PAPER_SPACE
 70
     0
 10
0.0
 20
0.0
 30
0.0
  3
$PAPER_SPACE
  1

  0
ENDBLK
  5
1E
 67
     1
  8
0
  0
ENDSEC
  0
SECTION
  2
ENTITIES
  0
TEXT
  5
74
  8
P3DISTRICTLABELS
 10
808554.05577283085
 20
8988687.6468751598
 30
0.0
 40
75.0
  1
304
1001
IRD
1002
{
1000
TPMCNTR_SLC-_-ade
1070
   515
1071
        1
1004
01000D00000000001029F57D5E41881B899857BBC64004000000
1002
}
  0
TEXT
  5
76
  8
P3DISTRICTLABELS
 10
812450.66432717722
 20
8988901.8302162401
 30
0.0
 40
75.0
  1
305
1001
IRD
1002
{
1000
TPMCNTR_SLC-_-ade
1070
   515
1071
        1
1004
01000C0000000000182A466D6C41EE354D00C67CD14003000000
1002
}
  0
TEXT
  5
77
  8
P3DISTRICTLABELS
 10
807902.42557174468
 20
8990852.3063996416
 30
0.0
 40
75.0
  1
303
1001
IRD
1002
{
1000
TPMCNTR_SLC-_-ade
1070
   515
1071
        1
1004
01000B0000000000D09F90A84C4127AF9C209A6FBD4003000000
1002
}
  0
TEXT
  5
78
  8
P3DISTRICTLABELS
 10
810750.56252434314
 20
8992498.5795620997
 30
0.0
 40
75.0
  1
302
1001
IRD
1002
{
1000
TPMCNTR_SLC-_-ade
1070
   515
1071
        1
1004
01000A0000000000586856D164418C4443F175FCCA4006000000
1002
}
  0
TEXT
  5
79
  8
P3DISTRICTLABELS
 10
813101.14026831696
 20
8991882.8470623046
 30
0.0
 40
75.0
  1
301
1001
IRD
1002
{
1000
TPMCNTR_SLC-_-ade
1070
   515
1071
        1
1004
010009000000000080F3EE0626415CA5072C81F5AE4002000000
1002
}
  0
POLYLINE
  5
7A
  8
P3DISTRICTS
 66
     1
 10
0.0
 20
0.0
 30
0.0
  0
VERTEX
  5
BE
  8
P3DISTRICTS
 10
809898.82008005597
 20
8989767.8216640037
 30
0.0
  0
VERTEX
  5
BF
  8
P3DISTRICTS
 10
810186.13692299998
 20
8989557.2615399994
 30
0.0
  0
VERTEX
  5
C0
  8
P3DISTRICTS
 10
810451.250382
 20
8989207.4512399994
 30
0.0
  0
VERTEX
  5
C1
  8
P3DISTRICTS
 10
810436.47894200007
 20
8988999.8291999996
 30
0.0
  0
VERTEX
  5
C2
  8
P3DISTRICTS
 10
810323.28741899994
 20
8988663.7935300004
 30
0.0
  0
VERTEX
  5
C3
  8
P3DISTRICTS
 10
810085.02625700005
 20
8988275.9123700019
 30
0.0
  0
VERTEX
  5
C4
  8
P3DISTRICTS
 10
809923.26367100002
 20
8988088.7517200019
 30
0.0
  0
VERTEX
  5
C5
  8
P3DISTRICTS
 10
809648.03668400028
 20
8987657.0278099999
 30
0.0
  0
VERTEX
  5
C6
  8
P3DISTRICTS
 10
808826.44781799987
 20
8986578.6324000005
 30
0.0
  0
SEQEND
  5
C7
  8
P3DISTRICTS
  0
POLYLINE
  5
7E
  8
P3DISTRICTS
 66
     1
 10
0.0
 20
0.0
 30
0.0
  0
VERTEX
  5
C8
  8
P3DISTRICTS
 10
807514.49039599998
 20
8992232.4779700004
 30
0.0
  0
VERTEX
  5
C9
  8
P3DISTRICTS
 10
808138.81741599995
 20
8991673.4813899994
 30
0.0
  0
VERTEX
  5
CA
  8
P3DISTRICTS
 10
808504.81295299996
 20
8991251.1861000005
 30
0.0
  0
VERTEX
  5
CB
  8
P3DISTRICTS
 10
808573.38761899981
 20
8991017.7233899962
 30
0.0
  0
VERTEX
  5
CC
  8
P3DISTRICTS
 10
808583.10969985439
 20
8990226.6873686276
 30
0.0
  0
SEQEND
  5
CD
  8
P3DISTRICTS
  0
POLYLINE
  5
7F
  8
P3DISTRICTS
 66
     1
 10
0.0
 20
0.0
 30
0.0
  0
VERTEX
  5
CE
  8
P3DISTRICTS
 10
806871.87674900005
 20
8989373.0116300024
 30
0.0
  0
VERTEX
  5
CF
  8
P3DISTRICTS
 10
807575.84897699999
 20
8989577.34712
 30
0.0
  0
VERTEX
  5
D0
  8
P3DISTRICTS
 10
808583.10969985498
 20
8990226.6873686276
 30
0.0
  0
SEQEND
  5
D1
  8
P3DISTRICTS
  0
POLYLINE
  5
80
  8
P3DISTRICTS
 66
     1
 10
0.0
 20
0.0
 30
0.0
  0
VERTEX
  5
D2
  8
P3DISTRICTS
 10
809898.82008005597
 20
8989767.8216640037
 30
0.0
  0
VERTEX
  5
D3
  8
P3DISTRICTS
 10
808583.10969985439
 20
8990226.6873686276
 30
0.0
  0
SEQEND
  5
D4
  8
P3DISTRICTS
  0
POLYLINE
  5
81
  8
P3DISTRICTS
 66
     1
 10
0.0
 20
0.0
 30
0.0
  0
VERTEX
  5
D5
  8
P3DISTRICTS
 10
812380.22256629681
 20
8990956.5769805778
 30
0.0
  0
VERTEX
  5
D6
  8
P3DISTRICTS
 10
812076.41520400008
 20
8990911.7104599997
 30
0.0
  0
VERTEX
  5
D7
  8
P3DISTRICTS
 10
811795.12176241574
 20
8990672.9295119178
 30
0.0
  0
VERTEX
  5
D8
  8
P3DISTRICTS
 10
810904.64105400012
 20
8990067.2994199991
 30
0.0
  0
VERTEX
  5
D9
  8
P3DISTRICTS
 10
810595.6762300001
 20
8989895.9695500005
 30
0.0
  0
VERTEX
  5
DA
  8
P3DISTRICTS
 10
810209.43674699997
 20
8989800.1557899993
 30
0.0
  0
VERTEX
  5
DB
  8
P3DISTRICTS
 10
809898.82008005597
 20
8989767.8216640037
 30
0.0
  0
SEQEND
  5
DC
  8
P3DISTRICTS
  0
POLYLINE
  5
82
  8
P3DISTRICTS
 66
     1
 10
0.0
 20
0.0
 30
0.0
  0
VERTEX
  5
DD
  8
P3DISTRICTS
 10
812114.55597853381
 20
8992232.7210596632
 30
0.0
  0
VERTEX
  5
DE
  8
P3DISTRICTS
 10
812105.93118700001
 20
8992164.8535999991
 30
0.0
  0
VERTEX
  5
DF
  8
P3DISTRICTS
 10
812151.67136799998
 20
8991443.0551500004
 30
0.0
  0
VERTEX
  5
E0
  8
P3DISTRICTS
 10
812389.28417173598
 20
8991251.1640344523
 30
0.0
  0
SEQEND
  5
E1
  8
P3DISTRICTS
  0
POLYLINE
  5
83
  8
P3DISTRICTS
 66
     1
 10
0.0
 20
0.0
 30
0.0
 70
   128
  0
VERTEX
  5
E2
  8
P3DISTRICTS
 10
806871.87674900005
 20
8989373.0116300024
 30
0.0
  0
VERTEX
  5
E3
  8
P3DISTRICTS
 10
806867.29385100026
 20
8989391.9912700001
 30
0.0
  0
VERTEX
  5
E4
  8
P3DISTRICTS
 10
806863.70375400002
 20
8989411.1377199981
 30
0.0
  0
VERTEX
  5
E5
  8
P3DISTRICTS
 10
806860.58415799995
 20
8989430.2382500004
 30
0.0
  0
VERTEX
  5
E6
  8
P3DISTRICTS
 10
806857.59558199998
 20
8989449.3268199991
 30
0.0
  0
VERTEX
  5
E7
  8
P3DISTRICTS
 10
806854.51716100017
 20
8989468.4303100016
 30
0.0
  0
VERTEX
  5
E8
  8
P3DISTRICTS
 10
806851.36765899986
 20
8989487.5402300004
 30
0.0
  0
VERTEX
  5
E9
  8
P3DISTRICTS
 10
806848.12319599988
 20
8989506.6277899984
 30
0.0
  0
VERTEX
  5
EA
  8
P3DISTRICTS
 10
806844.34711700014
 20
8989525.6154800039
 30
0.0
  0
VERTEX
  5
EB
  8
P3DISTRICTS
 10
806840.25983400003
 20
8989544.5442900006
 30
0.0
  0
VERTEX
  5
EC
  8
P3DISTRICTS
 10
806836.10298900015
 20
8989563.4561699983
 30
0.0
  0
VERTEX
  5
ED
  8
P3DISTRICTS
 10
806831.932134
 20
8989582.3615400009
 30
0.0
  0
VERTEX
  5
EE
  8
P3DISTRICTS
 10
806827.7082600001
 20
8989601.2542100009
 30
0.0
  0
VERTEX
  5
EF
  8
P3DISTRICTS
 10
806823.39721800014
 20
8989620.1281199995
 30
0.0
  0
VERTEX
  5
F0
  8
P3DISTRICTS
 10
806819.02288699988
 20
8989638.9881699998
 30
0.0
  0
VERTEX
  5
F1
  8
P3DISTRICTS
 10
806814.60146199982
 20
8989657.8371800017
 30
0.0
  0
VERTEX
  5
F2
  8
P3DISTRICTS
 10
806810.13685600006
 20
8989676.675710002
 30
0.0
  0
VERTEX
  5
F3
  8
P3DISTRICTS
 10
806805.62433400005
 20
8989695.5028099995
 30
0.0
  0
VERTEX
  5
F4
  8
P3DISTRICTS
 10
806801.03210500011
 20
8989714.3107899986
 30
0.0
  0
VERTEX
  5
F5
  8
P3DISTRICTS
 10
806796.21811400016
 20
8989733.0626899991
 30
0.0
  0
VERTEX
  5
F6
  8
P3DISTRICTS
 10
806791.26715700026
 20
8989751.7796999998
 30
0.0
  0
VERTEX
  5
F7
  8
P3DISTRICTS
 10
806786.34148999967
 20
8989770.5031499993
 30
0.0
  0
VERTEX
  5
F8
  8
P3DISTRICTS
 10
806781.45805699995
 20
8989789.2374200001
 30
0.0
  0
VERTEX
  5
F9
  8
P3DISTRICTS
 10
806776.62385300011
 20
8989807.9844199996
 30
0.0
  0
VERTEX
  5
FA
  8
P3DISTRICTS
 10
806771.84273700009
 20
8989826.7451399993
 30
0.0
  0
VERTEX
  5
FB
  8
P3DISTRICTS
 10
806767.11192799988
 20
8989845.5186899994
 30
0.0
  0
VERTEX
  5
FC
  8
P3DISTRICTS
 10
806762.4451929999
 20
8989864.3083600011
 30
0.0
  0
VERTEX
  5
FD
  8
P3DISTRICTS
 10
806757.857969
 20
8989883.1175699998
 30
0.0
  0
VERTEX
  5
FE
  8
P3DISTRICTS
 10
806753.38664300018
 20
8989901.9546100032
 30
0.0
  0
VERTEX
  5
FF
  8
P3DISTRICTS
 10
806748.93105400004
 20
8989920.7949700002
 30
0.0
  0
VERTEX
  5
100
  8
P3DISTRICTS
 10
806744.20209399972
 20
8989939.5689599998
 30
0.0
  0
VERTEX
  5
101
  8
P3DISTRICTS
 10
806739.5088999999
 20
8989958.3520600032
 30
0.0
  0
VERTEX
  5
102
  8
P3DISTRICTS
 10
806735.01532700018
 20
8989977.1838699989
 30
0.0
  0
VERTEX
  5
103
  8
P3DISTRICTS
 10
806730.67314099986
 20
8989996.0516500007
 30
0.0
  0
VERTEX
  5
104
  8
P3DISTRICTS
 10
806726.47491000034
 20
8990014.9522200003
 30
0.0
  0
VERTEX
  5
105
  8
P3DISTRICTS
 10
806722.41948500043
 20
8990033.8836000003
 30
0.0
  0
VERTEX
  5
106
  8
P3DISTRICTS
 10
806718.54172099999
 20
8990052.8511699997
 30
0.0
  0
VERTEX
  5
107
  8
P3DISTRICTS
 10
806714.88444599998
 20
8990071.8624300007
 30
0.0
  0
VERTEX
  5
108
  8
P3DISTRICTS
 10
806711.40801800031
 20
8990090.9088499993
 30
0.0
  0
VERTEX
  5
109
  8
P3DISTRICTS
 10
806708.12183700025
 20
8990109.9911700003
 30
0.0
  0
VERTEX
  5
10A
  8
P3DISTRICTS
 10
806705.07679400011
 20
8990129.1134699993
 30
0.0
  0
VERTEX
  5
10B
  8
P3DISTRICTS
 10
806702.39058200014
 20
8990148.285790002
 30
0.0
  0
VERTEX
  5
10C
  8
P3DISTRICTS
 10
806700.10646699998
 20
8990167.5107800029
 30
0.0
  0
VERTEX
  5
10D
  8
P3DISTRICTS
 10
806697.57943400019
 20
8990186.7060599998
 30
0.0
  0
VERTEX
  5
10E
  8
P3DISTRICTS
 10
806695.17881299986
 20
8990205.9154800009
 30
0.0
  0
VERTEX
  5
10F
  8
P3DISTRICTS
 10
806693.31043800001
 20
8990225.1860799994
 30
0.0
  0
VERTEX
  5
110
  8
P3DISTRICTS
 10
806691.82906200003
 20
8990244.4939600024
 30
0.0
  0
VERTEX
  5
111
  8
P3DISTRICTS
 10
806690.67270600016
 20
8990263.8223899994
 30
0.0
  0
VERTEX
  5
112
  8
P3DISTRICTS
 10
806689.78841899999
 20
8990283.1632299982
 30
0.0
  0
VERTEX
  5
113
  8
P3DISTRICTS
 10
806689.16857099999
 20
8990302.5135899968
 30
0.0
  0
VERTEX
  5
114
  8
P3DISTRICTS
 10
806688.84534799994
 20
8990321.8720800001
 30
0.0
  0
VERTEX
  5
115
  8
P3DISTRICTS
 10
806688.7685850003
 20
8990341.2333899979
 30
0.0
  0
VERTEX
  5
116
  8
P3DISTRICTS
 10
806688.95231199998
 20
8990360.5924999993
 30
0.0
  0
VERTEX
  5
117
  8
P3DISTRICTS
 10
806689.31467899994
 20
8990379.9491399992
 30
0.0
  0
VERTEX
  5
118
  8
P3DISTRICTS
 10
806689.66620200011
 20
8990399.3070399966
 30
0.0
  0
VERTEX
  5
119
  8
P3DISTRICTS
 10
806689.89109599998
 20
8990418.6683900021
 30
0.0
  0
VERTEX
  5
11A
  8
P3DISTRICTS
 10
806690.2033220001
 20
8990438.0266699996
 30
0.0
  0
VERTEX
  5
11B
  8
P3DISTRICTS
 10
806690.95327399997
 20
8990457.3712699972
 30
0.0
  0
VERTEX
  5
11C
  8
P3DISTRICTS
 10
806692.31601199985
 20
8990476.688930003
 30
0.0
  0
VERTEX
  5
11D
  8
P3DISTRICTS
 10
806694.23086500005
 20
8990495.9591300003
 30
0.0
  0
VERTEX
  5
11E
  8
P3DISTRICTS
 10
806696.74905900005
 20
8990515.1550699994
 30
0.0
  0
VERTEX
  5
11F
  8
P3DISTRICTS
 10
806699.43935899995
 20
8990534.3279199991
 30
0.0
  0
VERTEX
  5
120
  8
P3DISTRICTS
 10
806701.77161500033
 20
8990553.5469200015
 30
0.0
  0
VERTEX
  5
121
  8
P3DISTRICTS
 10
806703.90851500002
 20
8990572.7889999989
 30
0.0
  0
VERTEX
  5
122
  8
P3DISTRICTS
 10
806705.98893800017
 20
8990592.0372800026
 30
0.0
  0
VERTEX
  5
123
  8
P3DISTRICTS
 10
806708.08996499993
 20
8990611.2832899969
 30
0.0
  0
VERTEX
  5
124
  8
P3DISTRICTS
 10
806710.23237500037
 20
8990630.5247500017
 30
0.0
  0
VERTEX
  5
125
  8
P3DISTRICTS
 10
806712.40324299992
 20
8990649.7630400006
 30
0.0
  0
VERTEX
  5
126
  8
P3DISTRICTS
 10
806714.59832299978
 20
8990668.9985900037
 30
0.0
  0
VERTEX
  5
127
  8
P3DISTRICTS
 10
806716.81333100027
 20
8990688.2318200003
 30
0.0
  0
VERTEX
  5
128
  8
P3DISTRICTS
 10
806719.04984200001
 20
8990707.4624899998
 30
0.0
  0
VERTEX
  5
129
  8
P3DISTRICTS
 10
806721.30865899986
 20
8990726.6905199997
 30
0.0
  0
VERTEX
  5
12A
  8
P3DISTRICTS
 10
806723.58659900015
 20
8990745.9164800011
 30
0.0
  0
VERTEX
  5
12B
  8
P3DISTRICTS
 10
806725.88538500015
 20
8990765.1403300017
 30
0.0
  0
VERTEX
  5
12C
  8
P3DISTRICTS
 10
806728.19522800006
 20
8990784.3626699969
 30
0.0
  0
VERTEX
  5
12D
  8
P3DISTRICTS
 10
806730.50174099975
 20
8990803.5841400009
 30
0.0
  0
VERTEX
  5
12E
  8
P3DISTRICTS
 10
806732.79416599998
 20
8990822.8061500005
 30
0.0
  0
VERTEX
  5
12F
  8
P3DISTRICTS
 10
806735.06759899994
 20
8990842.0329600014
 30
0.0
  0
VERTEX
  5
130
  8
P3DISTRICTS
 10
806737.32084300031
 20
8990861.2691300027
 30
0.0
  0
VERTEX
  5
131
  8
P3DISTRICTS
 10
806739.71441200003
 20
8990880.4874799997
 30
0.0
  0
VERTEX
  5
132
  8
P3DISTRICTS
 10
806742.60663499997
 20
8990899.6243699994
 30
0.0
  0
VERTEX
  5
133
  8
P3DISTRICTS
 10
806746.26103099994
 20
8990918.6340199988
 30
0.0
  0
VERTEX
  5
134
  8
P3DISTRICTS
 10
806749.93687600014
 20
8990937.6446899995
 30
0.0
  0
VERTEX
  5
135
  8
P3DISTRICTS
 10
806753.37162700004
 20
8990956.6936399993
 30
0.0
  0
VERTEX
  5
136
  8
P3DISTRICTS
 10
806757.88818800019
 20
8990975.5200300012
 30
0.0
  0
VERTEX
  5
137
  8
P3DISTRICTS
 10
806763.17209899996
 20
8990994.1671899986
 30
0.0
  0
VERTEX
  5
138
  8
P3DISTRICTS
 10
806768.97192399995
 20
8991012.6562799998
 30
0.0
  0
VERTEX
  5
139
  8
P3DISTRICTS
 10
806775.19717900001
 20
8991030.9929699991
 30
0.0
  0
VERTEX
  5
13A
  8
P3DISTRICTS
 10
806781.89623700036
 20
8991049.1520100012
 30
0.0
  0
VERTEX
  5
13B
  8
P3DISTRICTS
 10
806789.15795200015
 20
8991067.0955100004
 30
0.0
  0
VERTEX
  5
13C
  8
P3DISTRICTS
 10
806796.61075400002
 20
8991084.9668499995
 30
0.0
  0
VERTEX
  5
13D
  8
P3DISTRICTS
 10
806803.86677400011
 20
8991102.9165599998
 30
0.0
  0
VERTEX
  5
13E
  8
P3DISTRICTS
 10
806811.43047200027
 20
8991120.7409800012
 30
0.0
  0
VERTEX
  5
13F
  8
P3DISTRICTS
 10
806819.41871400014
 20
8991138.3819500022
 30
0.0
  0
VERTEX
  5
140
  8
P3DISTRICTS
 10
806827.83537100023
 20
8991155.8194899987
 30
0.0
  0
VERTEX
  5
141
  8
P3DISTRICTS
 10
806836.66627599997
 20
8991173.0499799997
 30
0.0
  0
VERTEX
  5
142
  8
P3DISTRICTS
 10
806845.77798300027
 20
8991190.1346000005
 30
0.0
  0
VERTEX
  5
143
  8
P3DISTRICTS
 10
806855.07122100028
 20
8991207.1191300005
 30
0.0
  0
VERTEX
  5
144
  8
P3DISTRICTS
 10
806864.28727900004
 20
8991224.1452500019
 30
0.0
  0
VERTEX
  5
145
  8
P3DISTRICTS
 10
806873.49760400027
 20
8991241.1745999996
 30
0.0
  0
VERTEX
  5
146
  8
P3DISTRICTS
 10
806882.83086899994
 20
8991258.1368499994
 30
0.0
  0
VERTEX
  5
147
  8
P3DISTRICTS
 10
806892.33775900013
 20
8991275.0029199999
 30
0.0
  0
VERTEX
  5
148
  8
P3DISTRICTS
 10
806902.0239970003
 20
8991291.7660399992
 30
0.0
  0
VERTEX
  5
149
  8
P3DISTRICTS
 10
806911.80568200001
 20
8991308.4738500006
 30
0.0
  0
VERTEX
  5
14A
  8
P3DISTRICTS
 10
806921.55233600002
 20
8991325.2026000004
 30
0.0
  0
VERTEX
  5
14B
  8
P3DISTRICTS
 10
806931.36230400018
 20
8991341.893430002
 30
0.0
  0
VERTEX
  5
14C
  8
P3DISTRICTS
 10
806941.355798
 20
8991358.4744499996
 30
0.0
  0
VERTEX
  5
14D
  8
P3DISTRICTS
 10
806951.51146899979
 20
8991374.9576799981
 30
0.0
  0
VERTEX
  5
14E
  8
P3DISTRICTS
 10
806961.72746600001
 20
8991391.4033199996
 30
0.0
  0
VERTEX
  5
14F
  8
P3DISTRICTS
 10
806971.90126300021
 20
8991407.87476
 30
0.0
  0
VERTEX
  5
150
  8
P3DISTRICTS
 10
806981.99916699994
 20
8991424.3930200003
 30
0.0
  0
VERTEX
  5
151
  8
P3DISTRICTS
 10
806992.06713500025
 20
8991440.9298000038
 30
0.0
  0
VERTEX
  5
152
  8
P3DISTRICTS
 10
807002.17403400014
 20
8991457.4424900003
 30
0.0
  0
VERTEX
  5
153
  8
P3DISTRICTS
 10
807012.66937299992
 20
8991473.7113899998
 30
0.0
  0
VERTEX
  5
154
  8
P3DISTRICTS
 10
807023.50443600025
 20
8991489.7609199993
 30
0.0
  0
VERTEX
  5
155
  8
P3DISTRICTS
 10
807034.57943400042
 20
8991505.6445100009
 30
0.0
  0
VERTEX
  5
156
  8
P3DISTRICTS
 10
807045.770594
 20
8991521.4423699994
 30
0.0
  0
VERTEX
  5
157
  8
P3DISTRICTS
 10
807056.86486300011
 20
8991537.3079199996
 30
0.0
  0
VERTEX
  5
158
  8
P3DISTRICTS
 10
807067.85181899997
 20
8991553.2492200006
 30
0.0
  0
VERTEX
  5
159
  8
P3DISTRICTS
 10
807078.81332099985
 20
8991569.2079499997
 30
0.0
  0
VERTEX
  5
15A
  8
P3DISTRICTS
 10
807089.79992400005
 20
8991585.1490100008
 30
0.0
  0
VERTEX
  5
15B
  8
P3DISTRICTS
 10
807100.86789600016
 20
8991601.0334600024
 30
0.0
  0
VERTEX
  5
15C
  8
P3DISTRICTS
 10
807111.90150000004
 20
8991616.9418100007
 30
0.0
  0
VERTEX
  5
15D
  8
P3DISTRICTS
 10
807122.82954599999
 20
8991632.9233800005
 30
0.0
  0
VERTEX
  5
15E
  8
P3DISTRICTS
 10
807133.7011109998
 20
8991648.9437599983
 30
0.0
  0
VERTEX
  5
15F
  8
P3DISTRICTS
 10
807144.56212999998
 20
8991664.9709200002
 30
0.0
  0
VERTEX
  5
160
  8
P3DISTRICTS
 10
807155.53046099993
 20
8991680.9241799992
 30
0.0
  0
VERTEX
  5
161
  8
P3DISTRICTS
 10
807166.58716999996
 20
8991696.8168600015
 30
0.0
  0
VERTEX
  5
162
  8
P3DISTRICTS
 10
807177.55601199996
 20
8991712.7703300025
 30
0.0
  0
VERTEX
  5
163
  8
P3DISTRICTS
 10
807188.47340899997
 20
8991728.7592200004
 30
0.0
  0
VERTEX
  5
164
  8
P3DISTRICTS
 10
807199.47277400026
 20
8991744.6911800001
 30
0.0
  0
VERTEX
  5
165
  8
P3DISTRICTS
 10
807210.55024400004
 20
8991760.5691700019
 30
0.0
  0
VERTEX
  5
166
  8
P3DISTRICTS
 10
807221.50956400018
 20
8991776.5292499997
 30
0.0
  0
VERTEX
  5
167
  8
P3DISTRICTS
 10
807232.38085700024
 20
8991792.5497500002
 30
0.0
  0
VERTEX
  5
168
  8
P3DISTRICTS
 10
807243.18296000024
 20
8991808.6167500019
 30
0.0
  0
VERTEX
  5
169
  8
P3DISTRICTS
 10
807254.03240299993
 20
8991824.65123
 30
0.0
  0
VERTEX
  5
16A
  8
P3DISTRICTS
 10
807264.99251200014
 20
8991840.6106800009
 30
0.0
  0
VERTEX
  5
16B
  8
P3DISTRICTS
 10
807275.886787
 20
8991856.6148499995
 30
0.0
  0
VERTEX
  5
16C
  8
P3DISTRICTS
 10
807286.66749400005
 20
8991872.6960899998
 30
0.0
  0
VERTEX
  5
16D
  8
P3DISTRICTS
 10
807297.47183299996
 20
8991888.7612800002
 30
0.0
  0
VERTEX
  5
16E
  8
P3DISTRICTS
 10
807308.38304500002
 20
8991904.7540000007
 30
0.0
  0
VERTEX
  5
16F
  8
P3DISTRICTS
 10
807319.18387499999
 20
8991920.8217899986
 30
0.0
  0
VERTEX
  5
170
  8
P3DISTRICTS
 10
807329.86876500002
 20
8991936.9673299994
 30
0.0
  0
VERTEX
  5
171
  8
P3DISTRICTS
 10
807340.44916200009
 20
8991953.1812800039
 30
0.0
  0
VERTEX
  5
172
  8
P3DISTRICTS
 10
807350.98972300009
 20
8991969.420669999
 30
0.0
  0
VERTEX
  5
173
  8
P3DISTRICTS
 10
807361.63341300015
 20
8991985.5928600002
 30
0.0
  0
VERTEX
  5
174
  8
P3DISTRICTS
 10
807372.2486220001
 20
8992001.7834399994
 30
0.0
  0
VERTEX
  5
175
  8
P3DISTRICTS
 10
807382.71656099998
 20
8992018.0696300007
 30
0.0
  0
VERTEX
  5
176
  8
P3DISTRICTS
 10
807393.14014899998
 20
8992034.3847199995
 30
0.0
  0
VERTEX
  5
177
  8
P3DISTRICTS
 10
807403.64488400018
 20
8992050.6473600008
 30
0.0
  0
VERTEX
  5
178
  8
P3DISTRICTS
 10
807414.06638600014
 20
8992066.9633799996
 30
0.0
  0
VERTEX
  5
179
  8
P3DISTRICTS
 10
807424.33866400004
 20
8992083.3745900001
 30
0.0
  0
VERTEX
  5
17A
  8
P3DISTRICTS
 10
807434.50355500006
 20
8992099.8526700009
 30
0.0
  0
VERTEX
  5
17B
  8
P3DISTRICTS
 10
807444.59516499995
 20
8992116.3749800008
 30
0.0
  0
VERTEX
  5
17C
  8
P3DISTRICTS
 10
807454.72453200025
 20
8992132.8738299999
 30
0.0
  0
VERTEX
  5
17D
  8
P3DISTRICTS
 10
807464.89456000004
 20
8992149.3479399979
 30
0.0
  0
VERTEX
  5
17E
  8
P3DISTRICTS
 10
807474.98676500004
 20
8992165.8701500017
 30
0.0
  0
VERTEX
  5
17F
  8
P3DISTRICTS
 10
807484.98086699995
 20
8992182.4519600011
 30
0.0
  0
VERTEX
  5
180
  8
P3DISTRICTS
 10
807494.86312200013
 20
8992199.1003100015
 30
0.0
  0
VERTEX
  5
181
  8
P3DISTRICTS
 10
807504.66054199997
 20
8992215.7986500021
 30
0.0
  0
VERTEX
  5
182
  8
P3DISTRICTS
 10
807514.49039599998
 20
8992232.4779700004
 30
0.0
  0
SEQEND
  5
183
  8
P3DISTRICTS
  0
POLYLINE
  5
84
  8
P3DISTRICTS
 66
     1
 10
0.0
 20
0.0
 30
0.0
 70
   128
  0
VERTEX
  5
184
  8
P3DISTRICTS
 10
808826.44781799987
 20
8986578.6324000005
 30
0.0
  0
VERTEX
  5
185
  8
P3DISTRICTS
 10
808810.21827300021
 20
8986589.1911899988
 30
0.0
  0
VERTEX
  5
186
  8
P3DISTRICTS
 10
808793.81774900004
 20
8986599.4793600049
 30
0.0
  0
VERTEX
  5
187
  8
P3DISTRICTS
 10
808777.44070399995
 20
8986609.8054100014
 30
0.0
  0
VERTEX
  5
188
  8
P3DISTRICTS
 10
808761.10507800034
 20
8986620.1973899994
 30
0.0
  0
VERTEX
  5
189
  8
P3DISTRICTS
 10
808744.66214200028
 20
8986630.4152399953
 30
0.0
  0
VERTEX
  5
18A
  8
P3DISTRICTS
 10
808728.07579599996
 20
8986640.4011499994
 30
0.0
  0
VERTEX
  5
18B
  8
P3DISTRICTS
 10
808711.4966470002
 20
8986650.3998500034
 30
0.0
  0
VERTEX
  5
18C
  8
P3DISTRICTS
 10
808694.96920699999
 20
8986660.4825299997
 30
0.0
  0
VERTEX
  5
18D
  8
P3DISTRICTS
 10
808678.30172800005
 20
8986670.3328400012
 30
0.0
  0
VERTEX
  5
18E
  8
P3DISTRICTS
 10
808661.52084399993
 20
8986679.9911499992
 30
0.0
  0
VERTEX
  5
18F
  8
P3DISTRICTS
 10
808644.65242600022
 20
8986689.4947800003
 30
0.0
  0
VERTEX
  5
190
  8
P3DISTRICTS
 10
808627.74722399993
 20
8986698.9305000007
 30
0.0
  0
VERTEX
  5
191
  8
P3DISTRICTS
 10
808610.8976250001
 20
8986708.4650800005
 30
0.0
  0
VERTEX
  5
192
  8
P3DISTRICTS
 10
808594.0477900001
 20
8986717.9999100026
 30
0.0
  0
VERTEX
  5
193
  8
P3DISTRICTS
 10
808577.13824099989
 20
8986727.4287600014
 30
0.0
  0
VERTEX
  5
194
  8
P3DISTRICTS
 10
808560.17262700025
 20
8986736.7562499996
 30
0.0
  0
VERTEX
  5
195
  8
P3DISTRICTS
 10
808543.14482299995
 20
8986745.9691899996
 30
0.0
  0
VERTEX
  5
196
  8
P3DISTRICTS
 10
808526.11265799997
 20
8986755.1739499979
 30
0.0
  0
VERTEX
  5
197
  8
P3DISTRICTS
 10
808509.13280200004
 20
8986764.4751300011
 30
0.0
  0
VERTEX
  5
198
  8
P3DISTRICTS
 10
808492.19687700015
 20
8986773.8559800014
 30
0.0
  0
VERTEX
  5
199
  8
P3DISTRICTS
 10
808475.29454399995
 20
8986783.2971500009
 30
0.0
  0
VERTEX
  5
19A
  8
P3DISTRICTS
 10
808458.4016310001
 20
8986792.7551300004
 30
0.0
  0
VERTEX
  5
19B
  8
P3DISTRICTS
 10
808441.49722799985
 20
8986802.1927899979
 30
0.0
  0
VERTEX
  5
19C
  8
P3DISTRICTS
 10
808424.59488200035
 20
8986811.6373100001
 30
0.0
  0
VERTEX
  5
19D
  8
P3DISTRICTS
 10
808407.76473299996
 20
8986821.2068399992
 30
0.0
  0
VERTEX
  5
19E
  8
P3DISTRICTS
 10
808391.10286199988
 20
8986831.0624499992
 30
0.0
  0
VERTEX
  5
19F
  8
P3DISTRICTS
 10
808374.58639499976
 20
8986841.1644000039
 30
0.0
  0
VERTEX
  5
1A0
  8
P3DISTRICTS
 10
808358.08796899999
 20
8986851.2962299995
 30
0.0
  0
VERTEX
  5
1A1
  8
P3DISTRICTS
 10
808341.58816899988
 20
8986861.4274100009
 30
0.0
  0
VERTEX
  5
1A2
  8
P3DISTRICTS
 10
808325.21446100005
 20
8986871.7676500008
 30
0.0
  0
VERTEX
  5
1A3
  8
P3DISTRICTS
 10
808309.02833699982
 20
8986882.3933199998
 30
0.0
  0
VERTEX
  5
1A4
  8
P3DISTRICTS
 10
808293.12859899981
 20
8986893.4367600009
 30
0.0
  0
VERTEX
  5
1A5
  8
P3DISTRICTS
 10
808277.27888300002
 20
8986904.5560699981
 30
0.0
  0
VERTEX
  5
1A6
  8
P3DISTRICTS
 10
808261.27523300005
 20
8986915.4559599999
 30
0.0
  0
VERTEX
  5
1A7
  8
P3DISTRICTS
 10
808245.48990000028
 20
8986926.6568100005
 30
0.0
  0
VERTEX
  5
1A8
  8
P3DISTRICTS
 10
808230.05846300034
 20
8986938.3497499991
 30
0.0
  0
VERTEX
  5
1A9
  8
P3DISTRICTS
 10
808214.58711299999
 20
8986949.9905500002
 30
0.0
  0
VERTEX
  5
1AA
  8
P3DISTRICTS
 10
808198.82344399998
 20
8986961.2303100005
 30
0.0
  0
VERTEX
  5
1AB
  8
P3DISTRICTS
 10
808183.06929000001
 20
8986972.4840899985
 30
0.0
  0
VERTEX
  5
1AC
  8
P3DISTRICTS
 10
808167.34485200001
 20
8986983.7787099984
 30
0.0
  0
VERTEX
  5
1AD
  8
P3DISTRICTS
 10
808151.59753400018
 20
8986995.0404700004
 30
0.0
  0
VERTEX
  5
1AE
  8
P3DISTRICTS
 10
808135.93139399996
 20
8987006.4227100033
 30
0.0
  0
VERTEX
  5
1AF
  8
P3DISTRICTS
 10
808120.48522700032
 20
8987018.1234200001
 30
0.0
  0
VERTEX
  5
1B0
  8
P3DISTRICTS
 10
808104.72753100004
 20
8987029.3607800007
 30
0.0
  0
VERTEX
  5
1B1
  8
P3DISTRICTS
 10
808088.15944600001
 20
8987039.4003199991
 30
0.0
  0
VERTEX
  5
1B2
  8
P3DISTRICTS
 10
808071.90137099999
 20
8987049.893480001
 30
0.0
  0
VERTEX
  5
1B3
  8
P3DISTRICTS
 10
808057.92569199996
 20
8987063.4247600026
 30
0.0
  0
VERTEX
  5
1B4
  8
P3DISTRICTS
 10
808047.37149699999
 20
8987079.6692400016
 30
0.0
  0
VERTEX
  5
1B5
  8
P3DISTRICTS
 10
808039.42621599999
 20
8987097.3524800017
 30
0.0
  0
VERTEX
  5
1B6
  8
P3DISTRICTS
 10
808028.91763000004
 20
8987113.3810000028
 30
0.0
  0
VERTEX
  5
1B7
  8
P3DISTRICTS
 10
808016.01407299994
 20
8987127.9258200005
 30
0.0
  0
VERTEX
  5
1B8
  8
P3DISTRICTS
 10
808002.88310999994
 20
8987142.3715000004
 30
0.0
  0
VERTEX
  5
1B9
  8
P3DISTRICTS
 10
807990.57211399986
 20
8987157.30253
 30
0.0
  0
VERTEX
  5
1BA
  8
P3DISTRICTS
 10
807977.11175399984
 20
8987171.2001699992
 30
0.0
  0
VERTEX
  5
1BB
  8
P3DISTRICTS
 10
807963.07182900026
 20
8987184.5940700006
 30
0.0
  0
VERTEX
  5
1BC
  8
P3DISTRICTS
 10
807949.20920799999
 20
8987198.1486200001
 30
0.0
  0
VERTEX
  5
1BD
  8
P3DISTRICTS
 10
807935.34250100027
 20
8987211.6509199999
 30
0.0
  0
VERTEX
  5
1BE
  8
P3DISTRICTS
 10
807921.02668000001
 20
8987224.6953600012
 30
0.0
  0
VERTEX
  5
1BF
  8
P3DISTRICTS
 10
807906.76887999999
 20
8987237.8004800007
 30
0.0
  0
VERTEX
  5
1C0
  8
P3DISTRICTS
 10
807893.04264300002
 20
8987251.4498699997
 30
0.0
  0
VERTEX
  5
1C1
  8
P3DISTRICTS
 10
807879.81119100004
 20
8987265.5911299996
 30
0.0
  0
VERTEX
  5
1C2
  8
P3DISTRICTS
 10
807866.95962600026
 20
8987280.0838599987
 30
0.0
  0
VERTEX
  5
1C3
  8
P3DISTRICTS
 10
807854.49760799995
 20
8987294.9080600031
 30
0.0
  0
VERTEX
  5
1C4
  8
P3DISTRICTS
 10
807842.70007700019
 20
8987310.2458500005
 30
0.0
  0
VERTEX
  5
1C5
  8
P3DISTRICTS
 10
807831.83610900026
 20
8987326.2749400008
 30
0.0
  0
VERTEX
  5
1C6
  8
P3DISTRICTS
 10
807821.14713299996
 20
8987342.4366500005
 30
0.0
  0
VERTEX
  5
1C7
  8
P3DISTRICTS
 10
807809.90195799991
 20
8987358.1948300004
 30
0.0
  0
VERTEX
  5
1C8
  8
P3DISTRICTS
 10
807798.28892200021
 20
8987373.6878899988
 30
0.0
  0
VERTEX
  5
1C9
  8
P3DISTRICTS
 10
807786.85587600002
 20
8987389.3153300025
 30
0.0
  0
VERTEX
  5
1CA
  8
P3DISTRICTS
 10
807775.15255200001
 20
8987404.7310199998
 30
0.0
  0
VERTEX
  5
1CB
  8
P3DISTRICTS
 10
807762.94799799996
 20
8987419.7597100008
 30
0.0
  0
VERTEX
  5
1CC
  8
P3DISTRICTS
 10
807750.69989900012
 20
8987434.7574399989
 30
0.0
  0
VERTEX
  5
1CD
  8
P3DISTRICTS
 10
807738.70797500014
 20
8987449.9567200001
 30
0.0
  0
VERTEX
  5
1CE
  8
P3DISTRICTS
 10
807726.56747200014
 20
8987465.0373899993
 30
0.0
  0
VERTEX
  5
1CF
  8
P3DISTRICTS
 10
807714.32669899985
 20
8987480.0383700002
 30
0.0
  0
VERTEX
  5
1D0
  8
P3DISTRICTS
 10
807702.19664500025
 20
8987495.1272400003
 30
0.0
  0
VERTEX
  5
1D1
  8
P3DISTRICTS
 10
807690.24244099995
 20
8987510.3559600022
 30
0.0
  0
VERTEX
  5
1D2
  8
P3DISTRICTS
 10
807678.21242200013
 20
8987525.5249899998
 30
0.0
  0
VERTEX
  5
1D3
  8
P3DISTRICTS
 10
807666.14229099976
 20
8987540.6624800004
 30
0.0
  0
VERTEX
  5
1D4
  8
P3DISTRICTS
 10
807654.07526099996
 20
8987555.8025199994
 30
0.0
  0
VERTEX
  5
1D5
  8
P3DISTRICTS
 10
807642.14148900041
 20
8987571.0466499999
 30
0.0
  0
VERTEX
  5
1D6
  8
P3DISTRICTS
 10
807630.36962299969
 20
8987586.4171800017
 30
0.0
  0
VERTEX
  5
1D7
  8
P3DISTRICTS
 10
807618.61647800019
 20
8987601.8026800025
 30
0.0
  0
VERTEX
  5
1D8
  8
P3DISTRICTS
 10
807606.82291700027
 20
8987617.1566599999
 30
0.0
  0
VERTEX
  5
1D9
  8
P3DISTRICTS
 10
807595.14130400005
 20
8987632.5950700007
 30
0.0
  0
VERTEX
  5
1DA
  8
P3DISTRICTS
 10
807583.64207200008
 20
8987648.1707600001
 30
0.0
  0
VERTEX
  5
1DB
  8
P3DISTRICTS
 10
807572.28939599998
 20
8987663.8539899997
 30
0.0
  0
VERTEX
  5
1DC
  8
P3DISTRICTS
 10
807561.06881299999
 20
8987679.6319800001
 30
0.0
  0
VERTEX
  5
1DD
  8
P3DISTRICTS
 10
807549.98941699986
 20
8987695.5088500027
 30
0.0
  0
VERTEX
  5
1DE
  8
P3DISTRICTS
 10
807539.06125600054
 20
8987711.4901600033
 30
0.0
  0
VERTEX
  5
1DF
  8
P3DISTRICTS
 10
807528.24501199985
 20
8987727.5478499979
 30
0.0
  0
VERTEX
  5
1E0
  8
P3DISTRICTS
 10
807517.53070799995
 20
8987743.6736399997
 30
0.0
  0
VERTEX
  5
1E1
  8
P3DISTRICTS
 10
807506.93058799987
 20
8987759.8742600009
 30
0.0
  0
VERTEX
  5
1E2
  8
P3DISTRICTS
 10
807496.38918299996
 20
8987776.1132999994
 30
0.0
  0
VERTEX
  5
1E3
  8
P3DISTRICTS
 10
807485.88476600009
 20
8987792.3762899972
 30
0.0
  0
VERTEX
  5
1E4
  8
P3DISTRICTS
 10
807475.51643900026
 20
8987808.7260999996
 30
0.0
  0
VERTEX
  5
1E5
  8
P3DISTRICTS
 10
807465.32400000014
 20
8987825.1870399993
 30
0.0
  0
VERTEX
  5
1E6
  8
P3DISTRICTS
 10
807455.27303399995
 20
8987841.7349699996
 30
0.0
  0
VERTEX
  5
1E7
  8
P3DISTRICTS
 10
807445.33462400001
 20
8987858.3502899967
 30
0.0
  0
VERTEX
  5
1E8
  8
P3DISTRICTS
 10
807435.36936899996
 20
8987874.9507500008
 30
0.0
  0
VERTEX
  5
1E9
  8
P3DISTRICTS
 10
807425.49238600011
 20
8987891.6020800006
 30
0.0
  0
VERTEX
  5
1EA
  8
P3DISTRICTS
 10
807415.87985799985
 20
8987908.4053699989
 30
0.0
  0
VERTEX
  5
1EB
  8
P3DISTRICTS
 10
807406.49266300013
 20
8987925.3381999992
 30
0.0
  0
VERTEX
  5
1EC
  8
P3DISTRICTS
 10
807397.09095300001
 20
8987942.2630699985
 30
0.0
  0
VERTEX
  5
1ED
  8
P3DISTRICTS
 10
807387.69204999995
 20
8987959.1893399991
 30
0.0
  0
VERTEX
  5
1EE
  8
P3DISTRICTS
 10
807378.48225799995
 20
8987976.2205999997
 30
0.0
  0
VERTEX
  5
1EF
  8
P3DISTRICTS
 10
807369.47855500015
 20
8987993.3608999997
 30
0.0
  0
VERTEX
  5
1F0
  8
P3DISTRICTS
 10
807360.73777799995
 20
8988010.6354900021
 30
0.0
  0
VERTEX
  5
1F1
  8
P3DISTRICTS
 10
807352.11709900002
 20
8988027.9708600007
 30
0.0
  0
VERTEX
  5
1F2
  8
P3DISTRICTS
 10
807343.38102700014
 20
8988045.2479899991
 30
0.0
  0
VERTEX
  5
1F3
  8
P3DISTRICTS
 10
807334.73478199996
 20
8988062.5712000001
 30
0.0
  0
VERTEX
  5
1F4
  8
P3DISTRICTS
 10
807326.31408299995
 20
8988080.0062100012
 30
0.0
  0
VERTEX
  5
1F5
  8
P3DISTRICTS
 10
807318.12928599969
 20
8988097.5521000009
 30
0.0
  0
VERTEX
  5
1F6
  8
P3DISTRICTS
 10
807310.21693200001
 20
8988115.2216800004
 30
0.0
  0
VERTEX
  5
1F7
  8
P3DISTRICTS
 10
807302.36879800016
 20
8988132.9201800004
 30
0.0
  0
VERTEX
  5
1F8
  8
P3DISTRICTS
 10
807294.35855300026
 20
8988150.5456000008
 30
0.0
  0
VERTEX
  5
1F9
  8
P3DISTRICTS
 10
807286.50910299993
 20
8988168.2430100031
 30
0.0
  0
VERTEX
  5
1FA
  8
P3DISTRICTS
 10
807278.87231600005
 20
8988186.03455
 30
0.0
  0
VERTEX
  5
1FB
  8
P3DISTRICTS
 10
807271.39956599998
 20
8988203.8963200003
 30
0.0
  0
VERTEX
  5
1FC
  8
P3DISTRICTS
 10
807264.08610900003
 20
8988221.8235999979
 30
0.0
  0
VERTEX
  5
1FD
  8
P3DISTRICTS
 10
807256.94949599972
 20
8988239.8209100012
 30
0.0
  0
VERTEX
  5
1FE
  8
P3DISTRICTS
 10
807250.04553300014
 20
8988257.9081999995
 30
0.0
  0
VERTEX
  5
1FF
  8
P3DISTRICTS
 10
807243.03989500005
 20
8988275.9560699984
 30
0.0
  0
VERTEX
  5
200
  8
P3DISTRICTS
 10
807235.95116199995
 20
8988293.9723600019
 30
0.0
  0
VERTEX
  5
201
  8
P3DISTRICTS
 10
807229.02618599997
 20
8988312.0529699996
 30
0.0
  0
VERTEX
  5
202
  8
P3DISTRICTS
 10
807222.34384200012
 20
8988330.2253200002
 30
0.0
  0
VERTEX
  5
203
  8
P3DISTRICTS
 10
807215.92573300016
 20
8988348.4913299996
 30
0.0
  0
VERTEX
  5
204
  8
P3DISTRICTS
 10
807209.81679199997
 20
8988366.8627499994
 30
0.0
  0
VERTEX
  5
205
  8
P3DISTRICTS
 10
807203.77687499998
 20
8988385.2573700007
 30
0.0
  0
VERTEX
  5
206
  8
P3DISTRICTS
 10
807197.51076000009
 20
8988403.5751399994
 30
0.0
  0
VERTEX
  5
207
  8
P3DISTRICTS
 10
807191.36003300024
 20
8988421.9323999994
 30
0.0
  0
VERTEX
  5
208
  8
P3DISTRICTS
 10
807185.40480500041
 20
8988440.3551700003
 30
0.0
  0
VERTEX
  5
209
  8
P3DISTRICTS
 10
807179.57935200015
 20
8988458.819219999
 30
0.0
  0
VERTEX
  5
20A
  8
P3DISTRICTS
 10
807173.85222799995
 20
8988477.3132000007
 30
0.0
  0
VERTEX
  5
20B
  8
P3DISTRICTS
 10
807168.21269099985
 20
8988495.8338799998
 30
0.0
  0
VERTEX
  5
20C
  8
P3DISTRICTS
 10
807162.6787419999
 20
8988514.3867699988
 30
0.0
  0
VERTEX
  5
20D
  8
P3DISTRICTS
 10
807157.26095700031
 20
8988532.9740200005
 30
0.0
  0
VERTEX
  5
20E
  8
P3DISTRICTS
 10
807151.99356099998
 20
8988551.6040899996
 30
0.0
  0
VERTEX
  5
20F
  8
P3DISTRICTS
 10
807146.72795500024
 20
8988570.2342300005
 30
0.0
  0
VERTEX
  5
210
  8
P3DISTRICTS
 10
807141.27699100017
 20
8988588.8116999995
 30
0.0
  0
VERTEX
  5
211
  8
P3DISTRICTS
 10
807135.88684399985
 20
8988607.4065899998
 30
0.0
  0
VERTEX
  5
212
  8
P3DISTRICTS
 10
807130.6604830001
 20
8988626.0481300019
 30
0.0
  0
VERTEX
  5
213
  8
P3DISTRICTS
 10
807125.52573400002
 20
8988644.7155499998
 30
0.0
  0
VERTEX
  5
214
  8
P3DISTRICTS
 10
807120.435604
 20
8988663.3951400016
 30
0.0
  0
VERTEX
  5
215
  8
P3DISTRICTS
 10
807115.39401899988
 20
8988682.0876000002
 30
0.0
  0
VERTEX
  5
216
  8
P3DISTRICTS
 10
807110.44326600002
 20
8988700.8041899987
 30
0.0
  0
VERTEX
  5
217
  8
P3DISTRICTS
 10
807105.59843000001
 20
8988719.54892
 30
0.0
  0
VERTEX
  5
218
  8
P3DISTRICTS
 10
807100.68669700006
 20
8988738.2756899968
 30
0.0
  0
VERTEX
  5
219
  8
P3DISTRICTS
 10
807095.58747899998
 20
8988756.9524000008
 30
0.0
  0
VERTEX
  5
21A
  8
P3DISTRICTS
 10
807090.54546400032
 20
8988775.6446900014
 30
0.0
  0
VERTEX
  5
21B
  8
P3DISTRICTS
 10
807085.55553300004
 20
8988794.351019999
 30
0.0
  0
VERTEX
  5
21C
  8
P3DISTRICTS
 10
807080.59471400001
 20
8988813.0650899988
 30
0.0
  0
VERTEX
  5
21D
  8
P3DISTRICTS
 10
807075.65034399997
 20
8988831.7834600024
 30
0.0
  0
VERTEX
  5
21E
  8
P3DISTRICTS
 10
807070.71554799995
 20
8988850.5042700004
 30
0.0
  0
VERTEX
  5
21F
  8
P3DISTRICTS
 10
807065.788451
 20
8988869.2270100005
 30
0.0
  0
VERTEX
  5
220
  8
P3DISTRICTS
 10
807060.87417900015
 20
8988887.9532499984
 30
0.0
  0
VERTEX
  5
221
  8
P3DISTRICTS
 10
807055.98234899994
 20
8988906.6858099997
 30
0.0
  0
VERTEX
  5
222
  8
P3DISTRICTS
 10
807051.03770500002
 20
8988925.4041399993
 30
0.0
  0
VERTEX
  5
223
  8
P3DISTRICTS
 10
807045.83769900026
 20
8988944.0527400002
 30
0.0
  0
VERTEX
  5
224
  8
P3DISTRICTS
 10
807040.51743500005
 20
8988962.6682800017
 30
0.0
  0
VERTEX
  5
225
  8
P3DISTRICTS
 10
807035.15482100018
 20
8988981.2713699993
 30
0.0
  0
VERTEX
  5
226
  8
P3DISTRICTS
 10
807029.71112900006
 20
8988999.850209998
 30
0.0
  0
VERTEX
  5
227
  8
P3DISTRICTS
 10
807024.14336200035
 20
8989018.3918899987
 30
0.0
  0
VERTEX
  5
228
  8
P3DISTRICTS
 10
807018.48462700006
 20
8989036.9068199992
 30
0.0
  0
VERTEX
  5
229
  8
P3DISTRICTS
 10
807012.7621960002
 20
8989055.403950002
 30
0.0
  0
VERTEX
  5
22A
  8
P3DISTRICTS
 10
807006.93531700014
 20
8989073.8689200003
 30
0.0
  0
VERTEX
  5
22B
  8
P3DISTRICTS
 10
807000.83957399998
 20
8989092.2437699996
 30
0.0
  0
VERTEX
  5
22C
  8
P3DISTRICTS
 10
806994.33631300018
 20
8989110.4796399996
 30
0.0
  0
VERTEX
  5
22D
  8
P3DISTRICTS
 10
806987.60458000004
 20
8989128.6340200007
 30
0.0
  0
VERTEX
  5
22E
  8
P3DISTRICTS
 10
806980.65532500017
 20
8989146.7042100001
 30
0.0
  0
VERTEX
  5
22F
  8
P3DISTRICTS
 10
806973.44301499985
 20
8989164.667510001
 30
0.0
  0
VERTEX
  5
230
  8
P3DISTRICTS
 10
806966.0773009999
 20
8989182.5703100003
 30
0.0
  0
VERTEX
  5
231
  8
P3DISTRICTS
 10
806958.71763800015
 20
8989200.4824899994
 30
0.0
  0
VERTEX
  5
232
  8
P3DISTRICTS
 10
806951.26160800003
 20
8989218.3527899999
 30
0.0
  0
VERTEX
  5
233
  8
P3DISTRICTS
 10
806942.69864900003
 20
8989235.7029600032
 30
0.0
  0
VERTEX
  5
234
  8
P3DISTRICTS
 10
806933.41048400011
 20
8989252.7075999994
 30
0.0
  0
VERTEX
  5
235
  8
P3DISTRICTS
 10
806924.0876450002
 20
8989269.6893600002
 30
0.0
  0
VERTEX
  5
236
  8
P3DISTRICTS
 10
806915.09608599998
 20
8989286.8339000009
 30
0.0
  0
VERTEX
  5
237
  8
P3DISTRICTS
 10
806906.86953300005
 20
8989304.3634899985
 30
0.0
  0
VERTEX
  5
238
  8
P3DISTRICTS
 10
806898.50011200027
 20
8989321.8050100002
 30
0.0
  0
VERTEX
  5
239
  8
P3DISTRICTS
 10
806887.95313300029
 20
8989338.0923500005
 30
0.0
  0
VERTEX
  5
23A
  8
P3DISTRICTS
 10
806878.36240699992
 20
8989354.8108699992
 30
0.0
  0
VERTEX
  5
23B
  8
P3DISTRICTS
 10
806871.87674900005
 20
8989373.0116300024
 30
0.0
  0
SEQEND
  5
23C
  8
P3DISTRICTS
  0
POLYLINE
  5
85
  8
P3DISTRICTS
 66
     1
 10
0.0
 20
0.0
 30
0.0
1001
IRD
1002
{
1000
TPMLINK_SLC-_-ade
1070
   515
1071
        1
1004
01000E00000003000000010000000000000095CAE09570AEA64095CAE09570AEA6400900000000000000
1002
}
  0
VERTEX
  5
23D
  8
P3DISTRICTS
 10
812389.28417173598
 20
8991251.1640344523
 30
0.0
  0
VERTEX
  5
23E
  8
P3DISTRICTS
 10
812552.73833614378
 20
8991370.9629357494
 30
0.0
  0
VERTEX
  5
23F
  8
P3DISTRICTS
 10
812530.22494315635
 20
8991432.2562367134
 30
0.0
  0
VERTEX
  5
240
  8
P3DISTRICTS
 10
812781.17183901614
 20
8991381.6633730214
 30
0.0
  0
VERTEX
  5
241
  8
P3DISTRICTS
 10
812897.1780359
 20
8991487.6651642695
 30
0.0
  0
VERTEX
  5
242
  8
P3DISTRICTS
 10
813024.50459865655
 20
8991665.6994532049
 30
0.0
  0
VERTEX
  5
243
  8
P3DISTRICTS
 10
813296.84714019997
 20
8991857.1369667985
 30
0.0
  0
VERTEX
  5
244
  8
P3DISTRICTS
 10
813342.90504552599
 20
8991858.9067011215
 30
0.0
  0
VERTEX
  5
245
  8
P3DISTRICTS
 10
813422.974872194
 20
8991841.9169543162
 30
0.0
  0
VERTEX
  5
246
  8
P3DISTRICTS
 10
813482.75242290134
 20
8991841.7442710511
 30
0.0
  0
VERTEX
  5
247
  8
P3DISTRICTS
 10
813495.84438577387
 20
8991890.2081946358
 30
0.0
  0
VERTEX
  5
248
  8
P3DISTRICTS
 10
813433.80489382357
 20
8991898.394273052
 30
0.0
  0
VERTEX
  5
249
  8
P3DISTRICTS
 10
813352.85183839453
 20
8991922.2831492368
 30
0.0
  0
VERTEX
  5
24A
  8
P3DISTRICTS
 10
813276.16245559871
 20
8991940.2548174504
 30
0.0
  0
VERTEX
  5
24B
  8
P3DISTRICTS
 10
813228.82320234051
 20
8991946.8759826496
 30
0.0
  0
VERTEX
  5
24C
  8
P3DISTRICTS
 10
813146.45307869755
 20
8991964.8477021195
 30
0.0
  0
VERTEX
  5
24D
  8
P3DISTRICTS
 10
812982.46043506637
 20
8992046.4184255712
 30
0.0
  0
VERTEX
  5
24E
  8
P3DISTRICTS
 10
812784.96267970058
 20
8992115.3075138424
 30
0.0
  0
VERTEX
  5
24F
  8
P3DISTRICTS
 10
812469.75175462454
 20
8992193.991828138
 30
0.0
  0
VERTEX
  5
250
  8
P3DISTRICTS
 10
812173.18990027637
 20
8992228.8481160067
 30
0.0
  0
VERTEX
  5
251
  8
P3DISTRICTS
 10
812114.55597853381
 20
8992232.7210596632
 30
0.0
  0
SEQEND
  5
252
  8
P3DISTRICTS
  0
POLYLINE
  5
86
  8
P3DISTRICTS
 66
     1
 10
0.0
 20
0.0
 30
0.0
  0
VERTEX
  5
253
  8
P3DISTRICTS
 10
812380.22256629681
 20
8990956.5769805778
 30
0.0
  0
VERTEX
  5
254
  8
P3DISTRICTS
 10
812411.59678542486
 20
8991208.6978069618
 30
0.0
  0
VERTEX
  5
255
  8
P3DISTRICTS
 10
812389.28417173598
 20
8991251.1640344523
 30
0.0
  0
SEQEND
  5
256
  8
P3DISTRICTS
  0
POLYLINE
  5
87
  8
P3DISTRICTS
 66
     1
 10
0.0
 20
0.0
 30
0.0
1001
IRD
1002
{
1000
TPMLINK_SLC-_-ade
1070
   515
1071
        1
1004
0100100000000100000002000000000000006BFE83B938B4B6406BFE83B938B4B6400A00000000000000
1002
}
  0
VERTEX
  5
257
  8
P3DISTRICTS
 10
812114.55597853381
 20
8992232.7210596632
 30
0.0
  0
VERTEX
  5
258
  8
P3DISTRICTS
 10
812055.92205679137
 20
8992236.5940033142
 30
0.0
  0
VERTEX
  5
259
  8
P3DISTRICTS
 10
811582.56489355967
 20
8992437.3996751811
 30
0.0
  0
VERTEX
  5
25A
  8
P3DISTRICTS
 10
811183.16686667223
 20
8992554.1804757584
 30
0.0
  0
VERTEX
  5
25B
  8
P3DISTRICTS
 10
811083.50123165362
 20
8992585.5293441731
 30
0.0
  0
VERTEX
  5
25C
  8
P3DISTRICTS
 10
810990.39443131292
 20
8992568.2220128626
 30
0.0
  0
VERTEX
  5
25D
  8
P3DISTRICTS
 10
810914.60345281777
 20
8992624.4708396196
 30
0.0
  0
VERTEX
  5
25E
  8
P3DISTRICTS
 10
810641.76714191691
 20
8992646.1050037555
 30
0.0
  0
VERTEX
  5
25F
  8
P3DISTRICTS
 10
810608.1045838159
 20
8992702.8165356424
 30
0.0
  0
VERTEX
  5
260
  8
P3DISTRICTS
 10
810608.1045838159
 20
8992702.8165356424
 30
0.0
  0
VERTEX
  5
261
  8
P3DISTRICTS
 10
810453.80872626591
 20
8992781.6960694883
 30
0.0
  0
VERTEX
  5
262
  8
P3DISTRICTS
 10
810354.56823339709
 20
8992805.9706783891
 30
0.0
  0
VERTEX
  5
263
  8
P3DISTRICTS
 10
810273.05908674526
 20
8992858.0921933707
 30
0.0
  0
VERTEX
  5
264
  8
P3DISTRICTS
 10
810252.50147944957
 20
8992871.2378792316
 30
0.0
  0
VERTEX
  5
265
  8
P3DISTRICTS
 10
810239.39016765833
 20
8992906.3111989032
 30
0.0
  0
VERTEX
  5
266
  8
P3DISTRICTS
 10
810193.02093415975
 20
8992892.7875678204
 30
0.0
  0
VERTEX
  5
267
  8
P3DISTRICTS
 10
810168.06679583166
 20
8992908.1866233144
 30
0.0
  0
VERTEX
  5
268
  8
P3DISTRICTS
 10
810125.47933734464
 20
8992912.9495265577
 30
0.0
  0
VERTEX
  5
269
  8
P3DISTRICTS
 10
810080.59618305066
 20
8992966.8425604608
 30
0.0
  0
VERTEX
  5
26A
  8
P3DISTRICTS
 10
810033.62698331184
 20
8993023.2403942067
 30
0.0
  0
VERTEX
  5
26B
  8
P3DISTRICTS
 10
809938.61734138452
 20
8993139.0105542596
 30
0.0
  0
VERTEX
  5
26C
  8
P3DISTRICTS
 10
809895.18869905814
 20
8993200.6219551079
 30
0.0
  0
VERTEX
  5
26D
  8
P3DISTRICTS
 10
809835.17259075597
 20
8993232.4900674224
 30
0.0
  0
VERTEX
  5
26E
  8
P3DISTRICTS
 10
809800.17894647585
 20
8993224.1464769263
 30
0.0
  0
VERTEX
  5
26F
  8
P3DISTRICTS
 10
809793.29009085626
 20
8993189.7330003455
 30
0.0
  0
VERTEX
  5
270
  8
P3DISTRICTS
 10
809768.64920781227
 20
8993176.2323494107
 30
0.0
  0
VERTEX
  5
271
  8
P3DISTRICTS
 10
809728.90573922184
 20
8993182.5855994169
 30
0.0
  0
VERTEX
  5
272
  8
P3DISTRICTS
 10
809715.12802798289
 20
8993151.8781888913
 30
0.0
  0
VERTEX
  5
273
  8
P3DISTRICTS
 10
809676.97430120339
 20
8993171.4674012568
 30
0.0
  0
VERTEX
  5
274
  8
P3DISTRICTS
 10
809548.86078842403
 20
8993188.0162523258
 30
0.0
  0
VERTEX
  5
275
  8
P3DISTRICTS
 10
809547.00630394742
 20
8993115.452927582
 30
0.0
  0
VERTEX
  5
276
  8
P3DISTRICTS
 10
809248.89862310374
 20
8993237.5179573018
 30
0.0
  0
VERTEX
  5
277
  8
P3DISTRICTS
 10
809178.92408748996
 20
8993172.5444169119
 30
0.0
  0
VERTEX
  5
278
  8
P3DISTRICTS
 10
808932.74208057439
 20
8993172.4967651237
 30
0.0
  0
VERTEX
  5
279
  8
P3DISTRICTS
 10
808289.2711935651
 20
8993270.0494193062
 30
0.0
  0
VERTEX
  5
27A
  8
P3DISTRICTS
 10
808013.41164772864
 20
8993265.3780316394
 30
0.0
  0
VERTEX
  5
27B
  8
P3DISTRICTS
 10
807964.75062257308
 20
8993247.079483483
 30
0.0
  0
VERTEX
  5
27C
  8
P3DISTRICTS
 10
807962.24810099998
 20
8993238.0492299981
 30
0.0
  0
VERTEX
  5
27D
  8
P3DISTRICTS
 10
807956.94032199995
 20
8993219.4295000006
 30
0.0
  0
VERTEX
  5
27E
  8
P3DISTRICTS
 10
807951.39983300003
 20
8993200.879259998
 30
0.0
  0
VERTEX
  5
27F
  8
P3DISTRICTS
 10
807945.65392399998
 20
8993182.3910199981
 30
0.0
  0
VERTEX
  5
280
  8
P3DISTRICTS
 10
807939.89471300005
 20
8993163.906919999
 30
0.0
  0
VERTEX
  5
281
  8
P3DISTRICTS
 10
807934.03492299991
 20
8993145.4551100004
 30
0.0
  0
VERTEX
  5
282
  8
P3DISTRICTS
 10
807928.0231819998
 20
8993127.0521200001
 30
0.0
  0
VERTEX
  5
283
  8
P3DISTRICTS
 10
807921.9162900002
 20
8993108.6797300018
 30
0.0
  0
VERTEX
  5
284
  8
P3DISTRICTS
 10
807915.75057100004
 20
8993090.3263799995
 30
0.0
  0
VERTEX
  5
285
  8
P3DISTRICTS
 10
807909.50772700016
 20
8993071.9993899968
 30
0.0
  0
VERTEX
  5
286
  8
P3DISTRICTS
 10
807903.10980600014
 20
8993053.7270400021
 30
0.0
  0
VERTEX
  5
287
  8
P3DISTRICTS
 10
807896.51534000004
 20
8993035.5244300049
 30
0.0
  0
VERTEX
  5
288
  8
P3DISTRICTS
 10
807889.89580099995
 20
8993017.3308399972
 30
0.0
  0
VERTEX
  5
289
  8
P3DISTRICTS
 10
807883.22283200012
 20
8992999.1568700001
 30
0.0
  0
VERTEX
  5
28A
  8
P3DISTRICTS
 10
807876.45094399992
 20
8992981.0193300005
 30
0.0
  0
VERTEX
  5
28B
  8
P3DISTRICTS
 10
807869.58726599999
 20
8992962.9162399992
 30
0.0
  0
VERTEX
  5
28C
  8
P3DISTRICTS
 10
807862.62360000028
 20
8992944.8516100012
 30
0.0
  0
VERTEX
  5
28D
  8
P3DISTRICTS
 10
807855.56942900014
 20
8992926.8221700024
 30
0.0
  0
VERTEX
  5
28E
  8
P3DISTRICTS
 10
807848.49002700031
 20
8992908.8024700005
 30
0.0
  0
VERTEX
  5
28F
  8
P3DISTRICTS
 10
807841.33977399999
 20
8992890.8112100009
 30
0.0
  0
VERTEX
  5
290
  8
P3DISTRICTS
 10
807834.02577399998
 20
8992872.8856899999
 30
0.0
  0
VERTEX
  5
291
  8
P3DISTRICTS
 10
807826.63134100032
 20
8992854.9924600013
 30
0.0
  0
VERTEX
  5
292
  8
P3DISTRICTS
 10
807819.21504400007
 20
8992837.1080799978
 30
0.0
  0
VERTEX
  5
293
  8
P3DISTRICTS
 10
807811.75648400025
 20
8992819.2417800017
 30
0.0
  0
VERTEX
  5
294
  8
P3DISTRICTS
 10
807804.18013300002
 20
8992801.4258200005
 30
0.0
  0
VERTEX
  5
295
  8
P3DISTRICTS
 10
807796.45482999994
 20
8992783.6735500004
 30
0.0
  0
VERTEX
  5
296
  8
P3DISTRICTS
 10
807788.70445800002
 20
8992765.9322299995
 30
0.0
  0
VERTEX
  5
297
  8
P3DISTRICTS
 10
807780.91511399997
 20
8992748.2079300005
 30
0.0
  0
VERTEX
  5
298
  8
P3DISTRICTS
 10
807773.05774899991
 20
8992730.5134399999
 30
0.0
  0
VERTEX
  5
299
  8
P3DISTRICTS
 10
807765.12211600004
 20
8992712.8540000021
 30
0.0
  0
VERTEX
  5
29A
  8
P3DISTRICTS
 10
807757.07827199996
 20
8992695.2438699994
 30
0.0
  0
VERTEX
  5
29B
  8
P3DISTRICTS
 10
807748.94423300028
 20
8992677.67509
 30
0.0
  0
VERTEX
  5
29C
  8
P3DISTRICTS
 10
807740.79240699997
 20
8992660.1145799998
 30
0.0
  0
VERTEX
  5
29D
  8
P3DISTRICTS
 10
807732.58377900021
 20
8992642.5805399995
 30
0.0
  0
VERTEX
  5
29E
  8
P3DISTRICTS
 10
807724.28511299996
 20
8992625.0887299981
 30
0.0
  0
VERTEX
  5
29F
  8
P3DISTRICTS
 10
807715.90221099998
 20
8992607.6371699981
 30
0.0
  0
VERTEX
  5
2A0
  8
P3DISTRICTS
 10
807707.42060800001
 20
8992590.2335800007
 30
0.0
  0
VERTEX
  5
2A1
  8
P3DISTRICTS
 10
807698.87937700003
 20
8992572.8591200002
 30
0.0
  0
VERTEX
  5
2A2
  8
P3DISTRICTS
 10
807690.318707
 20
8992555.4942499995
 30
0.0
  0
VERTEX
  5
2A3
  8
P3DISTRICTS
 10
807681.68399000017
 20
8992538.1660500001
 30
0.0
  0
VERTEX
  5
2A4
  8
P3DISTRICTS
 10
807672.95589800004
 20
8992520.8844799995
 30
0.0
  0
VERTEX
  5
2A5
  8
P3DISTRICTS
 10
807664.14187499997
 20
8992503.6466499995
 30
0.0
  0
VERTEX
  5
2A6
  8
P3DISTRICTS
 10
807655.23392799997
 20
8992486.4573600013
 30
0.0
  0
VERTEX
  5
2A7
  8
P3DISTRICTS
 10
807646.28289599996
 20
8992469.2904499993
 30
0.0
  0
VERTEX
  5
2A8
  8
P3DISTRICTS
 10
807637.30565400026
 20
8992452.1372400001
 30
0.0
  0
VERTEX
  5
2A9
  8
P3DISTRICTS
 10
807628.25766
 20
8992435.0210700016
 30
0.0
  0
VERTEX
  5
2AA
  8
P3DISTRICTS
 10
807619.128914
 20
8992417.9477300048
 30
0.0
  0
VERTEX
  5
2AB
  8
P3DISTRICTS
 10
807609.90931399993
 20
8992400.9234999996
 30
0.0
  0
VERTEX
  5
2AC
  8
P3DISTRICTS
 10
807600.59144600027
 20
8992383.9529199991
 30
0.0
  0
VERTEX
  5
2AD
  8
P3DISTRICTS
 10
807591.24755099998
 20
8992366.9967199992
 30
0.0
  0
VERTEX
  5
2AE
  8
P3DISTRICTS
 10
807581.88388600003
 20
8992350.0512899999
 30
0.0
  0
VERTEX
  5
2AF
  8
P3DISTRICTS
 10
807572.47634700011
 20
8992333.1297500022
 30
0.0
  0
VERTEX
  5
2B0
  8
P3DISTRICTS
 10
807562.99765500019
 20
8992316.2481300049
 30
0.0
  0
VERTEX
  5
2B1
  8
P3DISTRICTS
 10
807553.40042200009
 20
8992299.43413
 30
0.0
  0
VERTEX
  5
2B2
  8
P3DISTRICTS
 10
807543.70965500001
 20
8992282.6736200005
 30
0.0
  0
VERTEX
  5
2B3
  8
P3DISTRICTS
 10
807534.02442899998
 20
8992265.9099000003
 30
0.0
  0
VERTEX
  5
2B4
  8
P3DISTRICTS
 10
807524.29654100013
 20
8992249.1710999999
 30
0.0
  0
VERTEX
  5
2B5
  8
P3DISTRICTS
 10
807514.49039599998
 20
8992232.4779700004
 30
0.0
  0
SEQEND
  5
2B6
  8
P3DISTRICTS
  0
POLYLINE
  5
88
  8
P3DISTRICTS
 66
     1
 10
0.0
 20
0.0
 30
0.0
1001
IRD
1002
{
1000
TPMLINK_SLC-_-ade
1070
   515
1071
        1
1004
01000F0000000400000003000000000000006786B088E3A67A406786B088E3A67A400A00000000000000
1002
}
  0
VERTEX
  5
2B7
  8
P3DISTRICTS
 10
808826.44781799987
 20
8986578.6324000005
 30
0.0
  0
VERTEX
  5
2B8
  8
P3DISTRICTS
 10
808842.53101499984
 20
8986567.8508899994
 30
0.0
  0
VERTEX
  5
2B9
  8
P3DISTRICTS
 10
808858.46813900012
 20
8986556.8572000004
 30
0.0
  0
VERTEX
  5
2BA
  8
P3DISTRICTS
 10
808874.42145400005
 20
8986545.8891599998
 30
0.0
  0
VERTEX
  5
2BB
  8
P3DISTRICTS
 10
808890.49083799985
 20
8986535.0900400002
 30
0.0
  0
VERTEX
  5
2BC
  8
P3DISTRICTS
 10
808906.451382
 20
8986524.1335599981
 30
0.0
  0
VERTEX
  5
2BD
  8
P3DISTRICTS
 10
808922.24425699969
 20
8986512.9341400005
 30
0.0
  0
VERTEX
  5
2BE
  8
P3DISTRICTS
 10
808938.061461
 20
8986501.7693799995
 30
0.0
  0
VERTEX
  5
2BF
  8
P3DISTRICTS
 10
808954.01895699999
 20
8986490.8068000004
 30
0.0
  0
VERTEX
  5
2C0
  8
P3DISTRICTS
 10
808969.87141400005
 20
8986479.6922900006
 30
0.0
  0
VERTEX
  5
2C1
  8
P3DISTRICTS
 10
808985.6120369999
 20
8986468.4185600039
 30
0.0
  0
VERTEX
  5
2C2
  8
P3DISTRICTS
 10
809001.25964400021
 20
8986457.0163399987
 30
0.0
  0
VERTEX
  5
2C3
  8
P3DISTRICTS
 10
809016.89990299998
 20
8986445.6063300017
 30
0.0
  0
VERTEX
  5
2C4
  8
P3DISTRICTS
 10
809032.68233800004
 20
8986434.3932100032
 30
0.0
  0
VERTEX
  5
2C5
  8
P3DISTRICTS
 10
809048.49472500023
 20
8986423.2210200001
 30
0.0
  0
VERTEX
  5
2C6
  8
P3DISTRICTS
 10
809064.24571699998
 20
8986411.9630500004
 30
0.0
  0
VERTEX
  5
2C7
  8
P3DISTRICTS
 10
809080.00896300003
 20
8986400.7231699992
 30
0.0
  0
VERTEX
  5
2C8
  8
P3DISTRICTS
 10
809095.87892799999
 20
8986389.6342699993
 30
0.0
  0
VERTEX
  5
2C9
  8
P3DISTRICTS
 10
809111.78246400028
 20
8986378.5930200014
 30
0.0
  0
VERTEX
  5
2CA
  8
P3DISTRICTS
 10
809127.69298000005
 20
8986367.5621300004
 30
0.0
  0
VERTEX
  5
2CB
  8
P3DISTRICTS
 10
809143.62436799996
 20
8986356.5616299994
 30
0.0
  0
VERTEX
  5
2CC
  8
P3DISTRICTS
 10
809159.58521600021
 20
8986345.6036100015
 30
0.0
  0
VERTEX
  5
2CD
  8
P3DISTRICTS
 10
809175.54463999998
 20
8986334.6425500009
 30
0.0
  0
VERTEX
  5
2CE
  8
P3DISTRICTS
 10
809191.54739399999
 20
8986323.7459399998
 30
0.0
  0
VERTEX
  5
2CF
  8
P3DISTRICTS
 10
809207.66050500015
 20
8986313.0143500008
 30
0.0
  0
VERTEX
  5
2D0
  8
P3DISTRICTS
 10
809223.8479149997
 20
8986302.3936899994
 30
0.0
  0
VERTEX
  5
2D1
  8
P3DISTRICTS
 10
809239.9880230003
 20
8986291.7015000004
 30
0.0
  0
VERTEX
  5
2D2
  8
P3DISTRICTS
 10
809256.14655399986
 20
8986281.0375399981
 30
0.0
  0
VERTEX
  5
2D3
  8
P3DISTRICTS
 10
809272.40348599979
 20
8986270.5234799981
 30
0.0
  0
VERTEX
  5
2D4
  8
P3DISTRICTS
 10
809288.73604500014
 20
8986260.1265699994
 30
0.0
  0
VERTEX
  5
2D5
  8
P3DISTRICTS
 10
809305.13120100019
 20
8986249.82938
 30
0.0
  0
VERTEX
  5
2D6
  8
P3DISTRICTS
 10
809321.46562799998
 20
8986239.436689999
 30
0.0
  0
VERTEX
  5
2D7
  8
P3DISTRICTS
 10
809337.75538500003
 20
8986228.9733100031
 30
0.0
  0
VERTEX
  5
2D8
  8
P3DISTRICTS
 10
809354.11236200028
 20
8986218.6167600006
 30
0.0
  0
VERTEX
  5
2D9
  8
P3DISTRICTS
 10
809370.56912900019
 20
8986208.4186000004
 30
0.0
  0
VERTEX
  5
2DA
  8
P3DISTRICTS
 10
809386.99840000027
 20
8986198.1764800008
 30
0.0
  0
VERTEX
  5
2DB
  8
P3DISTRICTS
 10
809403.34852799983
 20
8986187.80834
 30
0.0
  0
VERTEX
  5
2DC
  8
P3DISTRICTS
 10
809419.71237499989
 20
8986177.4619800001
 30
0.0
  0
VERTEX
  5
2DD
  8
P3DISTRICTS
 10
809436.08719799994
 20
8986167.1330099981
 30
0.0
  0
VERTEX
  5
2DE
  8
P3DISTRICTS
 10
809452.45825400006
 20
8986156.7979200035
 30
0.0
  0
VERTEX
  5
2DF
  8
P3DISTRICTS
 10
809468.78751400008
 20
8986146.3973200005
 30
0.0
  0
VERTEX
  5
2E0
  8
P3DISTRICTS
 10
809485.02964399999
 20
8986135.8610100001
 30
0.0
  0
VERTEX
  5
2E1
  8
P3DISTRICTS
 10
809501.24323000002
 20
8986125.2800600007
 30
0.0
  0
VERTEX
  5
2E2
  8
P3DISTRICTS
 10
809517.46328300005
 20
8986114.7091100011
 30
0.0
  0
VERTEX
  5
2E3
  8
P3DISTRICTS
 10
809533.65476900013
 20
8986104.0951700006
 30
0.0
  0
VERTEX
  5
2E4
  8
P3DISTRICTS
 10
809549.76588800026
 20
8986093.3597199991
 30
0.0
  0
VERTEX
  5
2E5
  8
P3DISTRICTS
 10
809565.81653100019
 20
8986082.5336200017
 30
0.0
  0
VERTEX
  5
2E6
  8
P3DISTRICTS
 10
809581.82481699996
 20
8986071.6449299995
 30
0.0
  0
VERTEX
  5
2E7
  8
P3DISTRICTS
 10
809597.79026699997
 20
8986060.6936300006
 30
0.0
  0
VERTEX
  5
2E8
  8
P3DISTRICTS
 10
809613.70291600015
 20
8986049.6658999994
 30
0.0
  0
VERTEX
  5
2E9
  8
P3DISTRICTS
 10
809629.54502400011
 20
8986038.5371599998
 30
0.0
  0
VERTEX
  5
2EA
  8
P3DISTRICTS
 10
809645.33489099995
 20
8986027.3340600003
 30
0.0
  0
VERTEX
  5
2EB
  8
P3DISTRICTS
 10
809661.08660000004
 20
8986016.0772899985
 30
0.0
  0
VERTEX
  5
2EC
  8
P3DISTRICTS
 10
809676.79670200055
 20
8986004.7628199998
 30
0.0
  0
VERTEX
  5
2ED
  8
P3DISTRICTS
 10
809692.44272299996
 20
8985993.3601500019
 30
0.0
  0
VERTEX
  5
2EE
  8
P3DISTRICTS
 10
809708.03729999997
 20
8985981.8866499998
 30
0.0
  0
VERTEX
  5
2EF
  8
P3DISTRICTS
 10
809723.58930400002
 20
8985970.3551700003
 30
0.0
  0
VERTEX
  5
2F0
  8
P3DISTRICTS
 10
809739.08446100005
 20
8985958.7478500009
 30
0.0
  0
VERTEX
  5
2F1
  8
P3DISTRICTS
 10
809754.49410299992
 20
8985947.0276600011
 30
0.0
  0
VERTEX
  5
2F2
  8
P3DISTRICTS
 10
809769.82093500055
 20
8985935.1991000008
 30
0.0
  0
VERTEX
  5
2F3
  8
P3DISTRICTS
 10
809785.08931399998
 20
8985923.2948899996
 30
0.0
  0
VERTEX
  5
2F4
  8
P3DISTRICTS
 10
809800.30519300001
 20
8985911.3237100001
 30
0.0
  0
VERTEX
  5
2F5
  8
P3DISTRICTS
 10
809815.46227400005
 20
8985899.2785600014
 30
0.0
  0
VERTEX
  5
2F6
  8
P3DISTRICTS
 10
809830.5352899998
 20
8985887.128419999
 30
0.0
  0
VERTEX
  5
2F7
  8
P3DISTRICTS
 10
809845.54030600004
 20
8985874.8939800002
 30
0.0
  0
VERTEX
  5
2F8
  8
P3DISTRICTS
 10
809860.48361300002
 20
8985862.5841499995
 30
0.0
  0
VERTEX
  5
2F9
  8
P3DISTRICTS
 10
809875.34961799998
 20
8985850.1816399992
 30
0.0
  0
VERTEX
  5
2FA
  8
P3DISTRICTS
 10
809890.10108500056
 20
8985837.6432399992
 30
0.0
  0
VERTEX
  5
2FB
  8
P3DISTRICTS
 10
809904.77037000004
 20
8985825.0077899992
 30
0.0
  0
VERTEX
  5
2FC
  8
P3DISTRICTS
 10
809919.35957700014
 20
8985812.279740002
 30
0.0
  0
VERTEX
  5
2FD
  8
P3DISTRICTS
 10
809933.82759800018
 20
8985799.4155700002
 30
0.0
  0
VERTEX
  5
2FE
  8
P3DISTRICTS
 10
809948.13458299998
 20
8985786.3721399996
 30
0.0
  0
VERTEX
  5
2FF
  8
P3DISTRICTS
 10
809962.33676200034
 20
8985773.2122499999
 30
0.0
  0
VERTEX
  5
300
  8
P3DISTRICTS
 10
809976.41175600037
 20
8985759.9172699992
 30
0.0
  0
VERTEX
  5
301
  8
P3DISTRICTS
 10
809990.27664499998
 20
8985746.4062399995
 30
0.0
  0
VERTEX
  5
302
  8
P3DISTRICTS
 10
810003.92318000016
 20
8985732.6718100011
 30
0.0
  0
VERTEX
  5
303
  8
P3DISTRICTS
 10
810017.408482
 20
8985718.7758100014
 30
0.0
  0
VERTEX
  5
304
  8
P3DISTRICTS
 10
810030.66261400015
 20
8985704.6632800009
 30
0.0
  0
VERTEX
  5
305
  8
P3DISTRICTS
 10
810043.55281000002
 20
8985690.220110001
 30
0.0
  0
VERTEX
  5
306
  8
P3DISTRICTS
 10
810056.14655499987
 20
8985675.5119300019
 30
0.0
  0
VERTEX
  5
307
  8
P3DISTRICTS
 10
810068.45081500011
 20
8985660.5603700001
 30
0.0
  0
VERTEX
  5
308
  8
P3DISTRICTS
 10
810080.31007799995
 20
8985645.2598400004
 30
0.0
  0
VERTEX
  5
309
  8
P3DISTRICTS
 10
810091.62436499994
 20
8985629.5468400009
 30
0.0
  0
VERTEX
  5
30A
  8
P3DISTRICTS
 10
810102.49582700001
 20
8985613.5227899998
 30
0.0
  0
VERTEX
  5
30B
  8
P3DISTRICTS
 10
810112.83110499999
 20
8985597.1526500005
 30
0.0
  0
VERTEX
  5
30C
  8
P3DISTRICTS
 10
810122.34653400001
 20
8985580.282469999
 30
0.0
  0
VERTEX
  5
30D
  8
P3DISTRICTS
 10
810131.12218599988
 20
8985563.0057999995
 30
0.0
  0
VERTEX
  5
30E
  8
P3DISTRICTS
 10
810139.11877399997
 20
8985545.3631100003
 30
0.0
  0
VERTEX
  5
30F
  8
P3DISTRICTS
 10
810146.29754300008
 20
8985527.3785299994
 30
0.0
  0
VERTEX
  5
310
  8
P3DISTRICTS
 10
810152.67857700028
 20
8985509.0992600005
 30
0.0
  0
VERTEX
  5
311
  8
P3DISTRICTS
 10
810158.13240500004
 20
8985490.5267300047
 30
0.0
  0
VERTEX
  5
312
  8
P3DISTRICTS
 10
810162.66905100003
 20
8985471.7004700005
 30
0.0
  0
VERTEX
  5
313
  8
P3DISTRICTS
 10
810166.58590900025
 20
8985452.7269300018
 30
0.0
  0
VERTEX
  5
314
  8
P3DISTRICTS
 10
810170.00469099998
 20
8985433.6646700017
 30
0.0
  0
VERTEX
  5
315
  8
P3DISTRICTS
 10
810173.13704200031
 20
8985414.5590499993
 30
0.0
  0
VERTEX
  5
316
  8
P3DISTRICTS
 10
810176.18395800015
 20
8985395.4457900003
 30
0.0
  0
VERTEX
  5
317
  8
P3DISTRICTS
 10
810179.26482200029
 20
8985376.3420199994
 30
0.0
  0
VERTEX
  5
318
  8
P3DISTRICTS
 10
810182.42362100014
 20
8985357.2380899992
 30
0.0
  0
VERTEX
  5
319
  8
P3DISTRICTS
 10
810185.74164300004
 20
8985338.1286800001
 30
0.0
  0
VERTEX
  5
31A
  8
P3DISTRICTS
 10
810189.56387399998
 20
8985319.1196500007
 30
0.0
  0
VERTEX
  5
31B
  8
P3DISTRICTS
 10
810194.59215699986
 20
8985300.4420699999
 30
0.0
  0
VERTEX
  5
31C
  8
P3DISTRICTS
 10
810200.76971899997
 20
8985282.0996199995
 30
0.0
  0
VERTEX
  5
31D
  8
P3DISTRICTS
 10
810205.37300100003
 20
8985263.3060600031
 30
0.0
  0
VERTEX
  5
31E
  8
P3DISTRICTS
 10
810210.04692000011
 20
8985244.4880299997
 30
0.0
  0
VERTEX
  5
31F
  8
P3DISTRICTS
 10
810216.25551599986
 20
8985226.0866199993
 30
0.0
  0
VERTEX
  5
320
  8
P3DISTRICTS
 10
810223.94514700014
 20
8985208.2736100033
 30
0.0
  0
VERTEX
  5
321
  8
P3DISTRICTS
 10
810233.34751800005
 20
8985191.3579500001
 30
0.0
  0
VERTEX
  5
322
  8
P3DISTRICTS
 10
810243.69793799997
 20
8985174.9803999998
 30
0.0
  0
VERTEX
  5
323
  8
P3DISTRICTS
 10
810253.14293100033
 20
8985158.0939799994
 30
0.0
  0
VERTEX
  5
324
  8
P3DISTRICTS
 10
810262.58337300003
 20
8985141.213580003
 30
0.0
  0
VERTEX
  5
325
  8
P3DISTRICTS
 10
810274.02613900008
 20
8985125.5429100022
 30
0.0
  0
VERTEX
  5
326
  8
P3DISTRICTS
 10
810286.80723800033
 20
8985110.8461700007
 30
0.0
  0
VERTEX
  5
327
  8
P3DISTRICTS
 10
810300.47158400004
 20
8985097.0560299996
 30
0.0
  0
VERTEX
  5
328
  8
P3DISTRICTS
 10
810314.47645200009
 20
8985083.5907700006
 30
0.0
  0
VERTEX
  5
329
  8
P3DISTRICTS
 10
810328.8538820002
 20
8985070.5132300016
 30
0.0
  0
VERTEX
  5
32A
  8
P3DISTRICTS
 10
810344.04476800002
 20
8985058.53902
 30
0.0
  0
VERTEX
  5
32B
  8
P3DISTRICTS
 10
810360.45193400013
 20
8985048.2913600001
 30
0.0
  0
VERTEX
  5
32C
  8
P3DISTRICTS
 10
810377.07623200014
 20
8985038.2793100029
 30
0.0
  0
VERTEX
  5
32D
  8
P3DISTRICTS
 10
810394.01888599992
 20
8985028.9259200022
 30
0.0
  0
VERTEX
  5
32E
  8
P3DISTRICTS
 10
810411.82735299994
 20
8985021.4387299996
 30
0.0
  0
VERTEX
  5
32F
  8
P3DISTRICTS
 10
810430.44166599982
 20
8985015.9195100013
 30
0.0
  0
VERTEX
  5
330
  8
P3DISTRICTS
 10
810449.48764099996
 20
8985012.0227700006
 30
0.0
  0
VERTEX
  5
331
  8
P3DISTRICTS
 10
810468.75598300016
 20
8985009.811850002
 30
0.0
  0
VERTEX
  5
332
  8
P3DISTRICTS
 10
810488.11849499994
 20
8985008.9938899986
 30
0.0
  0
VERTEX
  5
333
  8
P3DISTRICTS
 10
810507.48522399995
 20
8985009.5955699999
 30
0.0
  0
VERTEX
  5
334
  8
P3DISTRICTS
 10
810526.76909099997
 20
8985011.66567
 30
0.0
  0
VERTEX
  5
335
  8
P3DISTRICTS
 10
810545.84771400003
 20
8985015.0763599984
 30
0.0
  0
VERTEX
  5
336
  8
P3DISTRICTS
 10
810564.54933299986
 20
8985020.0837099999
 30
0.0
  0
VERTEX
  5
337
  8
P3DISTRICTS
 10
810582.87198099995
 20
8985026.4142300002
 30
0.0
  0
VERTEX
  5
338
  8
P3DISTRICTS
 10
810600.81523100019
 20
8985033.7626699992
 30
0.0
  0
VERTEX
  5
339
  8
P3DISTRICTS
 10
810618.31258699996
 20
8985042.07302
 30
0.0
  0
VERTEX
  5
33A
  8
P3DISTRICTS
 10
810635.35578100011
 20
8985051.2549799997
 30
0.0
  0
VERTEX
  5
33B
  8
P3DISTRICTS
 10
810651.85349000024
 20
8985061.3857000005
 30
0.0
  0
VERTEX
  5
33C
  8
P3DISTRICTS
 10
810667.82985100022
 20
8985072.3156199995
 30
0.0
  0
VERTEX
  5
33D
  8
P3DISTRICTS
 10
810683.63501600001
 20
8985083.5059300009
 30
0.0
  0
VERTEX
  5
33E
  8
P3DISTRICTS
 10
810699.69016499969
 20
8985094.3282500003
 30
0.0
  0
VERTEX
  5
33F
  8
P3DISTRICTS
 10
810715.6976229999
 20
8985105.1724899989
 30
0.0
  0
VERTEX
  5
340
  8
P3DISTRICTS
 10
810730.51835100004
 20
8985117.6531200018
 30
0.0
  0
VERTEX
  5
341
  8
P3DISTRICTS
 10
810745.30313799996
 20
8985130.1972499993
 30
0.0
  0
VERTEX
  5
342
  8
P3DISTRICTS
 10
810761.15822100034
 20
8985141.2916299999
 30
0.0
  0
VERTEX
  5
343
  8
P3DISTRICTS
 10
810777.02943899995
 20
8985152.3638800029
 30
0.0
  0
VERTEX
  5
344
  8
P3DISTRICTS
 10
810791.82581900002
 20
8985164.8834300004
 30
0.0
  0
VERTEX
  5
345
  8
P3DISTRICTS
 10
810807.26237400004
 20
8985176.4743600003
 30
0.0
  0
VERTEX
  5
346
  8
P3DISTRICTS
 10
810823.91763699998
 20
8985186.3549300004
 30
0.0
  0
VERTEX
  5
347
  8
P3DISTRICTS
 10
810840.70324099972
 20
8985196.0895799976
 30
0.0
  0
VERTEX
  5
348
  8
P3DISTRICTS
 10
810856.97528200014
 20
8985206.5524899997
 30
0.0
  0
VERTEX
  5
349
  8
P3DISTRICTS
 10
810874.28192400013
 20
8985215.2202000003
 30
0.0
  0
VERTEX
  5
34A
  8
P3DISTRICTS
 10
810892.31326999969
 20
8985222.5290099997
 30
0.0
  0
VERTEX
  5
34B
  8
P3DISTRICTS
 10
810910.62852699996
 20
8985229.0594399981
 30
0.0
  0
VERTEX
  5
34C
  8
P3DISTRICTS
 10
810929.07867900026
 20
8985234.9762900006
 30
0.0
  0
VERTEX
  5
34D
  8
P3DISTRICTS
 10
810947.71992599999
 20
8985240.0971000008
 30
0.0
  0
VERTEX
  5
34E
  8
P3DISTRICTS
 10
810966.63603000017
 20
8985244.1240899991
 30
0.0
  0
VERTEX
  5
34F
  8
P3DISTRICTS
 10
810985.70080699993
 20
8985247.56439
 30
0.0
  0
VERTEX
  5
350
  8
P3DISTRICTS
 10
811004.75649900024
 20
8985251.0148100015
 30
0.0
  0
VERTEX
  5
351
  8
P3DISTRICTS
 10
811023.95932100015
 20
8985253.4292100016
 30
0.0
  0
VERTEX
  5
352
  8
P3DISTRICTS
 10
811043.28613400005
 20
8985254.9430299997
 30
0.0
  0
VERTEX
  5
353
  8
P3DISTRICTS
 10
811062.64114900015
 20
8985256.0448800009
 30
0.0
  0
VERTEX
  5
354
  8
P3DISTRICTS
 10
811081.99178700009
 20
8985256.8062800001
 30
0.0
  0
VERTEX
  5
355
  8
P3DISTRICTS
 10
811101.33721099992
 20
8985256.9908599984
 30
0.0
  0
VERTEX
  5
356
  8
P3DISTRICTS
 10
811120.67764399969
 20
8985256.3920799997
 30
0.0
  0
VERTEX
  5
357
  8
P3DISTRICTS
 10
811140.02035400004
 20
8985255.4175800011
 30
0.0
  0
VERTEX
  5
358
  8
P3DISTRICTS
 10
811159.37423399999
 20
8985254.4789499994
 30
0.0
  0
VERTEX
  5
359
  8
P3DISTRICTS
 10
811178.72161500005
 20
8985253.5169500019
 30
0.0
  0
VERTEX
  5
35A
  8
P3DISTRICTS
 10
811198.00901400018
 20
8985251.954330001
 30
0.0
  0
VERTEX
  5
35B
  8
P3DISTRICTS
 10
811217.207283
 20
8985249.4602199998
 30
0.0
  0
VERTEX
  5
35C
  8
P3DISTRICTS
 10
811236.42762900004
 20
8985247.1357000005
 30
0.0
  0
VERTEX
  5
35D
  8
P3DISTRICTS
 10
811255.68923500029
 20
8985245.1620400008
 30
0.0
  0
VERTEX
  5
35E
  8
P3DISTRICTS
 10
811274.99532600015
 20
8985243.6281399988
 30
0.0
  0
VERTEX
  5
35F
  8
P3DISTRICTS
 10
811294.33198699995
 20
8985242.6285400018
 30
0.0
  0
VERTEX
  5
360
  8
P3DISTRICTS
 10
811313.69294799969
 20
8985242.3825599998
 30
0.0
  0
VERTEX
  5
361
  8
P3DISTRICTS
 10
811333.060329
 20
8985242.4791600015
 30
0.0
  0
VERTEX
  5
362
  8
P3DISTRICTS
 10
811352.40623700002
 20
8985242.1060399991
 30
0.0
  0
VERTEX
  5
363
  8
P3DISTRICTS
 10
811371.70994300034
 20
8985240.7242900021
 30
0.0
  0
VERTEX
  5
364
  8
P3DISTRICTS
 10
811390.97947499994
 20
8985238.7229100019
 30
0.0
  0
VERTEX
  5
365
  8
P3DISTRICTS
 10
811410.216334
 20
8985236.4408500008
 30
0.0
  0
VERTEX
  5
366
  8
P3DISTRICTS
 10
811429.42269399995
 20
8985234.0023100004
 30
0.0
  0
VERTEX
  5
367
  8
P3DISTRICTS
 10
811448.60121600004
 20
8985231.3795100003
 30
0.0
  0
VERTEX
  5
368
  8
P3DISTRICTS
 10
811467.74633200013
 20
8985228.5001399983
 30
0.0
  0
VERTEX
  5
369
  8
P3DISTRICTS
 10
811486.85587700002
 20
8985225.3820699994
 30
0.0
  0
VERTEX
  5
36A
  8
P3DISTRICTS
 10
811505.91802100022
 20
8985222.0023899991
 30
0.0
  0
VERTEX
  5
36B
  8
P3DISTRICTS
 10
811524.92757900001
 20
8985218.3476400003
 30
0.0
  0
VERTEX
  5
36C
  8
P3DISTRICTS
 10
811543.90188300004
 20
8985214.4900700022
 30
0.0
  0
VERTEX
  5
36D
  8
P3DISTRICTS
 10
811562.84348100005
 20
8985210.4266800005
 30
0.0
  0
VERTEX
  5
36E
  8
P3DISTRICTS
 10
811581.69883999997
 20
8985205.993780002
 30
0.0
  0
VERTEX
  5
36F
  8
P3DISTRICTS
 10
811600.35180400021
 20
8985200.8263000008
 30
0.0
  0
VERTEX
  5
370
  8
P3DISTRICTS
 10
811618.82958200003
 20
8985195.0756100006
 30
0.0
  0
VERTEX
  5
371
  8
P3DISTRICTS
 10
811637.27927499998
 20
8985189.2334600016
 30
0.0
  0
VERTEX
  5
372
  8
P3DISTRICTS
 10
811655.64387100004
 20
8985182.9872699995
 30
0.0
  0
VERTEX
  5
373
  8
P3DISTRICTS
 10
811673.78004300001
 20
8985175.9985699989
 30
0.0
  0
VERTEX
  5
374
  8
P3DISTRICTS
 10
811691.37618799985
 20
8985167.8973100018
 30
0.0
  0
VERTEX
  5
375
  8
P3DISTRICTS
 10
811707.97743800003
 20
8985158.0283000004
 30
0.0
  0
VERTEX
  5
376
  8
P3DISTRICTS
 10
811724.28973299987
 20
8985147.5485899989
 30
0.0
  0
VERTEX
  5
377
  8
P3DISTRICTS
 10
811741.03991899989
 20
8985137.7324300017
 30
0.0
  0
VERTEX
  5
378
  8
P3DISTRICTS
 10
811756.42606000032
 20
8985126.1905399989
 30
0.0
  0
VERTEX
  5
379
  8
P3DISTRICTS
 10
811770.16208900011
 20
8985112.488160003
 30
0.0
  0
VERTEX
  5
37A
  8
P3DISTRICTS
 10
811784.36204099969
 20
8985099.2948899996
 30
0.0
  0
VERTEX
  5
37B
  8
P3DISTRICTS
 10
811799.87851600023
 20
8985087.7137599997
 30
0.0
  0
VERTEX
  5
37C
  8
P3DISTRICTS
 10
811813.89747299987
 20
8985074.3397599999
 30
0.0
  0
VERTEX
  5
37D
  8
P3DISTRICTS
 10
811827.27349499997
 20
8985060.2222100031
 30
0.0
  0
VERTEX
  5
37E
  8
P3DISTRICTS
 10
811841.9980410001
 20
8985047.8018399999
 30
0.0
  0
VERTEX
  5
37F
  8
P3DISTRICTS
 10
811858.12289300025
 20
8985036.9315100033
 30
0.0
  0
VERTEX
  5
380
  8
P3DISTRICTS
 10
811874.06762500003
 20
8985025.6199600007
 30
0.0
  0
VERTEX
  5
381
  8
P3DISTRICTS
 10
811890.46453600004
 20
8985015.3672399987
 30
0.0
  0
VERTEX
  5
382
  8
P3DISTRICTS
 10
811908.14996199997
 20
8985008.0757800005
 30
0.0
  0
VERTEX
  5
383
  8
P3DISTRICTS
 10
811926.96119599999
 20
8985003.3102499973
 30
0.0
  0
VERTEX
  5
384
  8
P3DISTRICTS
 10
811945.65310899995
 20
8984998.0766499992
 30
0.0
  0
VERTEX
  5
385
  8
P3DISTRICTS
 10
811964.63024199987
 20
8984994.0582500026
 30
0.0
  0
VERTEX
  5
386
  8
P3DISTRICTS
 10
811984.21302600019
 20
8984993.6145500038
 30
0.0
  0
VERTEX
  5
387
  8
P3DISTRICTS
 10
812003.43651999999
 20
8984996.5738699995
 30
0.0
  0
VERTEX
  5
388
  8
P3DISTRICTS
 10
812022.17905699986
 20
8985001.4584400021
 30
0.0
  0
VERTEX
  5
389
  8
P3DISTRICTS
 10
812041.13741700025
 20
8985005.57656
 30
0.0
  0
VERTEX
  5
38A
  8
P3DISTRICTS
 10
812059.42434699996
 20
8985011.4974600002
 30
0.0
  0
VERTEX
  5
38B
  8
P3DISTRICTS
 10
812076.78081000014
 20
8985020.0013299994
 30
0.0
  0
VERTEX
  5
38C
  8
P3DISTRICTS
 10
812093.70436799992
 20
8985029.7039399967
 30
0.0
  0
VERTEX
  5
38D
  8
P3DISTRICTS
 10
812110.50180500001
 20
8985039.6486799996
 30
0.0
  0
VERTEX
  5
38E
  8
P3DISTRICTS
 10
812126.21105699986
 20
8985050.8172600009
 30
0.0
  0
VERTEX
  5
38F
  8
P3DISTRICTS
 10
812139.53333799995
 20
8985064.8269999996
 30
0.0
  0
VERTEX
  5
390
  8
P3DISTRICTS
 10
812152.91521200002
 20
8985078.8643200006
 30
0.0
  0
VERTEX
  5
391
  8
P3DISTRICTS
 10
812167.85103599995
 20
8985091.1932399999
 30
0.0
  0
VERTEX
  5
392
  8
P3DISTRICTS
 10
812182.2908490001
 20
8985104.0884399991
 30
0.0
  0
VERTEX
  5
393
  8
P3DISTRICTS
 10
812195.70090100006
 20
8985118.0938799996
 30
0.0
  0
VERTEX
  5
394
  8
P3DISTRICTS
 10
812210.65281000012
 20
8985130.183530001
 30
0.0
  0
VERTEX
  5
395
  8
P3DISTRICTS
 10
812227.14606700011
 20
8985140.4170999993
 30
0.0
  0
VERTEX
  5
396
  8
P3DISTRICTS
 10
812243.58239600016
 20
8985150.7886099983
 30
0.0
  0
VERTEX
  5
397
  8
P3DISTRICTS
 10
812259.84605499986
 20
8985161.2141699996
 30
0.0
  0
VERTEX
  5
398
  8
P3DISTRICTS
 10
812277.247539
 20
8985169.7222399991
 30
0.0
  0
VERTEX
  5
399
  8
P3DISTRICTS
 10
812295.22489399998
 20
8985177.1623400021
 30
0.0
  0
VERTEX
  5
39A
  8
P3DISTRICTS
 10
812313.36298200011
 20
8985184.1058799997
 30
0.0
  0
VERTEX
  5
39B
  8
P3DISTRICTS
 10
812331.59035999991
 20
8985190.6294400003
 30
0.0
  0
VERTEX
  5
39C
  8
P3DISTRICTS
 10
812350.02202299971
 20
8985196.4787600003
 30
0.0
  0
VERTEX
  5
39D
  8
P3DISTRICTS
 10
812368.68350899999
 20
8985201.6387199983
 30
0.0
  0
VERTEX
  5
39E
  8
P3DISTRICTS
 10
812387.3425680002
 20
8985206.8072999995
 30
0.0
  0
VERTEX
  5
39F
  8
P3DISTRICTS
 10
812406.07287200005
 20
8985211.6909500007
 30
0.0
  0
VERTEX
  5
3A0
  8
P3DISTRICTS
 10
812424.9274729999
 20
8985216.0857100021
 30
0.0
  0
VERTEX
  5
3A1
  8
P3DISTRICTS
 10
812443.8569730001
 20
8985220.1675399989
 30
0.0
  0
VERTEX
  5
3A2
  8
P3DISTRICTS
 10
812462.82989099994
 20
8985224.0355300009
 30
0.0
  0
VERTEX
  5
3A3
  8
P3DISTRICTS
 10
812481.83278599987
 20
8985227.7395799998
 30
0.0
  0
VERTEX
  5
3A4
  8
P3DISTRICTS
 10
812500.86481299996
 20
8985231.285310002
 30
0.0
  0
VERTEX
  5
3A5
  8
P3DISTRICTS
 10
812519.92993500014
 20
8985234.6514500007
 30
0.0
  0
VERTEX
  5
3A6
  8
P3DISTRICTS
 10
812539.01877100009
 20
8985237.8854200002
 30
0.0
  0
VERTEX
  5
3A7
  8
P3DISTRICTS
 10
812558.12625600002
 20
8985241.0089599993
 30
0.0
  0
VERTEX
  5
3A8
  8
P3DISTRICTS
 10
812577.25182700017
 20
8985244.0181900002
 30
0.0
  0
VERTEX
  5
3A9
  8
P3DISTRICTS
 10
812596.39840100019
 20
8985246.8866399992
 30
0.0
  0
VERTEX
  5
3AA
  8
P3DISTRICTS
 10
812615.57102399995
 20
8985249.5755000021
 30
0.0
  0
VERTEX
  5
3AB
  8
P3DISTRICTS
 10
812634.74888300011
 20
8985252.22848
 30
0.0
  0
VERTEX
  5
3AC
  8
P3DISTRICTS
 10
812653.93465100019
 20
8985254.8215299994
 30
0.0
  0
VERTEX
  5
3AD
  8
P3DISTRICTS
 10
812673.13924800011
 20
8985257.272189999
 30
0.0
  0
VERTEX
  5
3AE
  8
P3DISTRICTS
 10
812692.35702999996
 20
8985259.6198999975
 30
0.0
  0
VERTEX
  5
3AF
  8
P3DISTRICTS
 10
812711.58452399995
 20
8985261.8862100001
 30
0.0
  0
VERTEX
  5
3B0
  8
P3DISTRICTS
 10
812730.82004399982
 20
8985264.0818500016
 30
0.0
  0
VERTEX
  5
3B1
  8
P3DISTRICTS
 10
812750.06355399999
 20
8985266.2054100018
 30
0.0
  0
VERTEX
  5
3B2
  8
P3DISTRICTS
 10
812769.316658
 20
8985268.2407300007
 30
0.0
  0
VERTEX
  5
3B3
  8
P3DISTRICTS
 10
812788.57772900024
 20
8985270.1999700014
 30
0.0
  0
VERTEX
  5
3B4
  8
P3DISTRICTS
 10
812807.84677400009
 20
8985272.0788499992
 30
0.0
  0
VERTEX
  5
3B5
  8
P3DISTRICTS
 10
812810.79333407059
 20
8985272.3533387687
 30
0.0
  0
VERTEX
  5
3B6
  8
P3DISTRICTS
 10
813136.99076367344
 20
8985560.6665418241
 30
0.0
  0
VERTEX
  5
3B7
  8
P3DISTRICTS
 10
812816.09701061528
 20
8986735.7617728468
 30
0.0
  0
VERTEX
  5
3B8
  8
P3DISTRICTS
 10
812460.20793807763
 20
8987091.3707222473
 30
0.0
  0
VERTEX
  5
3B9
  8
P3DISTRICTS
 10
812403.6286576346
 20
8987128.5313249789
 30
0.0
  0
VERTEX
  5
3BA
  8
P3DISTRICTS
 10
812391.62569710531
 20
8987305.5370016769
 30
0.0
  0
VERTEX
  5
3BB
  8
P3DISTRICTS
 10
812393.64436269412
 20
8987360.2489301972
 30
0.0
  0
VERTEX
  5
3BC
  8
P3DISTRICTS
 10
812397.28910372965
 20
8987459.0324098039
 30
0.0
  0
VERTEX
  5
3BD
  8
P3DISTRICTS
 10
812360.08395708259
 20
8987516.0645691585
 30
0.0
  0
VERTEX
  5
3BE
  8
P3DISTRICTS
 10
812439.10256174265
 20
8987667.1784121059
 30
0.0
  0
VERTEX
  5
3BF
  8
P3DISTRICTS
 10
812469.89753370872
 20
8987753.7361073568
 30
0.0
  0
VERTEX
  5
3C0
  8
P3DISTRICTS
 10
812469.18137693626
 20
8987783.0656024087
 30
0.0
  0
VERTEX
  5
3C1
  8
P3DISTRICTS
 10
812536.59718045185
 20
8987912.6025520675
 30
0.0
  0
VERTEX
  5
3C2
  8
P3DISTRICTS
 10
812568.54864830803
 20
8988003.5852141734
 30
0.0
  0
VERTEX
  5
3C3
  8
P3DISTRICTS
 10
812572.33290556725
 20
8988094.8086034376
 30
0.0
  0
VERTEX
  5
3C4
  8
P3DISTRICTS
 10
812579.91459425469
 20
8988098.4981481992
 30
0.0
  0
VERTEX
  5
3C5
  8
P3DISTRICTS
 10
812610.36410502763
 20
8988173.506176874
 30
0.0
  0
VERTEX
  5
3C6
  8
P3DISTRICTS
 10
812662.70291020302
 20
8988165.7689149641
 30
0.0
  0
VERTEX
  5
3C7
  8
P3DISTRICTS
 10
812691.15298424358
 20
8988180.9692404568
 30
0.0
  0
VERTEX
  5
3C8
  8
P3DISTRICTS
 10
812712.98674234247
 20
8988229.8745376486
 30
0.0
  0
VERTEX
  5
3C9
  8
P3DISTRICTS
 10
812678.41728480521
 20
8988264.497386802
 30
0.0
  0
VERTEX
  5
3CA
  8
P3DISTRICTS
 10
812666.33006446925
 20
8988311.3703390267
 30
0.0
  0
VERTEX
  5
3CB
  8
P3DISTRICTS
 10
812704.48941262497
 20
8988318.7981855907
 30
0.0
  0
VERTEX
  5
3CC
  8
P3DISTRICTS
 10
812717.0500179003
 20
8988375.5873080101
 30
0.0
  0
VERTEX
  5
3CD
  8
P3DISTRICTS
 10
812917.56740773295
 20
8988296.433608057
 30
0.0
  0
VERTEX
  5
3CE
  8
P3DISTRICTS
 10
812890.27807200456
 20
8988486.7143564187
 30
0.0
  0
VERTEX
  5
3CF
  8
P3DISTRICTS
 10
812950.37747240742
 20
8988490.8832104672
 30
0.0
  0
VERTEX
  5
3D0
  8
P3DISTRICTS
 10
812911.98060551705
 20
8988599.2735683993
 30
0.0
  0
VERTEX
  5
3D1
  8
P3DISTRICTS
 10
812884.43504379783
 20
8988613.4477255885
 30
0.0
  0
VERTEX
  5
3D2
  8
P3DISTRICTS
 10
812907.80707979482
 20
8988697.6586995032
 30
0.0
  0
VERTEX
  5
3D3
  8
P3DISTRICTS
 10
812896.50271175418
 20
8988798.4283278231
 30
0.0
  0
VERTEX
  5
3D4
  8
P3DISTRICTS
 10
812928.12107587548
 20
8988895.2820096686
 30
0.0
  0
VERTEX
  5
3D5
  8
P3DISTRICTS
 10
812916.29296193377
 20
8988953.9889255296
 30
0.0
  0
VERTEX
  5
3D6
  8
P3DISTRICTS
 10
812883.64469993883
 20
8989049.4448236655
 30
0.0
  0
VERTEX
  5
3D7
  8
P3DISTRICTS
 10
812845.59679210407
 20
8989083.9890303165
 30
0.0
  0
VERTEX
  5
3D8
  8
P3DISTRICTS
 10
812812.65258332714
 20
8989114.1080793254
 30
0.0
  0
VERTEX
  5
3D9
  8
P3DISTRICTS
 10
812759.21674893715
 20
8989136.7182763666
 30
0.0
  0
VERTEX
  5
3DA
  8
P3DISTRICTS
 10
812745.63392872596
 20
8989169.1979741789
 30
0.0
  0
VERTEX
  5
3DB
  8
P3DISTRICTS
 10
812800.40482729801
 20
8989204.1577917766
 30
0.0
  0
VERTEX
  5
3DC
  8
P3DISTRICTS
 10
812751.80371229665
 20
8989276.9772405475
 30
0.0
  0
VERTEX
  5
3DD
  8
P3DISTRICTS
 10
812702.68591969751
 20
8989329.2283355892
 30
0.0
  0
VERTEX
  5
3DE
  8
P3DISTRICTS
 10
812592.82645227783
 20
8989582.2916326076
 30
0.0
  0
VERTEX
  5
3DF
  8
P3DISTRICTS
 10
812530.45698265207
 20
8989700.4174034428
 30
0.0
  0
VERTEX
  5
3E0
  8
P3DISTRICTS
 10
812418.89075490378
 20
8989912.2857495416
 30
0.0
  0
VERTEX
  5
3E1
  8
P3DISTRICTS
 10
812423.79906958621
 20
8990066.1520577967
 30
0.0
  0
VERTEX
  5
3E2
  8
P3DISTRICTS
 10
812459.13816354983
 20
8990185.0598325692
 30
0.0
  0
VERTEX
  5
3E3
  8
P3DISTRICTS
 10
812462.43452311307
 20
8990344.7610773277
 30
0.0
  0
VERTEX
  5
3E4
  8
P3DISTRICTS
 10
812440.29215707688
 20
8990443.3284118511
 30
0.0
  0
VERTEX
  5
3E5
  8
P3DISTRICTS
 10
812384.7212865582
 20
8990586.6957829818
 30
0.0
  0
VERTEX
  5
3E6
  8
P3DISTRICTS
 10
812299.87425434531
 20
8990699.5933260322
 30
0.0
  0
VERTEX
  5
3E7
  8
P3DISTRICTS
 10
812266.42708426528
 20
8990733.0314082783
 30
0.0
  0
VERTEX
  5
3E8
  8
P3DISTRICTS
 10
812258.92381514749
 20
8990768.4253556896
 30
0.0
  0
VERTEX
  5
3E9
  8
P3DISTRICTS
 10
812284.82666891441
 20
8990876.7429490667
 30
0.0
  0
VERTEX
  5
3EA
  8
P3DISTRICTS
 10
812380.22256629681
 20
8990956.5769805778
 30
0.0
  0
SEQEND
  5
3EB
  8
P3DISTRICTS
  0
ENDSEC
  0
EOF
