  0
SECTION
  2
HEADER
  9
$ACADVER
  1
AC1009
  9
$INSBASE
 10
0.0
 20
0.0
 30
0.0
  9
$EXTMIN
 10
1078880.0
 20
874522.4903397609
 30
0.0
  9
$EXTMAX
 10
1083147.25562364
 20
877100.0
 30
0.0
  9
$LIMMIN
 10
0.0
 20
0.0
  9
$LIMMAX
 10
12.0
 20
9.0
  9
$ORTHOMODE
 70
     0
  9
$REGENMODE
 70
     1
  9
$FILLMODE
 70
     1
  9
$QTEXTMODE
 70
     0
  9
$MIRRTEXT
 70
     0
  9
$DRAGMODE
 70
     2
  9
$LTSCALE
 40
1.0
  9
$OSMODE
 70
    37
  9
$ATTMODE
 70
     1
  9
$TEXTSIZE
 40
10.0
  9
$TRACEWID
 40
0.05
  9
$TEXTSTYLE
  7
STANDARD
  9
$CLAYER
  8
UNIDAD
  9
$CELTYPE
  6
BYLAYER
  9
$CECOLOR
 62
   256
  9
$DIMSCALE
 40
1.0
  9
$DIMASZ
 40
0.18
  9
$DIMEXO
 40
0.0625
  9
$DIMDLI
 40
0.38
  9
$DIMRND
 40
0.0
  9
$DIMDLE
 40
0.0
  9
$DIMEXE
 40
0.18
  9
$DIMTP
 40
0.0
  9
$DIMTM
 40
0.0
  9
$DIMTXT
 40
0.18
  9
$DIMCEN
 40
0.09
  9
$DIMTSZ
 40
0.0
  9
$DIMTOL
 70
     0
  9
$DIMLIM
 70
     0
  9
$DIMTIH
 70
     1
  9
$DIMTOH
 70
     1
  9
$DIMSE1
 70
     0
  9
$DIMSE2
 70
     0
  9
$DIMTAD
 70
     0
  9
$DIMZIN
 70
     0
  9
$DIMBLK
  1

  9
$DIMASO
 70
     1
  9
$DIMSHO
 70
     1
  9
$DIMPOST
  1

  9
$DIMAPOST
  1

  9
$DIMALT
 70
     0
  9
$DIMALTD
 70
     2
  9
$DIMALTF
 40
25.399999999999999
  9
$DIMLFAC
 40
1.0
  9
$DIMTOFL
 70
     0
  9
$DIMTVP
 40
0.0
  9
$DIMTIX
 70
     0
  9
$DIMSOXD
 70
     0
  9
$DIMSAH
 70
     0
  9
$DIMBLK1
  1

  9
$DIMBLK2
  1

  9
$DIMSTYLE
  2
STANDARD
  9
$DIMCLRD
 70
     0
  9
$DIMCLRE
 70
     0
  9
$DIMCLRT
 70
     0
  9
$DIMTFAC
 40
1.0
  9
$DIMGAP
 40
0.09
  9
$LUNITS
 70
     2
  9
$LUPREC
 70
     4
  9
$SKETCHINC
 40
0.1
  9
$FILLETRAD
 40
0.0
  9
$AUNITS
 70
     0
  9
$AUPREC
 70
     0
  9
$MENU
  1
.
  9
$ELEVATION
 40
0.0
  9
$PELEVATION
 40
0.0
  9
$THICKNESS
 40
0.0
  9
$LIMCHECK
 70
     0
  9
$BLIPMODE
 70
     0
  9
$CHAMFERA
 40
0.0
  9
$CHAMFERB
 40
0.0
  9
$SKPOLY
 70
     0
  9
$TDCREATE
 40
2455948.448272604
  9
$TDUPDATE
 40
2456961.4890723489
  9
$TDINDWG
 40
4.9315710995000002
  9
$TDUSRTIMER
 40
4.9315471065000001
  9
$USRTIMER
 70
     1
  9
$ANGBASE
 50
0.0
  9
$ANGDIR
 70
     0
  9
$PDMODE
 70
     0
  9
$PDSIZE
 40
0.0
  9
$PLINEWID
 40
0.0
  9
$COORDS
 70
     2
  9
$SPLFRAME
 70
     0
  9
$SPLINETYPE
 70
     6
  9
$SPLINESEGS
 70
     8
  9
$ATTDIA
 70
     0
  9
$ATTREQ
 70
     1
  9
$HANDLING
 70
     1
  9
$HANDSEED
  5
3B9
  9
$SURFTAB1
 70
     6
  9
$SURFTAB2
 70
     6
  9
$SURFTYPE
 70
     6
  9
$SURFU
 70
     6
  9
$SURFV
 70
     6
  9
$UCSNAME
  2

  9
$UCSORG
 10
0.0
 20
0.0
 30
0.0
  9
$UCSXDIR
 10
1.0
 20
0.0
 30
0.0
  9
$UCSYDIR
 10
0.0
 20
1.0
 30
0.0
  9
$PUCSNAME
  2

  9
$PUCSORG
 10
0.0
 20
0.0
 30
0.0
  9
$PUCSXDIR
 10
1.0
 20
0.0
 30
0.0
  9
$PUCSYDIR
 10
0.0
 20
1.0
 30
0.0
  9
$USERI1
 70
     0
  9
$USERI2
 70
     0
  9
$USERI3
 70
     0
  9
$USERI4
 70
     0
  9
$USERI5
 70
     0
  9
$USERR1
 40
0.0
  9
$USERR2
 40
0.0
  9
$USERR3
 40
0.0
  9
$USERR4
 40
0.0
  9
$USERR5
 40
0.0
  9
$WORLDVIEW
 70
     1
  9
$SHADEDGE
 70
     3
  9
$SHADEDIF
 70
    70
  9
$TILEMODE
 70
     1
  9
$MAXACTVP
 70
    64
  9
$PLIMCHECK
 70
     0
  9
$PEXTMIN
 10
1.049999952316284
 20
0.7999999523162842
 30
0.0
  9
$PEXTMAX
 10
9.4499995708465594
 20
7.1999995708465576
 30
0.0
  9
$PLIMMIN
 10
-0.2500002402958907
 20
-0.2499999962453767
  9
$PLIMMAX
 10
10.74999951940822
 20
8.2499997634587334
  9
$UNITMODE
 70
     0
  9
$VISRETAIN
 70
     1
  9
$PLINEGEN
 70
     0
  9
$PSLTSCALE
 70
     1
  0
ENDSEC
  0
SECTION
  2
TABLES
  0
TABLE
  2
VPORT
 70
     1
  0
VPORT
  2
*ACTIVE
 70
     0
 10
0.0
 20
0.0
 11
1.0
 21
1.0
 12
1081613.0646880551
 22
876070.89449573017
 13
0.0
 23
0.0
 14
0.1
 24
0.1
 15
0.1
 25
0.1
 16
0.0
 26
0.0
 36
1.0
 17
0.0
 27
0.0
 37
0.0
 40
4080.515797912999
 41
2.0448143405889878
 42
50.0
 43
0.0
 44
0.0
 50
0.0
 51
0.0
 71
     0
 72
  1000
 73
     1
 74
     3
 75
     1
 76
     0
 77
     0
 78
     0
  0
ENDTAB
  0
TABLE
  2
LTYPE
 70
     1
  0
LTYPE
  2
CONTINUOUS
 70
     0
  3
Solid line
 72
    65
 73
     0
 40
0.0
  0
ENDTAB
  0
TABLE
  2
LAYER
 70
     5
  0
LAYER
  2
0
 70
     0
 62
   253
  6
CONTINUOUS
  0
LAYER
  2
VIAS
 70
     0
 62
    54
  6
CONTINUOUS
  0
LAYER
  2
CARRETERA
 70
     0
 62
   234
  6
CONTINUOUS
  0
LAYER
  2
RIOS
 70
     0
 62
     5
  6
CONTINUOUS
  0
LAYER
  2
UNIDAD
 70
     0
 62
   250
  6
CONTINUOUS
  0
ENDTAB
  0
TABLE
  2
STYLE
 70
     1
  0
STYLE
  2
STANDARD
 70
     0
 40
0.0
 41
1.0
 50
0.0
 71
     0
 42
10.0
  3
txt
  4

  0
ENDTAB
  0
TABLE
  2
VIEW
 70
     0
  0
ENDTAB
  0
TABLE
  2
UCS
 70
     0
  0
ENDTAB
  0
TABLE
  2
APPID
 70
    11
  0
APPID
  2
ACAD
 70
     0
  0
APPID
  2
ACADANNOTATIVE
 70
     0
  0
APPID
  2
ACAD_DSTYLE_DIMJAG
 70
     0
  0
APPID
  2
ACAD_DSTYLE_DIMTALN
 70
     0
  0
APPID
  2
ADE
 70
     0
  0
APPID
  2
ACAD_NAV_VCDISPLAY
 70
     0
  0
APPID
  2
ACAECLAYERSTANDARD
 70
     0
  0
APPID
  2
ACCMTRANSPARENCY
 70
     0
  0
APPID
  2
GRADIENTCOLOR1ACI
 70
     0
  0
APPID
  2
GRADIENTCOLOR2ACI
 70
     0
  0
APPID
  2
ACAD_PSEXT
 70
     0
  0
ENDTAB
  0
TABLE
  2
DIMSTYLE
 70
     2
  0
DIMSTYLE
  2
STANDARD
 70
     0
  3

  4

  5

  6

  7

 40
1.0
 41
0.18
 42
0.0625
 43
0.38
 44
0.18
 45
0.0
 46
0.0
 47
0.0
 48
0.0
140
0.18
141
0.09
142
0.0
143
25.399999999999999
144
1.0
145
0.0
146
1.0
147
0.09
 71
     0
 72
     0
 73
     1
 74
     1
 75
     0
 76
     0
 77
     0
 78
     0
170
     0
171
     2
172
     0
173
     0
174
     0
175
     0
176
     0
177
     0
178
     0
  0
DIMSTYLE
  2
ANNOTATIVE
 70
     0
  3

  4

  5

  6

  7

 40
0.0
 41
0.18
 42
0.0625
 43
0.38
 44
0.18
 45
0.0
 46
0.0
 47
0.0
 48
0.0
140
0.18
141
0.09
142
0.0
143
25.399999999999999
144
1.0
145
0.0
146
1.0
147
0.09
 71
     0
 72
     0
 73
     1
 74
     1
 75
     0
 76
     0
 77
     0
 78
     0
170
     0
171
     2
172
     0
173
     0
174
     0
175
     0
176
     0
177
     0
178
     0
  0
ENDTAB
  0
ENDSEC
  0
SECTION
  2
BLOCKS
  0
BLOCK
  8
0
  2
$MODEL_SPACE
 70
     0
 10
0.0
 20
0.0
 30
0.0
  3
$MODEL_SPACE
  1

  0
ENDBLK
  5
16
  8
0
  0
BLOCK
 67
     1
  8
0
  2
$PAPER_SPACE
 70
     0
 10
0.0
 20
0.0
 30
0.0
  3
$PAPER_SPACE
  1

  0
ENDBLK
  5
1D
 67
     1
  8
0
  0
BLOCK
  8
0
  2
*U0
 70
     1
 10
0.0
 20
0.0
 30
0.0
  3
*U0
  1

  0
SOLID
  5
118
  8
VIAS
  6
CONTINUOUS
 10
1081686.2365740091
 20
875672.28845637897
 30
0.0
 11
1081683.89325958
 21
875657.17018443113
 31
0.0
 12
1081852.1710423799
 22
875657.17018443113
 32
0.0
 13
1081852.1710423799
 23
875657.17018443113
 33
0.0
210
0.0
220
0.0
230
1.0
  0
SOLID
  5
119
  8
VIAS
  6
CONTINUOUS
 10
-1081678.955900583
 20
875625.31601450988
 30
0.0
 11
-1081846.8357570211
 21
875625.31601450988
 31
0.0
 12
-1081841.4758427851
 22
875593.31479858025
 32
0.0
 13
-1081841.4758427851
 23
875593.31479858025
 33
0.0
210
0.0
220
0.0
230
-1.0
  0
SOLID
  5
11A
  8
VIAS
  6
CONTINUOUS
 10
1081683.89325958
 20
875657.17018443113
 30
0.0
 11
1081678.955900583
 21
875625.31601450988
 31
0.0
 12
1081846.8357570211
 22
875625.31601450988
 32
0.0
 13
1081846.8357570211
 23
875625.31601450988
 33
0.0
210
0.0
220
0.0
230
1.0
  0
SOLID
  5
11B
  8
VIAS
  6
CONTINUOUS
 10
-1081683.89325958
 20
875657.17018443113
 30
0.0
 11
-1081852.1710423799
 21
875657.17018443113
 31
0.0
 12
-1081846.8357570211
 22
875625.31601450988
 32
0.0
 13
-1081846.8357570211
 23
875625.31601450988
 33
0.0
210
0.0
220
0.0
230
-1.0
  0
LINE
  5
11C
  8
VIAS
  6
CONTINUOUS
 10
1081686.2365740091
 20
875672.28845637897
 30
0.0
 11
1081683.89325958
 21
875657.17018443113
 31
0.0
  0
LINE
  5
11D
  8
VIAS
  6
CONTINUOUS
 10
1081852.1710423799
 20
875657.17018443113
 30
0.0
 11
1081686.2365740091
 21
875672.28845637897
 31
0.0
  0
LINE
  5
11E
  8
VIAS
  6
CONTINUOUS
 10
1081846.8357570211
 20
875625.31601450988
 30
0.0
 11
1081841.4758427851
 21
875593.31479858025
 31
0.0
  0
LINE
  5
11F
  8
VIAS
  6
CONTINUOUS
 10
1081841.4758427851
 20
875593.31479858025
 30
0.0
 11
1081678.955900583
 21
875625.31601450988
 31
0.0
  0
LINE
  5
120
  8
VIAS
  6
CONTINUOUS
 10
1081683.89325958
 20
875657.17018443113
 30
0.0
 11
1081678.955900583
 21
875625.31601450988
 31
0.0
  0
LINE
  5
121
  8
VIAS
  6
CONTINUOUS
 10
1081852.1710423799
 20
875657.17018443113
 30
0.0
 11
1081846.8357570211
 21
875625.31601450988
 31
0.0
  0
ENDBLK
  5
123
  8
0
  0
BLOCK
  8
0
  2
*U1
 70
     1
 10
0.0
 20
0.0
 30
0.0
  3
*U1
  1

  0
SOLID
  5
1E2
  8
VIAS
  6
CONTINUOUS
 10
1081098.259641469
 20
876609.95108423161
 30
0.0
 11
1081098.1725653659
 21
876607.89486135205
 31
0.0
 12
1081126.4477806699
 22
876607.89486135205
 32
0.0
 13
1081126.4477806699
 23
876607.89486135205
 33
0.0
210
0.0
220
0.0
230
1.0
  0
SOLID
  5
1E3
  8
VIAS
  6
CONTINUOUS
 10
-1081097.3127150331
 20
876587.59027863899
 30
0.0
 11
-1081125.7534823569
 21
876587.59027863899
 31
0.0
 12
-1081125.6767404899
 22
876585.34598168149
 32
0.0
 13
-1081125.6767404899
 23
876585.34598168149
 33
0.0
210
0.0
220
0.0
230
-1.0
  0
SOLID
  5
1E4
  8
VIAS
  6
CONTINUOUS
 10
1081098.1725653659
 20
876607.89486135205
 30
0.0
 11
1081097.3127150331
 21
876587.59027863899
 31
0.0
 12
1081125.7534823569
 22
876587.59027863899
 32
0.0
 13
1081125.7534823569
 23
876587.59027863899
 33
0.0
210
0.0
220
0.0
230
1.0
  0
SOLID
  5
1E5
  8
VIAS
  6
CONTINUOUS
 10
-1081098.1725653659
 20
876607.89486135205
 30
0.0
 11
-1081126.4477806699
 21
876607.89486135205
 31
0.0
 12
-1081125.7534823569
 22
876587.59027863899
 32
0.0
 13
-1081125.7534823569
 23
876587.59027863899
 33
0.0
210
0.0
220
0.0
230
-1.0
  0
LINE
  5
1E6
  8
VIAS
  6
CONTINUOUS
 10
1081098.259641469
 20
876609.95108423161
 30
0.0
 11
1081098.1725653659
 21
876607.89486135205
 31
0.0
  0
LINE
  5
1E7
  8
VIAS
  6
CONTINUOUS
 10
1081126.4477806699
 20
876607.89486135205
 30
0.0
 11
1081098.259641469
 21
876609.95108423161
 31
0.0
  0
LINE
  5
1E8
  8
VIAS
  6
CONTINUOUS
 10
1081125.7534823569
 20
876587.59027863899
 30
0.0
 11
1081125.6767404899
 21
876585.34598168149
 31
0.0
  0
LINE
  5
1E9
  8
VIAS
  6
CONTINUOUS
 10
1081125.6767404899
 20
876585.34598168149
 30
0.0
 11
1081097.3127150331
 21
876587.59027863899
 31
0.0
  0
LINE
  5
1EA
  8
VIAS
  6
CONTINUOUS
 10
1081098.1725653659
 20
876607.89486135205
 30
0.0
 11
1081097.3127150331
 21
876587.59027863899
 31
0.0
  0
LINE
  5
1EB
  8
VIAS
  6
CONTINUOUS
 10
1081126.4477806699
 20
876607.89486135205
 30
0.0
 11
1081125.7534823569
 21
876587.59027863899
 31
0.0
  0
ENDBLK
  5
1ED
  8
0
  0
BLOCK
  8
0
  2
*U2
 70
     1
 10
0.0
 20
0.0
 30
0.0
  3
*U2
  1

  0
SOLID
  5
1F4
  8
VIAS
  6
CONTINUOUS
 10
1081902.315482504
 20
875691.90704324795
 30
0.0
 11
1081901.5116480079
 21
875687.99424109876
 31
0.0
 12
1081934.8840196209
 22
875687.99424109876
 32
0.0
 13
1081934.8840196209
 23
875687.99424109876
 33
0.0
210
0.0
220
0.0
230
1.0
  0
SOLID
  5
1F5
  8
VIAS
  6
CONTINUOUS
 10
-1081892.2271570361
 20
875642.80039032106
 30
0.0
 11
-1081927.438965719
 21
875642.80039032106
 31
0.0
 12
-1081926.6303455869
 22
875637.89180832065
 32
0.0
 13
-1081926.6303455869
 23
875637.89180832065
 33
0.0
210
0.0
220
0.0
230
-1.0
  0
SOLID
  5
1F6
  8
VIAS
  6
CONTINUOUS
 10
1081901.5116480079
 20
875687.99424109876
 30
0.0
 11
1081892.2271570361
 21
875642.80039032106
 31
0.0
 12
1081927.438965719
 22
875642.80039032106
 32
0.0
 13
1081927.438965719
 23
875642.80039032106
 33
0.0
210
0.0
220
0.0
230
1.0
  0
SOLID
  5
1F7
  8
VIAS
  6
CONTINUOUS
 10
-1081901.5116480079
 20
875687.99424109876
 30
0.0
 11
-1081934.8840196209
 21
875687.99424109876
 31
0.0
 12
-1081927.438965719
 22
875642.80039032106
 32
0.0
 13
-1081927.438965719
 23
875642.80039032106
 33
0.0
210
0.0
220
0.0
230
-1.0
  0
LINE
  5
1F8
  8
VIAS
  6
CONTINUOUS
 10
1081902.315482504
 20
875691.90704324795
 30
0.0
 11
1081901.5116480079
 21
875687.99424109876
 31
0.0
  0
LINE
  5
1F9
  8
VIAS
  6
CONTINUOUS
 10
1081934.8840196209
 20
875687.99424109876
 30
0.0
 11
1081902.315482504
 21
875691.90704324795
 31
0.0
  0
LINE
  5
1FA
  8
VIAS
  6
CONTINUOUS
 10
1081927.438965719
 20
875642.80039032106
 30
0.0
 11
1081926.6303455869
 21
875637.89180832065
 31
0.0
  0
LINE
  5
1FB
  8
VIAS
  6
CONTINUOUS
 10
1081926.6303455869
 20
875637.89180832065
 30
0.0
 11
1081892.2271570361
 21
875642.80039032106
 31
0.0
  0
LINE
  5
1FC
  8
VIAS
  6
CONTINUOUS
 10
1081901.5116480079
 20
875687.99424109876
 30
0.0
 11
1081892.2271570361
 21
875642.80039032106
 31
0.0
  0
LINE
  5
1FD
  8
VIAS
  6
CONTINUOUS
 10
1081934.8840196209
 20
875687.99424109876
 30
0.0
 11
1081927.438965719
 21
875642.80039032106
 31
0.0
  0
ENDBLK
  5
1FF
  8
0
  0
BLOCK
  8
0
  2
*U3
 70
     1
 10
0.0
 20
0.0
 30
0.0
  3
*U3
  1

  0
SOLID
  5
206
  8
VIAS
  6
CONTINUOUS
 10
1081940.0860885889
 20
875814.81845803175
 30
0.0
 11
1081939.952738852
 21
875813.82918364566
 31
0.0
 12
1081969.017173731
 22
875813.82918364566
 32
0.0
 13
1081969.017173731
 23
875813.82918364566
 33
0.0
210
0.0
220
0.0
230
1.0
  0
SOLID
  5
207
  8
VIAS
  6
CONTINUOUS
 10
-1081936.3302741949
 20
875786.95540378743
 30
0.0
 11
-1081968.0982471879
 21
875786.95540378743
 31
0.0
 12
-1081968.061146148
 22
875785.8703930208
 32
0.0
 13
-1081968.061146148
 23
875785.8703930208
 33
0.0
210
0.0
220
0.0
230
-1.0
  0
SOLID
  5
208
  8
VIAS
  6
CONTINUOUS
 10
1081939.952738852
 20
875813.82918364566
 30
0.0
 11
1081936.3302741949
 21
875786.95540378743
 31
0.0
 12
1081968.0982471879
 22
875786.95540378743
 32
0.0
 13
1081968.0982471879
 23
875786.95540378743
 33
0.0
210
0.0
220
0.0
230
1.0
  0
SOLID
  5
209
  8
VIAS
  6
CONTINUOUS
 10
-1081939.952738852
 20
875813.82918364566
 30
0.0
 11
-1081969.017173731
 21
875813.82918364566
 31
0.0
 12
-1081968.0982471879
 22
875786.95540378743
 32
0.0
 13
-1081968.0982471879
 23
875786.95540378743
 33
0.0
210
0.0
220
0.0
230
-1.0
  0
LINE
  5
20A
  8
VIAS
  6
CONTINUOUS
 10
1081940.0860885889
 20
875814.81845803175
 30
0.0
 11
1081939.952738852
 21
875813.82918364566
 31
0.0
  0
LINE
  5
20B
  8
VIAS
  6
CONTINUOUS
 10
1081969.017173731
 20
875813.82918364566
 30
0.0
 11
1081940.0860885889
 21
875814.81845803175
 31
0.0
  0
LINE
  5
20C
  8
VIAS
  6
CONTINUOUS
 10
1081968.0982471879
 20
875786.95540378743
 30
0.0
 11
1081968.061146148
 21
875785.8703930208
 31
0.0
  0
LINE
  5
20D
  8
VIAS
  6
CONTINUOUS
 10
1081968.061146148
 20
875785.8703930208
 30
0.0
 11
1081936.3302741949
 21
875786.95540378743
 31
0.0
  0
LINE
  5
20E
  8
VIAS
  6
CONTINUOUS
 10
1081939.952738852
 20
875813.82918364566
 30
0.0
 11
1081936.3302741949
 21
875786.95540378743
 31
0.0
  0
LINE
  5
20F
  8
VIAS
  6
CONTINUOUS
 10
1081969.017173731
 20
875813.82918364566
 30
0.0
 11
1081968.0982471879
 21
875786.95540378743
 31
0.0
  0
ENDBLK
  5
211
  8
0
  0
BLOCK
  8
0
  2
*U4
 70
     1
 10
0.0
 20
0.0
 30
0.0
  3
*U4
  1

  0
SOLID
  5
21F
  8
VIAS
  6
CONTINUOUS
 10
1080307.8210373351
 20
875320.80832861317
 30
0.0
 11
1080307.5510192721
 21
875306.80511511082
 31
0.0
 12
1080357.636580592
 22
875306.80511511082
 32
0.0
 13
1080357.636580592
 23
875306.80511511082
 33
0.0
210
0.0
220
0.0
230
1.0
  0
SOLID
  5
220
  8
VIAS
  6
CONTINUOUS
 10
-1080307.8210373351
 20
875320.80832861317
 30
0.0
 11
-1080307.8210373351
 21
875320.80832861317
 31
0.0
 12
-1080357.636580592
 22
875306.80511511082
 32
0.0
 13
-1080357.636580592
 23
875306.80511511082
 33
0.0
210
0.0
220
0.0
230
-1.0
  0
SOLID
  5
221
  8
VIAS
  6
CONTINUOUS
 10
1080307.5510192721
 20
875306.80511511082
 30
0.0
 11
1080306.973997724
 21
875276.88061352633
 31
0.0
 12
1080371.123728222
 22
875276.88061352633
 32
0.0
 13
1080371.123728222
 23
875276.88061352633
 33
0.0
  0
SOLID
  5
222
  8
VIAS
  6
CONTINUOUS
 10
-1080307.5510192721
 20
875306.80511511082
 30
0.0
 11
-1080357.636580592
 21
875306.80511511082
 31
0.0
 12
-1080371.123728222
 22
875276.88061352633
 32
0.0
 13
-1080371.123728222
 23
875276.88061352633
 33
0.0
210
0.0
220
0.0
230
-1.0
  0
SOLID
  5
223
  8
VIAS
  6
CONTINUOUS
 10
1080408.447318387
 20
875276.88061352633
 30
0.0
 11
1080371.9471027451
 21
875275.05375784799
 31
0.0
 12
1080408.6813570119
 22
875275.05375784799
 32
0.0
 13
1080408.6813570119
 23
875275.05375784799
 33
0.0
210
0.0
220
0.0
230
1.0
  0
SOLID
  5
224
  8
VIAS
  6
CONTINUOUS
 10
-1080408.447318387
 20
875276.88061352633
 30
0.0
 11
-1080408.4473184031
 21
875276.88061352633
 31
0.0
 12
-1080408.6813570119
 22
875275.05375784799
 32
0.0
 13
-1080408.6813570119
 23
875275.05375784799
 33
0.0
210
0.0
220
0.0
230
-1.0
  0
SOLID
  5
225
  8
VIAS
  6
CONTINUOUS
 10
1080306.973997724
 20
875276.88061352633
 30
0.0
 11
1080306.938771236
 21
875275.05375784799
 31
0.0
 12
1080371.9471027451
 22
875275.05375784799
 32
0.0
 13
1080371.9471027451
 23
875275.05375784799
 33
0.0
210
0.0
220
0.0
230
1.0
  0
SOLID
  5
226
  8
VIAS
  6
CONTINUOUS
 10
-1080306.973997724
 20
875276.88061352633
 30
0.0
 11
-1080371.123728222
 21
875276.88061352633
 31
0.0
 12
-1080371.9471027451
 22
875275.05375784799
 32
0.0
 13
-1080371.9471027451
 23
875275.05375784799
 33
0.0
210
0.0
220
0.0
230
-1.0
  0
SOLID
  5
227
  8
VIAS
  6
CONTINUOUS
 10
-1080388.2155440091
 20
875255.53525776486
 30
0.0
 11
-1080411.181873421
 21
875255.53525776486
 31
0.0
 12
-1080411.282922779
 22
875254.74648793985
 32
0.0
 13
-1080411.282922779
 23
875254.74648793985
 33
0.0
210
0.0
220
0.0
230
-1.0
  0
SOLID
  5
228
  8
VIAS
  6
CONTINUOUS
 10
1080306.938771236
 20
875275.05375784799
 30
0.0
 11
1080306.5624042279
 21
875255.53525776486
 31
0.0
 12
1080411.181873421
 22
875255.53525776486
 32
0.0
 13
1080411.181873421
 23
875255.53525776486
 33
0.0
  0
SOLID
  5
229
  8
VIAS
  6
CONTINUOUS
 10
-1080306.938771236
 20
875275.05375784799
 30
0.0
 11
-1080408.6813570119
 21
875275.05375784799
 31
0.0
 12
-1080411.181873421
 22
875255.53525776486
 32
0.0
 13
-1080411.181873421
 23
875255.53525776486
 33
0.0
210
0.0
220
0.0
230
-1.0
  0
SOLID
  5
22A
  8
VIAS
  6
CONTINUOUS
 10
1080306.5624042279
 20
875255.53525776486
 30
0.0
 11
1080306.5471947121
 21
875254.74648793985
 31
0.0
 12
1080388.2389389761
 22
875254.74648793985
 32
0.0
 13
1080388.2389389761
 23
875254.74648793985
 33
0.0
210
0.0
220
0.0
230
1.0
  0
SOLID
  5
22B
  8
VIAS
  6
CONTINUOUS
 10
-1080306.5624042279
 20
875255.53525776486
 30
0.0
 11
-1080388.2155440091
 21
875255.53525776486
 31
0.0
 12
-1080388.2389389761
 22
875254.74648793985
 32
0.0
 13
-1080388.2389389761
 23
875254.74648793985
 33
0.0
210
0.0
220
0.0
230
-1.0
  0
SOLID
  5
22C
  8
VIAS
  6
CONTINUOUS
 10
1080306.5471947121
 20
875254.74648793985
 30
0.0
 11
1080306.0974707319
 21
875231.42367446981
 31
0.0
 12
1080388.930695215
 22
875231.42367446981
 32
0.0
 13
1080388.930695215
 23
875231.42367446981
 33
0.0
210
0.0
220
0.0
230
1.0
  0
SOLID
  5
22D
  8
VIAS
  6
CONTINUOUS
 10
-1080306.5471947121
 20
875254.74648793985
 30
0.0
 11
-1080388.2389389761
 21
875254.74648793985
 31
0.0
 12
-1080388.930695215
 22
875231.42367446981
 32
0.0
 13
-1080388.930695215
 23
875231.42367446981
 33
0.0
210
0.0
220
0.0
230
-1.0
  0
SOLID
  5
22E
  8
VIAS
  6
CONTINUOUS
 10
1080306.0974707319
 20
875231.42367446981
 30
0.0
 11
1080306.0524425679
 21
875229.08850107738
 31
0.0
 12
1080367.2961055599
 22
875229.08850107738
 32
0.0
 13
1080367.2961055599
 23
875229.08850107738
 33
0.0
210
0.0
220
0.0
230
1.0
  0
SOLID
  5
22F
  8
VIAS
  6
CONTINUOUS
 10
-1080306.0974707319
 20
875231.42367446981
 30
0.0
 11
-1080388.930695215
 21
875231.42367446981
 31
0.0
 12
-1080367.2961055599
 22
875229.08850107738
 32
0.0
 13
-1080367.2961055599
 23
875229.08850107738
 33
0.0
210
0.0
220
0.0
230
-1.0
  0
SOLID
  5
230
  8
VIAS
  6
CONTINUOUS
 10
1080306.0524425679
 20
875229.08850107738
 30
0.0
 11
1080305.795330286
 21
875215.75458502956
 31
0.0
 12
1080337.5873233341
 22
875215.75458502956
 32
0.0
 13
1080337.5873233341
 23
875215.75458502956
 33
0.0
210
0.0
220
0.0
230
1.0
  0
SOLID
  5
231
  8
VIAS
  6
CONTINUOUS
 10
-1080306.0524425679
 20
875229.08850107738
 30
0.0
 11
-1080367.2961055599
 21
875229.08850107738
 31
0.0
 12
-1080337.5873233341
 22
875215.75458502956
 32
0.0
 13
-1080337.5873233341
 23
875215.75458502956
 33
0.0
210
0.0
220
0.0
230
-1.0
  0
SOLID
  5
232
  8
VIAS
  6
CONTINUOUS
 10
-1080304.50281595
 20
875148.72442402865
 30
0.0
 11
-1080331.2139577961
 21
875148.72442402865
 31
0.0
 12
-1080331.17596525
 22
875148.32484762708
 32
0.0
 13
-1080331.17596525
 23
875148.32484762708
 33
0.0
210
0.0
220
0.0
230
-1.0
  0
SOLID
  5
233
  8
VIAS
  6
CONTINUOUS
 10
1080305.795330286
 20
875215.75458502956
 30
0.0
 11
1080304.50281595
 21
875148.72442402865
 31
0.0
 12
1080331.2139577961
 22
875148.72442402865
 32
0.0
 13
1080331.2139577961
 23
875148.72442402865
 33
0.0
210
0.0
220
0.0
230
1.0
  0
SOLID
  5
234
  8
VIAS
  6
CONTINUOUS
 10
-1080305.795330286
 20
875215.75458502956
 30
0.0
 11
-1080337.5873233341
 21
875215.75458502956
 31
0.0
 12
-1080331.2139577961
 22
875148.72442402865
 32
0.0
 13
-1080331.2139577961
 23
875148.72442402865
 33
0.0
210
0.0
220
0.0
230
-1.0
  0
LINE
  5
235
  8
VIAS
  6
CONTINUOUS
 10
1080307.8210373351
 20
875320.80832861317
 30
0.0
 11
1080307.5510192721
 21
875306.80511511082
 31
0.0
  0
LINE
  5
236
  8
VIAS
  6
CONTINUOUS
 10
1080307.8210373351
 20
875320.80832861317
 30
0.0
 11
1080357.636580592
 21
875306.80511511082
 31
0.0
  0
LINE
  5
237
  8
VIAS
  6
CONTINUOUS
 10
1080307.5510192721
 20
875306.80511511082
 30
0.0
 11
1080306.973997724
 21
875276.88061352633
 31
0.0
  0
LINE
  5
238
  8
VIAS
  6
CONTINUOUS
 10
1080357.636580592
 20
875306.80511511082
 30
0.0
 11
1080371.123728222
 21
875276.88061352633
 31
0.0
  0
LINE
  5
239
  8
VIAS
  6
CONTINUOUS
 10
1080408.4473184031
 20
875276.88061352633
 30
0.0
 11
1080408.6813570119
 21
875275.05375784799
 31
0.0
  0
LINE
  5
23A
  8
VIAS
  6
CONTINUOUS
 10
1080306.973997724
 20
875276.88061352633
 30
0.0
 11
1080306.938771236
 21
875275.05375784799
 31
0.0
  0
LINE
  5
23B
  8
VIAS
  6
CONTINUOUS
 10
1080411.181873421
 20
875255.53525776486
 30
0.0
 11
1080411.282922779
 21
875254.74648793985
 31
0.0
  0
LINE
  5
23C
  8
VIAS
  6
CONTINUOUS
 10
1080306.938771236
 20
875275.05375784799
 30
0.0
 11
1080306.5624042279
 21
875255.53525776486
 31
0.0
  0
LINE
  5
23D
  8
VIAS
  6
CONTINUOUS
 10
1080408.6813570119
 20
875275.05375784799
 30
0.0
 11
1080411.181873421
 21
875255.53525776486
 31
0.0
  0
LINE
  5
23E
  8
VIAS
  6
CONTINUOUS
 10
1080306.5624042279
 20
875255.53525776486
 30
0.0
 11
1080306.5471947121
 21
875254.74648793985
 31
0.0
  0
LINE
  5
23F
  8
VIAS
  6
CONTINUOUS
 10
1080306.5471947121
 20
875254.74648793985
 30
0.0
 11
1080306.0974707319
 21
875231.42367446981
 31
0.0
  0
LINE
  5
240
  8
VIAS
  6
CONTINUOUS
 10
1080388.2389389761
 20
875254.74648793985
 30
0.0
 11
1080388.930695215
 21
875231.42367446981
 31
0.0
  0
LINE
  5
241
  8
VIAS
  6
CONTINUOUS
 10
1080306.0974707319
 20
875231.42367446981
 30
0.0
 11
1080306.0524425679
 21
875229.08850107738
 31
0.0
  0
LINE
  5
242
  8
VIAS
  6
CONTINUOUS
 10
1080388.930695215
 20
875231.42367446981
 30
0.0
 11
1080367.2961055599
 21
875229.08850107738
 31
0.0
  0
LINE
  5
243
  8
VIAS
  6
CONTINUOUS
 10
1080306.0524425679
 20
875229.08850107738
 30
0.0
 11
1080305.795330286
 21
875215.75458502956
 31
0.0
  0
LINE
  5
244
  8
VIAS
  6
CONTINUOUS
 10
1080367.2961055599
 20
875229.08850107738
 30
0.0
 11
1080337.5873233341
 21
875215.75458502956
 31
0.0
  0
LINE
  5
245
  8
VIAS
  6
CONTINUOUS
 10
1080331.2139577961
 20
875148.72442402865
 30
0.0
 11
1080331.17596525
 21
875148.32484762708
 31
0.0
  0
LINE
  5
246
  8
VIAS
  6
CONTINUOUS
 10
1080331.17596525
 20
875148.32484762708
 30
0.0
 11
1080304.50281595
 21
875148.72442402865
 31
0.0
  0
LINE
  5
247
  8
VIAS
  6
CONTINUOUS
 10
1080305.795330286
 20
875215.75458502956
 30
0.0
 11
1080304.50281595
 21
875148.72442402865
 31
0.0
  0
LINE
  5
248
  8
VIAS
  6
CONTINUOUS
 10
1080337.5873233341
 20
875215.75458502956
 30
0.0
 11
1080331.2139577961
 21
875148.72442402865
 31
0.0
  0
ENDBLK
  5
24A
  8
0
  0
BLOCK
  8
0
  2
*U5
 70
     1
 10
0.0
 20
0.0
 30
0.0
  3
*U5
  1

  0
SOLID
  5
253
  8
VIAS
  6
CONTINUOUS
 10
1081235.4501910829
 20
875969.24139930843
 30
0.0
 11
1081232.69699031
 21
875968.50368138473
 31
0.0
 12
1081238.203391856
 22
875968.50368138473
 32
0.0
 13
1081238.203391856
 23
875968.50368138473
 33
0.0
210
0.0
220
0.0
230
1.0
  0
SOLID
  5
254
  8
VIAS
  6
CONTINUOUS
 10
1081232.69699031
 20
875968.50368138473
 30
0.0
 11
1081230.681507461
 21
875966.48819853563
 31
0.0
 12
1081240.218874705
 22
875966.48819853563
 32
0.0
 13
1081240.218874705
 23
875966.48819853563
 33
0.0
210
0.0
220
0.0
230
1.0
  0
SOLID
  5
255
  8
VIAS
  6
CONTINUOUS
 10
-1081232.69699031
 20
875968.50368138473
 30
0.0
 11
-1081238.203391856
 21
875968.50368138473
 31
0.0
 12
-1081240.218874705
 22
875966.48819853563
 32
0.0
 13
-1081240.218874705
 23
875966.48819853563
 33
0.0
210
0.0
220
0.0
230
-1.0
  0
SOLID
  5
256
  8
VIAS
  6
CONTINUOUS
 10
1081230.681507461
 20
875966.48819853563
 30
0.0
 11
1081229.9437895371
 21
875963.73499776283
 31
0.0
 12
1081240.956592628
 22
875963.73499776283
 32
0.0
 13
1081240.956592628
 23
875963.73499776283
 33
0.0
210
0.0
220
0.0
230
1.0
  0
SOLID
  5
257
  8
VIAS
  6
CONTINUOUS
 10
-1081230.681507461
 20
875966.48819853563
 30
0.0
 11
-1081240.218874705
 21
875966.48819853563
 31
0.0
 12
-1081240.956592628
 22
875963.73499776283
 32
0.0
 13
-1081240.956592628
 23
875963.73499776283
 33
0.0
210
0.0
220
0.0
230
-1.0
  0
SOLID
  5
258
  8
VIAS
  6
CONTINUOUS
 10
1081229.9437895371
 20
875963.73499776283
 30
0.0
 11
1081230.681507461
 21
875960.98179699003
 31
0.0
 12
1081240.218874705
 22
875960.98179699003
 32
0.0
 13
1081240.218874705
 23
875960.98179699003
 33
0.0
210
0.0
220
0.0
230
1.0
  0
SOLID
  5
259
  8
VIAS
  6
CONTINUOUS
 10
-1081229.9437895371
 20
875963.73499776283
 30
0.0
 11
-1081240.956592628
 21
875963.73499776283
 31
0.0
 12
-1081240.218874705
 22
875960.98179699003
 32
0.0
 13
-1081240.218874705
 23
875960.98179699003
 33
0.0
210
0.0
220
0.0
230
-1.0
  0
SOLID
  5
25A
  8
VIAS
  6
CONTINUOUS
 10
-1081232.69699031
 20
875958.96631414106
 30
0.0
 11
-1081238.2033918549
 21
875958.96631414106
 31
0.0
 12
-1081235.4501910829
 22
875958.22859621735
 32
0.0
 13
-1081235.4501910829
 23
875958.22859621735
 33
0.0
210
0.0
220
0.0
230
-1.0
  0
SOLID
  5
25B
  8
VIAS
  6
CONTINUOUS
 10
1081230.681507461
 20
875960.98179699003
 30
0.0
 11
1081232.69699031
 21
875958.96631414106
 31
0.0
 12
1081238.2033918549
 22
875958.96631414106
 32
0.0
 13
1081238.2033918549
 23
875958.96631414106
 33
0.0
210
0.0
220
0.0
230
1.0
  0
SOLID
  5
25C
  8
VIAS
  6
CONTINUOUS
 10
-1081230.681507461
 20
875960.98179699003
 30
0.0
 11
-1081240.218874705
 21
875960.98179699003
 31
0.0
 12
-1081238.2033918549
 22
875958.96631414106
 32
0.0
 13
-1081238.2033918549
 23
875958.96631414106
 33
0.0
210
0.0
220
0.0
230
-1.0
  0
SOLID
  5
25D
  8
VIAS
  6
CONTINUOUS
 10
1081031.6766128391
 20
875835.55530350411
 30
0.0
 11
1081028.7564024341
 21
875834.3457127494
 31
0.0
 12
1081034.596823243
 22
875834.3457127494
 32
0.0
 13
1081034.596823243
 23
875834.3457127494
 33
0.0
210
0.0
220
0.0
230
1.0
  0
SOLID
  5
25E
  8
VIAS
  6
CONTINUOUS
 10
1081028.7564024341
 20
875834.3457127494
 30
0.0
 11
1081027.5468116801
 21
875831.42550234485
 31
0.0
 12
1081035.8064139979
 22
875831.42550234485
 32
0.0
 13
1081035.8064139979
 23
875831.42550234485
 33
0.0
210
0.0
220
0.0
230
1.0
  0
SOLID
  5
25F
  8
VIAS
  6
CONTINUOUS
 10
-1081028.7564024341
 20
875834.3457127494
 30
0.0
 11
-1081034.596823243
 21
875834.3457127494
 31
0.0
 12
-1081035.8064139979
 22
875831.42550234485
 32
0.0
 13
-1081035.8064139979
 23
875831.42550234485
 33
0.0
210
0.0
220
0.0
230
-1.0
  0
SOLID
  5
260
  8
VIAS
  6
CONTINUOUS
 10
-1081028.7564024341
 20
875828.50529194006
 30
0.0
 11
-1081034.596823243
 21
875828.50529194006
 31
0.0
 12
-1081031.6766128391
 22
875827.29570118536
 32
0.0
 13
-1081031.6766128391
 23
875827.29570118536
 33
0.0
210
0.0
220
0.0
230
-1.0
  0
SOLID
  5
261
  8
VIAS
  6
CONTINUOUS
 10
1081027.5468116801
 20
875831.42550234485
 30
0.0
 11
1081028.7564024341
 21
875828.50529194006
 31
0.0
 12
1081034.596823243
 22
875828.50529194006
 32
0.0
 13
1081034.596823243
 23
875828.50529194006
 33
0.0
210
0.0
220
0.0
230
1.0
  0
SOLID
  5
262
  8
VIAS
  6
CONTINUOUS
 10
-1081027.5468116801
 20
875831.42550234485
 30
0.0
 11
-1081035.8064139979
 21
875831.42550234485
 31
0.0
 12
-1081034.596823243
 22
875828.50529194006
 32
0.0
 13
-1081034.596823243
 23
875828.50529194006
 33
0.0
210
0.0
220
0.0
230
-1.0
  0
SOLID
  5
263
  8
VIAS
  6
CONTINUOUS
 10
1080904.543720972
 20
875797.27383672749
 30
0.0
 11
1080899.1936936229
 21
875796.20965012198
 31
0.0
 12
1080909.8937483199
 22
875796.20965012198
 32
0.0
 13
1080909.8937483199
 23
875796.20965012198
 33
0.0
210
0.0
220
0.0
230
1.0
  0
SOLID
  5
264
  8
VIAS
  6
CONTINUOUS
 10
1080899.1936936229
 20
875796.20965012198
 30
0.0
 11
1080894.658159439
 21
875793.17910306901
 31
0.0
 12
1080914.4292825039
 22
875793.17910306901
 32
0.0
 13
1080914.4292825039
 23
875793.17910306901
 33
0.0
210
0.0
220
0.0
230
1.0
  0
SOLID
  5
265
  8
VIAS
  6
CONTINUOUS
 10
-1080899.1936936229
 20
875796.20965012198
 30
0.0
 11
-1080909.8937483199
 21
875796.20965012198
 31
0.0
 12
-1080914.4292825039
 22
875793.17910306901
 32
0.0
 13
-1080914.4292825039
 23
875793.17910306901
 33
0.0
210
0.0
220
0.0
230
-1.0
  0
SOLID
  5
266
  8
VIAS
  6
CONTINUOUS
 10
1080894.658159439
 20
875793.17910306901
 30
0.0
 11
1080891.6276123871
 21
875788.64356888598
 31
0.0
 12
1080917.4598295561
 22
875788.64356888598
 32
0.0
 13
1080917.4598295561
 23
875788.64356888598
 33
0.0
210
0.0
220
0.0
230
1.0
  0
SOLID
  5
267
  8
VIAS
  6
CONTINUOUS
 10
-1080894.658159439
 20
875793.17910306901
 30
0.0
 11
-1080914.4292825039
 21
875793.17910306901
 31
0.0
 12
-1080917.4598295561
 22
875788.64356888598
 32
0.0
 13
-1080917.4598295561
 23
875788.64356888598
 33
0.0
210
0.0
220
0.0
230
-1.0
  0
SOLID
  5
268
  8
VIAS
  6
CONTINUOUS
 10
1081049.5225834569
 20
875783.87627399573
 30
0.0
 11
1081046.5929895539
 21
875783.29354153702
 31
0.0
 12
1081052.4521773609
 22
875783.29354153702
 32
0.0
 13
1081052.4521773609
 23
875783.29354153702
 33
0.0
210
0.0
220
0.0
230
1.0
  0
SOLID
  5
269
  8
VIAS
  6
CONTINUOUS
 10
1080891.6276123871
 20
875788.64356888598
 30
0.0
 11
1080890.563425781
 21
875783.29354153702
 31
0.0
 12
1080918.5240161619
 22
875783.29354153702
 32
0.0
 13
1080918.5240161619
 23
875783.29354153702
 33
0.0
210
0.0
220
0.0
230
1.0
  0
SOLID
  5
26A
  8
VIAS
  6
CONTINUOUS
 10
-1080891.6276123871
 20
875788.64356888598
 30
0.0
 11
-1080917.4598295561
 21
875788.64356888598
 31
0.0
 12
-1080918.5240161619
 22
875783.29354153702
 32
0.0
 13
-1080918.5240161619
 23
875783.29354153702
 33
0.0
210
0.0
220
0.0
230
-1.0
  0
SOLID
  5
26B
  8
VIAS
  6
CONTINUOUS
 10
1081046.5929895539
 20
875783.29354153702
 30
0.0
 11
1081046.0983694119
 21
875783.19515547354
 31
0.0
 12
1081052.9467975029
 22
875783.19515547354
 32
0.0
 13
1081052.9467975029
 23
875783.19515547354
 33
0.0
  0
SOLID
  5
26C
  8
VIAS
  6
CONTINUOUS
 10
-1081046.5929895539
 20
875783.29354153702
 30
0.0
 11
-1081052.4521773609
 21
875783.29354153702
 31
0.0
 12
-1081052.9467975029
 22
875783.19515547354
 32
0.0
 13
-1081052.9467975029
 23
875783.19515547354
 33
0.0
210
0.0
220
0.0
230
-1.0
  0
SOLID
  5
26D
  8
VIAS
  6
CONTINUOUS
 10
1081046.0983694119
 20
875783.19515547354
 30
0.0
 11
1081043.1954609139
 21
875781.2554940274
 31
0.0
 12
1081055.8497060011
 22
875781.2554940274
 32
0.0
 13
1081055.8497060011
 23
875781.2554940274
 33
0.0
210
0.0
220
0.0
230
1.0
  0
SOLID
  5
26E
  8
VIAS
  6
CONTINUOUS
 10
-1081046.0983694119
 20
875783.19515547354
 30
0.0
 11
-1081052.9467975029
 21
875783.19515547354
 31
0.0
 12
-1081055.8497060011
 22
875781.2554940274
 32
0.0
 13
-1081055.8497060011
 23
875781.2554940274
 33
0.0
210
0.0
220
0.0
230
-1.0
  0
SOLID
  5
26F
  8
VIAS
  6
CONTINUOUS
 10
1081043.1954609139
 20
875781.2554940274
 30
0.0
 11
1081041.2557994679
 21
875778.35258552956
 31
0.0
 12
1081057.7893674469
 22
875778.35258552956
 32
0.0
 13
1081057.7893674469
 23
875778.35258552956
 33
0.0
210
0.0
220
0.0
230
1.0
  0
SOLID
  5
270
  8
VIAS
  6
CONTINUOUS
 10
-1081043.1954609139
 20
875781.2554940274
 30
0.0
 11
-1081055.8497060011
 21
875781.2554940274
 31
0.0
 12
-1081057.7893674469
 22
875778.35258552956
 32
0.0
 13
-1081057.7893674469
 23
875778.35258552956
 33
0.0
210
0.0
220
0.0
230
-1.0
  0
SOLID
  5
271
  8
VIAS
  6
CONTINUOUS
 10
1080890.563425781
 20
875783.29354153702
 30
0.0
 11
1080891.6276123871
 21
875777.94351418805
 31
0.0
 12
1080917.4598295561
 22
875777.94351418805
 32
0.0
 13
1080917.4598295561
 23
875777.94351418805
 33
0.0
210
0.0
220
0.0
230
1.0
  0
SOLID
  5
272
  8
VIAS
  6
CONTINUOUS
 10
-1080890.563425781
 20
875783.29354153702
 30
0.0
 11
-1080918.5240161619
 21
875783.29354153702
 31
0.0
 12
-1080917.4598295561
 22
875777.94351418805
 32
0.0
 13
-1080917.4598295561
 23
875777.94351418805
 33
0.0
210
0.0
220
0.0
230
-1.0
  0
SOLID
  5
273
  8
VIAS
  6
CONTINUOUS
 10
1081041.2557994679
 20
875778.35258552956
 30
0.0
 11
1081040.5746809461
 21
875774.92837148404
 31
0.0
 12
1081058.470485969
 22
875774.92837148404
 32
0.0
 13
1081058.470485969
 23
875774.92837148404
 33
0.0
210
0.0
220
0.0
230
1.0
  0
SOLID
  5
274
  8
VIAS
  6
CONTINUOUS
 10
-1081041.2557994679
 20
875778.35258552956
 30
0.0
 11
-1081057.7893674469
 21
875778.35258552956
 31
0.0
 12
-1081058.470485969
 22
875774.92837148404
 32
0.0
 13
-1081058.470485969
 23
875774.92837148404
 33
0.0
210
0.0
220
0.0
230
-1.0
  0
SOLID
  5
275
  8
VIAS
  6
CONTINUOUS
 10
1080891.6276123871
 20
875777.94351418805
 30
0.0
 11
1080894.658159439
 21
875773.40798000502
 31
0.0
 12
1080914.4292825039
 22
875773.40798000502
 32
0.0
 13
1080914.4292825039
 23
875773.40798000502
 33
0.0
210
0.0
220
0.0
230
1.0
  0
SOLID
  5
276
  8
VIAS
  6
CONTINUOUS
 10
-1080891.6276123871
 20
875777.94351418805
 30
0.0
 11
-1080917.4598295561
 21
875777.94351418805
 31
0.0
 12
-1080914.4292825039
 22
875773.40798000502
 32
0.0
 13
-1080914.4292825039
 23
875773.40798000502
 33
0.0
210
0.0
220
0.0
230
-1.0
  0
SOLID
  5
277
  8
VIAS
  6
CONTINUOUS
 10
1081040.5746809461
 20
875774.92837148404
 30
0.0
 11
1081041.2557994679
 21
875771.50415743841
 31
0.0
 12
1081057.7893674469
 22
875771.50415743841
 32
0.0
 13
1081057.7893674469
 23
875771.50415743841
 33
0.0
210
0.0
220
0.0
230
1.0
  0
SOLID
  5
278
  8
VIAS
  6
CONTINUOUS
 10
-1081040.5746809461
 20
875774.92837148404
 30
0.0
 11
-1081058.470485969
 21
875774.92837148404
 31
0.0
 12
-1081057.7893674469
 22
875771.50415743841
 32
0.0
 13
-1081057.7893674469
 23
875771.50415743841
 33
0.0
210
0.0
220
0.0
230
-1.0
  0
SOLID
  5
279
  8
VIAS
  6
CONTINUOUS
 10
-1080899.1936936229
 20
875770.37743295217
 30
0.0
 11
-1080909.8937483199
 21
875770.37743295217
 31
0.0
 12
-1080904.543720972
 22
875769.31324634666
 32
0.0
 13
-1080904.543720972
 23
875769.31324634666
 33
0.0
210
0.0
220
0.0
230
-1.0
  0
SOLID
  5
27A
  8
VIAS
  6
CONTINUOUS
 10
1080894.658159439
 20
875773.40798000502
 30
0.0
 11
1080899.1936936229
 21
875770.37743295217
 31
0.0
 12
1080909.8937483199
 22
875770.37743295217
 32
0.0
 13
1080909.8937483199
 23
875770.37743295217
 33
0.0
  0
SOLID
  5
27B
  8
VIAS
  6
CONTINUOUS
 10
-1080894.658159439
 20
875773.40798000502
 30
0.0
 11
-1080914.4292825039
 21
875773.40798000502
 31
0.0
 12
-1080909.8937483199
 22
875770.37743295217
 32
0.0
 13
-1080909.8937483199
 23
875770.37743295217
 33
0.0
210
0.0
220
0.0
230
-1.0
  0
SOLID
  5
27C
  8
VIAS
  6
CONTINUOUS
 10
1081041.2557994679
 20
875771.50415743841
 30
0.0
 11
1081043.1954609139
 21
875768.60124894057
 31
0.0
 12
1081055.8497060011
 22
875768.60124894057
 32
0.0
 13
1081055.8497060011
 23
875768.60124894057
 33
0.0
210
0.0
220
0.0
230
1.0
  0
SOLID
  5
27D
  8
VIAS
  6
CONTINUOUS
 10
-1081041.2557994679
 20
875771.50415743841
 30
0.0
 11
-1081057.7893674469
 21
875771.50415743841
 31
0.0
 12
-1081055.8497060011
 22
875768.60124894057
 32
0.0
 13
-1081055.8497060011
 23
875768.60124894057
 33
0.0
210
0.0
220
0.0
230
-1.0
  0
SOLID
  5
27E
  8
VIAS
  6
CONTINUOUS
 10
-1081046.0983694119
 20
875766.66158749443
 30
0.0
 11
-1081052.9467975029
 21
875766.66158749443
 31
0.0
 12
-1081049.5225834569
 22
875765.98046897212
 32
0.0
 13
-1081049.5225834569
 23
875765.98046897212
 33
0.0
210
0.0
220
0.0
230
-1.0
  0
SOLID
  5
27F
  8
VIAS
  6
CONTINUOUS
 10
1081043.1954609139
 20
875768.60124894057
 30
0.0
 11
1081046.0983694119
 21
875766.66158749443
 31
0.0
 12
1081052.9467975029
 22
875766.66158749443
 32
0.0
 13
1081052.9467975029
 23
875766.66158749443
 33
0.0
210
0.0
220
0.0
230
1.0
  0
SOLID
  5
280
  8
VIAS
  6
CONTINUOUS
 10
-1081043.1954609139
 20
875768.60124894057
 30
0.0
 11
-1081055.8497060011
 21
875768.60124894057
 31
0.0
 12
-1081052.9467975029
 22
875766.66158749443
 32
0.0
 13
-1081052.9467975029
 23
875766.66158749443
 33
0.0
210
0.0
220
0.0
230
-1.0
  0
LINE
  5
281
  8
VIAS
  6
CONTINUOUS
 10
1081235.4501910829
 20
875969.24139930843
 30
0.0
 11
1081232.69699031
 21
875968.50368138473
 31
0.0
  0
LINE
  5
282
  8
VIAS
  6
CONTINUOUS
 10
1081238.203391856
 20
875968.50368138473
 30
0.0
 11
1081235.4501910829
 21
875969.24139930843
 31
0.0
  0
LINE
  5
283
  8
VIAS
  6
CONTINUOUS
 10
1081232.69699031
 20
875968.50368138473
 30
0.0
 11
1081230.681507461
 21
875966.48819853563
 31
0.0
  0
LINE
  5
284
  8
VIAS
  6
CONTINUOUS
 10
1081238.203391856
 20
875968.50368138473
 30
0.0
 11
1081240.218874705
 21
875966.48819853563
 31
0.0
  0
LINE
  5
285
  8
VIAS
  6
CONTINUOUS
 10
1081230.681507461
 20
875966.48819853563
 30
0.0
 11
1081229.9437895371
 21
875963.73499776283
 31
0.0
  0
LINE
  5
286
  8
VIAS
  6
CONTINUOUS
 10
1081240.218874705
 20
875966.48819853563
 30
0.0
 11
1081240.956592628
 21
875963.73499776283
 31
0.0
  0
LINE
  5
287
  8
VIAS
  6
CONTINUOUS
 10
1081229.9437895371
 20
875963.73499776283
 30
0.0
 11
1081230.681507461
 21
875960.98179699003
 31
0.0
  0
LINE
  5
288
  8
VIAS
  6
CONTINUOUS
 10
1081240.956592628
 20
875963.73499776283
 30
0.0
 11
1081240.218874705
 21
875960.98179699003
 31
0.0
  0
LINE
  5
289
  8
VIAS
  6
CONTINUOUS
 10
1081238.2033918549
 20
875958.96631414106
 30
0.0
 11
1081235.4501910829
 21
875958.22859621735
 31
0.0
  0
LINE
  5
28A
  8
VIAS
  6
CONTINUOUS
 10
1081235.4501910829
 20
875958.22859621735
 30
0.0
 11
1081232.69699031
 21
875958.96631414106
 31
0.0
  0
LINE
  5
28B
  8
VIAS
  6
CONTINUOUS
 10
1081230.681507461
 20
875960.98179699003
 30
0.0
 11
1081232.69699031
 21
875958.96631414106
 31
0.0
  0
LINE
  5
28C
  8
VIAS
  6
CONTINUOUS
 10
1081240.218874705
 20
875960.98179699003
 30
0.0
 11
1081238.2033918549
 21
875958.96631414106
 31
0.0
  0
LINE
  5
28D
  8
VIAS
  6
CONTINUOUS
 10
1081031.6766128391
 20
875835.55530350411
 30
0.0
 11
1081028.7564024341
 21
875834.3457127494
 31
0.0
  0
LINE
  5
28E
  8
VIAS
  6
CONTINUOUS
 10
1081034.596823243
 20
875834.3457127494
 30
0.0
 11
1081031.6766128391
 21
875835.55530350411
 31
0.0
  0
LINE
  5
28F
  8
VIAS
  6
CONTINUOUS
 10
1081028.7564024341
 20
875834.3457127494
 30
0.0
 11
1081027.5468116801
 21
875831.42550234485
 31
0.0
  0
LINE
  5
290
  8
VIAS
  6
CONTINUOUS
 10
1081034.596823243
 20
875834.3457127494
 30
0.0
 11
1081035.8064139979
 21
875831.42550234485
 31
0.0
  0
LINE
  5
291
  8
VIAS
  6
CONTINUOUS
 10
1081034.596823243
 20
875828.50529194006
 30
0.0
 11
1081031.6766128391
 21
875827.29570118536
 31
0.0
  0
LINE
  5
292
  8
VIAS
  6
CONTINUOUS
 10
1081031.6766128391
 20
875827.29570118536
 30
0.0
 11
1081028.7564024341
 21
875828.50529194006
 31
0.0
  0
LINE
  5
293
  8
VIAS
  6
CONTINUOUS
 10
1081027.5468116801
 20
875831.42550234485
 30
0.0
 11
1081028.7564024341
 21
875828.50529194006
 31
0.0
  0
LINE
  5
294
  8
VIAS
  6
CONTINUOUS
 10
1081035.8064139979
 20
875831.42550234485
 30
0.0
 11
1081034.596823243
 21
875828.50529194006
 31
0.0
  0
LINE
  5
295
  8
VIAS
  6
CONTINUOUS
 10
1080904.543720972
 20
875797.27383672749
 30
0.0
 11
1080899.1936936229
 21
875796.20965012198
 31
0.0
  0
LINE
  5
296
  8
VIAS
  6
CONTINUOUS
 10
1080909.8937483199
 20
875796.20965012198
 30
0.0
 11
1080904.543720972
 21
875797.27383672749
 31
0.0
  0
LINE
  5
297
  8
VIAS
  6
CONTINUOUS
 10
1080899.1936936229
 20
875796.20965012198
 30
0.0
 11
1080894.658159439
 21
875793.17910306901
 31
0.0
  0
LINE
  5
298
  8
VIAS
  6
CONTINUOUS
 10
1080909.8937483199
 20
875796.20965012198
 30
0.0
 11
1080914.4292825039
 21
875793.17910306901
 31
0.0
  0
LINE
  5
299
  8
VIAS
  6
CONTINUOUS
 10
1080894.658159439
 20
875793.17910306901
 30
0.0
 11
1080891.6276123871
 21
875788.64356888598
 31
0.0
  0
LINE
  5
29A
  8
VIAS
  6
CONTINUOUS
 10
1080914.4292825039
 20
875793.17910306901
 30
0.0
 11
1080917.4598295561
 21
875788.64356888598
 31
0.0
  0
LINE
  5
29B
  8
VIAS
  6
CONTINUOUS
 10
1081049.5225834569
 20
875783.87627399573
 30
0.0
 11
1081046.5929895539
 21
875783.29354153702
 31
0.0
  0
LINE
  5
29C
  8
VIAS
  6
CONTINUOUS
 10
1081052.4521773609
 20
875783.29354153702
 30
0.0
 11
1081049.5225834569
 21
875783.87627399573
 31
0.0
  0
LINE
  5
29D
  8
VIAS
  6
CONTINUOUS
 10
1080891.6276123871
 20
875788.64356888598
 30
0.0
 11
1080890.563425781
 21
875783.29354153702
 31
0.0
  0
LINE
  5
29E
  8
VIAS
  6
CONTINUOUS
 10
1080917.4598295561
 20
875788.64356888598
 30
0.0
 11
1080918.5240161619
 21
875783.29354153702
 31
0.0
  0
LINE
  5
29F
  8
VIAS
  6
CONTINUOUS
 10
1081046.5929895539
 20
875783.29354153702
 30
0.0
 11
1081046.0983694119
 21
875783.19515547354
 31
0.0
  0
LINE
  5
2A0
  8
VIAS
  6
CONTINUOUS
 10
1081052.4521773609
 20
875783.29354153702
 30
0.0
 11
1081052.9467975029
 21
875783.19515547354
 31
0.0
  0
LINE
  5
2A1
  8
VIAS
  6
CONTINUOUS
 10
1081046.0983694119
 20
875783.19515547354
 30
0.0
 11
1081043.1954609139
 21
875781.2554940274
 31
0.0
  0
LINE
  5
2A2
  8
VIAS
  6
CONTINUOUS
 10
1081052.9467975029
 20
875783.19515547354
 30
0.0
 11
1081055.8497060011
 21
875781.2554940274
 31
0.0
  0
LINE
  5
2A3
  8
VIAS
  6
CONTINUOUS
 10
1081043.1954609139
 20
875781.2554940274
 30
0.0
 11
1081041.2557994679
 21
875778.35258552956
 31
0.0
  0
LINE
  5
2A4
  8
VIAS
  6
CONTINUOUS
 10
1081055.8497060011
 20
875781.2554940274
 30
0.0
 11
1081057.7893674469
 21
875778.35258552956
 31
0.0
  0
LINE
  5
2A5
  8
VIAS
  6
CONTINUOUS
 10
1080890.563425781
 20
875783.29354153702
 30
0.0
 11
1080891.6276123871
 21
875777.94351418805
 31
0.0
  0
LINE
  5
2A6
  8
VIAS
  6
CONTINUOUS
 10
1080918.5240161619
 20
875783.29354153702
 30
0.0
 11
1080917.4598295561
 21
875777.94351418805
 31
0.0
  0
LINE
  5
2A7
  8
VIAS
  6
CONTINUOUS
 10
1081041.2557994679
 20
875778.35258552956
 30
0.0
 11
1081040.5746809461
 21
875774.92837148404
 31
0.0
  0
LINE
  5
2A8
  8
VIAS
  6
CONTINUOUS
 10
1081057.7893674469
 20
875778.35258552956
 30
0.0
 11
1081058.470485969
 21
875774.92837148404
 31
0.0
  0
LINE
  5
2A9
  8
VIAS
  6
CONTINUOUS
 10
1080891.6276123871
 20
875777.94351418805
 30
0.0
 11
1080894.658159439
 21
875773.40798000502
 31
0.0
  0
LINE
  5
2AA
  8
VIAS
  6
CONTINUOUS
 10
1080917.4598295561
 20
875777.94351418805
 30
0.0
 11
1080914.4292825039
 21
875773.40798000502
 31
0.0
  0
LINE
  5
2AB
  8
VIAS
  6
CONTINUOUS
 10
1081040.5746809461
 20
875774.92837148404
 30
0.0
 11
1081041.2557994679
 21
875771.50415743841
 31
0.0
  0
LINE
  5
2AC
  8
VIAS
  6
CONTINUOUS
 10
1081058.470485969
 20
875774.92837148404
 30
0.0
 11
1081057.7893674469
 21
875771.50415743841
 31
0.0
  0
LINE
  5
2AD
  8
VIAS
  6
CONTINUOUS
 10
1080909.8937483199
 20
875770.37743295217
 30
0.0
 11
1080904.543720972
 21
875769.31324634666
 31
0.0
  0
LINE
  5
2AE
  8
VIAS
  6
CONTINUOUS
 10
1080904.543720972
 20
875769.31324634666
 30
0.0
 11
1080899.1936936229
 21
875770.37743295217
 31
0.0
  0
LINE
  5
2AF
  8
VIAS
  6
CONTINUOUS
 10
1080894.658159439
 20
875773.40798000502
 30
0.0
 11
1080899.1936936229
 21
875770.37743295217
 31
0.0
  0
LINE
  5
2B0
  8
VIAS
  6
CONTINUOUS
 10
1080914.4292825039
 20
875773.40798000502
 30
0.0
 11
1080909.8937483199
 21
875770.37743295217
 31
0.0
  0
LINE
  5
2B1
  8
VIAS
  6
CONTINUOUS
 10
1081041.2557994679
 20
875771.50415743841
 30
0.0
 11
1081043.1954609139
 21
875768.60124894057
 31
0.0
  0
LINE
  5
2B2
  8
VIAS
  6
CONTINUOUS
 10
1081057.7893674469
 20
875771.50415743841
 30
0.0
 11
1081055.8497060011
 21
875768.60124894057
 31
0.0
  0
LINE
  5
2B3
  8
VIAS
  6
CONTINUOUS
 10
1081052.9467975029
 20
875766.66158749443
 30
0.0
 11
1081049.5225834569
 21
875765.98046897212
 31
0.0
  0
LINE
  5
2B4
  8
VIAS
  6
CONTINUOUS
 10
1081049.5225834569
 20
875765.98046897212
 30
0.0
 11
1081046.0983694119
 21
875766.66158749443
 31
0.0
  0
LINE
  5
2B5
  8
VIAS
  6
CONTINUOUS
 10
1081043.1954609139
 20
875768.60124894057
 30
0.0
 11
1081046.0983694119
 21
875766.66158749443
 31
0.0
  0
LINE
  5
2B6
  8
VIAS
  6
CONTINUOUS
 10
1081055.8497060011
 20
875768.60124894057
 30
0.0
 11
1081052.9467975029
 21
875766.66158749443
 31
0.0
  0
ENDBLK
  5
2B8
  8
0
  0
ENDSEC
  0
SECTION
  2
ENTITIES
  0
POLYLINE
  5
71
  8
UNIDAD
 66
     1
 10
0.0
 20
0.0
 30
0.0
 70
     1
  0
VERTEX
  5
10D
  8
UNIDAD
 10
1078880.0
 20
874630.0
 30
0.0
  0
VERTEX
  5
10E
  8
UNIDAD
 10
1082941.4952671011
 20
874630.0
 30
0.0
  0
VERTEX
  5
10F
  8
UNIDAD
 10
1082940.7790909631
 20
877100.0
 30
0.0
  0
VERTEX
  5
110
  8
UNIDAD
 10
1078880.0
 20
877100.0
 30
0.0
  0
SEQEND
  5
111
  8
UNIDAD
  0
TEXT
  5
72
  8
UNIDAD
 10
1080462.117537942
 20
875615.89691059617
 30
0.0
 40
40.0
  1
60
  0
TEXT
  5
73
  8
UNIDAD
 10
1080345.5795699251
 20
875619.22246231663
 30
0.0
 40
40.0
  1
59
  0
TEXT
  5
74
  8
UNIDAD
 10
1080185.7524700051
 20
875625.87356575672
 30
0.0
 40
40.0
  1
58
  0
TEXT
  5
75
  8
UNIDAD
 10
1080189.077324999
 20
875798.80018707877
 30
0.0
 40
40.0
  1
57
  0
TEXT
  5
76
  8
UNIDAD
 10
1079949.339675891
 20
875632.52466919704
 30
0.0
 40
40.0
  1
56
  0
TEXT
  5
77
  8
UNIDAD
 10
1079952.6705324301
 20
875808.77684223931
 30
0.0
 40
40.0
  1
55
  0
TEXT
  5
78
  8
UNIDAD
 10
1079626.354619514
 20
875728.96360095416
 30
0.0
 40
40.0
  1
54
  0
TEXT
  5
79
  8
UNIDAD
 10
1079646.3277556531
 20
875915.19449728634
 30
0.0
 40
40.0
  1
53
  0
TEXT
  5
7A
  8
UNIDAD
 10
1079969.318813574
 20
876004.98439373216
 30
0.0
 40
40.0
  1
52
  0
TEXT
  5
7B
  8
UNIDAD
 10
1080219.0490322961
 20
875995.00773857115
 30
0.0
 40
40.0
  1
51
  0
TEXT
  5
7C
  8
UNIDAD
 10
1080422.1652641189
 20
875995.00773857115
 30
0.0
 40
40.0
  1
50
  0
TEXT
  5
7D
  8
UNIDAD
 10
1081351.8043230211
 20
876617.58907417255
 30
0.0
 40
40.0
  1
50
  0
TEXT
  5
7E
  8
UNIDAD
 10
1081214.440999714
 20
876521.87191949878
 30
0.0
 40
40.0
  1
49
  0
TEXT
  5
7F
  8
UNIDAD
 10
1081351.8043230211
 20
876504.32384341292
 30
0.0
 40
40.0
  1
48
  0
TEXT
  5
80
  8
UNIDAD
 10
1081326.2497516021
 20
876357.55905620847
 30
0.0
 40
40.0
  1
47
  0
TEXT
  5
81
  8
UNIDAD
 10
1081200.0613019411
 20
876363.93923472671
 30
0.0
 40
40.0
  1
46
  0
TEXT
  5
82
  8
UNIDAD
 10
1081086.656139533
 20
876370.32148137363
 30
0.0
 40
40.0
  1
45
  0
TEXT
  5
83
  8
UNIDAD
 10
1081001.998369585
 20
876296.93805370654
 30
0.0
 40
40.0
  1
44
  0
TEXT
  5
84
  8
UNIDAD
 10
1080901.364491343
 20
876370.32148137363
 30
0.0
 40
40.0
  1
43
  0
TEXT
  5
85
  8
UNIDAD
 10
1080676.150577049
 20
876378.29825561773
 30
0.0
 40
40.0
  1
42
  0
TEXT
  5
86
  8
UNIDAD
 10
1080976.437796623
 20
876590.46969624527
 30
0.0
 40
40.0
  1
41
  0
TEXT
  5
87
  8
UNIDAD
 10
1081030.745762046
 20
876732.44883252913
 30
0.0
 40
40.0
  1
40
  0
TEXT
  5
88
  8
UNIDAD
 10
1081773.3287190241
 20
875840.01593349176
 30
0.0
 40
40.0
  1
31
  0
TEXT
  5
89
  8
UNIDAD
 10
1081843.510766506
 20
875957.67387062765
 30
0.0
 40
40.0
  1
30
  0
TEXT
  5
8A
  8
UNIDAD
 10
1081868.579212917
 20
876082.84118481365
 30
0.0
 40
40.0
  1
29
  0
TEXT
  5
8B
  8
UNIDAD
 10
1081903.6702366569
 20
876200.49912194954
 30
0.0
 40
40.0
  1
32
  0
TEXT
  5
8C
  8
UNIDAD
 10
1081617.9247565251
 20
875935.14367134916
 30
0.0
 40
40.0
  1
28
  0
TEXT
  5
8D
  8
UNIDAD
 10
1081244.454717814
 20
875807.47185272735
 30
0.0
 40
40.0
  1
27
  0
TEXT
  5
8E
  8
UNIDAD
 10
1081302.1055428609
 20
875942.65304839902
 30
0.0
 40
40.0
  1
26
  0
TEXT
  5
8F
  8
UNIDAD
 10
1081359.7503663651
 20
876037.78078625642
 30
0.0
 40
40.0
  1
25
  0
TEXT
  5
90
  8
UNIDAD
 10
1081412.389902747
 20
876150.43178264936
 30
0.0
 40
40.0
  1
24
  0
TEXT
  5
91
  8
UNIDAD
 10
1081462.5207940261
 20
876270.59215609217
 30
0.0
 40
40.0
  1
23
  0
TEXT
  5
92
  8
UNIDAD
 10
1081522.6742626331
 20
876380.74071617855
 30
0.0
 40
40.0
  1
22
  0
TEXT
  5
93
  8
UNIDAD
 10
1081673.0669364689
 20
876375.73377543536
 30
0.0
 40
40.0
  1
21
  0
TEXT
  5
94
  8
UNIDAD
 10
1081683.095515341
 20
876470.861513293
 30
0.0
 40
40.0
  1
20
  0
TEXT
  5
95
  8
UNIDAD
 10
1080668.7506741451
 20
875369.58686160715
 30
0.0
 40
40.0
  1
14
  0
TEXT
  5
96
  8
UNIDAD
 10
1080556.113709281
 20
875374.64343745029
 30
0.0
 40
40.0
  1
13
  0
TEXT
  5
97
  8
UNIDAD
 10
1081155.8839416271
 20
875902.52100167575
 30
0.0
 40
40.0
  1
12
  0
TEXT
  5
98
  8
UNIDAD
 10
1081017.056241753
 20
875902.52100167575
 30
0.0
 40
40.0
  1
11
  0
TEXT
  5
99
  8
UNIDAD
 10
1080923.8162648701
 20
875902.52100167575
 30
0.0
 40
40.0
  1
10
  0
TEXT
  5
9A
  8
UNIDAD
 10
1080801.5648276219
 20
875902.52100167575
 30
0.0
 40
40.0
  1
9
  0
TEXT
  5
9B
  8
UNIDAD
 10
1080668.9547266189
 20
875900.4508043672
 30
0.0
 40
40.0
  1
8
  0
TEXT
  5
9C
  8
UNIDAD
 10
1080592.2910123609
 20
875896.31247787981
 30
0.0
 40
40.0
  1
7
  0
TEXT
  5
9D
  8
UNIDAD
 10
1081292.6411090591
 20
876175.68157179886
 30
0.0
 40
40.0
  1
6
  0
TEXT
  5
9E
  8
UNIDAD
 10
1081155.8839416271
 20
876196.37527236622
 30
0.0
 40
40.0
  1
5
  0
TEXT
  5
9F
  8
UNIDAD
 10
1081004.627045556
 20
876072.21100083226
 30
0.0
 40
40.0
  1
4
  0
TEXT
  5
A0
  8
UNIDAD
 10
1080886.5226747349
 20
876072.21100083226
 30
0.0
 40
40.0
  1
3
  0
TEXT
  5
A1
  8
UNIDAD
 10
1080623.3730051699
 20
876186.02842208231
 30
0.0
 40
40.0
  1
1
  0
TEXT
  5
A2
  8
UNIDAD
 10
1080737.3363111049
 20
876183.91893031972
 30
0.0
 40
40.0
  1
2
  0
POLYLINE
  5
A3
  8
VIAS
 66
     1
 10
0.0
 20
0.0
 30
0.0
 70
     1
  0
VERTEX
  5
112
  8
VIAS
 10
1081841.4758427851
 20
875593.31479858025
 30
0.0
  0
VERTEX
  5
113
  8
VIAS
 10
1081852.1710423799
 20
875657.17018443113
 30
0.0
  0
VERTEX
  5
114
  8
VIAS
 10
1081686.2365740091
 20
875672.28845637897
 30
0.0
  0
VERTEX
  5
115
  8
VIAS
 10
1081678.955900583
 20
875625.31601450988
 30
0.0
  0
SEQEND
  5
116
  8
VIAS
  0
INSERT
  5
A5
  8
VIAS
  6
CONTINUOUS
  2
*U0
 10
0.0
 20
0.0
 30
0.0
1001
GRADIENTCOLOR1ACI
1070
     5
1001
GRADIENTCOLOR2ACI
1070
     2
1001
ACAD
1002
{
1000
R14_HATCH_DATA
1000
A5
1011
1.0
1021
0.0
1031
0.0
1021
0.0
1031
0.0
1011
0.0
1021
0.0
1031
0.0
1021
1.0
1031
0.0
1011
0.0
1021
0.0
1031
0.0
1021
0.0
1031
1.0
1040
0.0
1010
0.0
1020
0.0
1030
1.0
1000
_SOLID
1070
     1
1070
     1
1071
        1
1071
        7
1070
     0
1070
     1
1071
        4
1040
1081686.2365740091
1040
875672.28845637897
1040
1081678.955900583
1040
875625.31601450988
1040
1081841.4758427851
1040
875593.31479858025
1040
1081852.1710423799
1040
875657.17018443113
1071
        1
1005
A3
1070
     1
1070
     1
1040
0.1371314849251227
1071
        1
1040
1081812.5697856741
1040
875633.02476223535
1040
0.0
1002
}
  0
POLYLINE
  5
A8
  8
RIOS
 66
     1
 10
0.0
 20
0.0
 30
0.0
  0
VERTEX
  5
124
  8
RIOS
 10
1079498.719654677
 20
875757.82633399556
 30
0.0
  0
VERTEX
  5
125
  8
RIOS
 10
1079535.1434229431
 20
875699.00877634052
 30
0.0
  0
VERTEX
  5
126
  8
RIOS
 10
1079557.5783394531
 20
875680.320257026
 30
0.0
  0
VERTEX
  5
127
  8
RIOS
 10
1079646.1562277831
 20
875646.56905513618
 30
0.0
  0
VERTEX
  5
128
  8
RIOS
 10
1079699.495342429
 20
875631.94418980414
 30
0.0
  0
VERTEX
  5
129
  8
RIOS
 10
1079737.644673994
 20
875622.95911208855
 30
0.0
  0
VERTEX
  5
12A
  8
RIOS
 10
1079776.40609662
 20
875631.87448629073
 30
0.0
  0
VERTEX
  5
12B
  8
RIOS
 10
1079817.203644736
 20
875625.35905660235
 30
0.0
  0
VERTEX
  5
12C
  8
RIOS
 10
1079871.966794011
 20
875577.40294130752
 30
0.0
  0
VERTEX
  5
12D
  8
RIOS
 10
1079921.8707184
 20
875537.29357622762
 30
0.0
  0
VERTEX
  5
12E
  8
RIOS
 10
1079966.9154007409
 20
875505.0309560973
 30
0.0
  0
VERTEX
  5
12F
  8
RIOS
 10
1080033.4956141
 20
875502.75430109573
 30
0.0
  0
VERTEX
  5
130
  8
RIOS
 10
1080110.3189267691
 20
875500.12739183544
 30
0.0
  0
VERTEX
  5
131
  8
RIOS
 10
1080206.3168319741
 20
875458.44188143115
 30
0.0
  0
VERTEX
  5
132
  8
RIOS
 10
1080248.27609035
 20
875410.92359038489
 30
0.0
  0
VERTEX
  5
133
  8
RIOS
 10
1080244.578575525
 20
875377.7674733965
 30
0.0
  0
VERTEX
  5
134
  8
RIOS
 10
1080295.26947362
 20
875360.67296003737
 30
0.0
  0
VERTEX
  5
135
  8
RIOS
 10
1080341.9755452969
 20
875376.99726078566
 30
0.0
  0
VERTEX
  5
136
  8
RIOS
 10
1080418.3616671129
 20
875361.58431636647
 30
0.0
  0
VERTEX
  5
137
  8
RIOS
 10
1080488.926673166
 20
875325.88885426265
 30
0.0
  0
VERTEX
  5
138
  8
RIOS
 10
1080536.8819135891
 20
875303.76749881974
 30
0.0
  0
VERTEX
  5
139
  8
RIOS
 10
1080567.8985402719
 20
875236.14181021287
 30
0.0
  0
VERTEX
  5
13A
  8
RIOS
 10
1080594.7554572909
 20
875196.82051837503
 30
0.0
  0
VERTEX
  5
13B
  8
RIOS
 10
1080637.5891308971
 20
875174.8742847963
 30
0.0
  0
VERTEX
  5
13C
  8
RIOS
 10
1080674.164514849
 20
875119.85949779407
 30
0.0
  0
VERTEX
  5
13D
  8
RIOS
 10
1080683.533215892
 20
875093.93718548783
 30
0.0
  0
VERTEX
  5
13E
  8
RIOS
 10
1080708.6163317901
 20
875077.71830893517
 30
0.0
  0
VERTEX
  5
13F
  8
RIOS
 10
1080702.620366706
 20
875052.32137275196
 30
0.0
  0
VERTEX
  5
140
  8
RIOS
 10
1080731.7757509451
 20
875005.24089952919
 30
0.0
  0
VERTEX
  5
141
  8
RIOS
 10
1080745.828776865
 20
874966.35742609459
 30
0.0
  0
VERTEX
  5
142
  8
RIOS
 10
1080828.760483165
 20
874917.4381104284
 30
0.0
  0
VERTEX
  5
143
  8
RIOS
 10
1080906.133415434
 20
874855.90789958276
 30
0.0
  0
SEQEND
  5
144
  8
RIOS
  0
POLYLINE
  5
AA
  8
RIOS
 66
     1
 10
0.0
 20
0.0
 30
0.0
  0
VERTEX
  5
145
  8
RIOS
 10
1083147.25562364
 20
875611.46920635074
 30
0.0
  0
VERTEX
  5
146
  8
RIOS
 10
1083059.528870783
 20
875647.78563449054
 30
0.0
  0
VERTEX
  5
147
  8
RIOS
 10
1083019.925838609
 20
875668.57456247287
 30
0.0
  0
VERTEX
  5
148
  8
RIOS
 10
1082983.0524343259
 20
875687.88195521792
 30
0.0
  0
VERTEX
  5
149
  8
RIOS
 10
1082970.8267784789
 20
875736.88683361223
 30
0.0
  0
VERTEX
  5
14A
  8
RIOS
 10
1082921.267116318
 20
875751.07524256315
 30
0.0
  0
VERTEX
  5
14B
  8
RIOS
 10
1082881.725056218
 20
875732.99262101518
 30
0.0
  0
VERTEX
  5
14C
  8
RIOS
 10
1082867.8399543581
 20
875733.46741052088
 30
0.0
  0
VERTEX
  5
14D
  8
RIOS
 10
1082855.8649045611
 20
875749.14703483589
 30
0.0
  0
VERTEX
  5
14E
  8
RIOS
 10
1082793.9508905271
 20
875767.92247251503
 30
0.0
  0
VERTEX
  5
14F
  8
RIOS
 10
1082732.3213531
 20
875795.01735834545
 30
0.0
  0
VERTEX
  5
150
  8
RIOS
 10
1082716.349160207
 20
875855.08522834606
 30
0.0
  0
VERTEX
  5
151
  8
RIOS
 10
1082672.8442093821
 20
875862.39871053572
 30
0.0
  0
VERTEX
  5
152
  8
RIOS
 10
1082611.6587022289
 20
875864.49089804676
 30
0.0
  0
VERTEX
  5
153
  8
RIOS
 10
1082595.5699875271
 20
875905.82212196046
 30
0.0
  0
VERTEX
  5
154
  8
RIOS
 10
1082568.1253486359
 20
875956.28045214165
 30
0.0
  0
VERTEX
  5
155
  8
RIOS
 10
1082516.675520882
 20
875987.1690750079
 30
0.0
  0
VERTEX
  5
156
  8
RIOS
 10
1082476.2831503041
 20
876000.20199754986
 30
0.0
  0
VERTEX
  5
157
  8
RIOS
 10
1082403.4432519521
 20
876002.6926972717
 30
0.0
  0
VERTEX
  5
158
  8
RIOS
 10
1082348.6818831039
 20
876022.04282234656
 30
0.0
  0
VERTEX
  5
159
  8
RIOS
 10
1082312.297477046
 20
876066.98097383615
 30
0.0
  0
VERTEX
  5
15A
  8
RIOS
 10
1082284.852838156
 20
876117.43930401735
 30
0.0
  0
VERTEX
  5
15B
  8
RIOS
 10
1082271.180263313
 20
876144.1232377066
 30
0.0
  0
VERTEX
  5
15C
  8
RIOS
 10
1082204.565525057
 20
876158.05280644237
 30
0.0
  0
VERTEX
  5
15D
  8
RIOS
 10
1082188.1783431431
 20
876190.65543045395
 30
0.0
  0
VERTEX
  5
15E
  8
RIOS
 10
1082177.817309594
 20
876228.87786777993
 30
0.0
  0
VERTEX
  5
15F
  8
RIOS
 10
1082157.7206132079
 20
876238.30385748053
 30
0.0
  0
VERTEX
  5
160
  8
RIOS
 10
1082144.7444615921
 20
876285.35451648117
 30
0.0
  0
VERTEX
  5
161
  8
RIOS
 10
1082075.116649454
 20
876296.47418732743
 30
0.0
  0
VERTEX
  5
162
  8
RIOS
 10
1082044.4883612399
 20
876253.82747916423
 30
0.0
  0
VERTEX
  5
163
  8
RIOS
 10
1082018.265993763
 20
876254.72413120326
 30
0.0
  0
VERTEX
  5
164
  8
RIOS
 10
1081980.9861862711
 20
876273.47648883192
 30
0.0
  0
VERTEX
  5
165
  8
RIOS
 10
1081973.638243566
 20
876314.50882346765
 30
0.0
  0
VERTEX
  5
166
  8
RIOS
 10
1081957.4500398589
 20
876352.93051602878
 30
0.0
  0
VERTEX
  5
167
  8
RIOS
 10
1081922.0889439699
 20
876342.48792024667
 30
0.0
  0
VERTEX
  5
168
  8
RIOS
 10
1081837.395693372
 20
876339.55806889455
 30
0.0
  0
VERTEX
  5
169
  8
RIOS
 10
1081850.243953018
 20
876374.0739446017
 30
0.0
  0
VERTEX
  5
16A
  8
RIOS
 10
1081857.463986591
 20
876414.60813940887
 30
0.0
  0
VERTEX
  5
16B
  8
RIOS
 10
1081826.2103444249
 20
876438.98030977196
 30
0.0
  0
VERTEX
  5
16C
  8
RIOS
 10
1081830.090416976
 20
876552.45207342762
 30
0.0
  0
VERTEX
  5
16D
  8
RIOS
 10
1081823.7373647089
 20
876622.57973327627
 30
0.0
  0
VERTEX
  5
16E
  8
RIOS
 10
1081787.679845592
 20
876591.7704121829
 30
0.0
  0
VERTEX
  5
16F
  8
RIOS
 10
1081782.875951878
 20
876536.5889271514
 30
0.0
  0
VERTEX
  5
170
  8
RIOS
 10
1081764.3000110791
 20
876505.18183803186
 30
0.0
  0
VERTEX
  5
171
  8
RIOS
 10
1081735.164058523
 20
876506.17811768875
 30
0.0
  0
VERTEX
  5
172
  8
RIOS
 10
1081721.5909724841
 20
876535.77157688525
 30
0.0
  0
VERTEX
  5
173
  8
RIOS
 10
1081721.264085544
 20
876611.51904946822
 30
0.0
  0
VERTEX
  5
174
  8
RIOS
 10
1081722.159486979
 20
876637.70484332927
 30
0.0
  0
VERTEX
  5
175
  8
RIOS
 10
1081695.6386692519
 20
876629.87289488642
 30
0.0
  0
VERTEX
  5
176
  8
RIOS
 10
1081643.1228821829
 20
876544.28060039226
 30
0.0
  0
VERTEX
  5
177
  8
RIOS
 10
1081621.732811386
 20
876515.88267140265
 30
0.0
  0
VERTEX
  5
178
  8
RIOS
 10
1081568.9896263811
 20
876508.94738084392
 30
0.0
  0
VERTEX
  5
179
  8
RIOS
 10
1081554.1231828921
 20
876500.71692077036
 30
0.0
  0
VERTEX
  5
17A
  8
RIOS
 10
1081527.602365165
 20
876492.88497232739
 30
0.0
  0
VERTEX
  5
17B
  8
RIOS
 10
1081486.8120383711
 20
876494.27976361476
 30
0.0
  0
VERTEX
  5
17C
  8
RIOS
 10
1081472.9404855201
 20
876515.14463459945
 30
0.0
  0
VERTEX
  5
17D
  8
RIOS
 10
1081471.121262922
 20
876547.24911936268
 30
0.0
  0
VERTEX
  5
17E
  8
RIOS
 10
1081492.013871538
 20
876561.09938632569
 30
0.0
  0
VERTEX
  5
17F
  8
RIOS
 10
1081504.0662187531
 20
876572.33899952425
 30
0.0
  0
VERTEX
  5
180
  8
RIOS
 10
1081471.391310005
 20
876640.45378005959
 30
0.0
  0
VERTEX
  5
181
  8
RIOS
 10
1081426.6640879661
 20
876697.32894623675
 30
0.0
  0
VERTEX
  5
182
  8
RIOS
 10
1081402.1330341541
 20
876747.6876488002
 30
0.0
  0
VERTEX
  5
183
  8
RIOS
 10
1081373.2955486099
 20
876757.41252251377
 30
0.0
  0
VERTEX
  5
184
  8
RIOS
 10
1081332.6047110199
 20
876761.7168509987
 30
0.0
  0
VERTEX
  5
185
  8
RIOS
 10
1081333.826982233
 20
876712.15516701154
 30
0.0
  0
VERTEX
  5
186
  8
RIOS
 10
1081324.7877430241
 20
876703.7254563875
 30
0.0
  0
VERTEX
  5
187
  8
RIOS
 10
1081303.6677364721
 20
876768.53219336015
 30
0.0
  0
VERTEX
  5
188
  8
RIOS
 10
1081283.5710400869
 20
876777.95818306075
 30
0.0
  0
VERTEX
  5
189
  8
RIOS
 10
1081266.8853741989
 20
876801.83221359539
 30
0.0
  0
VERTEX
  5
18A
  8
RIOS
 10
1081267.5817974261
 20
876822.19893890666
 30
0.0
  0
VERTEX
  5
18B
  8
RIOS
 10
1081291.2885190791
 20
876833.04004631948
 30
0.0
  0
VERTEX
  5
18C
  8
RIOS
 10
1081289.0713402659
 20
876853.50639982847
 30
0.0
  0
VERTEX
  5
18D
  8
RIOS
 10
1081248.47999148
 20
876860.72025382065
 30
0.0
  0
VERTEX
  5
18E
  8
RIOS
 10
1081207.2916917091
 20
876850.47692027874
 30
0.0
  0
VERTEX
  5
18F
  8
RIOS
 10
1081166.202897704
 20
876843.14311166445
 30
0.0
  0
VERTEX
  5
190
  8
RIOS
 10
1081096.2766013921
 20
876845.53418318857
 30
0.0
  0
VERTEX
  5
191
  8
RIOS
 10
1081038.00469628
 20
876847.52674250188
 30
0.0
  0
VERTEX
  5
192
  8
RIOS
 10
1081007.7743642819
 20
876816.51816559315
 30
0.0
  0
VERTEX
  5
193
  8
RIOS
 10
1080966.984037488
 20
876817.91295688052
 30
0.0
  0
VERTEX
  5
194
  8
RIOS
 10
1080923.180619651
 20
876816.49784501351
 30
0.0
  0
VERTEX
  5
195
  8
RIOS
 10
1080887.5210567489
 20
876797.32665517426
 30
0.0
  0
VERTEX
  5
196
  8
RIOS
 10
1080874.3743298911
 20
876754.08217956522
 30
0.0
  0
VERTEX
  5
197
  8
RIOS
 10
1080743.09198531
 20
876668.27030867594
 30
0.0
  0
VERTEX
  5
198
  8
RIOS
 10
1080704.021374949
 20
876634.65107858286
 30
0.0
  0
VERTEX
  5
199
  8
RIOS
 10
1080662.335629958
 20
876609.86008243437
 30
0.0
  0
VERTEX
  5
19A
  8
RIOS
 10
1080639.0268814829
 20
876610.65710569569
 30
0.0
  0
VERTEX
  5
19B
  8
RIOS
 10
1080617.7362996901
 20
876585.16870805854
 30
0.0
  0
VERTEX
  5
19C
  8
RIOS
 10
1080574.032370856
 20
876586.66312754364
 30
0.0
  0
VERTEX
  5
19D
  8
RIOS
 10
1080539.9646326159
 20
876614.0444568767
 30
0.0
  0
VERTEX
  5
19E
  8
RIOS
 10
1080507.6166108081
 20
876606.41176482907
 30
0.0
  0
VERTEX
  5
19F
  8
RIOS
 10
1080389.5804651261
 20
876566.75390148128
 30
0.0
  0
VERTEX
  5
1A0
  8
RIOS
 10
1080261.7659905001
 20
876326.43792645598
 30
0.0
  0
VERTEX
  5
1A1
  8
RIOS
 10
1080202.0863698281
 20
876320.25186069135
 30
0.0
  0
VERTEX
  5
1A2
  8
RIOS
 10
1080087.089824426
 20
876183.5439548617
 30
0.0
  0
VERTEX
  5
1A3
  8
RIOS
 10
1080067.8532039961
 20
876170.13772573101
 30
0.0
  0
VERTEX
  5
1A4
  8
RIOS
 10
1080051.9446902699
 20
876116.76966238406
 30
0.0
  0
VERTEX
  5
1A5
  8
RIOS
 10
1079928.0846819149
 20
876132.72496012063
 30
0.0
  0
VERTEX
  5
1A6
  8
RIOS
 10
1079781.3854787489
 20
876029.91713384446
 30
0.0
  0
VERTEX
  5
1A7
  8
RIOS
 10
1079684.0358753491
 20
876066.06195023423
 30
0.0
  0
VERTEX
  5
1A8
  8
RIOS
 10
1079632.2960038269
 20
876063.14314312115
 30
0.0
  0
VERTEX
  5
1A9
  8
RIOS
 10
1079595.950005823
 20
875961.2498839281
 30
0.0
  0
VERTEX
  5
1AA
  8
RIOS
 10
1079608.095830014
 20
875904.57852427696
 30
0.0
  0
VERTEX
  5
1AB
  8
RIOS
 10
1079607.0550813191
 20
875874.14208567725
 30
0.0
  0
VERTEX
  5
1AC
  8
RIOS
 10
1079544.1758225891
 20
875820.03614631644
 30
0.0
  0
VERTEX
  5
1AD
  8
RIOS
 10
1079497.388065672
 20
875756.00396519806
 30
0.0
  0
VERTEX
  5
1AE
  8
RIOS
 10
1079471.5981960681
 20
875756.88582833204
 30
0.0
  0
VERTEX
  5
1AF
  8
RIOS
 10
1079447.992737202
 20
875753.00499423803
 30
0.0
  0
VERTEX
  5
1B0
  8
RIOS
 10
1079394.228570296
 20
875759.53141831455
 30
0.0
  0
VERTEX
  5
1B1
  8
RIOS
 10
1079372.247135893
 20
875734.49903216073
 30
0.0
  0
VERTEX
  5
1B2
  8
RIOS
 10
1079339.1034413499
 20
875726.25634697918
 30
0.0
  0
VERTEX
  5
1B3
  8
RIOS
 10
1079306.0397874231
 20
875720.35492643574
 30
0.0
  0
VERTEX
  5
1B4
  8
RIOS
 10
1079280.1698602419
 20
875718.89552551182
 30
0.0
  0
SEQEND
  5
1B5
  8
RIOS
  0
POLYLINE
  5
AB
  8
CARRETERA
 66
     1
 10
0.0
 20
0.0
 30
0.0
  0
VERTEX
  5
1B6
  8
CARRETERA
 10
1082799.46561191
 20
874899.85015245655
 30
0.0
  0
VERTEX
  5
1B7
  8
CARRETERA
 10
1082531.8713542761
 20
874522.4903397609
 30
0.0
  0
SEQEND
  5
1B8
  8
CARRETERA
  0
POLYLINE
  5
AD
  8
CARRETERA
 66
     1
 10
0.0
 20
0.0
 30
0.0
  0
VERTEX
  5
1B9
  8
CARRETERA
 10
1083035.29767418
 20
875727.24067014479
 30
0.0
  0
VERTEX
  5
1BA
  8
CARRETERA
 10
1082993.9094267311
 20
875786.45944960066
 30
0.0
  0
VERTEX
  5
1BB
  8
CARRETERA
 10
1082954.128748023
 20
875808.05095414771
 30
0.0
  0
VERTEX
  5
1BC
  8
CARRETERA
 10
1082931.298222298
 20
875817.5021561028
 30
0.0
  0
VERTEX
  5
1BD
  8
CARRETERA
 10
1082885.5384591341
 20
875833.51776028774
 30
0.0
  0
VERTEX
  5
1BE
  8
CARRETERA
 10
1082853.7392810809
 20
875834.60510672454
 30
0.0
  0
VERTEX
  5
1BF
  8
CARRETERA
 10
1082833.4047470919
 20
875832.41024825384
 30
0.0
  0
SEQEND
  5
1C0
  8
CARRETERA
  0
POLYLINE
  5
AE
  8
CARRETERA
 66
     1
 10
0.0
 20
0.0
 30
0.0
  0
VERTEX
  5
1C1
  8
CARRETERA
 10
1081919.4361970241
 20
875765.39662496746
 30
0.0
  0
VERTEX
  5
1C2
  8
CARRETERA
 10
1081886.184539516
 20
875639.36584597966
 30
0.0
  0
VERTEX
  5
1C3
  8
CARRETERA
 10
1081911.8071925209
 20
875626.92899446515
 30
0.0
  0
VERTEX
  5
1C4
  8
CARRETERA
 10
1081873.9866128301
 20
875451.9214401755
 30
0.0
  0
VERTEX
  5
1C5
  8
CARRETERA
 10
1081929.829038288
 20
875392.20841212827
 30
0.0
  0
VERTEX
  5
1C6
  8
CARRETERA
 10
1082047.9583355689
 20
875376.60837287747
 30
0.0
  0
VERTEX
  5
1C7
  8
CARRETERA
 10
1082403.0090293109
 20
875433.83195878658
 30
0.0
  0
VERTEX
  5
1C8
  8
CARRETERA
 10
1082406.3228956689
 20
875361.46421395929
 30
0.0
  0
VERTEX
  5
1C9
  8
CARRETERA
 10
1082470.4429740901
 20
875289.907432243
 30
0.0
  0
VERTEX
  5
1CA
  8
CARRETERA
 10
1082514.425925388
 20
875221.92940377677
 30
0.0
  0
VERTEX
  5
1CB
  8
CARRETERA
 10
1082512.056842634
 20
875152.64616360841
 30
0.0
  0
VERTEX
  5
1CC
  8
CARRETERA
 10
1082601.898285774
 20
875071.53933010262
 30
0.0
  0
VERTEX
  5
1CD
  8
CARRETERA
 10
1082611.3886604169
 20
875010.52109677834
 30
0.0
  0
VERTEX
  5
1CE
  8
CARRETERA
 10
1082660.857154161
 20
874933.68495777762
 30
0.0
  0
VERTEX
  5
1CF
  8
CARRETERA
 10
1082798.6300028281
 20
874900.07216138463
 30
0.0
  0
VERTEX
  5
1D0
  8
CARRETERA
 10
1082887.301041269
 20
875038.65880205354
 30
0.0
  0
VERTEX
  5
1D1
  8
CARRETERA
 10
1082884.5794454
 20
875128.34735107794
 30
0.0
  0
VERTEX
  5
1D2
  8
CARRETERA
 10
1082908.890647846
 20
875162.19817422796
 30
0.0
  0
VERTEX
  5
1D3
  8
CARRETERA
 10
1082916.843968197
 20
875225.51011585724
 30
0.0
  0
VERTEX
  5
1D4
  8
CARRETERA
 10
1083009.3647661151
 20
875476.68202179985
 30
0.0
  0
VERTEX
  5
1D5
  8
CARRETERA
 10
1083077.3628606061
 20
876026.38070029963
 30
0.0
  0
VERTEX
  5
1D6
  8
CARRETERA
 10
1083013.4966003471
 20
875936.07888667274
 30
0.0
  0
VERTEX
  5
1D7
  8
CARRETERA
 10
1082962.674338863
 20
875888.68369997386
 30
0.0
  0
VERTEX
  5
1D8
  8
CARRETERA
 10
1082886.130729822
 20
875850.83857032971
 30
0.0
  0
VERTEX
  5
1D9
  8
CARRETERA
 10
1082795.4290779161
 20
875822.14808845276
 30
0.0
  0
VERTEX
  5
1DA
  8
CARRETERA
 10
1082725.061959998
 20
875795.6524650465
 30
0.0
  0
SEQEND
  5
1DB
  8
CARRETERA
  0
POLYLINE
  5
AF
  8
VIAS
 66
     1
 10
0.0
 20
0.0
 30
0.0
 70
     1
  0
VERTEX
  5
1DC
  8
VIAS
 10
1081098.259641469
 20
876609.95108423161
 30
0.0
  0
VERTEX
  5
1DD
  8
VIAS
 10
1081097.3127150331
 20
876587.59027863899
 30
0.0
  0
VERTEX
  5
1DE
  8
VIAS
 10
1081125.6767404899
 20
876585.34598168149
 30
0.0
  0
VERTEX
  5
1DF
  8
VIAS
 10
1081126.4477806699
 20
876607.89486135205
 30
0.0
  0
SEQEND
  5
1E0
  8
VIAS
  0
INSERT
  5
B0
  8
VIAS
  6
CONTINUOUS
  2
*U1
 10
0.0
 20
0.0
 30
0.0
1001
GRADIENTCOLOR1ACI
1070
     5
1001
GRADIENTCOLOR2ACI
1070
     2
1001
ACAD
1002
{
1000
R14_HATCH_DATA
1000
B0
1011
1.0
1021
0.0
1031
0.0
1021
0.0
1031
0.0
1011
0.0
1021
0.0
1031
0.0
1021
1.0
1031
0.0
1011
0.0
1021
0.0
1031
0.0
1021
0.0
1031
1.0
1040
0.0
1010
0.0
1020
0.0
1030
1.0
1000
_SOLID
1070
     1
1070
     1
1071
        1
1071
        7
1070
     0
1070
     1
1071
        4
1040
1081125.6767404899
1040
876585.34598168149
1040
1081126.4477806699
1040
876607.89486135205
1040
1081098.259641469
1040
876609.95108423161
1040
1081097.3127150331
1040
876587.59027863899
1071
        1
1005
AF
1070
     1
1070
     1
1040
0.0264349856992586
1071
        1
1040
1081113.4103285859
1040
876594.50422717084
1040
0.0
1002
}
  0
POLYLINE
  5
B1
  8
VIAS
 66
     1
 10
0.0
 20
0.0
 30
0.0
 70
     1
  0
VERTEX
  5
1EE
  8
VIAS
 10
1081892.2271570361
 20
875642.80039032106
 30
0.0
  0
VERTEX
  5
1EF
  8
VIAS
 10
1081926.6303455869
 20
875637.89180832065
 30
0.0
  0
VERTEX
  5
1F0
  8
VIAS
 10
1081934.8840196209
 20
875687.99424109876
 30
0.0
  0
VERTEX
  5
1F1
  8
VIAS
 10
1081902.315482504
 20
875691.90704324795
 30
0.0
  0
SEQEND
  5
1F2
  8
VIAS
  0
INSERT
  5
B2
  8
VIAS
  6
CONTINUOUS
  2
*U2
 10
0.0
 20
0.0
 30
0.0
1001
GRADIENTCOLOR1ACI
1070
     5
1001
GRADIENTCOLOR2ACI
1070
     2
1001
ACAD
1002
{
1000
R14_HATCH_DATA
1000
B2
1011
1.0
1021
0.0
1031
0.0
1021
0.0
1031
0.0
1011
0.0
1021
0.0
1031
0.0
1021
1.0
1031
0.0
1011
0.0
1021
0.0
1031
0.0
1021
0.0
1031
1.0
1040
0.0
1010
0.0
1020
0.0
1030
1.0
1000
_SOLID
1070
     1
1070
     1
1071
        1
1071
        7
1070
     0
1070
     1
1071
        4
1040
1081934.8840196209
1040
875687.99424109876
1040
1081902.315482504
1040
875691.90704324795
1040
1081892.2271570361
1040
875642.80039032106
1040
1081926.6303455869
1040
875637.89180832065
1071
        1
1005
B1
1070
     1
1070
     1
1040
0.1354792994488466
1071
        1
1040
1081920.1202804639
1040
875666.10588992166
1040
0.0
1002
}
  0
POLYLINE
  5
B3
  8
VIAS
 66
     1
 10
0.0
 20
0.0
 30
0.0
 70
     1
  0
VERTEX
  5
200
  8
VIAS
 10
1081936.3302741949
 20
875786.95540378743
 30
0.0
  0
VERTEX
  5
201
  8
VIAS
 10
1081968.061146148
 20
875785.8703930208
 30
0.0
  0
VERTEX
  5
202
  8
VIAS
 10
1081969.017173731
 20
875813.82918364566
 30
0.0
  0
VERTEX
  5
203
  8
VIAS
 10
1081940.0860885889
 20
875814.81845803175
 30
0.0
  0
SEQEND
  5
204
  8
VIAS
  0
INSERT
  5
B4
  8
VIAS
  6
CONTINUOUS
  2
*U3
 10
0.0
 20
0.0
 30
0.0
1001
GRADIENTCOLOR1ACI
1070
     5
1001
GRADIENTCOLOR2ACI
1070
     2
1001
ACAD
1002
{
1000
R14_HATCH_DATA
1000
B4
1011
1.0
1021
0.0
1031
0.0
1021
0.0
1031
0.0
1011
0.0
1021
0.0
1031
0.0
1021
1.0
1031
0.0
1011
0.0
1021
0.0
1031
0.0
1021
0.0
1031
1.0
1040
0.0
1010
0.0
1020
0.0
1030
1.0
1000
_SOLID
1070
     1
1070
     1
1071
        1
1071
        7
1070
     0
1070
     1
1071
        4
1040
1081969.017173731
1040
875813.82918364566
1040
1081940.0860885889
1040
875814.81845803175
1040
1081936.3302741949
1040
875786.95540378743
1040
1081968.061146148
1040
875785.8703930208
1071
        1
1005
B3
1070
     1
1070
     1
1040
0.1354792994488466
1071
        1
1040
1081957.308162207
1040
875799.30077748478
1040
0.0
1002
}
  0
POLYLINE
  5
B5
  8
VIAS
 66
     1
 10
0.0
 20
0.0
 30
0.0
 70
     1
  0
VERTEX
  5
212
  8
VIAS
 10
1080304.50281595
 20
875148.72442402865
 30
0.0
  0
VERTEX
  5
213
  8
VIAS
 10
1080331.17596525
 20
875148.32484762708
 30
0.0
  0
VERTEX
  5
214
  8
VIAS
 10
1080337.5873233341
 20
875215.75458502956
 30
0.0
  0
VERTEX
  5
215
  8
VIAS
 10
1080367.2961055599
 20
875229.08850107738
 30
0.0
  0
VERTEX
  5
216
  8
VIAS
 10
1080388.930695215
 20
875231.42367446981
 30
0.0
  0
VERTEX
  5
217
  8
VIAS
 10
1080388.2155440091
 20
875255.53525776486
 30
0.0
  0
VERTEX
  5
218
  8
VIAS
 10
1080411.282922779
 20
875254.74648793985
 30
0.0
  0
VERTEX
  5
219
  8
VIAS
 10
1080408.4473184031
 20
875276.88061352714
 30
0.0
  0
VERTEX
  5
21A
  8
VIAS
 10
1080371.9471027451
 20
875275.05375784799
 30
0.0
  0
VERTEX
  5
21B
  8
VIAS
 10
1080357.636580592
 20
875306.80511511082
 30
0.0
  0
VERTEX
  5
21C
  8
VIAS
 10
1080307.8210373351
 20
875320.80832861341
 30
0.0
  0
SEQEND
  5
21D
  8
VIAS
  0
INSERT
  5
B6
  8
VIAS
  6
CONTINUOUS
  2
*U4
 10
0.0
 20
0.0
 30
0.0
1001
GRADIENTCOLOR1ACI
1070
     5
1001
GRADIENTCOLOR2ACI
1070
     2
1001
ACAD
1002
{
1000
R14_HATCH_DATA
1000
B6
1011
1.0
1021
0.0
1031
0.0
1021
0.0
1031
0.0
1011
0.0
1021
0.0
1031
0.0
1021
1.0
1031
0.0
1011
0.0
1021
0.0
1031
0.0
1021
0.0
1031
1.0
1040
0.0
1010
0.0
1020
0.0
1030
1.0
1000
_SOLID
1070
     1
1070
     1
1071
        1
1071
        7
1070
     0
1070
     1
1071
       11
1040
1080304.50281595
1040
875148.72442402865
1040
1080331.17596525
1040
875148.32484762708
1040
1080337.5873233341
1040
875215.75458502956
1040
1080367.2961055599
1040
875229.08850107738
1040
1080388.930695215
1040
875231.42367446981
1040
1080388.2155440091
1040
875255.53525776486
1040
1080411.282922779
1040
875254.74648793985
1040
1080408.4473184031
1040
875276.88061352714
1040
1080371.9471027451
1040
875275.05375784799
1040
1080357.636580592
1040
875306.80511511082
1040
1080307.8210373351
1040
875320.80832861341
1071
        1
1005
B5
1070
     1
1070
     1
1040
0.0744141588361526
1071
        1
1040
1080327.6402172181
1040
875255.04412022745
1040
0.0
1002
}
  0
POLYLINE
  5
B7
  8
VIAS
 66
     1
 10
0.0
 20
0.0
 30
0.0
  0
VERTEX
  5
24B
  8
VIAS
 10
1081230.541032356
 20
875990.48974852695
 30
0.0
  0
VERTEX
  5
24C
  8
VIAS
 10
1081274.812572557
 20
875995.62264451082
 30
0.0
  0
SEQEND
  5
24D
  8
VIAS
  0
CIRCLE
  5
B8
  8
VIAS
 10
1081235.4501910829
 20
875963.73499776283
 30
0.0
 40
5.5064015456672823
  0
POLYLINE
  5
B9
  8
VIAS
 66
     1
 10
0.0
 20
0.0
 30
0.0
  0
VERTEX
  5
24E
  8
VIAS
 10
1081230.541032356
 20
875990.48974852695
 30
0.0
  0
VERTEX
  5
24F
  8
VIAS
 10
1081221.014612224
 20
876028.20330776856
 30
0.0
  0
VERTEX
  5
250
  8
VIAS
 10
1081119.6453464029
 20
876153.80305709154
 30
0.0
  0
SEQEND
  5
251
  8
VIAS
  0
CIRCLE
  5
BA
  8
VIAS
 10
1081031.6766128391
 20
875831.42550234485
 30
0.0
 40
4.1298011592504613
  0
CIRCLE
  5
BB
  8
VIAS
 10
1081049.5225834569
 20
875774.92837148404
 30
0.0
 40
8.9479025117093336
  0
CIRCLE
  5
BC
  8
VIAS
 10
1080904.543720972
 20
875783.29354153702
 30
0.0
 40
13.980295190283529
  0
INSERT
  5
BD
  8
VIAS
  6
CONTINUOUS
  2
*U5
 10
0.0
 20
0.0
 30
0.0
1001
GRADIENTCOLOR1ACI
1070
     5
1001
GRADIENTCOLOR2ACI
1070
     2
1001
ACAD
1002
{
1000
R14_HATCH_DATA
1000
BD
1011
1.0
1021
0.0
1031
0.0
1021
0.0
1031
0.0
1011
0.0
1021
0.0
1031
0.0
1021
1.0
1031
0.0
1011
0.0
1021
0.0
1031
0.0
1021
0.0
1031
1.0
1040
0.0
1010
0.0
1020
0.0
1030
1.0
1000
_SOLID
1070
     1
1070
     1
1071
        4
1071
        7
1070
     1
1070
     1
1071
        2
1040
1081240.956592628
1040
875963.73499776283
1040
1.0
1040
1081229.9437895371
1040
875963.73499776283
1040
1.0
1071
        1
1005
B8
1071
        7
1070
     1
1070
     1
1071
        2
1040
1081035.8064139979
1040
875831.42550234485
1040
1.0
1040
1081027.5468116801
1040
875831.42550234485
1040
1.0
1071
        1
1005
BA
1071
        7
1070
     1
1070
     1
1071
        2
1040
1080890.563425781
1040
875783.29354153702
1040
1.0
1040
1080918.5240161619
1040
875783.29354153702
1040
1.0
1071
        1
1005
BC
1071
        7
1070
     1
1070
     1
1071
        2
1040
1081040.5746809461
1040
875774.92837148404
1040
1.0
1040
1081058.470485969
1040
875774.92837148404
1040
1.0
1071
        1
1005
BB
1070
     1
1070
     1
1040
0.1206384821842023
1071
        4
1040
1081236.252835135
1040
875962.87671072735
1040
0.0
1040
1081032.123786191
1040
875832.76809644268
1040
0.0
1040
1080896.682299213
1040
875789.21067495935
1040
0.0
1040
1081046.8998686571
1040
875778.25822697452
1040
0.0
1002
}
  0
POLYLINE
  5
BE
  8
VIAS
 66
     1
 10
0.0
 20
0.0
 30
0.0
  0
VERTEX
  5
2B9
  8
VIAS
 10
1080553.8548320769
 20
875784.88379554602
 30
0.0
  0
VERTEX
  5
2BA
  8
VIAS
 10
1080526.4281818259
 20
875796.13776544807
 30
0.0
  0
VERTEX
  5
2BB
  8
VIAS
 10
1080521.0234977959
 20
875821.3556056068
 30
0.0
  0
SEQEND
  5
2BC
  8
VIAS
  0
POLYLINE
  5
BF
  8
VIAS
 66
     1
 10
0.0
 20
0.0
 30
0.0
  0
VERTEX
  5
2BD
  8
VIAS
 10
1081257.1311015489
 20
876271.81257578474
 30
0.0
  0
VERTEX
  5
2BE
  8
VIAS
 10
1081220.626451205
 20
876028.98878543428
 30
0.0
  0
VERTEX
  5
2BF
  8
VIAS
 10
1081213.3164566881
 20
875997.72545302869
 30
0.0
  0
SEQEND
  5
2C0
  8
VIAS
  0
POLYLINE
  5
C0
  8
VIAS
 66
     1
 10
0.0
 20
0.0
 30
0.0
  0
VERTEX
  5
2C1
  8
VIAS
 10
1080142.1756148131
 20
875921.92559226067
 30
0.0
  0
VERTEX
  5
2C2
  8
VIAS
 10
1080326.8360931149
 20
875915.61128084117
 30
0.0
  0
SEQEND
  5
2C3
  8
VIAS
  0
POLYLINE
  5
C1
  8
VIAS
 66
     1
 10
0.0
 20
0.0
 30
0.0
  0
VERTEX
  5
2C4
  8
VIAS
 10
1080119.2132259239
 20
875525.31143086764
 30
0.0
  0
VERTEX
  5
2C5
  8
VIAS
 10
1080131.564671481
 20
875703.24941962725
 30
0.0
  0
SEQEND
  5
2C6
  8
VIAS
  0
POLYLINE
  5
C2
  8
VIAS
 66
     1
 10
0.0
 20
0.0
 30
0.0
  0
VERTEX
  5
2C7
  8
VIAS
 10
1080421.2350057999
 20
875377.30238592101
 30
0.0
  0
VERTEX
  5
2C8
  8
VIAS
 10
1080444.9455057399
 20
875795.79487029125
 30
0.0
  0
SEQEND
  5
2C9
  8
VIAS
  0
POLYLINE
  5
C3
  8
VIAS
 66
     1
 10
0.0
 20
0.0
 30
0.0
  0
VERTEX
  5
2CA
  8
VIAS
 10
1079713.1586600309
 20
875654.97389221762
 30
0.0
  0
VERTEX
  5
2CB
  8
VIAS
 10
1079727.296412121
 20
875976.79071612039
 30
0.0
  0
VERTEX
  5
2CC
  8
VIAS
 10
1080136.2670830919
 20
875840.77028603852
 30
0.0
  0
VERTEX
  5
2CD
  8
VIAS
 10
1080152.359066345
 20
876128.09987272986
 30
0.0
  0
VERTEX
  5
2CE
  8
VIAS
 10
1080055.3340761701
 20
876131.41756154457
 30
0.0
  0
SEQEND
  5
2CF
  8
VIAS
  0
POLYLINE
  5
C4
  8
VIAS
 66
     1
 10
0.0
 20
0.0
 30
0.0
  0
VERTEX
  5
2D0
  8
VIAS
 10
1080521.5099851759
 20
875821.64189639734
 30
0.0
  0
VERTEX
  5
2D1
  8
VIAS
 10
1080131.564671481
 20
875703.24941962725
 30
0.0
  0
VERTEX
  5
2D2
  8
VIAS
 10
1079617.14134828
 20
875871.03787437407
 30
0.0
  0
SEQEND
  5
2D3
  8
VIAS
  0
POLYLINE
  5
C5
  8
VIAS
 66
     1
 10
0.0
 20
0.0
 30
0.0
  0
VERTEX
  5
2D4
  8
VIAS
 10
1080308.881430675
 20
875390.53161121486
 30
0.0
  0
VERTEX
  5
2D5
  8
VIAS
 10
1080353.8901901341
 20
876340.24769448838
 30
0.0
  0
VERTEX
  5
2D6
  8
VIAS
 10
1080371.8600656199
 20
876499.21878917119
 30
0.0
  0
SEQEND
  5
2D7
  8
VIAS
  0
POLYLINE
  5
C6
  8
VIAS
 66
     1
 10
0.0
 20
0.0
 30
0.0
  0
VERTEX
  5
2D8
  8
VIAS
 10
1080610.7940743901
 20
876567.61167356675
 30
0.0
  0
VERTEX
  5
2D9
  8
VIAS
 10
1080571.925467802
 20
876576.86419606954
 30
0.0
  0
VERTEX
  5
2DA
  8
VIAS
 10
1080522.703039509
 20
876603.58034168545
 30
0.0
  0
VERTEX
  5
2DB
  8
VIAS
 10
1080402.486684538
 20
876570.14149854914
 30
0.0
  0
VERTEX
  5
2DC
  8
VIAS
 10
1080341.6609217401
 20
876440.79797838267
 30
0.0
  0
VERTEX
  5
2DD
  8
VIAS
 10
1080262.269867026
 20
876318.34754372458
 30
0.0
  0
VERTEX
  5
2DE
  8
VIAS
 10
1080205.612150888
 20
876310.8975189192
 30
0.0
  0
VERTEX
  5
2DF
  8
VIAS
 10
1080075.3955732279
 20
876168.28112257144
 30
0.0
  0
VERTEX
  5
2E0
  8
VIAS
 10
1080051.6698602419
 20
876115.89721314446
 30
0.0
  0
VERTEX
  5
2E1
  8
VIAS
 10
1079917.407413085
 20
876129.87559408974
 30
0.0
  0
VERTEX
  5
2E2
  8
VIAS
 10
1079849.436480996
 20
876066.48809737596
 30
0.0
  0
VERTEX
  5
2E3
  8
VIAS
 10
1079779.190682132
 20
876028.21142517577
 30
0.0
  0
VERTEX
  5
2E4
  8
VIAS
 10
1079680.1045708831
 20
876062.89087874128
 30
0.0
  0
VERTEX
  5
2E5
  8
VIAS
 10
1079645.6763458271
 20
876064.06812325295
 30
0.0
  0
VERTEX
  5
2E6
  8
VIAS
 10
1079607.9350579139
 20
875968.3556625772
 30
0.0
  0
VERTEX
  5
2E7
  8
VIAS
 10
1079621.1261662969
 20
875895.93464832252
 30
0.0
  0
VERTEX
  5
2E8
  8
VIAS
 10
1079616.8207292301
 20
875861.66144940595
 30
0.0
  0
VERTEX
  5
2E9
  8
VIAS
 10
1079562.437863304
 20
875829.10061235714
 30
0.0
  0
VERTEX
  5
2EA
  8
VIAS
 10
1079516.2689133349
 20
875761.83848753117
 30
0.0
  0
VERTEX
  5
2EB
  8
VIAS
 10
1079515.200183433
 20
875730.58374543069
 30
0.0
  0
VERTEX
  5
2EC
  8
VIAS
 10
1079566.6974787009
 20
875678.75678114616
 30
0.0
  0
VERTEX
  5
2ED
  8
VIAS
 10
1079728.5941009689
 20
875648.18782935955
 30
0.0
  0
VERTEX
  5
2EE
  8
VIAS
 10
1079807.3744350399
 20
875661.13964459591
 30
0.0
  0
VERTEX
  5
2EF
  8
VIAS
 10
1079841.161422194
 20
875641.20955599286
 30
0.0
  0
VERTEX
  5
2F0
  8
VIAS
 10
1079928.6136816801
 20
875541.21621197567
 30
0.0
  0
VERTEX
  5
2F1
  8
VIAS
 10
1079962.721287685
 20
875530.66254249576
 30
0.0
  0
VERTEX
  5
2F2
  8
VIAS
 10
1080119.2132259239
 20
875525.31143086764
 30
0.0
  0
VERTEX
  5
2F3
  8
VIAS
 10
1080257.5978982691
 20
875448.60952100146
 30
0.0
  0
VERTEX
  5
2F4
  8
VIAS
 10
1080289.8886635201
 20
875384.92279228882
 30
0.0
  0
VERTEX
  5
2F5
  8
VIAS
 10
1080305.751596659
 20
875390.63863328495
 30
0.0
  0
VERTEX
  5
2F6
  8
VIAS
 10
1080346.866998709
 20
875401.74924206221
 30
0.0
  0
VERTEX
  5
2F7
  8
VIAS
 10
1080405.799564861
 20
875384.08844877908
 30
0.0
  0
VERTEX
  5
2F8
  8
VIAS
 10
1080528.2376679881
 20
875328.1336381986
 30
0.0
  0
SEQEND
  5
2F9
  8
VIAS
  0
POLYLINE
  5
C7
  8
VIAS
 66
     1
 10
0.0
 20
0.0
 30
0.0
  0
VERTEX
  5
2FA
  8
VIAS
 10
1081110.232467473
 20
876666.0430225943
 30
0.0
  0
VERTEX
  5
2FB
  8
VIAS
 10
1081104.531753046
 20
876596.53350210132
 30
0.0
  0
SEQEND
  5
2FC
  8
VIAS
  0
POLYLINE
  5
C8
  8
VIAS
 66
     1
 10
0.0
 20
0.0
 30
0.0
  0
VERTEX
  5
2FD
  8
VIAS
 10
1081258.839471028
 20
876637.72671252105
 30
0.0
  0
VERTEX
  5
2FE
  8
VIAS
 10
1081304.542280735
 20
876678.20789349021
 30
0.0
  0
SEQEND
  5
2FF
  8
VIAS
  0
POLYLINE
  5
C9
  8
VIAS
 66
     1
 10
0.0
 20
0.0
 30
0.0
  0
VERTEX
  5
300
  8
VIAS
 10
1081451.346225058
 20
876564.75890964724
 30
0.0
  0
VERTEX
  5
301
  8
VIAS
 10
1081473.5552183811
 20
876566.21233356348
 30
0.0
  0
VERTEX
  5
302
  8
VIAS
 10
1081474.386574714
 20
876590.52514423465
 30
0.0
  0
VERTEX
  5
303
  8
VIAS
 10
1081437.2024265821
 20
876637.15983871359
 30
0.0
  0
VERTEX
  5
304
  8
VIAS
 10
1081410.7341107549
 20
876705.55651046615
 30
0.0
  0
VERTEX
  5
305
  8
VIAS
 10
1081400.309814783
 20
876724.72209974239
 30
0.0
  0
VERTEX
  5
306
  8
VIAS
 10
1081371.07211552
 20
876744.53099183924
 30
0.0
  0
VERTEX
  5
307
  8
VIAS
 10
1081356.685395509
 20
876745.02293376031
 30
0.0
  0
VERTEX
  5
308
  8
VIAS
 10
1081357.6139137889
 20
876707.37291140587
 30
0.0
  0
VERTEX
  5
309
  8
VIAS
 10
1081355.1846307979
 20
876668.73128528963
 30
0.0
  0
VERTEX
  5
30A
  8
VIAS
 10
1081314.237795342
 20
876670.13142826059
 30
0.0
  0
VERTEX
  5
30B
  8
VIAS
 10
1081294.8089773681
 20
876685.17923574441
 30
0.0
  0
VERTEX
  5
30C
  8
VIAS
 10
1081277.8472315441
 20
876739.97380401019
 30
0.0
  0
VERTEX
  5
30D
  8
VIAS
 10
1081241.2407262961
 20
876771.09887027077
 30
0.0
  0
VERTEX
  5
30E
  8
VIAS
 10
1081236.5765175391
 20
876796.70601234864
 30
0.0
  0
VERTEX
  5
30F
  8
VIAS
 10
1081239.4700597699
 20
876816.52263021015
 30
0.0
  0
VERTEX
  5
310
  8
VIAS
 10
1081262.548198187
 20
876843.39398777287
 30
0.0
  0
VERTEX
  5
311
  8
VIAS
 10
1081235.0325845759
 20
876848.76053936593
 30
0.0
  0
VERTEX
  5
312
  8
VIAS
 10
1081196.4232494549
 20
876821.31383717014
 30
0.0
  0
VERTEX
  5
313
  8
VIAS
 10
1081111.247389117
 20
876825.33277583146
 30
0.0
  0
VERTEX
  5
314
  8
VIAS
 10
1081073.809510574
 20
876832.14503200096
 30
0.0
  0
VERTEX
  5
315
  8
VIAS
 10
1081020.7756834419
 20
876804.08514232584
 30
0.0
  0
VERTEX
  5
316
  8
VIAS
 10
1080984.984312631
 20
876794.24480035051
 30
0.0
  0
VERTEX
  5
317
  8
VIAS
 10
1080932.9707864351
 20
876796.02335960395
 30
0.0
  0
VERTEX
  5
318
  8
VIAS
 10
1080903.706090525
 20
876782.64058631484
 30
0.0
  0
VERTEX
  5
319
  8
VIAS
 10
1080889.745840593
 20
876763.20238531579
 30
0.0
  0
VERTEX
  5
31A
  8
VIAS
 10
1080883.343341649
 20
876737.97366010037
 30
0.0
  0
VERTEX
  5
31B
  8
VIAS
 10
1080817.607074036
 20
876694.85823775688
 30
0.0
  0
VERTEX
  5
31C
  8
VIAS
 10
1080773.539979948
 20
876669.81100105331
 30
0.0
  0
VERTEX
  5
31D
  8
VIAS
 10
1080740.8040989221
 20
876652.12123812083
 30
0.0
  0
VERTEX
  5
31E
  8
VIAS
 10
1080713.261488464
 20
876624.29611848271
 30
0.0
  0
VERTEX
  5
31F
  8
VIAS
 10
1080692.699002872
 20
876606.19009642152
 30
0.0
  0
VERTEX
  5
320
  8
VIAS
 10
1080635.1521228261
 20
876608.15786410612
 30
0.0
  0
VERTEX
  5
321
  8
VIAS
 10
1080610.7940743901
 20
876567.61167356675
 30
0.0
  0
SEQEND
  5
322
  8
VIAS
  0
POLYLINE
  5
CA
  8
VIAS
 66
     1
 10
0.0
 20
0.0
 30
0.0
  0
VERTEX
  5
323
  8
VIAS
 10
1080578.791389623
 20
876209.5762429575
 30
0.0
  0
VERTEX
  5
324
  8
VIAS
 10
1080603.0821940489
 20
876226.50479926425
 30
0.0
  0
VERTEX
  5
325
  8
VIAS
 10
1080605.036634956
 20
876283.66194098466
 30
0.0
  0
VERTEX
  5
326
  8
VIAS
 10
1080584.943534238
 20
876331.70677411021
 30
0.0
  0
SEQEND
  5
327
  8
VIAS
  0
POLYLINE
  5
CB
  8
VIAS
 66
     1
 10
0.0
 20
0.0
 30
0.0
  0
VERTEX
  5
328
  8
VIAS
 10
1080699.9372999419
 20
875996.27028241695
 30
0.0
  0
VERTEX
  5
329
  8
VIAS
 10
1080713.5894795761
 20
876279.95006677823
 30
0.0
  0
SEQEND
  5
32A
  8
VIAS
  0
POLYLINE
  5
CC
  8
VIAS
 66
     1
 10
0.0
 20
0.0
 30
0.0
  0
VERTEX
  5
32B
  8
VIAS
 10
1080840.4735054879
 20
876003.30420389643
 30
0.0
  0
VERTEX
  5
32C
  8
VIAS
 10
1080884.058401237
 20
876526.69578113768
 30
0.0
  0
SEQEND
  5
32D
  8
VIAS
  0
POLYLINE
  5
CD
  8
VIAS
 66
     1
 10
0.0
 20
0.0
 30
0.0
  0
VERTEX
  5
32E
  8
VIAS
 10
1080967.193916233
 20
876010.81055083626
 30
0.0
  0
VERTEX
  5
32F
  8
VIAS
 10
1081010.037455318
 20
876512.52183211129
 30
0.0
  0
SEQEND
  5
330
  8
VIAS
  0
POLYLINE
  5
CE
  8
VIAS
 66
     1
 10
0.0
 20
0.0
 30
0.0
  0
VERTEX
  5
331
  8
VIAS
 10
1081132.5505001349
 20
876281.40996338974
 30
0.0
  0
VERTEX
  5
332
  8
VIAS
 10
1081173.3144087461
 20
876491.15279239696
 30
0.0
  0
SEQEND
  5
333
  8
VIAS
  0
POLYLINE
  5
CF
  8
VIAS
 66
     1
 10
0.0
 20
0.0
 30
0.0
  0
VERTEX
  5
334
  8
VIAS
 10
1081256.690675179
 20
876271.24537333637
 30
0.0
  0
VERTEX
  5
335
  8
VIAS
 10
1081291.1291446269
 20
876469.36504951795
 30
0.0
  0
SEQEND
  5
336
  8
VIAS
  0
POLYLINE
  5
D0
  8
VIAS
 66
     1
 10
0.0
 20
0.0
 30
0.0
  0
VERTEX
  5
337
  8
VIAS
 10
1080606.8755307561
 20
876279.65257558646
 30
0.0
  0
VERTEX
  5
338
  8
VIAS
 10
1081083.1409127871
 20
876281.12624310364
 30
0.0
  0
VERTEX
  5
339
  8
VIAS
 10
1081388.995168223
 20
876268.69457129028
 30
0.0
  0
SEQEND
  5
33A
  8
VIAS
  0
POLYLINE
  5
D1
  8
VIAS
 66
     1
 10
0.0
 20
0.0
 30
0.0
  0
VERTEX
  5
33B
  8
VIAS
 10
1081021.744810242
 20
876508.17502881587
 30
0.0
  0
VERTEX
  5
33C
  8
VIAS
 10
1081120.34251152
 20
876155.54002675018
 30
0.0
  0
VERTEX
  5
33D
  8
VIAS
 10
1081103.542079892
 20
876126.51589742233
 30
0.0
  0
SEQEND
  5
33E
  8
VIAS
  0
POLYLINE
  5
D2
  8
VIAS
 66
     1
 10
0.0
 20
0.0
 30
0.0
  0
VERTEX
  5
33F
  8
VIAS
 10
1081133.975446861
 20
876496.4444355031
 30
0.0
  0
VERTEX
  5
340
  8
VIAS
 10
1080724.796212509
 20
876549.90078518272
 30
0.0
  0
SEQEND
  5
341
  8
VIAS
  0
POLYLINE
  5
D3
  8
VIAS
 66
     1
 10
0.0
 20
0.0
 30
0.0
  0
VERTEX
  5
342
  8
VIAS
 10
1081305.5996574981
 20
876545.82661474263
 30
0.0
  0
VERTEX
  5
343
  8
VIAS
 10
1081197.72075808
 20
876569.24784997723
 30
0.0
  0
SEQEND
  5
344
  8
VIAS
  0
POLYLINE
  5
D4
  8
VIAS
 66
     1
 10
0.0
 20
0.0
 30
0.0
  0
VERTEX
  5
345
  8
VIAS
 10
1081296.357027293
 20
876506.67785259767
 30
0.0
  0
VERTEX
  5
346
  8
VIAS
 10
1081166.8349534511
 20
876532.81239819201
 30
0.0
  0
SEQEND
  5
347
  8
VIAS
  0
POLYLINE
  5
D5
  8
VIAS
 66
     1
 10
0.0
 20
0.0
 30
0.0
  0
VERTEX
  5
348
  8
VIAS
 10
1081293.1702410891
 20
876471.26849593979
 30
0.0
  0
VERTEX
  5
349
  8
VIAS
 10
1081314.909699165
 20
876586.94631182577
 30
0.0
  0
SEQEND
  5
34A
  8
VIAS
  0
POLYLINE
  5
D6
  8
VIAS
 66
     1
 10
0.0
 20
0.0
 30
0.0
  0
VERTEX
  5
34B
  8
VIAS
 10
1080567.3632119349
 20
875990.93734296993
 30
0.0
  0
VERTEX
  5
34C
  8
VIAS
 10
1080593.724064762
 20
876530.70380216604
 30
0.0
  0
VERTEX
  5
34D
  8
VIAS
 10
1080610.7940743901
 20
876567.61167356675
 30
0.0
  0
VERTEX
  5
34E
  8
VIAS
 10
1080644.0771922751
 20
876558.58062497352
 30
0.0
  0
VERTEX
  5
34F
  8
VIAS
 10
1080724.796212509
 20
876549.90078518272
 30
0.0
  0
VERTEX
  5
350
  8
VIAS
 10
1080996.298699877
 20
876688.61000820925
 30
0.0
  0
VERTEX
  5
351
  8
VIAS
 10
1081259.3576122611
 20
876638.17688135128
 30
0.0
  0
VERTEX
  5
352
  8
VIAS
 10
1081234.460257133
 20
876603.50989953487
 30
0.0
  0
VERTEX
  5
353
  8
VIAS
 10
1081452.461319169
 20
876564.4836884673
 30
0.0
  0
VERTEX
  5
354
  8
VIAS
 10
1081445.3945405029
 20
876531.1802449408
 30
0.0
  0
VERTEX
  5
355
  8
VIAS
 10
1081472.015263686
 20
876500.67136535072
 30
0.0
  0
VERTEX
  5
356
  8
VIAS
 10
1081454.0691253541
 20
876438.14132636704
 30
0.0
  0
VERTEX
  5
357
  8
VIAS
 10
1081134.110235862
 20
876500.38630653964
 30
0.0
  0
VERTEX
  5
358
  8
VIAS
 10
1081230.44547567
 20
876601.67394162947
 30
0.0
  0
SEQEND
  5
359
  8
VIAS
  0
POLYLINE
  5
D7
  8
VIAS
 66
     1
 10
0.0
 20
0.0
 30
0.0
  0
VERTEX
  5
35A
  8
VIAS
 10
1080656.5056934501
 20
875994.00226407568
 30
0.0
  0
VERTEX
  5
35B
  8
VIAS
 10
1080550.8915115129
 20
875735.07219449745
 30
0.0
  0
SEQEND
  5
35C
  8
VIAS
  0
POLYLINE
  5
D8
  8
VIAS
 66
     1
 10
0.0
 20
0.0
 30
0.0
  0
VERTEX
  5
35D
  8
VIAS
 10
1080578.2561106801
 20
875522.05170629208
 30
0.0
  0
VERTEX
  5
35E
  8
VIAS
 10
1080797.0443193109
 20
875997.28688590135
 30
0.0
  0
SEQEND
  5
35F
  8
VIAS
  0
POLYLINE
  5
D9
  8
VIAS
 66
     1
 10
0.0
 20
0.0
 30
0.0
  0
VERTEX
  5
360
  8
VIAS
 10
1080754.9260600661
 20
875397.35406799626
 30
0.0
  0
VERTEX
  5
361
  8
VIAS
 10
1080673.9792122149
 20
875478.32743598137
 30
0.0
  0
VERTEX
  5
362
  8
VIAS
 10
1080541.1379197971
 20
875542.19811163505
 30
0.0
  0
SEQEND
  5
363
  8
VIAS
  0
POLYLINE
  5
DA
  8
VIAS
 66
     1
 10
0.0
 20
0.0
 30
0.0
  0
VERTEX
  5
364
  8
VIAS
 10
1080577.7823968439
 20
875271.27108451223
 30
0.0
  0
VERTEX
  5
365
  8
VIAS
 10
1080921.5830366679
 20
876006.51208952547
 30
0.0
  0
SEQEND
  5
366
  8
VIAS
  0
POLYLINE
  5
DB
  8
VIAS
 66
     1
 10
0.0
 20
0.0
 30
0.0
  0
VERTEX
  5
367
  8
VIAS
 10
1080661.242404646
 20
875184.81830287457
 30
0.0
  0
VERTEX
  5
368
  8
VIAS
 10
1081038.810305689
 20
876011.79298312217
 30
0.0
  0
SEQEND
  5
369
  8
VIAS
  0
POLYLINE
  5
DC
  8
VIAS
 66
     1
 10
0.0
 20
0.0
 30
0.0
  0
VERTEX
  5
36A
  8
VIAS
 10
1080747.7681688189
 20
875109.04764672648
 30
0.0
  0
VERTEX
  5
36B
  8
VIAS
 10
1081184.607745222
 20
876037.96927694592
 30
0.0
  0
SEQEND
  5
36C
  8
VIAS
  0
POLYLINE
  5
DD
  8
VIAS
 66
     1
 10
0.0
 20
0.0
 30
0.0
  0
VERTEX
  5
36D
  8
VIAS
 10
1080811.6098809999
 20
875001.69177172624
 30
0.0
  0
VERTEX
  5
36E
  8
VIAS
 10
1080756.7154794829
 20
875054.80690093862
 30
0.0
  0
VERTEX
  5
36F
  8
VIAS
 10
1080738.1761395149
 20
875144.43325844395
 30
0.0
  0
VERTEX
  5
370
  8
VIAS
 10
1080687.3869728011
 20
875159.65364734048
 30
0.0
  0
VERTEX
  5
371
  8
VIAS
 10
1080661.242404646
 20
875184.81830287457
 30
0.0
  0
VERTEX
  5
372
  8
VIAS
 10
1080528.09849142
 20
875318.81456690689
 30
0.0
  0
VERTEX
  5
373
  8
VIAS
 10
1080564.5194236489
 20
875989.0574406815
 30
0.0
  0
VERTEX
  5
374
  8
VIAS
 10
1081046.029631804
 20
876013.04369822121
 30
0.0
  0
VERTEX
  5
375
  8
VIAS
 10
1081103.9371957821
 20
876127.02342034702
 30
0.0
  0
VERTEX
  5
376
  8
VIAS
 10
1081210.7523135771
 20
876012.8046272567
 30
0.0
  0
VERTEX
  5
377
  8
VIAS
 10
1081220.252254585
 20
875974.72541945055
 30
0.0
  0
VERTEX
  5
378
  8
VIAS
 10
1081269.172996952
 20
875983.83957769652
 30
0.0
  0
SEQEND
  5
379
  8
VIAS
  0
POLYLINE
  5
DE
  8
VIAS
 66
     1
 10
0.0
 20
0.0
 30
0.0
  0
VERTEX
  5
37A
  8
VIAS
 10
1080814.123007026
 20
874996.21235923376
 30
0.0
  0
VERTEX
  5
37B
  8
VIAS
 10
1081175.673551647
 20
875776.69099190214
 30
0.0
  0
SEQEND
  5
37C
  8
VIAS
  0
POLYLINE
  5
DF
  8
VIAS
 66
     1
 10
0.0
 20
0.0
 30
0.0
  0
VERTEX
  5
37D
  8
VIAS
 10
1082142.418005398
 20
875949.69218916225
 30
0.0
  0
VERTEX
  5
37E
  8
VIAS
 10
1081761.6860855799
 20
875910.87785550149
 30
0.0
  0
SEQEND
  5
37F
  8
VIAS
  0
POLYLINE
  5
E0
  8
VIAS
 66
     1
 10
0.0
 20
0.0
 30
0.0
  0
VERTEX
  5
380
  8
VIAS
 10
1082169.8759418391
 20
876065.99492638139
 30
0.0
  0
VERTEX
  5
381
  8
VIAS
 10
1081822.810107853
 20
876035.90238556126
 30
0.0
  0
SEQEND
  5
382
  8
VIAS
  0
POLYLINE
  5
E1
  8
VIAS
 66
     1
 10
0.0
 20
0.0
 30
0.0
  0
VERTEX
  5
383
  8
VIAS
 10
1082119.018570181
 20
876168.93199751864
 30
0.0
  0
VERTEX
  5
384
  8
VIAS
 10
1081847.492153995
 20
876179.4507394915
 30
0.0
  0
SEQEND
  5
385
  8
VIAS
  0
POLYLINE
  5
E2
  8
VIAS
 66
     1
 10
0.0
 20
0.0
 30
0.0
  0
VERTEX
  5
386
  8
VIAS
 10
1081708.6007407929
 20
875804.09028074506
 30
0.0
  0
VERTEX
  5
387
  8
VIAS
 10
1082124.27527504
 20
875852.81688534433
 30
0.0
  0
VERTEX
  5
388
  8
VIAS
 10
1082181.774393108
 20
876124.82595196087
 30
0.0
  0
VERTEX
  5
389
  8
VIAS
 10
1082050.259341175
 20
876218.17981872207
 30
0.0
  0
VERTEX
  5
38A
  8
VIAS
 10
1082013.227274694
 20
876219.44609942485
 30
0.0
  0
VERTEX
  5
38B
  8
VIAS
 10
1081947.358357518
 20
876280.93631546665
 30
0.0
  0
VERTEX
  5
38C
  8
VIAS
 10
1081869.7174405551
 20
876287.29354826384
 30
0.0
  0
SEQEND
  5
38D
  8
VIAS
  0
POLYLINE
  5
E3
  8
VIAS
 66
     1
 10
0.0
 20
0.0
 30
0.0
  0
VERTEX
  5
38E
  8
VIAS
 10
1081726.135238979
 20
876429.57673204457
 30
0.0
  0
VERTEX
  5
38F
  8
VIAS
 10
1081660.864523265
 20
876475.80842598516
 30
0.0
  0
SEQEND
  5
390
  8
VIAS
  0
POLYLINE
  5
E4
  8
VIAS
 66
     1
 10
0.0
 20
0.0
 30
0.0
  0
VERTEX
  5
391
  8
VIAS
 10
1081846.734645389
 20
876179.66085517709
 30
0.0
  0
VERTEX
  5
392
  8
VIAS
 10
1081587.087963768
 20
876451.0209267902
 30
0.0
  0
SEQEND
  5
393
  8
VIAS
  0
POLYLINE
  5
E5
  8
VIAS
 66
     1
 10
0.0
 20
0.0
 30
0.0
  0
VERTEX
  5
394
  8
VIAS
 10
1081820.3583505771
 20
876030.35649433814
 30
0.0
  0
VERTEX
  5
395
  8
VIAS
 10
1081464.0233741021
 20
876406.67749640346
 30
0.0
  0
SEQEND
  5
396
  8
VIAS
  0
POLYLINE
  5
E6
  8
VIAS
 66
     1
 10
0.0
 20
0.0
 30
0.0
  0
VERTEX
  5
397
  8
VIAS
 10
1081499.753318036
 20
876034.42966051376
 30
0.0
  0
VERTEX
  5
398
  8
VIAS
 10
1081641.186803523
 20
876052.88535722625
 30
0.0
  0
SEQEND
  5
399
  8
VIAS
  0
POLYLINE
  5
E7
  8
VIAS
 66
     1
 10
0.0
 20
0.0
 30
0.0
  0
VERTEX
  5
39A
  8
VIAS
 10
1081767.0015328489
 20
875923.79635109834
 30
0.0
  0
VERTEX
  5
39B
  8
VIAS
 10
1081414.98600815
 20
876291.87117865472
 30
0.0
  0
SEQEND
  5
39C
  8
VIAS
  0
POLYLINE
  5
E8
  8
VIAS
 66
     1
 10
0.0
 20
0.0
 30
0.0
  0
VERTEX
  5
39D
  8
VIAS
 10
1081711.6952208311
 20
875816.13736114453
 30
0.0
  0
VERTEX
  5
39E
  8
VIAS
 10
1081361.015988508
 20
876176.1113427782
 30
0.0
  0
SEQEND
  5
39F
  8
VIAS
  0
POLYLINE
  5
E9
  8
VIAS
 66
     1
 10
0.0
 20
0.0
 30
0.0
  0
VERTEX
  5
3A0
  8
VIAS
 10
1081653.001052371
 20
875703.76112578344
 30
0.0
  0
VERTEX
  5
3A1
  8
VIAS
 10
1081308.712368309
 20
876061.90555392171
 30
0.0
  0
SEQEND
  5
3A2
  8
VIAS
  0
POLYLINE
  5
EA
  8
VIAS
 66
     1
 10
0.0
 20
0.0
 30
0.0
  0
VERTEX
  5
3A3
  8
VIAS
 10
1081502.48085009
 20
875689.57565995445
 30
0.0
  0
VERTEX
  5
3A4
  8
VIAS
 10
1081256.573835968
 20
875952.52722206688
 30
0.0
  0
SEQEND
  5
3A5
  8
VIAS
  0
POLYLINE
  5
EB
  8
VIAS
 66
     1
 10
0.0
 20
0.0
 30
0.0
 70
     1
  0
VERTEX
  5
3A6
  8
VIAS
 10
1081630.062100149
 20
875653.84818627243
 30
0.0
  0
VERTEX
  5
3A7
  8
VIAS
 10
1081175.1240359391
 20
875776.82509466854
 30
0.0
  0
VERTEX
  5
3A8
  8
VIAS
 10
1081467.2391581291
 20
876416.60056261695
 30
0.0
  0
VERTEX
  5
3A9
  8
VIAS
 10
1081502.47041018
 20
876449.45607438183
 30
0.0
  0
VERTEX
  5
3AA
  8
VIAS
 10
1081596.991383451
 20
876451.46404278686
 30
0.0
  0
VERTEX
  5
3AB
  8
VIAS
 10
1081655.539665577
 20
876475.66219936602
 30
0.0
  0
VERTEX
  5
3AC
  8
VIAS
 10
1081690.6814328469
 20
876505.90075083997
 30
0.0
  0
VERTEX
  5
3AD
  8
VIAS
 10
1081734.3369715291
 20
876478.20782549307
 30
0.0
  0
VERTEX
  5
3AE
  8
VIAS
 10
1081724.8644140309
 20
876431.37143341138
 30
0.0
  0
VERTEX
  5
3AF
  8
VIAS
 10
1081736.5357097969
 20
876389.05207345251
 30
0.0
  0
VERTEX
  5
3B0
  8
VIAS
 10
1081769.7982994879
 20
876364.33454064617
 30
0.0
  0
VERTEX
  5
3B1
  8
VIAS
 10
1081768.366545009
 20
876322.46323444077
 30
0.0
  0
VERTEX
  5
3B2
  8
VIAS
 10
1081786.17390436
 20
876306.13422911929
 30
0.0
  0
VERTEX
  5
3B3
  8
VIAS
 10
1081815.000622123
 20
876305.14852348913
 30
0.0
  0
VERTEX
  5
3B4
  8
VIAS
 10
1081836.233977129
 20
876312.28251532256
 30
0.0
  0
VERTEX
  5
3B5
  8
VIAS
 10
1081869.7650035981
 20
876295.41584643396
 30
0.0
  0
VERTEX
  5
3B6
  8
VIAS
 10
1081836.937038193
 20
876102.65714958892
 30
0.0
  0
VERTEX
  5
3B7
  8
VIAS
 10
1081821.3284003481
 20
876029.83040929504
 30
0.0
  0
SEQEND
  5
3B8
  8
VIAS
  0
ENDSEC
  0
EOF
