  0
SECTION
  2
HEADER
  9
$ACADVER
  1
AC1009
  9
$INSBASE
 10
0.0
 20
0.0
 30
0.0
  9
$EXTMIN
 10
721125.4609000004129484
 20
624394.2449999991804361
 30
0.0
  9
$EXTMAX
 10
730347.7746999999508262
 20
635999.3937999997287989
 30
0.0
  9
$LIMMIN
 10
0.0
 20
0.0
  9
$LIMMAX
 10
12.0
 20
9.0
  9
$ORTHOMODE
 70
     0
  9
$REGENMODE
 70
     1
  9
$FILLMODE
 70
     1
  9
$QTEXTMODE
 70
     0
  9
$MIRRTEXT
 70
     1
  9
$DRAGMODE
 70
     2
  9
$LTSCALE
 40
1.0
  9
$OSMODE
 70
    37
  9
$ATTMODE
 70
     1
  9
$TEXTSIZE
 40
0.2
  9
$TRACEWID
 40
0.05
  9
$TEXTSTYLE
  7
STANDARD
  9
$CLAYER
  8
0
  9
$CELTYPE
  6
BYLAYER
  9
$CECOLOR
 62
   256
  9
$DIMSCALE
 40
1.0
  9
$DIMASZ
 40
0.18
  9
$DIMEXO
 40
0.0625
  9
$DIMDLI
 40
0.38
  9
$DIMRND
 40
0.0
  9
$DIMDLE
 40
0.0
  9
$DIMEXE
 40
0.18
  9
$DIMTP
 40
0.0
  9
$DIMTM
 40
0.0
  9
$DIMTXT
 40
0.18
  9
$DIMCEN
 40
0.09
  9
$DIMTSZ
 40
0.0
  9
$DIMTOL
 70
     0
  9
$DIMLIM
 70
     0
  9
$DIMTIH
 70
     1
  9
$DIMTOH
 70
     1
  9
$DIMSE1
 70
     0
  9
$DIMSE2
 70
     0
  9
$DIMTAD
 70
     0
  9
$DIMZIN
 70
     0
  9
$DIMBLK
  1

  9
$DIMASO
 70
     1
  9
$DIMSHO
 70
     1
  9
$DIMPOST
  1

  9
$DIMAPOST
  1

  9
$DIMALT
 70
     0
  9
$DIMALTD
 70
     2
  9
$DIMALTF
 40
25.3999999999999986
  9
$DIMLFAC
 40
1.0
  9
$DIMTOFL
 70
     0
  9
$DIMTVP
 40
0.0
  9
$DIMTIX
 70
     0
  9
$DIMSOXD
 70
     0
  9
$DIMSAH
 70
     0
  9
$DIMBLK1
  1

  9
$DIMBLK2
  1

  9
$DIMSTYLE
  2
STANDARD
  9
$DIMCLRD
 70
     0
  9
$DIMCLRE
 70
     0
  9
$DIMCLRT
 70
     0
  9
$DIMTFAC
 40
1.0
  9
$DIMGAP
 40
0.09
  9
$LUNITS
 70
     2
  9
$LUPREC
 70
     4
  9
$SKETCHINC
 40
0.1
  9
$FILLETRAD
 40
0.5
  9
$AUNITS
 70
     0
  9
$AUPREC
 70
     0
  9
$MENU
  1
.
  9
$ELEVATION
 40
0.0
  9
$PELEVATION
 40
0.0
  9
$THICKNESS
 40
0.0
  9
$LIMCHECK
 70
     0
  9
$BLIPMODE
 70
     0
  9
$CHAMFERA
 40
0.5
  9
$CHAMFERB
 40
0.5
  9
$SKPOLY
 70
     0
  9
$TDCREATE
 40
2457765.7465693871490657
  9
$TDUPDATE
 40
2457899.5535435769706964
  9
$TDINDWG
 40
0.0010143519
  9
$TDUSRTIMER
 40
0.0010143287
  9
$USRTIMER
 70
     1
  9
$ANGBASE
 50
0.0
  9
$ANGDIR
 70
     0
  9
$PDMODE
 70
     0
  9
$PDSIZE
 40
0.0
  9
$PLINEWID
 40
0.0
  9
$COORDS
 70
     1
  9
$SPLFRAME
 70
     0
  9
$SPLINETYPE
 70
     6
  9
$SPLINESEGS
 70
     8
  9
$ATTDIA
 70
     1
  9
$ATTREQ
 70
     1
  9
$HANDLING
 70
     1
  9
$HANDSEED
  5
2BB
  9
$SURFTAB1
 70
     6
  9
$SURFTAB2
 70
     6
  9
$SURFTYPE
 70
     6
  9
$SURFU
 70
     6
  9
$SURFV
 70
     6
  9
$UCSNAME
  2

  9
$UCSORG
 10
0.0
 20
0.0
 30
0.0
  9
$UCSXDIR
 10
1.0
 20
0.0
 30
0.0
  9
$UCSYDIR
 10
0.0
 20
1.0
 30
0.0
  9
$PUCSNAME
  2

  9
$PUCSORG
 10
0.0
 20
0.0
 30
0.0
  9
$PUCSXDIR
 10
1.0
 20
0.0
 30
0.0
  9
$PUCSYDIR
 10
0.0
 20
1.0
 30
0.0
  9
$USERI1
 70
     0
  9
$USERI2
 70
     0
  9
$USERI3
 70
     0
  9
$USERI4
 70
     0
  9
$USERI5
 70
     0
  9
$USERR1
 40
0.0
  9
$USERR2
 40
0.0
  9
$USERR3
 40
0.0
  9
$USERR4
 40
0.0
  9
$USERR5
 40
0.0
  9
$WORLDVIEW
 70
     1
  9
$SHADEDGE
 70
     3
  9
$SHADEDIF
 70
    70
  9
$TILEMODE
 70
     1
  9
$MAXACTVP
 70
    64
  9
$PLIMCHECK
 70
     0
  9
$PEXTMIN
 10
1.0000000000000000E+20
 20
1.0000000000000000E+20
 30
1.0000000000000000E+20
  9
$PEXTMAX
 10
-1.0000000000000000E+20
 20
-1.0000000000000000E+20
 30
-1.0000000000000000E+20
  9
$PLIMMIN
 10
0.0
 20
0.0
  9
$PLIMMAX
 10
12.0
 20
9.0
  9
$UNITMODE
 70
     0
  9
$VISRETAIN
 70
     1
  9
$PLINEGEN
 70
     0
  9
$PSLTSCALE
 70
     1
  0
ENDSEC
  0
SECTION
  2
TABLES
  0
TABLE
  2
VPORT
 70
     1
  0
VPORT
  2
*ACTIVE
 70
     0
 10
0.0
 20
0.0
 11
1.0
 21
1.0
 12
728210.5526337513001636
 22
632054.4134174454957247
 13
0.0
 23
0.0
 14
0.5
 24
0.5
 15
0.5
 25
0.5
 16
0.0
 26
0.0
 36
1.0
 17
0.0
 27
0.0
 37
0.0
 40
19455.8608309973787982
 41
1.1160714285714279
 42
50.0
 43
0.0
 44
0.0
 50
0.0
 51
0.0
 71
     0
 72
   100
 73
     1
 74
     3
 75
     0
 76
     0
 77
     0
 78
     0
  0
ENDTAB
  0
TABLE
  2
LTYPE
 70
     1
  0
LTYPE
  2
CONTINUOUS
 70
     0
  3
Solid line
 72
    65
 73
     0
 40
0.0
  0
ENDTAB
  0
TABLE
  2
LAYER
 70
     2
  0
LAYER
  2
0
 70
     0
 62
     7
  6
CONTINUOUS
  0
LAYER
  2
NOSURVEY
 70
     0
 62
     7
  6
CONTINUOUS
  0
ENDTAB
  0
TABLE
  2
STYLE
 70
     1
  0
STYLE
  2
STANDARD
 70
     0
 40
0.0
 41
1.0
 50
0.0
 71
     0
 42
0.2
  3
txt
  4

  0
ENDTAB
  0
TABLE
  2
VIEW
 70
     0
  0
ENDTAB
  0
TABLE
  2
UCS
 70
     0
  0
ENDTAB
  0
TABLE
  2
APPID
 70
     3
  0
APPID
  2
ACAD
 70
     0
  0
APPID
  2
ACAD_NAV_VCDISPLAY
 70
     0
  0
APPID
  2
ACAD_MLEADERVER
 70
     0
  0
ENDTAB
  0
TABLE
  2
DIMSTYLE
 70
     1
  0
DIMSTYLE
  2
STANDARD
 70
     0
  3

  4

  5

  6

  7

 40
1.0
 41
0.18
 42
0.0625
 43
0.38
 44
0.18
 45
0.0
 46
0.0
 47
0.0
 48
0.0
140
0.18
141
0.09
142
0.0
143
25.3999999999999986
144
1.0
145
0.0
146
1.0
147
0.09
 71
     0
 72
     0
 73
     1
 74
     1
 75
     0
 76
     0
 77
     0
 78
     0
170
     0
171
     2
172
     0
173
     0
174
     0
175
     0
176
     0
177
     0
178
     0
  0
ENDTAB
  0
ENDSEC
  0
SECTION
  2
BLOCKS
  0
BLOCK
  8
0
  2
$MODEL_SPACE
 70
     0
 10
0.0
 20
0.0
 30
0.0
  3
$MODEL_SPACE
  1

  0
ENDBLK
  5
21
  8
0
  0
BLOCK
 67
     1
  8
0
  2
$PAPER_SPACE
 70
     0
 10
0.0
 20
0.0
 30
0.0
  3
$PAPER_SPACE
  1

  0
ENDBLK
  5
1D
 67
     1
  8
0
  0
ENDSEC
  0
SECTION
  2
ENTITIES
  0
POLYLINE
  5
6B
  8
NOSURVEY
 66
     1
 10
0.0
 20
0.0
 30
0.0
 70
     1
  0
VERTEX
  5
10F
  8
NOSURVEY
 10
730000.285899999551475
 20
633004.133899999782443
 30
0.0
  0
VERTEX
  5
110
  8
NOSURVEY
 10
729576.7024999995483086
 20
633004.9647000003606081
 30
0.0
  0
VERTEX
  5
111
  8
NOSURVEY
 10
729592.6715000001713634
 20
633057.6122999993385747
 30
0.0
  0
VERTEX
  5
112
  8
NOSURVEY
 10
729618.2205999996513128
 20
633142.1673000007867813
 30
0.0
  0
VERTEX
  5
113
  8
NOSURVEY
 10
729635.7835999997332692
 20
633177.2656999994069338
 30
0.0
  0
VERTEX
  5
114
  8
NOSURVEY
 10
729979.8996000001206994
 20
633243.4745000003604218
 30
0.0
  0
VERTEX
  5
115
  8
NOSURVEY
 10
729998.5713999998988584
 20
633244.5644000006141141
 30
0.0
  0
SEQEND
  5
116
  8
NOSURVEY
  0
POLYLINE
  5
6C
  8
NOSURVEY
 66
     1
 10
0.0
 20
0.0
 30
0.0
 70
     1
  0
VERTEX
  5
117
  8
NOSURVEY
 10
729756.8683000003220513
 20
631007.446399999782443
 30
0.0
  0
VERTEX
  5
118
  8
NOSURVEY
 10
729555.9204000002937391
 20
631003.2111000008881092
 30
0.0
  0
VERTEX
  5
119
  8
NOSURVEY
 10
729529.7330999999539927
 20
631035.9166000001132488
 30
0.0
  0
VERTEX
  5
11A
  8
NOSURVEY
 10
729487.6442999998107553
 20
631148.0502000004053116
 30
0.0
  0
VERTEX
  5
11B
  8
NOSURVEY
 10
729436.1479999999282882
 20
631268.959100000676699
 30
0.0
  0
VERTEX
  5
11C
  8
NOSURVEY
 10
729393.1238999998895451
 20
631382.9619999993592501
 30
0.0
  0
VERTEX
  5
11D
  8
NOSURVEY
 10
729341.3400999995646998
 20
631335.9032000005245209
 30
0.0
  0
VERTEX
  5
11E
  8
NOSURVEY
 10
729217.2795000001788139
 20
631233.6542000006884336
 30
0.0
  0
VERTEX
  5
11F
  8
NOSURVEY
 10
729051.0069000005023554
 20
631108.6483999993652105
 30
0.0
  0
VERTEX
  5
120
  8
NOSURVEY
 10
729000.2753999995766208
 20
631131.0305000003427267
 30
0.0
  0
VERTEX
  5
121
  8
NOSURVEY
 10
729000.6830000001937151
 20
631001.3522999994456768
 30
0.0
  0
VERTEX
  5
122
  8
NOSURVEY
 10
728569.4113999996334314
 20
631000.4376999996602535
 30
0.0
  0
VERTEX
  5
123
  8
NOSURVEY
 10
728760.9517999998060986
 20
631276.5447000004351139
 30
0.0
  0
VERTEX
  5
124
  8
NOSURVEY
 10
728703.0215999995125458
 20
631320.5996000004233792
 30
0.0
  0
VERTEX
  5
125
  8
NOSURVEY
 10
728643.6379000004380941
 20
631360.6482999996514991
 30
0.0
  0
VERTEX
  5
126
  8
NOSURVEY
 10
728699.4697000001324341
 20
631427.3574000000953674
 30
0.0
  0
VERTEX
  5
127
  8
NOSURVEY
 10
728444.633399999816902
 20
631591.3561000005574897
 30
0.0
  0
VERTEX
  5
128
  8
NOSURVEY
 10
728434.4770000000717118
 20
631623.5381000004708767
 30
0.0
  0
VERTEX
  5
129
  8
NOSURVEY
 10
728439.4099000003188848
 20
631639.4856000002473593
 30
0.0
  0
VERTEX
  5
12A
  8
NOSURVEY
 10
728386.014399999869056
 20
631667.0293000005185604
 30
0.0
  0
VERTEX
  5
12B
  8
NOSURVEY
 10
728333.4879999998956919
 20
631701.2412000000476837
 30
0.0
  0
VERTEX
  5
12C
  8
NOSURVEY
 10
728319.5585000002756715
 20
631695.1531000006943941
 30
0.0
  0
VERTEX
  5
12D
  8
NOSURVEY
 10
728304.4249999999301508
 20
631661.6981000006198883
 30
0.0
  0
VERTEX
  5
12E
  8
NOSURVEY
 10
728283.0946000004187226
 20
631623.267400000244379
 30
0.0
  0
VERTEX
  5
12F
  8
NOSURVEY
 10
728246.5612000003457069
 20
631561.4166000002296641
 30
0.0
  0
VERTEX
  5
130
  8
NOSURVEY
 10
728216.1204000003635883
 20
631572.2886999995680526
 30
0.0
  0
VERTEX
  5
131
  8
NOSURVEY
 10
728132.1325000002980232
 20
631469.7453000004170462
 30
0.0
  0
VERTEX
  5
132
  8
NOSURVEY
 10
728022.6301999995484948
 20
631293.0870999991893768
 30
0.0
  0
VERTEX
  5
133
  8
NOSURVEY
 10
728000.2286000001477078
 20
631304.7130999993532896
 30
0.0
  0
VERTEX
  5
134
  8
NOSURVEY
 10
727997.1222999998135492
 20
631997.5175000000745058
 30
0.0
  0
VERTEX
  5
135
  8
NOSURVEY
 10
729844.9801000001607463
 20
631996.8855000007897615
 30
0.0
  0
VERTEX
  5
136
  8
NOSURVEY
 10
729831.7900999997509643
 20
631980.1157000008970499
 30
0.0
  0
VERTEX
  5
137
  8
NOSURVEY
 10
729773.0383000001311302
 20
631920.217399999499321
 30
0.0
  0
VERTEX
  5
138
  8
NOSURVEY
 10
729780.2306000004755333
 20
631884.278999999165535
 30
0.0
  0
VERTEX
  5
139
  8
NOSURVEY
 10
729737.0674000000581145
 20
631813.6008999998448417
 30
0.0
  0
VERTEX
  5
13A
  8
NOSURVEY
 10
729720.1326999999582767
 20
631728.8504000008106232
 30
0.0
  0
VERTEX
  5
13B
  8
NOSURVEY
 10
729716.0278000002726912
 20
631716.8452000004472211
 30
0.0
  0
VERTEX
  5
13C
  8
NOSURVEY
 10
729707.8211000002920628
 20
631715.9662999995052814
 30
0.0
  0
VERTEX
  5
13D
  8
NOSURVEY
 10
729698.1513000000268221
 20
631716.5522000007331371
 30
0.0
  0
VERTEX
  5
13E
  8
NOSURVEY
 10
729679.9652000004425645
 20
631717.6631000004708767
 30
0.0
  0
VERTEX
  5
13F
  8
NOSURVEY
 10
729675.5696000000461936
 20
631709.4648000001907349
 30
0.0
  0
VERTEX
  5
140
  8
NOSURVEY
 10
729669.7077000001445413
 20
631699.2158000003546476
 30
0.0
  0
VERTEX
  5
141
  8
NOSURVEY
 10
729670.0016000001924112
 20
631685.4528000000864267
 30
0.0
  0
VERTEX
  5
142
  8
NOSURVEY
 10
729688.7597000002861023
 20
631675.2052999995648861
 30
0.0
  0
VERTEX
  5
143
  8
NOSURVEY
 10
729684.6546999998390675
 20
631669.0548000000417233
 30
0.0
  0
VERTEX
  5
144
  8
NOSURVEY
 10
729674.3971999996574596
 20
631661.4423999990103766
 30
0.0
  0
VERTEX
  5
145
  8
NOSURVEY
 10
729654.4666999998735264
 20
631655.5862000008346513
 30
0.0
  0
VERTEX
  5
146
  8
NOSURVEY
 10
729645.3815999999642372
 20
631655.8792000003159046
 30
0.0
  0
VERTEX
  5
147
  8
NOSURVEY
 10
729634.5268000002251938
 20
631653.1192000004230067
 30
0.0
  0
VERTEX
  5
148
  8
NOSURVEY
 10
729626.6140000000596046
 20
631647.5559999998658895
 30
0.0
  0
VERTEX
  5
149
  8
NOSURVEY
 10
729611.9577000001445413
 20
631632.3297000005841255
 30
0.0
  0
VERTEX
  5
14A
  8
NOSURVEY
 10
729596.6250999999465421
 20
631626.9539000000804663
 30
0.0
  0
VERTEX
  5
14B
  8
NOSURVEY
 10
729582.863099999842234
 20
631620.7037000005366281
 30
0.0
  0
VERTEX
  5
14C
  8
NOSURVEY
 10
729569.0789000001968816
 20
631614.5457000005990267
 30
0.0
  0
VERTEX
  5
14D
  8
NOSURVEY
 10
729532.7604000000283122
 20
631600.1997999997111037
 30
0.0
  0
VERTEX
  5
14E
  8
NOSURVEY
 10
729509.9543000003322959
 20
631559.6930999998003244
 30
0.0
  0
VERTEX
  5
14F
  8
NOSURVEY
 10
729482.0635999999940395
 20
631512.1449999995529652
 30
0.0
  0
VERTEX
  5
150
  8
NOSURVEY
 10
729419.5608999999240041
 20
631426.9127999992342666
 30
0.0
  0
VERTEX
  5
151
  8
NOSURVEY
 10
729433.9170000004814938
 20
631420.1613999997498468
 30
0.0
  0
VERTEX
  5
152
  8
NOSURVEY
 10
729475.3074000002816319
 20
631394.8453000002773479
 30
0.0
  0
VERTEX
  5
153
  8
NOSURVEY
 10
729528.5196000001160428
 20
631373.7479999995557591
 30
0.0
  0
VERTEX
  5
154
  8
NOSURVEY
 10
729574.1287000002339482
 20
631366.9966000001877546
 30
0.0
  0
VERTEX
  5
155
  8
NOSURVEY
 10
729600.3129000004846603
 20
631340.8358999993652105
 30
0.0
  0
VERTEX
  5
156
  8
NOSURVEY
 10
729655.8919000001624227
 20
631316.6929999999701977
 30
0.0
  0
VERTEX
  5
157
  8
NOSURVEY
 10
729683.2580000006128103
 20
631275.6777999997138977
 30
0.0
  0
VERTEX
  5
158
  8
NOSURVEY
 10
729672.6118000001879409
 20
631238.6121999995084479
 30
0.0
  0
VERTEX
  5
159
  8
NOSURVEY
 10
729647.201799999922514
 20
631221.9091999996453524
 30
0.0
  0
VERTEX
  5
15A
  8
NOSURVEY
 10
729619.7850999998627231
 20
631203.2017000000923872
 30
0.0
  0
VERTEX
  5
15B
  8
NOSURVEY
 10
729632.4917000001296401
 20
631178.4818999990820885
 30
0.0
  0
VERTEX
  5
15C
  8
NOSURVEY
 10
729667.2618000004440546
 20
631157.1020999997854233
 30
0.0
  0
VERTEX
  5
15D
  8
NOSURVEY
 10
729672.6118000001879409
 20
631117.6839000005275011
 30
0.0
  0
VERTEX
  5
15E
  8
NOSURVEY
 10
729699.3616000005276874
 20
631082.9427000004798174
 30
0.0
  0
VERTEX
  5
15F
  8
NOSURVEY
 10
729742.8282000004546717
 20
631048.2014000006020069
 30
0.0
  0
SEQEND
  5
160
  8
NOSURVEY
  0
POLYLINE
  5
6D
  8
NOSURVEY
 66
     1
 10
0.0
 20
0.0
 30
0.0
 70
     1
  0
VERTEX
  5
161
  8
NOSURVEY
 10
730347.7746999999508262
 20
632999.6120999995619059
 30
0.0
  0
VERTEX
  5
162
  8
NOSURVEY
 10
730260.4090000001015142
 20
632838.3734000008553267
 30
0.0
  0
VERTEX
  5
163
  8
NOSURVEY
 10
730290.7462999999988824
 20
632820.188699999707751
 30
0.0
  0
VERTEX
  5
164
  8
NOSURVEY
 10
730280.4313000001711771
 20
632800.7930999994277954
 30
0.0
  0
VERTEX
  5
165
  8
NOSURVEY
 10
730240.310800000326708
 20
632809.0566000007092953
 30
0.0
  0
VERTEX
  5
166
  8
NOSURVEY
 10
730203.909199999528937
 20
632783.5974000003188848
 30
0.0
  0
VERTEX
  5
167
  8
NOSURVEY
 10
730178.4271999999182299
 20
632721.7704000007361174
 30
0.0
  0
VERTEX
  5
168
  8
NOSURVEY
 10
730204.5169000001624227
 20
632695.7050999999046326
 30
0.0
  0
VERTEX
  5
169
  8
NOSURVEY
 10
730186.9222999997437
 20
632673.8831999992253259
 30
0.0
  0
VERTEX
  5
16A
  8
NOSURVEY
 10
730188.7199999997392297
 20
632618.490599999204278
 30
0.0
  0
VERTEX
  5
16B
  8
NOSURVEY
 10
730165.0579000004800037
 20
632549.3877000007778406
 30
0.0
  0
VERTEX
  5
16C
  8
NOSURVEY
 10
730148.070899999816902
 20
632492.4102999997558072
 30
0.0
  0
VERTEX
  5
16D
  8
NOSURVEY
 10
730147.4632000001147389
 20
632471.194599999114871
 30
0.0
  0
VERTEX
  5
16E
  8
NOSURVEY
 10
730137.755900000105612
 20
632449.9789000004529953
 30
0.0
  0
VERTEX
  5
16F
  8
NOSURVEY
 10
730184.4598000004189089
 20
632407.4193999990820885
 30
0.0
  0
VERTEX
  5
170
  8
NOSURVEY
 10
730185.067499999771826
 20
632369.2313999999314547
 30
0.0
  0
VERTEX
  5
171
  8
NOSURVEY
 10
730169.2927999998209998
 20
632349.8343000003369525
 30
0.0
  0
VERTEX
  5
172
  8
NOSURVEY
 10
730148.0487999999895692
 20
632304.1231999994488433
 30
0.0
  0
VERTEX
  5
173
  8
NOSURVEY
 10
730135.9170000003650784
 20
632275.6329999993322417
 30
0.0
  0
VERTEX
  5
174
  8
NOSURVEY
 10
730048.5514000001130626
 20
632267.1476000008406118
 30
0.0
  0
VERTEX
  5
175
  8
NOSURVEY
 10
730004.8701999998884276
 20
632258.0545000006677583
 30
0.0
  0
VERTEX
  5
176
  8
NOSURVEY
 10
730001.2302999999374151
 20
632256.2358999998541549
 30
0.0
  0
VERTEX
  5
177
  8
NOSURVEY
 10
730000.0054000001400709
 20
632999.7134000008227304
 30
0.0
  0
SEQEND
  5
178
  8
NOSURVEY
  0
POLYLINE
  5
6E
  8
NOSURVEY
 66
     1
 10
0.0
 20
0.0
 30
0.0
 70
     1
  0
VERTEX
  5
179
  8
NOSURVEY
 10
724923.2224000003188848
 20
629601.8726000003516674
 30
0.0
  0
VERTEX
  5
17A
  8
NOSURVEY
 10
725005.9713000003248453
 20
629462.9693999997107312
 30
0.0
  0
VERTEX
  5
17B
  8
NOSURVEY
 10
725351.1085999999195337
 20
628946.9235999995144084
 30
0.0
  0
VERTEX
  5
17C
  8
NOSURVEY
 10
725214.9195999996736646
 20
628839.7843999994220212
 30
0.0
  0
VERTEX
  5
17D
  8
NOSURVEY
 10
725056.9468999997479841
 20
628740.5236000008881092
 30
0.0
  0
VERTEX
  5
17E
  8
NOSURVEY
 10
724922.6467000005068257
 20
628740.5236000008881092
 30
0.0
  0
VERTEX
  5
17F
  8
NOSURVEY
 10
724742.0568000006023794
 20
629002.0573999993503094
 30
0.0
  0
VERTEX
  5
180
  8
NOSURVEY
 10
724300.9523000001208857
 20
629658.5196000002324581
 30
0.0
  0
VERTEX
  5
181
  8
NOSURVEY
 10
724305.5632999995723367
 20
629667.7346999999135733
 30
0.0
  0
VERTEX
  5
182
  8
NOSURVEY
 10
724345.5361000001430511
 20
629647.7675999999046326
 30
0.0
  0
VERTEX
  5
183
  8
NOSURVEY
 10
724388.582000000635162
 20
629644.6952999997884035
 30
0.0
  0
VERTEX
  5
184
  8
NOSURVEY
 10
724410.1048999996855855
 20
629669.271600000676699
 30
0.0
  0
VERTEX
  5
185
  8
NOSURVEY
 10
724430.0927999997511506
 20
629696.9199999999254942
 30
0.0
  0
VERTEX
  5
186
  8
NOSURVEY
 10
724451.2620000001043081
 20
629746.2266000007512048
 30
0.0
  0
VERTEX
  5
187
  8
NOSURVEY
 10
724486.2131000004010275
 20
629748.4791999999433756
 30
0.0
  0
VERTEX
  5
188
  8
NOSURVEY
 10
724531.8223000001162291
 20
629729.2961000000359491
 30
0.0
  0
VERTEX
  5
189
  8
NOSURVEY
 10
724550.2362999998731539
 20
629724.789300000295043
 30
0.0
  0
VERTEX
  5
18A
  8
NOSURVEY
 10
724570.1551999998046085
 20
629731.9236999992281199
 30
0.0
  0
VERTEX
  5
18B
  8
NOSURVEY
 10
724584.4348999998765066
 20
629732.6751000006916001
 30
0.0
  0
VERTEX
  5
18C
  8
NOSURVEY
 10
724589.3186999997124076
 20
629714.6523000001907349
 30
0.0
  0
VERTEX
  5
18D
  8
NOSURVEY
 10
724582.5551000003470108
 20
629700.0099999997764826
 30
0.0
  0
VERTEX
  5
18E
  8
NOSURVEY
 10
724570.5300000002607703
 20
629671.0988999997498468
 30
0.0
  0
VERTEX
  5
18F
  8
NOSURVEY
 10
724569.447700000484474
 20
629645.5712000001221895
 30
0.0
  0
VERTEX
  5
190
  8
NOSURVEY
 10
724579.218299999833107
 20
629631.3038999997079372
 30
0.0
  0
VERTEX
  5
191
  8
NOSURVEY
 10
724601.7665999997407198
 20
629622.2931999992579222
 30
0.0
  0
VERTEX
  5
192
  8
NOSURVEY
 10
724629.1985999998869374
 20
629625.2958000004291534
 30
0.0
  0
VERTEX
  5
193
  8
NOSURVEY
 10
724639.721800000523217
 20
629634.3079000003635883
 30
0.0
  0
VERTEX
  5
194
  8
NOSURVEY
 10
724652.1216000001877546
 20
629657.9607999995350838
 30
0.0
  0
VERTEX
  5
195
  8
NOSURVEY
 10
724655.8811999998288229
 20
629686.4955000001937151
 30
0.0
  0
VERTEX
  5
196
  8
NOSURVEY
 10
724656.255900000105612
 20
629715.7816000003367662
 30
0.0
  0
VERTEX
  5
197
  8
NOSURVEY
 10
724660.3902000002563
 20
629732.6765000000596046
 30
0.0
  0
VERTEX
  5
198
  8
NOSURVEY
 10
724674.295099999755621
 20
629746.1940000001341105
 30
0.0
  0
VERTEX
  5
199
  8
NOSURVEY
 10
724687.1776999998837709
 20
629751.4565999993355945
 30
0.0
  0
VERTEX
  5
19A
  8
NOSURVEY
 10
724704.4643999998224899
 20
629750.7067000009119511
 30
0.0
  0
VERTEX
  5
19B
  8
NOSURVEY
 10
724716.114799999515526
 20
629748.0776000004261732
 30
0.0
  0
VERTEX
  5
19C
  8
NOSURVEY
 10
724727.012699999846518
 20
629734.5616999994963408
 30
0.0
  0
VERTEX
  5
19D
  8
NOSURVEY
 10
724741.670099999755621
 20
629705.6504999996395782
 30
0.0
  0
VERTEX
  5
19E
  8
NOSURVEY
 10
724770.2293999996036291
 20
629708.6546000000089407
 30
0.0
  0
VERTEX
  5
19F
  8
NOSURVEY
 10
724784.134300000150688
 20
629722.5470000003697351
 30
0.0
  0
VERTEX
  5
1A0
  8
NOSURVEY
 10
724807.0573000004515052
 20
629732.6839000004110858
 30
0.0
  0
VERTEX
  5
1A1
  8
NOSURVEY
 10
724814.9482000004500151
 20
629719.1679999995976686
 30
0.0
  0
VERTEX
  5
1A2
  8
NOSURVEY
 10
724806.679600000497885
 20
629685.3765999991446733
 30
0.0
  0
VERTEX
  5
1A3
  8
NOSURVEY
 10
724804.8477999995229766
 20
629650.3061999995261431
 30
0.0
  0
VERTEX
  5
1A4
  8
NOSURVEY
 10
724816.8728999998420477
 20
629630.4072999991476536
 30
0.0
  0
VERTEX
  5
1A5
  8
NOSURVEY
 10
724895.0378000000491738
 20
629623.64780000038445
 30
0.0
  0
SEQEND
  5
1A6
  8
NOSURVEY
  0
POLYLINE
  5
6F
  8
NOSURVEY
 66
     1
 10
0.0
 20
0.0
 30
0.0
 70
     1
  0
VERTEX
  5
1A7
  8
NOSURVEY
 10
724607.9845000003697351
 20
629193.254899999126792
 30
0.0
  0
VERTEX
  5
1A8
  8
NOSURVEY
 10
724920.5151000005425885
 20
628739.6536999996751547
 30
0.0
  0
VERTEX
  5
1A9
  8
NOSURVEY
 10
724633.5848000004189089
 20
628740.4896000009030104
 30
0.0
  0
VERTEX
  5
1AA
  8
NOSURVEY
 10
724427.259700000169687
 20
629051.9167999997735023
 30
0.0
  0
SEQEND
  5
1AB
  8
NOSURVEY
  0
POLYLINE
  5
70
  8
NOSURVEY
 66
     1
 10
0.0
 20
0.0
 30
0.0
 70
     1
  0
VERTEX
  5
1AC
  8
NOSURVEY
 10
727998.5073999995365739
 20
633257.9404000006616116
 30
0.0
  0
VERTEX
  5
1AD
  8
NOSURVEY
 10
727997.3694000001996756
 20
632999.9167999997735023
 30
0.0
  0
VERTEX
  5
1AE
  8
NOSURVEY
 10
727469.058699999935925
 20
632998.8756000007269904
 30
0.0
  0
VERTEX
  5
1AF
  8
NOSURVEY
 10
727475.4967999998480082
 20
633009.1714999992400408
 30
0.0
  0
VERTEX
  5
1B0
  8
NOSURVEY
 10
727530.2348999995738268
 20
633079.946399999782443
 30
0.0
  0
VERTEX
  5
1B1
  8
NOSURVEY
 10
727548.9310999996960163
 20
633189.4449000004678965
 30
0.0
  0
VERTEX
  5
1B2
  8
NOSURVEY
 10
727572.1157999999122694
 20
633242.8472000006586313
 30
0.0
  0
VERTEX
  5
1B3
  8
NOSURVEY
 10
727674.5104000001447275
 20
633228.0493000000715256
 30
0.0
  0
VERTEX
  5
1B4
  8
NOSURVEY
 10
727727.9615000002086163
 20
633186.2272999994456768
 30
0.0
  0
VERTEX
  5
1B5
  8
NOSURVEY
 10
727740.8409000001847744
 20
633193.3055000007152557
 30
0.0
  0
VERTEX
  5
1B6
  8
NOSURVEY
 10
727767.8865999998524785
 20
633222.2584000007482246
 30
0.0
  0
VERTEX
  5
1B7
  8
NOSURVEY
 10
727839.3712999998824671
 20
633167.5688000004738569
 30
0.0
  0
VERTEX
  5
1B8
  8
NOSURVEY
 10
727875.4354999995557591
 20
633163.0637999996542931
 30
0.0
  0
VERTEX
  5
1B9
  8
NOSURVEY
 10
727922.8066999994916841
 20
633249.4927999991923571
 30
0.0
  0
VERTEX
  5
1BA
  8
NOSURVEY
 10
727934.4846000001998618
 20
633242.6532000006409362
 30
0.0
  0
VERTEX
  5
1BB
  8
NOSURVEY
 10
727945.3574999998090789
 20
633255.9296000003814697
 30
0.0
  0
VERTEX
  5
1BC
  8
NOSURVEY
 10
727958.6425999997882172
 20
633253.9171999990940094
 30
0.0
  0
VERTEX
  5
1BD
  8
NOSURVEY
 10
727972.3333999998867512
 20
633272.0208000000566244
 30
0.0
  0
SEQEND
  5
1BE
  8
NOSURVEY
  0
POLYLINE
  5
71
  8
NOSURVEY
 66
     1
 10
0.0
 20
0.0
 30
0.0
 70
     1
  0
VERTEX
  5
1BF
  8
NOSURVEY
 10
727494.9664000002667308
 20
633440.3187000006437302
 30
0.0
  0
VERTEX
  5
1C0
  8
NOSURVEY
 10
727516.1637000004993752
 20
633435.1842000000178814
 30
0.0
  0
VERTEX
  5
1C1
  8
NOSURVEY
 10
727511.6687000003876165
 20
633401.1668999997200444
 30
0.0
  0
VERTEX
  5
1C2
  8
NOSURVEY
 10
727516.1637000004993752
 20
633367.7925000004470348
 30
0.0
  0
VERTEX
  5
1C3
  8
NOSURVEY
 10
727542.5025000005261973
 20
633363.9408999998122454
 30
0.0
  0
VERTEX
  5
1C4
  8
NOSURVEY
 10
727558.5643999994499609
 20
633363.9408999998122454
 30
0.0
  0
VERTEX
  5
1C5
  8
NOSURVEY
 10
727570.1250999998301268
 20
633333.7752000001491979
 30
0.0
  0
VERTEX
  5
1C6
  8
NOSURVEY
 10
727572.0524000006262213
 20
633305.535399999585934
 30
0.0
  0
VERTEX
  5
1C7
  8
NOSURVEY
 10
727560.4917000001296401
 20
633276.6525999995646998
 30
0.0
  0
VERTEX
  5
1C8
  8
NOSURVEY
 10
727560.4917000001296401
 20
633235.576500000548549
 30
0.0
  0
VERTEX
  5
1C9
  8
NOSURVEY
 10
727541.2187000002013519
 20
633220.8144000006141141
 30
0.0
  0
VERTEX
  5
1CA
  8
NOSURVEY
 10
727526.4436999997124076
 20
633226.590299999457784
 30
0.0
  0
VERTEX
  5
1CB
  8
NOSURVEY
 10
727512.9524999995483086
 20
633211.8281999994069338
 30
0.0
  0
VERTEX
  5
1CC
  8
NOSURVEY
 10
727493.6794999995036051
 20
633188.0814999993890524
 30
0.0
  0
VERTEX
  5
1CD
  8
NOSURVEY
 10
727487.9007000001147389
 20
633170.110700000077486
 30
0.0
  0
VERTEX
  5
1CE
  8
NOSURVEY
 10
727454.4961000001057982
 20
633178.4538999999640509
 30
0.0
  0
VERTEX
  5
1CF
  8
NOSURVEY
 10
727450.6414999996777624
 20
633213.1126000005751848
 30
0.0
  0
VERTEX
  5
1D0
  8
NOSURVEY
 10
727446.7868999997153878
 20
633246.4869999998481944
 30
0.0
  0
VERTEX
  5
1D1
  8
NOSURVEY
 10
727382.5454000002937391
 20
633256.1146000009030104
 30
0.0
  0
VERTEX
  5
1D2
  8
NOSURVEY
 10
727336.9367000005440786
 20
633270.2352000009268522
 30
0.0
  0
VERTEX
  5
1D3
  8
NOSURVEY
 10
727312.5252000001491979
 20
633285.6388000007718801
 30
0.0
  0
VERTEX
  5
1D4
  8
NOSURVEY
 10
727315.7362999999895692
 20
633319.013100000214763
 30
0.0
  0
VERTEX
  5
1D5
  8
NOSURVEY
 10
727343.3589000004576519
 20
633372.2855999990133569
 30
0.0
  0
VERTEX
  5
1D6
  8
NOSURVEY
 10
727392.8254000004380941
 20
633362.0165999998571351
 30
0.0
  0
VERTEX
  5
1D7
  8
NOSURVEY
 10
727458.3475999999791384
 20
633333.1337999999523163
 30
0.0
  0
VERTEX
  5
1D8
  8
NOSURVEY
 10
727471.8387000003131106
 20
633359.4493000004440546
 30
0.0
  0
VERTEX
  5
1D9
  8
NOSURVEY
 10
727489.1845000005559996
 20
633430.0496999993920326
 30
0.0
  0
SEQEND
  5
1DA
  8
NOSURVEY
  0
POLYLINE
  5
72
  8
NOSURVEY
 66
     1
 10
0.0
 20
0.0
 30
0.0
 70
     1
  0
VERTEX
  5
1DB
  8
NOSURVEY
 10
726894.9934999998658895
 20
633247.0359000004827976
 30
0.0
  0
VERTEX
  5
1DC
  8
NOSURVEY
 10
726883.4930000000167638
 20
633233.9027999993413687
 30
0.0
  0
VERTEX
  5
1DD
  8
NOSURVEY
 10
726729.0294000003486872
 20
633192.857999999076128
 30
0.0
  0
VERTEX
  5
1DE
  8
NOSURVEY
 10
726599.2119000004604459
 20
633210.9182999992044643
 30
0.0
  0
VERTEX
  5
1DF
  8
NOSURVEY
 10
726602.4990999997826293
 20
633260.1706000008853152
 30
0.0
  0
VERTEX
  5
1E0
  8
NOSURVEY
 10
726773.3954999996349216
 20
633401.3622999993385747
 30
0.0
  0
VERTEX
  5
1E1
  8
NOSURVEY
 10
726822.6908999999286607
 20
633437.4799000006169081
 30
0.0
  0
VERTEX
  5
1E2
  8
NOSURVEY
 10
726847.3400999996811152
 20
633427.6301000006496906
 30
0.0
  0
SEQEND
  5
1E3
  8
NOSURVEY
  0
POLYLINE
  5
73
  8
NOSURVEY
 66
     1
 10
0.0
 20
0.0
 30
0.0
 70
     1
  0
VERTEX
  5
1E4
  8
NOSURVEY
 10
727388.9429999999701977
 20
632002.0989999995799735
 30
0.0
  0
VERTEX
  5
1E5
  8
NOSURVEY
 10
727782.3639000001130626
 20
632775.5524000003933907
 30
0.0
  0
VERTEX
  5
1E6
  8
NOSURVEY
 10
727830.4397000001044944
 20
632997.5585999991744757
 30
0.0
  0
VERTEX
  5
1E7
  8
NOSURVEY
 10
727996.980199999990873
 20
632998.0755000002682209
 30
0.0
  0
VERTEX
  5
1E8
  8
NOSURVEY
 10
727997.0340000001015142
 20
632001.3781000003218651
 30
0.0
  0
SEQEND
  5
1E9
  8
NOSURVEY
  0
POLYLINE
  5
74
  8
NOSURVEY
 66
     1
 10
0.0
 20
0.0
 30
0.0
 70
     1
  0
VERTEX
  5
1EA
  8
NOSURVEY
 10
729998.4424000000581145
 20
633000.8350000008940697
 30
0.0
  0
VERTEX
  5
1EB
  8
NOSURVEY
 10
729999.4094000002369285
 20
633000.8379999995231628
 30
0.0
  0
VERTEX
  5
1EC
  8
NOSURVEY
 10
729999.4094000002369285
 20
632001.641499999910593
 30
0.0
  0
VERTEX
  5
1ED
  8
NOSURVEY
 10
728000.176099999807775
 20
632001.641499999910593
 30
0.0
  0
VERTEX
  5
1EE
  8
NOSURVEY
 10
728000.176099999807775
 20
633000.8350000008940697
 30
0.0
  0
SEQEND
  5
1EF
  8
NOSURVEY
  0
POLYLINE
  5
75
  8
NOSURVEY
 66
     1
 10
0.0
 20
0.0
 30
0.0
 70
     1
  0
VERTEX
  5
1F0
  8
NOSURVEY
 10
724002.1079000000609085
 20
629001.9148999992758036
 30
0.0
  0
VERTEX
  5
1F1
  8
NOSURVEY
 10
724458.752899999730289
 20
629000.7048000004142523
 30
0.0
  0
VERTEX
  5
1F2
  8
NOSURVEY
 10
724724.7255999996559694
 20
628592.3782000002684072
 30
0.0
  0
VERTEX
  5
1F3
  8
NOSURVEY
 10
724592.5941000004531816
 20
628561.6730000004172325
 30
0.0
  0
VERTEX
  5
1F4
  8
NOSURVEY
 10
724520.6675000004470348
 20
628548.6382000000448897
 30
0.0
  0
VERTEX
  5
1F5
  8
NOSURVEY
 10
724368.4205999999539927
 20
628532.8455999996513128
 30
0.0
  0
VERTEX
  5
1F6
  8
NOSURVEY
 10
724267.3512000006157905
 20
628531.9794999994337559
 30
0.0
  0
VERTEX
  5
1F7
  8
NOSURVEY
 10
724125.8322000000625849
 20
628532.8394000011030585
 30
0.0
  0
VERTEX
  5
1F8
  8
NOSURVEY
 10
724039.94510000012815
 20
628530.2411000003339723
 30
0.0
  0
VERTEX
  5
1F9
  8
NOSURVEY
 10
724001.6200999999418855
 20
628529.4477999992668629
 30
0.0
  0
SEQEND
  5
1FA
  8
NOSURVEY
  0
POLYLINE
  5
76
  8
NOSURVEY
 66
     1
 10
0.0
 20
0.0
 30
0.0
 70
     1
  0
VERTEX
  5
1FB
  8
NOSURVEY
 10
724024.9406000003218651
 20
628329.7552000003634021
 30
0.0
  0
VERTEX
  5
1FC
  8
NOSURVEY
 10
724225.4607999996514991
 20
628496.9143000004114583
 30
0.0
  0
VERTEX
  5
1FD
  8
NOSURVEY
 10
724528.1081999996677041
 20
628034.3694000001996756
 30
0.0
  0
VERTEX
  5
1FE
  8
NOSURVEY
 10
724436.212000000406988
 20
627999.5536000003339723
 30
0.0
  0
VERTEX
  5
1FF
  8
NOSURVEY
 10
724236.2297999998554587
 20
628000.633500000461936
 30
0.0
  0
VERTEX
  5
200
  8
NOSURVEY
 10
724030.2476000004680827
 20
628320.0452999994158745
 30
0.0
  0
SEQEND
  5
201
  8
NOSURVEY
  0
POLYLINE
  5
77
  8
NOSURVEY
 66
     1
 10
0.0
 20
0.0
 30
0.0
 70
     1
  0
VERTEX
  5
202
  8
NOSURVEY
 10
724213.7618000004440546
 20
628526.398700000718236
 30
0.0
  0
VERTEX
  5
203
  8
NOSURVEY
 10
724224.9683999996632338
 20
628526.8449000007240102
 30
0.0
  0
VERTEX
  5
204
  8
NOSURVEY
 10
724360.0816999999806285
 20
628527.5467000007629395
 30
0.0
  0
VERTEX
  5
205
  8
NOSURVEY
 10
724412.8822999995900318
 20
628532.0864000003784895
 30
0.0
  0
VERTEX
  5
206
  8
NOSURVEY
 10
724519.7099999999627471
 20
628543.2866999990073964
 30
0.0
  0
VERTEX
  5
207
  8
NOSURVEY
 10
724584.3965999995125458
 20
628553.0632000006735325
 30
0.0
  0
VERTEX
  5
208
  8
NOSURVEY
 10
724652.2335999998031184
 20
628570.1711999997496605
 30
0.0
  0
VERTEX
  5
209
  8
NOSURVEY
 10
724727.0599999993573874
 20
628589.7225999999791384
 30
0.0
  0
VERTEX
  5
20A
  8
NOSURVEY
 10
724990.7940999994752929
 20
628199.142400000244379
 30
0.0
  0
VERTEX
  5
20B
  8
NOSURVEY
 10
724533.5928999995812774
 20
628035.8660000003874302
 30
0.0
  0
SEQEND
  5
20C
  8
NOSURVEY
  0
POLYLINE
  5
78
  8
NOSURVEY
 66
     1
 10
0.0
 20
0.0
 30
0.0
 70
     1
  0
VERTEX
  5
20D
  8
NOSURVEY
 10
724733.5113000004785135
 20
628591.4626000002026558
 30
0.0
  0
VERTEX
  5
20E
  8
NOSURVEY
 10
724816.0793000003322959
 20
628616.6304000000236556
 30
0.0
  0
VERTEX
  5
20F
  8
NOSURVEY
 10
724895.0818999995244667
 20
628651.4847999997437
 30
0.0
  0
VERTEX
  5
210
  8
NOSURVEY
 10
724956.6316999999107793
 20
628676.2513999994844198
 30
0.0
  0
VERTEX
  5
211
  8
NOSURVEY
 10
725062.2740000003250316
 20
628504.7261999995680526
 30
0.0
  0
VERTEX
  5
212
  8
NOSURVEY
 10
725263.4552999995648861
 20
628479.9595999998273328
 30
0.0
  0
VERTEX
  5
213
  8
NOSURVEY
 10
725046.868300000205636
 20
628223.6115000006975606
 30
0.0
  0
VERTEX
  5
214
  8
NOSURVEY
 10
724995.4263000005157664
 20
628203.4326000009896234
 30
0.0
  0
VERTEX
  5
215
  8
NOSURVEY
 10
724844.7706000006292015
 20
628424.4893999993801117
 30
0.0
  0
VERTEX
  5
216
  8
NOSURVEY
 10
724757.3151000001234934
 20
628553.3452000003308058
 30
0.0
  0
VERTEX
  5
217
  8
NOSURVEY
 10
724734.4276999998837709
 20
628587.6526999995112419
 30
0.0
  0
SEQEND
  5
218
  8
NOSURVEY
  0
POLYLINE
  5
79
  8
NOSURVEY
 66
     1
 10
0.0
 20
0.0
 30
0.0
 70
     1
  0
VERTEX
  5
219
  8
NOSURVEY
 10
725479.1349999998928979
 20
627998.078600000590086
 30
0.0
  0
VERTEX
  5
21A
  8
NOSURVEY
 10
725463.7748999996110797
 20
628078.8917999994009733
 30
0.0
  0
VERTEX
  5
21B
  8
NOSURVEY
 10
725459.0470000002533197
 20
628114.8757000006735325
 30
0.0
  0
VERTEX
  5
21C
  8
NOSURVEY
 10
725466.1365999998524785
 20
628178.5823999998392537
 30
0.0
  0
VERTEX
  5
21D
  8
NOSURVEY
 10
725486.8400999996811152
 20
628273.9378999994369224
 30
0.0
  0
VERTEX
  5
21E
  8
NOSURVEY
 10
725503.3810999999986961
 20
628340.5944999996572733
 30
0.0
  0
VERTEX
  5
21F
  8
NOSURVEY
 10
725534.6984999999403954
 20
628388.4745000004768372
 30
0.0
  0
VERTEX
  5
220
  8
NOSURVEY
 10
725552.4567999998107553
 20
628417.0121999997645617
 30
0.0
  0
VERTEX
  5
221
  8
NOSURVEY
 10
725581.9961000002222136
 20
628498.4155999999493361
 30
0.0
  0
VERTEX
  5
222
  8
NOSURVEY
 10
725755.8630000000121072
 20
628392.051899999496527
 30
0.0
  0
VERTEX
  5
223
  8
NOSURVEY
 10
725876.9703000001609325
 20
628314.7774999998509884
 30
0.0
  0
VERTEX
  5
224
  8
NOSURVEY
 10
725995.715800000471063
 20
628251.0692999997409061
 30
0.0
  0
VERTEX
  5
225
  8
NOSURVEY
 10
725996.0166999994544312
 20
627998.6302000004798174
 30
0.0
  0
VERTEX
  5
226
  8
NOSURVEY
 10
725505.3552000001072884
 20
627998.20099999953527
 30
0.0
  0
SEQEND
  5
227
  8
NOSURVEY
  0
POLYLINE
  5
7A
  8
NOSURVEY
 66
     1
 10
0.0
 20
0.0
 30
0.0
 70
     1
  0
VERTEX
  5
228
  8
NOSURVEY
 10
725397.100499999593012
 20
627654.0909000001847744
 30
0.0
  0
VERTEX
  5
229
  8
NOSURVEY
 10
725436.7021000003442168
 20
627789.1889999994309619
 30
0.0
  0
VERTEX
  5
22A
  8
NOSURVEY
 10
725509.3035000006202608
 20
627803.4679000005125999
 30
0.0
  0
VERTEX
  5
22B
  8
NOSURVEY
 10
725528.0054999999701977
 20
627769.4191999994218349
 30
0.0
  0
VERTEX
  5
22C
  8
NOSURVEY
 10
725620.4078000001609325
 20
627700.2215999998152256
 30
0.0
  0
VERTEX
  5
22D
  8
NOSURVEY
 10
725682.0077999997884035
 20
627596.9767000004649162
 30
0.0
  0
VERTEX
  5
22E
  8
NOSURVEY
 10
725754.6091999998316169
 20
627536.5656000004382804
 30
0.0
  0
VERTEX
  5
22F
  8
NOSURVEY
 10
725774.4510000004665926
 20
627514.2128999998094514
 30
0.0
  0
VERTEX
  5
230
  8
NOSURVEY
 10
725686.44849999982398
 20
627408.7696000003488734
 30
0.0
  0
VERTEX
  5
231
  8
NOSURVEY
 10
725524.7456999998539686
 20
627542.7692000009119511
 30
0.0
  0
VERTEX
  5
232
  8
NOSURVEY
 10
725419.144399999640882
 20
627635.0321999993175268
 30
0.0
  0
SEQEND
  5
233
  8
NOSURVEY
  0
POLYLINE
  5
7B
  8
NOSURVEY
 66
     1
 10
0.0
 20
0.0
 30
0.0
 70
     1
  0
VERTEX
  5
234
  8
NOSURVEY
 10
724001.3373999996110797
 20
626998.5636000001104549
 30
0.0
  0
VERTEX
  5
235
  8
NOSURVEY
 10
724327.9298999999882653
 20
626999.4947999996365979
 30
0.0
  0
VERTEX
  5
236
  8
NOSURVEY
 10
724679.3975999997928739
 20
626628.1236000005155802
 30
0.0
  0
VERTEX
  5
237
  8
NOSURVEY
 10
724750.7270000000717118
 20
626562.1037000007927418
 30
0.0
  0
VERTEX
  5
238
  8
NOSURVEY
 10
724744.6906000003218651
 20
626549.1138000005157664
 30
0.0
  0
VERTEX
  5
239
  8
NOSURVEY
 10
724679.9765999998198822
 20
626547.0221999995410442
 30
0.0
  0
VERTEX
  5
23A
  8
NOSURVEY
 10
724410.3838999998988584
 20
626535.3540000002831221
 30
0.0
  0
VERTEX
  5
23B
  8
NOSURVEY
 10
724253.55489999987185
 20
626538.0637999996542931
 30
0.0
  0
VERTEX
  5
23C
  8
NOSURVEY
 10
724028.7795000001788139
 20
626568.1616999991238117
 30
0.0
  0
VERTEX
  5
23D
  8
NOSURVEY
 10
724004.0
 20
626576.0649999994784594
 30
0.0
  0
VERTEX
  5
23E
  8
NOSURVEY
 10
724000.0698999995365739
 20
626915.3551000002771616
 30
0.0
  0
VERTEX
  5
23F
  8
NOSURVEY
 10
723999.1763000006321818
 20
626983.3442000002833083
 30
0.0
  0
SEQEND
  5
240
  8
NOSURVEY
  0
POLYLINE
  5
7C
  8
NOSURVEY
 66
     1
 10
0.0
 20
0.0
 30
0.0
 70
     1
  0
VERTEX
  5
241
  8
NOSURVEY
 10
722507.0930000003427267
 20
630256.3906999995233491
 30
0.0
  0
VERTEX
  5
242
  8
NOSURVEY
 10
722511.0142999998060986
 20
630263.3146999999880791
 30
0.0
  0
VERTEX
  5
243
  8
NOSURVEY
 10
722549.5268000002251938
 20
630287.1815000009955838
 30
0.0
  0
VERTEX
  5
244
  8
NOSURVEY
 10
722578.7405000004218891
 20
630328.2869000006467104
 30
0.0
  0
VERTEX
  5
245
  8
NOSURVEY
 10
722622.5678000003099442
 20
630391.9342000000178814
 30
0.0
  0
VERTEX
  5
246
  8
NOSURVEY
 10
722649.124099999666214
 20
630373.3704000003635883
 30
0.0
  0
VERTEX
  5
247
  8
NOSURVEY
 10
722658.4228999996557832
 20
630336.2430000007152557
 30
0.0
  0
VERTEX
  5
248
  8
NOSURVEY
 10
722714.2598999999463558
 20
630318.7128999996930361
 30
0.0
  0
VERTEX
  5
249
  8
NOSURVEY
 10
722714.2598999999463558
 20
630288.2150999996811152
 30
0.0
  0
VERTEX
  5
24A
  8
NOSURVEY
 10
722726.2116000001551583
 20
630235.1755000000121072
 30
0.0
  0
VERTEX
  5
24B
  8
NOSURVEY
 10
722775.3448000003118068
 20
630152.964600000414066
 30
0.0
  0
VERTEX
  5
24C
  8
NOSURVEY
 10
722736.8367999996989965
 20
630137.0524000003933907
 30
0.0
  0
VERTEX
  5
24D
  8
NOSURVEY
 10
722683.7152000004425645
 20
630114.5106000006198883
 30
0.0
  0
VERTEX
  5
24E
  8
NOSURVEY
 10
722649.1867000004276633
 20
630102.576500000548549
 30
0.0
  0
VERTEX
  5
24F
  8
NOSURVEY
 10
722634.5776000005425885
 20
630111.8590999989537522
 30
0.0
  0
VERTEX
  5
250
  8
NOSURVEY
 10
722610.6742000002413988
 20
630142.3568999990820885
 30
0.0
  0
VERTEX
  5
251
  8
NOSURVEY
 10
722569.5088000000687316
 20
630179.4844000005396083
 30
0.0
  0
VERTEX
  5
252
  8
NOSURVEY
 10
722548.2583999997004867
 20
630203.3510999996215105
 30
0.0
  0
SEQEND
  5
253
  8
NOSURVEY
  0
POLYLINE
  5
7D
  8
NOSURVEY
 66
     1
 10
0.0
 20
0.0
 30
0.0
 70
     1
  0
VERTEX
  5
254
  8
NOSURVEY
 10
723274.4347000002162531
 20
624436.7710999995470047
 30
0.0
  0
VERTEX
  5
255
  8
NOSURVEY
 10
723270.4418000001460314
 20
624447.4030000008642673
 30
0.0
  0
VERTEX
  5
256
  8
NOSURVEY
 10
723270.4418000001460314
 20
624493.91469999961555
 30
0.0
  0
VERTEX
  5
257
  8
NOSURVEY
 10
723287.744099999894388
 20
624519.1656999997794628
 30
0.0
  0
VERTEX
  5
258
  8
NOSURVEY
 10
723343.6436999998986721
 20
624582.9540999998571351
 30
0.0
  0
VERTEX
  5
259
  8
NOSURVEY
 10
723386.2383000003173947
 20
624638.7696000002324581
 30
0.0
  0
VERTEX
  5
25A
  8
NOSURVEY
 10
723438.1449999996693805
 20
624682.6252999994903803
 30
0.0
  0
VERTEX
  5
25B
  8
NOSURVEY
 10
723474.0805000001564622
 20
624698.5723999999463558
 30
0.0
  0
VERTEX
  5
25C
  8
NOSURVEY
 10
723500.6993000004440546
 20
624648.0720000007422641
 30
0.0
  0
VERTEX
  5
25D
  8
NOSURVEY
 10
723541.9584999998332933
 20
624580.2964999993564561
 30
0.0
  0
VERTEX
  5
25E
  8
NOSURVEY
 10
723426.1665000001667067
 20
624394.2449999991804361
 30
0.0
  0
VERTEX
  5
25F
  8
NOSURVEY
 10
723339.6507999999448657
 20
624432.7839999999850988
 30
0.0
  0
SEQEND
  5
260
  8
NOSURVEY
  0
POLYLINE
  5
7E
  8
NOSURVEY
 66
     1
 10
0.0
 20
0.0
 30
0.0
 70
     1
  0
VERTEX
  5
261
  8
NOSURVEY
 10
722871.5924000005470589
 20
635370.6289000008255243
 30
0.0
  0
VERTEX
  5
262
  8
NOSURVEY
 10
723377.1717999996617436
 20
635982.8320000004023314
 30
0.0
  0
VERTEX
  5
263
  8
NOSURVEY
 10
723434.3174000000581145
 20
635925.7688999995589256
 30
0.0
  0
VERTEX
  5
264
  8
NOSURVEY
 10
723510.6233000002102926
 20
635999.3937999997287989
 30
0.0
  0
VERTEX
  5
265
  8
NOSURVEY
 10
723582.6058000000193715
 20
635997.5967999994754791
 30
0.0
  0
VERTEX
  5
266
  8
NOSURVEY
 10
723463.8304000004427508
 20
635774.7821999993175268
 30
0.0
  0
VERTEX
  5
267
  8
NOSURVEY
 10
723377.4486999994842336
 20
635611.2650000007124618
 30
0.0
  0
VERTEX
  5
268
  8
NOSURVEY
 10
723327.0604999996721745
 20
635629.2336999996332452
 30
0.0
  0
VERTEX
  5
269
  8
NOSURVEY
 10
723192.0904000002192333
 20
635451.340299999457784
 30
0.0
  0
VERTEX
  5
26A
  8
NOSURVEY
 10
723116.5081000002101064
 20
635343.5277999993413687
 30
0.0
  0
VERTEX
  5
26B
  8
NOSURVEY
 10
722932.9452999997884035
 20
635361.4965000003576279
 30
0.0
  0
VERTEX
  5
26C
  8
NOSURVEY
 10
722896.9517999998060986
 20
635363.2936000004410744
 30
0.0
  0
SEQEND
  5
26D
  8
NOSURVEY
  0
POLYLINE
  5
7F
  8
NOSURVEY
 66
     1
 10
0.0
 20
0.0
 30
0.0
 70
     1
  0
VERTEX
  5
26E
  8
NOSURVEY
 10
726155.7273000004934147
 20
625995.6942999997409061
 30
0.0
  0
VERTEX
  5
26F
  8
NOSURVEY
 10
726157.7260999995050952
 20
625985.7368999999016523
 30
0.0
  0
VERTEX
  5
270
  8
NOSURVEY
 10
726160.7029999996302649
 20
625906.1206999999703839
 30
0.0
  0
VERTEX
  5
271
  8
NOSURVEY
 10
726143.7770999995991588
 20
625827.4872999993385747
 30
0.0
  0
VERTEX
  5
272
  8
NOSURVEY
 10
726104.907100000535138
 20
625781.7032999993534759
 30
0.0
  0
VERTEX
  5
273
  8
NOSURVEY
 10
725998.71619999979157
 20
625934.8658000007271767
 30
0.0
  0
VERTEX
  5
274
  8
NOSURVEY
 10
725998.2483999998075888
 20
625997.688699999707751
 30
0.0
  0
SEQEND
  5
275
  8
NOSURVEY
  0
POLYLINE
  5
80
  8
NOSURVEY
 66
     1
 10
0.0
 20
0.0
 30
0.0
 70
     1
  0
VERTEX
  5
276
  8
NOSURVEY
 10
721549.1611999999731779
 20
635935.4309000000357628
 30
0.0
  0
VERTEX
  5
277
  8
NOSURVEY
 10
721554.6047000001417473
 20
635935.4309000000357628
 30
0.0
  0
VERTEX
  5
278
  8
NOSURVEY
 10
721585.096800000523217
 20
635939.7953999992460012
 30
0.0
  0
VERTEX
  5
279
  8
NOSURVEY
 10
721639.0215999995125458
 20
635977.312899999320507
 30
0.0
  0
VERTEX
  5
27A
  8
NOSURVEY
 10
721735.4310999996960163
 20
635994.1784000006737188
 30
0.0
  0
VERTEX
  5
27B
  8
NOSURVEY
 10
721746.3607000001939014
 20
635972.428099999204278
 30
0.0
  0
VERTEX
  5
27C
  8
NOSURVEY
 10
721592.7517999998526648
 20
635859.8323999998392537
 30
0.0
  0
SEQEND
  5
27D
  8
NOSURVEY
  0
POLYLINE
  5
81
  8
NOSURVEY
 66
     1
 10
0.0
 20
0.0
 30
0.0
 70
     1
  0
VERTEX
  5
27E
  8
NOSURVEY
 10
721604.7445000000298023
 20
635671.5659999996423721
 30
0.0
  0
VERTEX
  5
27F
  8
NOSURVEY
 10
721753.4201999994693324
 20
635748.7975999992340803
 30
0.0
  0
VERTEX
  5
280
  8
NOSURVEY
 10
721772.5149999996647239
 20
635719.4310999996960163
 30
0.0
  0
VERTEX
  5
281
  8
NOSURVEY
 10
721721.8223999999463558
 20
635688.4169999993173406
 30
0.0
  0
VERTEX
  5
282
  8
NOSURVEY
 10
721722.3751999996602535
 20
635671.0167999994009733
 30
0.0
  0
VERTEX
  5
283
  8
NOSURVEY
 10
721698.9425999997183681
 20
635655.249600000679493
 30
0.0
  0
VERTEX
  5
284
  8
NOSURVEY
 10
721674.4468999998643994
 20
635643.2833999990252778
 30
0.0
  0
VERTEX
  5
285
  8
NOSURVEY
 10
721668.4505000002682209
 20
635642.1995000001043081
 30
0.0
  0
VERTEX
  5
286
  8
NOSURVEY
 10
721665.728799999691546
 20
635635.1180000007152557
 30
0.0
  0
VERTEX
  5
287
  8
NOSURVEY
 10
721693.4990999995497987
 20
635593.2359999995678663
 30
0.0
  0
VERTEX
  5
288
  8
NOSURVEY
 10
721704.4287000000476837
 20
635582.902799999457784
 30
0.0
  0
VERTEX
  5
289
  8
NOSURVEY
 10
721671.1722999997437
 20
635569.8527000007452443
 30
0.0
  0
VERTEX
  5
28A
  8
NOSURVEY
 10
721656.457799999974668
 20
635593.7851999998092651
 30
0.0
  0
VERTEX
  5
28B
  8
NOSURVEY
 10
721619.4164000004529953
 20
635643.2833999990252778
 30
0.0
  0
VERTEX
  5
28C
  8
NOSURVEY
 10
721607.9765999997034669
 20
635667.7506000007269904
 30
0.0
  0
SEQEND
  5
28D
  8
NOSURVEY
  0
POLYLINE
  5
82
  8
NOSURVEY
 66
     1
 10
0.0
 20
0.0
 30
0.0
 70
     1
  0
VERTEX
  5
28E
  8
NOSURVEY
 10
721631.0689000003039837
 20
635416.7191000003367662
 30
0.0
  0
VERTEX
  5
28F
  8
NOSURVEY
 10
721580.5888999998569489
 20
635517.5653000008314848
 30
0.0
  0
VERTEX
  5
290
  8
NOSURVEY
 10
721717.2719000000506639
 20
635559.2882000003010035
 30
0.0
  0
VERTEX
  5
291
  8
NOSURVEY
 10
721736.4093000006396323
 20
635448.0221999995410442
 30
0.0
  0
VERTEX
  5
292
  8
NOSURVEY
 10
721635.4067000000504777
 20
635420.2019999995827675
 30
0.0
  0
SEQEND
  5
293
  8
NOSURVEY
  0
POLYLINE
  5
83
  8
NOSURVEY
 66
     1
 10
0.0
 20
0.0
 30
0.0
 70
     1
  0
VERTEX
  5
294
  8
NOSURVEY
 10
721125.4609000004129484
 20
635306.6092000007629395
 30
0.0
  0
VERTEX
  5
295
  8
NOSURVEY
 10
721153.5290000002132729
 20
635319.6304000000236556
 30
0.0
  0
VERTEX
  5
296
  8
NOSURVEY
 10
721191.3357999995350838
 20
635338.9383000005036592
 30
0.0
  0
VERTEX
  5
297
  8
NOSURVEY
 10
721211.5362999998033047
 20
635352.9712000004947186
 30
0.0
  0
VERTEX
  5
298
  8
NOSURVEY
 10
721249.3432000001193956
 20
635280.1475000008940697
 30
0.0
  0
VERTEX
  5
299
  8
NOSURVEY
 10
721291.487800000119023
 20
635185.4001000003190711
 30
0.0
  0
VERTEX
  5
29A
  8
NOSURVEY
 10
721342.4780999999493361
 20
635097.6619000006467104
 30
0.0
  0
VERTEX
  5
29B
  8
NOSURVEY
 10
721222.0831000006292015
 20
635074.8421999997226521
 30
0.0
  0
SEQEND
  5
29C
  8
NOSURVEY
  0
ENDSEC
  0
EOF
