  0
SECTION
  2
HEADER
  9
$ACADVER
  1
AC1009
  9
$INSBASE
 10
0.0
 20
0.0
 30
0.0
  9
$EXTMIN
 10
721487.2663044861983508
 20
623053.8186297910287976
 30
7.4996567034391388
  9
$EXTMAX
 10
732382.8261133430059999
 20
636753.0737857669591904
 30
7.5002288992985022
  9
$LIMMIN
 10
0.0
 20
0.0
  9
$LIMMAX
 10
12.0
 20
9.0
  9
$ORTHOMODE
 70
     0
  9
$REGENMODE
 70
     1
  9
$FILLMODE
 70
     1
  9
$QTEXTMODE
 70
     0
  9
$MIRRTEXT
 70
     0
  9
$DRAGMODE
 70
     2
  9
$LTSCALE
 40
1.0
  9
$OSMODE
 70
    37
  9
$ATTMODE
 70
     1
  9
$TEXTSIZE
 40
0.2
  9
$TRACEWID
 40
0.05
  9
$TEXTSTYLE
  7
STANDARD
  9
$CLAYER
  8
HERRERA
  9
$CELTYPE
  6
BYLAYER
  9
$CECOLOR
 62
   256
  9
$DIMSCALE
 40
1.0
  9
$DIMASZ
 40
0.18
  9
$DIMEXO
 40
0.0625
  9
$DIMDLI
 40
0.38
  9
$DIMRND
 40
0.0
  9
$DIMDLE
 40
0.0
  9
$DIMEXE
 40
0.18
  9
$DIMTP
 40
0.0
  9
$DIMTM
 40
0.0
  9
$DIMTXT
 40
0.18
  9
$DIMCEN
 40
0.09
  9
$DIMTSZ
 40
0.0
  9
$DIMTOL
 70
     0
  9
$DIMLIM
 70
     0
  9
$DIMTIH
 70
     1
  9
$DIMTOH
 70
     1
  9
$DIMSE1
 70
     0
  9
$DIMSE2
 70
     0
  9
$DIMTAD
 70
     0
  9
$DIMZIN
 70
     0
  9
$DIMBLK
  1

  9
$DIMASO
 70
     1
  9
$DIMSHO
 70
     1
  9
$DIMPOST
  1

  9
$DIMAPOST
  1

  9
$DIMALT
 70
     0
  9
$DIMALTD
 70
     2
  9
$DIMALTF
 40
25.3999999999999986
  9
$DIMLFAC
 40
1.0
  9
$DIMTOFL
 70
     0
  9
$DIMTVP
 40
0.0
  9
$DIMTIX
 70
     0
  9
$DIMSOXD
 70
     0
  9
$DIMSAH
 70
     0
  9
$DIMBLK1
  1

  9
$DIMBLK2
  1

  9
$DIMSTYLE
  2
STANDARD
  9
$DIMCLRD
 70
     0
  9
$DIMCLRE
 70
     0
  9
$DIMCLRT
 70
     0
  9
$DIMTFAC
 40
1.0
  9
$DIMGAP
 40
0.09
  9
$LUNITS
 70
     2
  9
$LUPREC
 70
     4
  9
$SKETCHINC
 40
0.1
  9
$FILLETRAD
 40
0.0
  9
$AUNITS
 70
     0
  9
$AUPREC
 70
     0
  9
$MENU
  1
.
  9
$ELEVATION
 40
0.0
  9
$PELEVATION
 40
0.0
  9
$THICKNESS
 40
0.0
  9
$LIMCHECK
 70
     0
  9
$BLIPMODE
 70
     0
  9
$CHAMFERA
 40
0.0
  9
$CHAMFERB
 40
0.0
  9
$SKPOLY
 70
     0
  9
$TDCREATE
 40
2456949.9048681370913982
  9
$TDUPDATE
 40
2457900.5333872339688241
  9
$TDINDWG
 40
0.00430125
  9
$TDUSRTIMER
 40
0.0043011343
  9
$USRTIMER
 70
     1
  9
$ANGBASE
 50
0.0
  9
$ANGDIR
 70
     0
  9
$PDMODE
 70
     0
  9
$PDSIZE
 40
0.0
  9
$PLINEWID
 40
0.0
  9
$COORDS
 70
     1
  9
$SPLFRAME
 70
     0
  9
$SPLINETYPE
 70
     6
  9
$SPLINESEGS
 70
     8
  9
$ATTDIA
 70
     1
  9
$ATTREQ
 70
     1
  9
$HANDLING
 70
     1
  9
$HANDSEED
  5
5C5
  9
$SURFTAB1
 70
     6
  9
$SURFTAB2
 70
     6
  9
$SURFTYPE
 70
     6
  9
$SURFU
 70
     6
  9
$SURFV
 70
     6
  9
$UCSNAME
  2

  9
$UCSORG
 10
0.0
 20
0.0
 30
0.0
  9
$UCSXDIR
 10
1.0
 20
0.0
 30
0.0
  9
$UCSYDIR
 10
0.0
 20
1.0
 30
0.0
  9
$PUCSNAME
  2

  9
$PUCSORG
 10
0.0
 20
0.0
 30
0.0
  9
$PUCSXDIR
 10
1.0
 20
0.0
 30
0.0
  9
$PUCSYDIR
 10
0.0
 20
1.0
 30
0.0
  9
$USERI1
 70
     0
  9
$USERI2
 70
     0
  9
$USERI3
 70
     0
  9
$USERI4
 70
     0
  9
$USERI5
 70
     0
  9
$USERR1
 40
0.0
  9
$USERR2
 40
0.0
  9
$USERR3
 40
0.0
  9
$USERR4
 40
0.0
  9
$USERR5
 40
0.0
  9
$WORLDVIEW
 70
     1
  9
$SHADEDGE
 70
     3
  9
$SHADEDIF
 70
    70
  9
$TILEMODE
 70
     1
  9
$MAXACTVP
 70
    64
  9
$PLIMCHECK
 70
     0
  9
$PEXTMIN
 10
0.0
 20
0.0
 30
0.0
  9
$PEXTMAX
 10
0.0
 20
0.0
 30
0.0
  9
$PLIMMIN
 10
0.0
 20
0.0
  9
$PLIMMAX
 10
12.0
 20
9.0
  9
$UNITMODE
 70
     0
  9
$VISRETAIN
 70
     1
  9
$PLINEGEN
 70
     0
  9
$PSLTSCALE
 70
     1
  0
ENDSEC
  0
SECTION
  2
TABLES
  0
TABLE
  2
VPORT
 70
     1
  0
VPORT
  2
*ACTIVE
 70
     0
 10
0.0
 20
0.0
 11
1.0
 21
1.0
 12
727284.9645089610712603
 22
631214.6549117200775072
 13
0.0
 23
0.0
 14
0.5
 24
0.5
 15
0.5
 25
0.5
 16
0.0
 26
0.0
 36
1.0
 17
0.0
 27
0.0
 37
0.0
 40
18538.1877038089005509
 41
1.1160714285714279
 42
50.0
 43
0.0
 44
0.0
 50
0.0
 51
0.0
 71
     0
 72
  1000
 73
     1
 74
     3
 75
     0
 76
     0
 77
     0
 78
     0
  0
ENDTAB
  0
TABLE
  2
LTYPE
 70
     1
  0
LTYPE
  2
CONTINUOUS
 70
     0
  3
Solid line
 72
    65
 73
     0
 40
0.0
  0
ENDTAB
  0
TABLE
  2
LAYER
 70
     2
  0
LAYER
  2
0
 70
     0
 62
     7
  6
CONTINUOUS
  0
LAYER
  2
HERRERA
 70
     0
 62
     1
  6
CONTINUOUS
  0
ENDTAB
  0
TABLE
  2
STYLE
 70
     2
  0
STYLE
  2
STANDARD
 70
     0
 40
0.0
 41
1.0
 50
0.0
 71
     0
 42
0.2
  3
txt
  4

  0
ENDTAB
  0
TABLE
  2
VIEW
 70
     0
  0
ENDTAB
  0
TABLE
  2
UCS
 70
     0
  0
ENDTAB
  0
TABLE
  2
APPID
 70
    11
  0
APPID
  2
ACAD
 70
     0
  0
APPID
  2
ACADANNOTATIVE
 70
     0
  0
APPID
  2
ACAD_DSTYLE_DIMJAG
 70
     0
  0
APPID
  2
ACAD_DSTYLE_DIMTALN
 70
     0
  0
APPID
  2
ACAD_NAV_VCDISPLAY
 70
     0
  0
APPID
  2
ADE
 70
     0
  0
APPID
  2
DCO15
 70
     0
  0
APPID
  2
ACAECLAYERSTANDARD
 70
     0
  0
APPID
  2
ACCMTRANSPARENCY
 70
     0
  0
APPID
  2
ADE_PROJECTION
 70
     0
  0
APPID
  2
ACAD_MLEADERVER
 70
     0
  0
ENDTAB
  0
TABLE
  2
DIMSTYLE
 70
     2
  0
DIMSTYLE
  2
STANDARD
 70
     0
  3

  4

  5

  6

  7

 40
1.0
 41
0.18
 42
0.0625
 43
0.38
 44
0.18
 45
0.0
 46
0.0
 47
0.0
 48
0.0
140
0.18
141
0.09
142
0.0
143
25.3999999999999986
144
1.0
145
0.0
146
1.0
147
0.09
 71
     0
 72
     0
 73
     1
 74
     1
 75
     0
 76
     0
 77
     0
 78
     0
170
     0
171
     2
172
     0
173
     0
174
     0
175
     0
176
     0
177
     0
178
     0
  0
ENDTAB
  0
ENDSEC
  0
SECTION
  2
BLOCKS
  0
BLOCK
  8
0
  2
$MODEL_SPACE
 70
     0
 10
0.0
 20
0.0
 30
0.0
  3
$MODEL_SPACE
  1

  0
ENDBLK
  5
349
  8
0
  0
BLOCK
 67
     1
  8
0
  2
$PAPER_SPACE
 70
     0
 10
0.0
 20
0.0
 30
0.0
  3
$PAPER_SPACE
  1

  0
ENDBLK
  5
345
 67
     1
  8
0
  0
ENDSEC
  0
SECTION
  2
ENTITIES
  0
POLYLINE
  5
6E
  8
HERRERA
 66
     1
 10
0.0
 20
0.0
 30
7.5
 70
     1
1001
DCO15
1071
        1
1071
        1
1000
Sog_data_analysis5
1004
073138433400
  0
VERTEX
  5
36E
  8
HERRERA
 10
723472.9504915644647554
 20
624718.348759779240936
 30
7.5
  0
VERTEX
  5
36F
  8
HERRERA
 10
723456.2869178720284253
 20
624761.617024730425328
 30
7.5
  0
VERTEX
  5
370
  8
HERRERA
 10
723432.9507687037112191
 20
624804.8837719229049981
 30
7.5
  0
VERTEX
  5
371
  8
HERRERA
 10
723417.3948246751679108
 20
624803.2203083902131766
 30
7.5
  0
VERTEX
  5
372
  8
HERRERA
 10
723384.6170258725760505
 20
624776.5942675584228709
 30
7.5
  0
VERTEX
  5
373
  8
HERRERA
 10
723355.1755148079246283
 20
624757.7330802233191207
 30
7.5
  0
VERTEX
  5
374
  8
HERRERA
 10
723370.1731777562526986
 20
624721.1217049199622124
 30
7.5
  0
VERTEX
  5
375
  8
HERRERA
 10
723396.2828673319891095
 20
624677.299458044115454
 30
7.5
  0
VERTEX
  5
376
  8
HERRERA
 10
723405.7289832150563598
 20
624671.7520500042010099
 30
7.5
  0
VERTEX
  5
377
  8
HERRERA
 10
723437.9529671854106709
 20
624690.6132373393047601
 30
7.5
  0
VERTEX
  5
378
  8
HERRERA
 10
723467.9527593312086537
 20
624710.5823885238496587
 30
7.5
  0
SEQEND
  5
379
  8
HERRERA
  0
POLYLINE
  5
70
  8
HERRERA
 66
     1
 10
0.0
 20
0.0
 30
7.5
 70
     1
1001
DCO15
1071
        1
1071
        1
1000
Sog_data_analysis5
1004
07313843313000
  0
VERTEX
  5
37A
  8
HERRERA
 10
723154.221123295952566
 20
624081.4076625038869679
 30
7.5
  0
VERTEX
  5
37B
  8
HERRERA
 10
723195.1632246198132634
 20
624059.9951227982528508
 30
7.5
  0
VERTEX
  5
37C
  8
HERRERA
 10
723214.0107939001172781
 20
624052.8571036434732378
 30
7.5
  0
VERTEX
  5
37D
  8
HERRERA
 10
723221.8088640328496695
 20
624061.2928064845036715
 30
7.5
  0
VERTEX
  5
37E
  8
HERRERA
 10
723233.5059692331124097
 20
624076.8665284806629643
 30
7.5
  0
VERTEX
  5
37F
  8
HERRERA
 10
723240.6519670645939186
 20
624098.2790681864134967
 30
7.5
  0
VERTEX
  5
380
  8
HERRERA
 10
723232.2062908773077652
 20
624106.7147710276767612
 30
7.5
  0
VERTEX
  5
381
  8
HERRERA
 10
723207.5124021219089627
 20
624123.5846589514985681
 30
7.5
  0
VERTEX
  5
382
  8
HERRERA
 10
723197.1105090285418555
 20
624126.8296270469436422
 30
7.5
  0
VERTEX
  5
383
  8
HERRERA
 10
723186.7130821840837598
 20
624120.9892915786476806
 30
7.5
  0
VERTEX
  5
384
  8
HERRERA
 10
723163.3188717840239406
 20
624097.6294674638193101
 30
7.5
  0
VERTEX
  5
385
  8
HERRERA
 10
723153.5735172416316345
 20
624087.8975986947771162
 30
7.5
  0
SEQEND
  5
386
  8
HERRERA
  0
POLYLINE
  5
71
  8
HERRERA
 66
     1
 10
0.0
 20
0.0
 30
7.5
 70
     1
1001
DCO15
1071
        1
1071
        1
1000
Sog_data_analysis5
1004
07313843313100
  0
VERTEX
  5
387
  8
HERRERA
 10
723193.9126749997958541
 20
624130.2491373925004154
 30
7.5
  0
VERTEX
  5
388
  8
HERRERA
 10
723188.5219128859462216
 20
624143.3185575377428904
 30
7.5
  0
VERTEX
  5
389
  8
HERRERA
 10
723178.5130496735218912
 20
624147.1630403186427429
 30
7.5
  0
VERTEX
  5
38A
  8
HERRERA
 10
723154.8999930891441181
 20
624164.8449291456490755
 30
7.5
  0
VERTEX
  5
38B
  8
HERRERA
 10
723140.527604951756075
 20
624174.0713842683471739
 30
7.5
  0
VERTEX
  5
38C
  8
HERRERA
 10
723126.9278778284788132
 20
624173.8148830484133214
 30
7.5
  0
VERTEX
  5
38D
  8
HERRERA
 10
723113.0646420364500955
 20
624164.0769432445522398
 30
7.5
  0
VERTEX
  5
38E
  8
HERRERA
 10
723104.3420584334526211
 20
624150.7510218798415735
 30
7.5
  0
VERTEX
  5
38F
  8
HERRERA
 10
723096.1286271753488109
 20
624127.6871607110369951
 30
7.5
  0
VERTEX
  5
390
  8
HERRERA
 10
723093.0469156112521887
 20
624109.7472529055085033
 30
7.5
  0
VERTEX
  5
391
  8
HERRERA
 10
723100.4921521012438461
 20
624093.8593548589851707
 30
7.5
  0
VERTEX
  5
392
  8
HERRERA
 10
723128.2186236866982654
 20
624086.3085053382674232
 30
7.5
  0
VERTEX
  5
393
  8
HERRERA
 10
723147.4726215937407687
 20
624082.4109010031679645
 30
7.5
  0
VERTEX
  5
394
  8
HERRERA
 10
723154.2389882894931361
 20
624091.5053111189045012
 30
7.5
  0
VERTEX
  5
395
  8
HERRERA
 10
723165.1723649716004729
 20
624102.1584594175219536
 30
7.5
  0
VERTEX
  5
396
  8
HERRERA
 10
723176.8784026690991595
 20
624115.6710651020985097
 30
7.5
  0
VERTEX
  5
397
  8
HERRERA
 10
723185.4669988127425313
 20
624122.9456825397210196
 30
7.5
  0
VERTEX
  5
398
  8
HERRERA
 10
723191.7152806658996269
 20
624127.1028236125130206
 30
7.5
  0
SEQEND
  5
399
  8
HERRERA
  0
POLYLINE
  5
72
  8
HERRERA
 66
     1
 10
0.0
 20
0.0
 30
7.5
 70
     1
1001
DCO15
1071
        1
1071
        1
1000
Sog_data_analysis5
1004
07313843313200
  0
VERTEX
  5
39A
  8
HERRERA
 10
723092.4395057958317921
 20
624110.1904384451918304
 30
7.5
  0
VERTEX
  5
39B
  8
HERRERA
 10
723071.9617557601304725
 20
624114.7801407468505204
 30
7.5
  0
VERTEX
  5
39C
  8
HERRERA
 10
723045.2133926283568144
 20
624121.8741448991931975
 30
7.5
  0
VERTEX
  5
39D
  8
HERRERA
 10
723037.6922299107536674
 20
624129.8029163354076445
 30
7.5
  0
VERTEX
  5
39E
  8
HERRERA
 10
723044.798031504265964
 20
624154.8398638111539185
 30
7.5
  0
VERTEX
  5
39F
  8
HERRERA
 10
723062.3503886765101925
 20
624179.8768112865509465
 30
7.5
  0
VERTEX
  5
3A0
  8
HERRERA
 10
723078.6477299806429073
 20
624196.1517378011485562
 30
7.5
  0
VERTEX
  5
3A1
  8
HERRERA
 10
723103.3058887477964163
 20
624200.3240564607549459
 30
7.5
  0
VERTEX
  5
3A2
  8
HERRERA
 10
723126.7090316453250125
 20
624194.0648195918183774
 30
7.5
  0
VERTEX
  5
3A3
  8
HERRERA
 10
723133.3950058659538627
 20
624183.2158804214559495
 30
7.5
  0
VERTEX
  5
3A4
  8
HERRERA
 10
723135.9005713555961847
 20
624176.1218762689968571
 30
7.5
  0
VERTEX
  5
3A5
  8
HERRERA
 10
723126.8564178505912423
 20
624175.3508548503741622
 30
7.5
  0
VERTEX
  5
3A6
  8
HERRERA
 10
723116.2937398059293628
 20
624169.0885824642609805
 30
7.5
  0
VERTEX
  5
3A7
  8
HERRERA
 10
723111.3406700595514849
 20
624164.6385139627382159
 30
7.5
  0
VERTEX
  5
3A8
  8
HERRERA
 10
723107.0486051115440205
 20
624158.705595213919878
 30
7.5
  0
VERTEX
  5
3A9
  8
HERRERA
 10
723103.2522937634494156
 20
624151.4552619154565036
 30
7.5
  0
VERTEX
  5
3AA
  8
HERRERA
 10
723099.9517360151512548
 20
624144.3688465564046055
 30
7.5
  0
VERTEX
  5
3AB
  8
HERRERA
 10
723097.6426854664459825
 20
624137.1169954993529245
 30
7.5
  0
VERTEX
  5
3AC
  8
HERRERA
 10
723094.5029126694425941
 20
624125.7231809565564618
 30
7.5
  0
VERTEX
  5
3AD
  8
HERRERA
 10
723093.1809030706062913
 20
624118.9661192345665768
 30
7.5
  0
VERTEX
  5
3AE
  8
HERRERA
 10
723092.2787208446534351
 20
624112.1422761301510036
 30
7.5
  0
VERTEX
  5
3AF
  8
HERRERA
 10
723092.4752357846591622
 20
624111.491157649201341
 30
7.5
  0
SEQEND
  5
3B0
  8
HERRERA
  0
POLYLINE
  5
73
  8
HERRERA
 66
     1
 10
0.0
 20
0.0
 30
7.5
 70
     1
1001
DCO15
1071
        1
1071
        1
1000
Sog_data_analysis5
1004
07313843313300
  0
VERTEX
  5
3B1
  8
HERRERA
 10
723037.7636898886412382
 20
624137.2004722277633846
 30
7.5
  0
VERTEX
  5
3B2
  8
HERRERA
 10
723010.8902717947494239
 20
624153.0337309609167278
 30
7.5
  0
VERTEX
  5
3B3
  8
HERRERA
 10
723006.5892743506701663
 20
624160.5466365140164271
 30
7.5
  0
VERTEX
  5
3B4
  8
HERRERA
 10
723003.364642828819342
 20
624174.7710710279643536
 30
7.5
  0
VERTEX
  5
3B5
  8
HERRERA
 10
723008.3936388026922941
 20
624194.870749460416846
 30
7.5
  0
VERTEX
  5
3B6
  8
HERRERA
 10
723021.8370472231181338
 20
624216.0859805353684351
 30
7.5
  0
VERTEX
  5
3B7
  8
HERRERA
 10
723033.5475511690601707
 20
624224.3122326761949807
 30
7.5
  0
VERTEX
  5
3B8
  8
HERRERA
 10
723043.0919245218392462
 20
624235.2203644358087331
 30
7.5
  0
VERTEX
  5
3B9
  8
HERRERA
 10
723066.0752400467172265
 20
624249.074465827550739
 30
7.5
  0
VERTEX
  5
3BA
  8
HERRERA
 10
723074.7486949145095423
 20
624244.3117390344850719
 30
7.5
  0
VERTEX
  5
3BB
  8
HERRERA
 10
723087.7544109673472121
 20
624221.3647452857112512
 30
7.5
  0
VERTEX
  5
3BC
  8
HERRERA
 10
723101.6310455064522102
 20
624206.6440036774147302
 30
7.5
  0
VERTEX
  5
3BD
  8
HERRERA
 10
723101.1978193875402212
 20
624203.1804783296538517
 30
7.5
  0
VERTEX
  5
3BE
  8
HERRERA
 10
723091.9928809310076758
 20
624200.533507160958834
 30
7.5
  0
VERTEX
  5
3BF
  8
HERRERA
 10
723082.2296613940270618
 20
624198.8229931088862941
 30
7.5
  0
VERTEX
  5
3C0
  8
HERRERA
 10
723076.9192917563486844
 20
624196.4294876425992697
 30
7.5
  0
VERTEX
  5
3C1
  8
HERRERA
 10
723071.2694872210267931
 20
624191.1279565119184554
 30
7.5
  0
VERTEX
  5
3C2
  8
HERRERA
 10
723066.646919873659499
 20
624186.1694388468749821
 30
7.5
  0
VERTEX
  5
3C3
  8
HERRERA
 10
723058.915843470254913
 20
624177.7337360056117177
 30
7.5
  0
VERTEX
  5
3C4
  8
HERRERA
 10
723053.0918552371440455
 20
624171.7492134610656649
 30
7.5
  0
VERTEX
  5
3C5
  8
HERRERA
 10
723047.6117681505857036
 20
624161.8306603721575812
 30
7.5
  0
VERTEX
  5
3C6
  8
HERRERA
 10
723043.842254294315353
 20
624155.6746310947928578
 30
7.5
  0
VERTEX
  5
3C7
  8
HERRERA
 10
723039.9030229897471145
 20
624143.8755749796982855
 30
7.5
  0
VERTEX
  5
3C8
  8
HERRERA
 10
723038.3621672075241804
 20
624139.0870462886523455
 30
7.5
  0
SEQEND
  5
3C9
  8
HERRERA
  0
POLYLINE
  5
74
  8
HERRERA
 66
     1
 10
0.0
 20
0.0
 30
7.5
 70
     1
1001
DCO15
1071
        1
1071
        1
1000
Sog_data_analysis5
1004
07313843313400
  0
VERTEX
  5
3CA
  8
HERRERA
 10
723179.6966055640950799
 20
624252.5379911755444482
 30
7.5
  0
VERTEX
  5
3CB
  8
HERRERA
 10
723158.3032745569944382
 20
624279.7331915189279243
 30
7.5
  0
VERTEX
  5
3CC
  8
HERRERA
 10
723146.7133593242615461
 20
624289.52577063604258
 30
7.5
  0
VERTEX
  5
3CD
  8
HERRERA
 10
723130.2195030796574429
 20
624286.8545153280720115
 30
7.5
  0
VERTEX
  5
3CE
  8
HERRERA
 10
723105.6997980213491246
 20
624276.1725296145305037
 30
7.5
  0
VERTEX
  5
3CF
  8
HERRERA
 10
723085.6418753582984209
 20
624266.8246537959203124
 30
7.5
  0
VERTEX
  5
3D0
  8
HERRERA
 10
723068.2547693859087303
 20
624253.0251917173154652
 30
7.5
  0
VERTEX
  5
3D1
  8
HERRERA
 10
723068.6254680232377723
 20
624250.4374131383374333
 30
7.5
  0
VERTEX
  5
3D2
  8
HERRERA
 10
723075.9099195619346574
 20
624245.4014897793531418
 30
7.5
  0
VERTEX
  5
3D3
  8
HERRERA
 10
723081.2336879465728998
 20
624235.6119461797643453
 30
7.5
  0
VERTEX
  5
3D4
  8
HERRERA
 10
723086.2760826656594872
 20
624228.6181141013512388
 30
7.5
  0
VERTEX
  5
3D5
  8
HERRERA
 10
723088.2367658214643598
 20
624222.1843349821865559
 30
7.5
  0
VERTEX
  5
3D6
  8
HERRERA
 10
723094.6815626146271825
 20
624215.190502903657034
 30
7.5
  0
VERTEX
  5
3D7
  8
HERRERA
 10
723101.9660141542553902
 20
624209.3167767440900207
 30
7.5
  0
VERTEX
  5
3D8
  8
HERRERA
 10
723103.7614461091579869
 20
624204.2049654505681247
 30
7.5
  0
VERTEX
  5
3D9
  8
HERRERA
 10
723110.8047202221350744
 20
624200.6883185481419787
 30
7.5
  0
VERTEX
  5
3DA
  8
HERRERA
 10
723120.6661972294095904
 20
624204.028905441518873
 30
7.5
  0
VERTEX
  5
3DB
  8
HERRERA
 10
723128.2364886815194041
 20
624220.7288043911103159
 30
7.5
  0
VERTEX
  5
3DC
  8
HERRERA
 10
723137.5664820999372751
 20
624232.5081296432763338
 30
7.5
  0
VERTEX
  5
3DD
  8
HERRERA
 10
723147.9549764469265938
 20
624242.3523125560022891
 30
7.5
  0
VERTEX
  5
3DE
  8
HERRERA
 10
723161.1616736894939095
 20
624245.3407794315135106
 30
7.5
  0
VERTEX
  5
3DF
  8
HERRERA
 10
723170.875764490920119
 20
624250.1687698485329747
 30
7.5
  0
VERTEX
  5
3E0
  8
HERRERA
 10
723180.3218803742201999
 20
624250.1687698485329747
 30
7.5
  0
SEQEND
  5
3E1
  8
HERRERA
  0
POLYLINE
  5
75
  8
HERRERA
 66
     1
 10
0.0
 20
0.0
 30
7.5
 70
     1
1001
DCO15
1071
        1
1071
        1
1000
Sog_data_analysis5
1004
07313843313600
  0
VERTEX
  5
3E2
  8
HERRERA
 10
723176.248661610414274
 20
624248.1425619872752577
 30
7.5
  0
VERTEX
  5
3E3
  8
HERRERA
 10
723183.885946792550385
 20
624248.7071682226378471
 30
7.5
  0
VERTEX
  5
3E4
  8
HERRERA
 10
723194.0645274530397728
 20
624241.6495902789756656
 30
7.5
  0
VERTEX
  5
3E5
  8
HERRERA
 10
723213.8544751974986866
 20
624223.0160667484160513
 30
7.5
  0
VERTEX
  5
3E6
  8
HERRERA
 10
723237.60598548874259
 20
624198.7349631043616682
 30
7.5
  0
VERTEX
  5
3E7
  8
HERRERA
 10
723239.3031599733512849
 20
624189.983566454029642
 30
7.5
  0
VERTEX
  5
3E8
  8
HERRERA
 10
723222.9030949509469792
 20
624173.0438616301398724
 30
7.5
  0
VERTEX
  5
3E9
  8
HERRERA
 10
723204.5244817789644003
 20
624147.917366391280666
 30
7.5
  0
VERTEX
  5
3EA
  8
HERRERA
 10
723196.6102891806513071
 20
624138.8836666231509298
 30
7.5
  0
VERTEX
  5
3EB
  8
HERRERA
 10
723193.4973138755885884
 20
624138.8836666231509298
 30
7.5
  0
VERTEX
  5
3EC
  8
HERRERA
 10
723190.388804818619974
 20
624143.9651227429276332
 30
7.5
  0
VERTEX
  5
3ED
  8
HERRERA
 10
723175.6859142810571939
 20
624152.4342162753455341
 30
7.5
  0
VERTEX
  5
3EE
  8
HERRERA
 10
723154.4801657173084095
 20
624169.0916179814375937
 30
7.5
  0
VERTEX
  5
3EF
  8
HERRERA
 10
723140.0586488435510546
 20
624178.4076208673650399
 30
7.5
  0
VERTEX
  5
3F0
  8
HERRERA
 10
723133.5557908173650503
 20
624186.878232158953324
 30
7.5
  0
VERTEX
  5
3F1
  8
HERRERA
 10
723128.7501072755549103
 20
624195.6296288090525195
 30
7.5
  0
VERTEX
  5
3F2
  8
HERRERA
 10
723117.7229393720626831
 20
624199.8656933340243995
 30
7.5
  0
VERTEX
  5
3F3
  8
HERRERA
 10
723125.0743846409022808
 20
624208.052483748877421
 30
7.5
  0
VERTEX
  5
3F4
  8
HERRERA
 10
723130.1614418476819992
 20
624219.9107324532233179
 30
7.5
  0
VERTEX
  5
3F5
  8
HERRERA
 10
723138.9286879366263747
 20
624228.944432221353054
 30
7.5
  0
VERTEX
  5
3F6
  8
HERRERA
 10
723149.1072685971157625
 20
624239.9542538137175143
 30
7.5
  0
VERTEX
  5
3F7
  8
HERRERA
 10
723163.2429455573437735
 20
624245.3195308096474037
 30
7.5
  0
VERTEX
  5
3F8
  8
HERRERA
 10
723172.5729389759944752
 20
624247.013349516550079
 30
7.5
  0
SEQEND
  5
3F9
  8
HERRERA
  0
POLYLINE
  5
76
  8
HERRERA
 66
     1
 10
0.0
 20
0.0
 30
7.5
 70
     1
1001
DCO15
1071
        1
1071
        1
1000
Sog_data_analysis5
1004
073139433200
  0
VERTEX
  5
3FA
  8
HERRERA
 10
722069.8516823910176754
 20
623298.8163695721887052
 30
7.5
  0
VERTEX
  5
3FB
  8
HERRERA
 10
722079.713159398175776
 20
623344.9425741507438943
 30
7.5
  0
VERTEX
  5
3FC
  8
HERRERA
 10
722093.7282476444961503
 20
623380.7040045836474746
 30
7.5
  0
VERTEX
  5
3FD
  8
HERRERA
 10
722099.4361134126083925
 20
623386.9237797264941037
 30
7.5
  0
VERTEX
  5
3FE
  8
HERRERA
 10
722113.4512016586959362
 20
623374.4842294410336763
 30
7.5
  0
VERTEX
  5
3FF
  8
HERRERA
 10
722144.0762686140369624
 20
623351.1623492937069386
 30
7.5
  0
VERTEX
  5
400
  8
HERRERA
 10
722157.5732720179948956
 20
623348.0524617220507935
 30
7.5
  0
VERTEX
  5
401
  8
HERRERA
 10
722139.4045725325122476
 20
623316.9566215258091688
 30
7.5
  0
VERTEX
  5
402
  8
HERRERA
 10
722134.2147916073445231
 20
623287.932521951617673
 30
7.5
  0
VERTEX
  5
403
  8
HERRERA
 10
722134.2147916073445231
 20
623280.6776353772729635
 30
7.5
  0
VERTEX
  5
404
  8
HERRERA
 10
722116.5641769634094089
 20
623293.6347413784824312
 30
7.5
  0
VERTEX
  5
405
  8
HERRERA
 10
722097.3593077920377254
 20
623296.7431111913174391
 30
7.5
  0
VERTEX
  5
406
  8
HERRERA
 10
722080.7493290835991502
 20
623296.7431111913174391
 30
7.5
  0
VERTEX
  5
407
  8
HERRERA
 10
722077.6363537786528468
 20
623296.7431111913174391
 30
7.5
  0
SEQEND
  5
408
  8
HERRERA
  0
POLYLINE
  5
77
  8
HERRERA
 66
     1
 10
0.0
 20
0.0
 30
7.5
 70
     1
1001
DCO15
1071
        1
1071
        1
1000
Sog_data_analysis5
1004
073139433300
  0
VERTEX
  5
409
  8
HERRERA
 10
722056.6717826407402754
 20
623290.8511719272937626
 30
7.5
  0
VERTEX
  5
40A
  8
HERRERA
 10
722066.8280320586636662
 20
623296.7415934326127172
 30
7.5
  0
VERTEX
  5
40B
  8
HERRERA
 10
722073.5229387766448781
 20
623295.8855775271076709
 30
7.5
  0
VERTEX
  5
40C
  8
HERRERA
 10
722088.1454368393169716
 20
623295.0629523131065071
 30
7.5
  0
VERTEX
  5
40D
  8
HERRERA
 10
722095.970304464106448
 20
623295.0629523131065071
 30
7.5
  0
VERTEX
  5
40E
  8
HERRERA
 10
722108.944756776210852
 20
623293.4177018848713487
 30
7.5
  0
VERTEX
  5
40F
  8
HERRERA
 10
722116.7696244020480663
 20
623291.3611388497520238
 30
7.5
  0
VERTEX
  5
410
  8
HERRERA
 10
722122.5355514019029215
 20
623287.2495305378688499
 30
7.5
  0
VERTEX
  5
411
  8
HERRERA
 10
722129.7440767139196396
 20
623282.3137792532797903
 30
7.5
  0
VERTEX
  5
412
  8
HERRERA
 10
722136.33625971339643
 20
623278.4070683654863387
 30
7.5
  0
VERTEX
  5
413
  8
HERRERA
 10
722144.1611273379530758
 20
623273.0600044738966972
 30
7.5
  0
VERTEX
  5
414
  8
HERRERA
 10
722152.6023372765630484
 20
623266.8311227790545672
 30
7.5
  0
VERTEX
  5
415
  8
HERRERA
 10
722158.3727305254433304
 20
623261.2791614631423727
 30
7.5
  0
VERTEX
  5
416
  8
HERRERA
 10
722160.0163100267527625
 20
623250.1737210728460923
 30
7.5
  0
VERTEX
  5
417
  8
HERRERA
 10
722160.6371185880852863
 20
623234.3404623395763338
 30
7.5
  0
VERTEX
  5
418
  8
HERRERA
 10
722155.6974475879687816
 20
623198.0538873972836882
 30
7.5
  0
VERTEX
  5
419
  8
HERRERA
 10
722153.0668271362083033
 20
623179.1365429905708879
 30
7.5
  0
VERTEX
  5
41A
  8
HERRERA
 10
722131.4903799341991544
 20
623194.8999848237726837
 30
7.5
  0
VERTEX
  5
41B
  8
HERRERA
 10
722111.4905185037059709
 20
623212.241895702551119
 30
7.5
  0
VERTEX
  5
41C
  8
HERRERA
 10
722103.0716398090589792
 20
623218.0215208231238648
 30
7.5
  0
VERTEX
  5
41D
  8
HERRERA
 10
722109.386915392242372
 20
623232.7361913962522522
 30
7.5
  0
VERTEX
  5
41E
  8
HERRERA
 10
722109.386915392242372
 20
623245.872392923804
 30
7.5
  0
VERTEX
  5
41F
  8
HERRERA
 10
722104.1212082402780652
 20
623254.2807761086151004
 30
7.5
  0
VERTEX
  5
420
  8
HERRERA
 10
722086.5643848191248253
 20
623258.0159802632406354
 30
7.5
  0
VERTEX
  5
421
  8
HERRERA
 10
722073.0048539340496063
 20
623264.2903947192244232
 30
7.5
  0
VERTEX
  5
422
  8
HERRERA
 10
722067.0513444907264784
 20
623273.2057093088515103
 30
7.5
  0
VERTEX
  5
423
  8
HERRERA
 10
722061.0978350470541045
 20
623283.7738631203537807
 30
7.5
  0
VERTEX
  5
424
  8
HERRERA
 10
722058.784318249556236
 20
623287.7367310797562823
 30
7.5
  0
SEQEND
  5
425
  8
HERRERA
  0
POLYLINE
  5
78
  8
HERRERA
 66
     1
 10
0.0
 20
0.0
 30
7.5
 70
     1
1001
DCO15
1071
        1
1071
        1
1000
Sog_data_analysis5
1004
073139433400
  0
VERTEX
  5
426
  8
HERRERA
 10
722100.767055508797057
 20
623216.0863784835673869
 30
7.5
  0
VERTEX
  5
427
  8
HERRERA
 10
722089.0878153024241328
 20
623206.0873841836582869
 30
7.5
  0
VERTEX
  5
428
  8
HERRERA
 10
722066.3858734427485615
 20
623201.4202761885244399
 30
7.5
  0
VERTEX
  5
429
  8
HERRERA
 10
722059.3783293189480901
 20
623196.7546859522117302
 30
7.5
  0
VERTEX
  5
42A
  8
HERRERA
 10
722077.7346112485975027
 20
623186.7556916524190456
 30
7.5
  0
VERTEX
  5
42B
  8
HERRERA
 10
722098.0962388189509511
 20
623171.4248110479675233
 30
7.5
  0
VERTEX
  5
42C
  8
HERRERA
 10
722113.1206992594525218
 20
623161.7582059029955417
 30
7.5
  0
VERTEX
  5
42D
  8
HERRERA
 10
722127.8057248024269938
 20
623154.7598205484682694
 30
7.5
  0
VERTEX
  5
42E
  8
HERRERA
 10
722151.8386087587568909
 20
623148.4262135034659877
 30
7.5
  0
VERTEX
  5
42F
  8
HERRERA
 10
722156.8452734890161082
 20
623148.760120416758582
 30
7.5
  0
VERTEX
  5
430
  8
HERRERA
 10
722155.5098651441512629
 20
623176.0904012843966484
 30
7.5
  0
VERTEX
  5
431
  8
HERRERA
 10
722149.8377293654484674
 20
623179.755788539070636
 30
7.5
  0
VERTEX
  5
432
  8
HERRERA
 10
722141.825279297423549
 20
623184.7552856891416013
 30
7.5
  0
VERTEX
  5
433
  8
HERRERA
 10
722135.4832062218338251
 20
623190.4225966657977551
 30
7.5
  0
VERTEX
  5
434
  8
HERRERA
 10
722123.2769486764445901
 20
623197.7533711751457304
 30
7.5
  0
VERTEX
  5
435
  8
HERRERA
 10
722118.2390202061505988
 20
623202.7801879816688597
 30
7.5
  0
VERTEX
  5
436
  8
HERRERA
 10
722110.8965074336156249
 20
623208.6448075893567875
 30
7.5
  0
VERTEX
  5
437
  8
HERRERA
 10
722103.5539946621283889
 20
623214.9283285973360762
 30
7.5
  0
SEQEND
  5
438
  8
HERRERA
  0
POLYLINE
  5
79
  8
HERRERA
 66
     1
 10
0.0
 20
0.0
 30
7.5
 70
     1
1001
DCO15
1071
        1
1071
        1
1000
Sog_data_analysis5
1004
073139433600
  0
VERTEX
  5
439
  8
HERRERA
 10
722161.6866870196536183
 20
623263.0852943132631481
 30
7.5
  0
VERTEX
  5
43A
  8
HERRERA
 10
722175.2104879152029753
 20
623277.0319789856439456
 30
7.5
  0
VERTEX
  5
43B
  8
HERRERA
 10
722192.9459612828213722
 20
623285.0002121479483321
 30
7.5
  0
VERTEX
  5
43C
  8
HERRERA
 10
722199.8195179470349103
 20
623276.5887934458442032
 30
7.5
  0
VERTEX
  5
43D
  8
HERRERA
 10
722211.1280595146818087
 20
623245.1544930599629879
 30
7.5
  0
VERTEX
  5
43E
  8
HERRERA
 10
722219.9935630745021626
 20
623224.5069037378998473
 30
7.5
  0
VERTEX
  5
43F
  8
HERRERA
 10
722229.9711625464260578
 20
623203.0336536841932684
 30
7.5
  0
VERTEX
  5
440
  8
HERRERA
 10
722227.9747494020266458
 20
623191.0797861819155514
 30
7.5
  0
VERTEX
  5
441
  8
HERRERA
 10
722215.1164195548044518
 20
623183.5532208004733548
 30
7.5
  0
VERTEX
  5
442
  8
HERRERA
 10
722184.0804577236995101
 20
623190.4165256309788674
 30
7.5
  0
VERTEX
  5
443
  8
HERRERA
 10
722165.4562008754583076
 20
623196.3934593823505566
 30
7.5
  0
VERTEX
  5
444
  8
HERRERA
 10
722158.3637980279745534
 20
623199.0495371029246598
 30
7.5
  0
VERTEX
  5
445
  8
HERRERA
 10
722160.8023697881726548
 20
623221.407640477293171
 30
7.5
  0
VERTEX
  5
446
  8
HERRERA
 10
722162.7943166841287166
 20
623236.9039567797444761
 30
7.5
  0
VERTEX
  5
447
  8
HERRERA
 10
722162.3744893108960241
 20
623252.0952035840600729
 30
7.5
  0
VERTEX
  5
448
  8
HERRERA
 10
722160.5924561015563086
 20
623260.6265252232551575
 30
7.5
  0
SEQEND
  5
449
  8
HERRERA
  0
POLYLINE
  5
7A
  8
HERRERA
 66
     1
 10
0.0
 20
0.0
 30
7.5
 70
     1
1001
DCO15
1071
        1
1071
        1
1000
Sog_data_analysis5
1004
073139433700
  0
VERTEX
  5
44A
  8
HERRERA
 10
723035.6377555347280577
 20
623228.1631844402290881
 30
7.5
  0
VERTEX
  5
44B
  8
HERRERA
 10
723007.0984266957966611
 20
623225.2551587757188827
 30
7.5
  0
VERTEX
  5
44C
  8
HERRERA
 10
722978.5590978574473411
 20
623220.0204090274637565
 30
7.5
  0
VERTEX
  5
44D
  8
HERRERA
 10
722936.0404107607901096
 20
623213.6230561172123998
 30
7.5
  0
VERTEX
  5
44E
  8
HERRERA
 10
722933.7090289685875177
 20
623207.2257032068446279
 30
7.5
  0
VERTEX
  5
44F
  8
HERRERA
 10
722952.9272968862205744
 20
623161.8644490118604153
 30
7.5
  0
VERTEX
  5
450
  8
HERRERA
 10
722958.170672794803977
 20
623134.5311326268129051
 30
7.5
  0
VERTEX
  5
451
  8
HERRERA
 10
722975.0620251679793
 20
623106.0336953205987811
 30
7.5
  0
VERTEX
  5
452
  8
HERRERA
 10
722980.8860134008573368
 20
623085.6790334271499887
 30
7.5
  0
VERTEX
  5
453
  8
HERRERA
 10
722996.0310625545680523
 20
623090.3309638353530318
 30
7.5
  0
VERTEX
  5
454
  8
HERRERA
 10
723028.6480764057487249
 20
623110.1043241475708783
 30
7.5
  0
VERTEX
  5
455
  8
HERRERA
 10
723047.2857319992035627
 20
623121.7364268060773611
 30
7.5
  0
VERTEX
  5
456
  8
HERRERA
 10
723042.0423560906201601
 20
623145.5804159452673048
 30
7.5
  0
VERTEX
  5
457
  8
HERRERA
 10
723040.296052870573476
 20
623175.8217579947086051
 30
7.5
  0
VERTEX
  5
458
  8
HERRERA
 10
723039.1303619743557647
 20
623216.5310817820718512
 30
7.5
  0
VERTEX
  5
459
  8
HERRERA
 10
723037.9646710781380534
 20
623227.5803651004098356
 30
7.5
  0
SEQEND
  5
45A
  8
HERRERA
  0
POLYLINE
  5
7B
  8
HERRERA
 66
     1
 10
0.0
 20
0.0
 30
7.5
 70
     1
1001
DCO15
1071
        1
1071
        1
1000
Sog_data_analysis5
1004
07313943313700
  0
VERTEX
  5
45B
  8
HERRERA
 10
723183.1356170204235241
 20
623645.8822509520687163
 30
7.5
  0
VERTEX
  5
45C
  8
HERRERA
 10
723210.1162250817287713
 20
623654.7065000197617337
 30
7.5
  0
VERTEX
  5
45D
  8
HERRERA
 10
723240.3527284050360322
 20
623663.9967010077089071
 30
7.5
  0
VERTEX
  5
45E
  8
HERRERA
 10
723257.5656506809173152
 20
623662.1389643619768322
 30
7.5
  0
VERTEX
  5
45F
  8
HERRERA
 10
723263.1484614870278165
 20
623642.6296940629836172
 30
7.5
  0
VERTEX
  5
460
  8
HERRERA
 10
723266.4043567487969995
 20
623612.4384380504488945
 30
7.5
  0
VERTEX
  5
461
  8
HERRERA
 10
723268.7312722923234105
 20
623588.2863438955973834
 30
7.5
  0
VERTEX
  5
462
  8
HERRERA
 10
723245.9355392109137028
 20
623580.8538795532658696
 30
7.5
  0
VERTEX
  5
463
  8
HERRERA
 10
723206.860329819843173
 20
623572.958498808555305
 30
7.5
  0
VERTEX
  5
464
  8
HERRERA
 10
723195.694708208553493
 20
623572.958498808555305
 30
7.5
  0
VERTEX
  5
465
  8
HERRERA
 10
723192.269095498137176
 20
623592.968629477545619
 30
7.5
  0
VERTEX
  5
466
  8
HERRERA
 10
723189.3303038899321109
 20
623610.0297549972310662
 30
7.5
  0
VERTEX
  5
467
  8
HERRERA
 10
723186.0208136448636651
 20
623624.5880964247044176
 30
7.5
  0
VERTEX
  5
468
  8
HERRERA
 10
723182.3450910104438663
 20
623639.4469540740828961
 30
7.5
  0
VERTEX
  5
469
  8
HERRERA
 10
723181.425043789553456
 20
623644.2157519022002816
 30
7.5
  0
SEQEND
  5
46A
  8
HERRERA
  0
POLYLINE
  5
7C
  8
HERRERA
 66
     1
 10
0.0
 20
0.0
 30
7.5
 70
     1
1001
DCO15
1071
        1
1071
        1
1000
Sog_data_analysis5
1004
0736423400
  0
VERTEX
  5
46B
  8
HERRERA
 10
721571.9508480506483465
 20
636733.2203375425888225
 30
7.5
  0
VERTEX
  5
46C
  8
HERRERA
 10
721541.2257085930323228
 20
636733.6407346074702218
 30
7.5
  0
VERTEX
  5
46D
  8
HERRERA
 10
721539.9628038166556507
 20
636641.173251920263283
 30
7.5
  0
VERTEX
  5
46E
  8
HERRERA
 10
721564.7954963380470872
 20
636637.3903922856552526
 30
7.5
  0
VERTEX
  5
46F
  8
HERRERA
 10
721631.2970617526443675
 20
636633.1873735687695444
 30
7.5
  0
VERTEX
  5
470
  8
HERRERA
 10
721642.6612091037677601
 20
636640.3325767817441374
 30
7.5
  0
VERTEX
  5
471
  8
HERRERA
 10
721622.8791378693422303
 20
636667.6525554136605933
 30
7.5
  0
VERTEX
  5
472
  8
HERRERA
 10
721587.9448701676446944
 20
636713.8862372617004439
 30
7.5
  0
VERTEX
  5
473
  8
HERRERA
 10
721575.7388971676118672
 20
636728.1766436877660453
 30
7.5
  0
SEQEND
  5
474
  8
HERRERA
  0
POLYLINE
  5
7D
  8
HERRERA
 66
     1
 10
0.0
 20
0.0
 30
7.5
 70
     1
1001
DCO15
1071
        1
1071
        1
1000
Sog_data_analysis5
1004
073131463200
  0
VERTEX
  5
475
  8
HERRERA
 10
729935.1807252853177488
 20
631178.7644481132738292
 30
7.5
  0
VERTEX
  5
476
  8
HERRERA
 10
729931.6288237095577642
 20
631265.0763255910715088
 30
7.5
  0
VERTEX
  5
477
  8
HERRERA
 10
729897.3106287698028609
 20
631264.4844659188529477
 30
7.5
  0
VERTEX
  5
478
  8
HERRERA
 10
729814.4729526973096654
 20
631266.8489304382819682
 30
7.5
  0
VERTEX
  5
479
  8
HERRERA
 10
729778.3788069699658081
 20
631265.6666981785092503
 30
7.5
  0
VERTEX
  5
47A
  8
HERRERA
 10
729780.1547577576711774
 20
631247.9317271959735081
 30
7.5
  0
VERTEX
  5
47B
  8
HERRERA
 10
729786.1209411871386692
 20
631220.7983815185725689
 30
7.5
  0
VERTEX
  5
47C
  8
HERRERA
 10
729788.1654966322239488
 20
631206.7855832988861948
 30
7.5
  0
VERTEX
  5
47D
  8
HERRERA
 10
729793.717712884536013
 20
631184.3082995153963566
 30
7.5
  0
VERTEX
  5
47E
  8
HERRERA
 10
729796.3468784644501284
 20
631180.5132596069015563
 30
7.5
  0
VERTEX
  5
47F
  8
HERRERA
 10
729810.9558117245323956
 20
631182.2650452700909227
 30
7.5
  0
VERTEX
  5
480
  8
HERRERA
 10
729828.4877956584095955
 20
631182.5565138525562361
 30
7.5
  0
VERTEX
  5
481
  8
HERRERA
 10
729851.8627208857797086
 20
631183.1409381015691906
 30
7.5
  0
VERTEX
  5
482
  8
HERRERA
 10
729869.1608607659582049
 20
631181.9423479111865163
 30
7.5
  0
VERTEX
  5
483
  8
HERRERA
 10
729881.722078527440317
 20
631179.3146694165188819
 30
7.5
  0
VERTEX
  5
484
  8
HERRERA
 10
729899.2540624613175169
 20
631179.0232008340535685
 30
7.5
  0
VERTEX
  5
485
  8
HERRERA
 10
729924.3796580381458625
 20
631177.8558394203428179
 30
7.5
  0
SEQEND
  5
486
  8
HERRERA
  0
POLYLINE
  5
7E
  8
HERRERA
 66
     1
 10
0.0
 20
0.0
 30
7.5
 70
     1
1001
DCO15
1071
        1
1071
        1
1000
Sog_data_analysis5
1004
073131473200
  0
VERTEX
  5
487
  8
HERRERA
 10
730002.3039785471046343
 20
631341.065836418652907
 30
7.5
  0
VERTEX
  5
488
  8
HERRERA
 10
730068.9409824497997761
 20
631321.1618754877708852
 30
7.5
  0
VERTEX
  5
489
  8
HERRERA
 10
730012.6085721418494359
 20
631173.600437228102237
 30
7.5
  0
VERTEX
  5
48A
  8
HERRERA
 10
730002.3039785471046343
 20
631175.658493404975161
 30
7.5
  0
SEQEND
  5
48B
  8
HERRERA
  0
POLYLINE
  5
7F
  8
HERRERA
 66
     1
 10
0.0
 20
0.0
 30
7.5
 70
     1
1001
DCO15
1071
        1
1071
        1
1000
Sog_data_analysis5
1004
073131473400
  0
VERTEX
  5
48C
  8
HERRERA
 10
730064.3242970028659329
 20
631087.0520372202154249
 30
7.5
  0
VERTEX
  5
48D
  8
HERRERA
 10
730015.6263234092621133
 20
631106.8504186796490103
 30
7.5
  0
VERTEX
  5
48E
  8
HERRERA
 10
730011.2529540330870077
 20
631090.9926794664934278
 30
7.5
  0
VERTEX
  5
48F
  8
HERRERA
 10
730007.2240190953016281
 20
631049.7185412817634642
 30
7.5
  0
VERTEX
  5
490
  8
HERRERA
 10
730004.8730170604540035
 20
631035.6259123880881816
 30
7.5
  0
VERTEX
  5
491
  8
HERRERA
 10
730032.7500868840143085
 20
631026.2293394240550697
 30
7.5
  0
VERTEX
  5
492
  8
HERRERA
 10
730040.8079567602835596
 20
631026.2293394240550697
 30
7.5
  0
VERTEX
  5
493
  8
HERRERA
 10
730051.2199886197922751
 20
631051.3959165473934263
 30
7.5
  0
VERTEX
  5
494
  8
HERRERA
 10
730062.640044201631099
 20
631080.2548011038452387
 30
7.5
  0
SEQEND
  5
495
  8
HERRERA
  0
POLYLINE
  5
80
  8
HERRERA
 66
     1
 10
0.0
 20
0.0
 30
7.5
 70
     1
1001
DCO15
1071
        1
1071
        1
1000
Sog_data_analysis5
1004
07313147313600
  0
VERTEX
  5
496
  8
HERRERA
 10
730687.561032576020807
 20
631811.4982207508292049
 30
7.5
  0
VERTEX
  5
497
  8
HERRERA
 10
730653.0291102197952569
 20
631826.5455259927548468
 30
7.5
  0
VERTEX
  5
498
  8
HERRERA
 10
730624.0081388690741733
 20
631832.4178264571819454
 30
7.5
  0
VERTEX
  5
499
  8
HERRERA
 10
730609.6840901830000803
 20
631809.6632197955623269
 30
7.5
  0
VERTEX
  5
49A
  8
HERRERA
 10
730601.2059470935491845
 20
631786.7732929661870003
 30
7.5
  0
VERTEX
  5
49B
  8
HERRERA
 10
730596.7978182788938284
 20
631760.3486843934515491
 30
7.5
  0
VERTEX
  5
49C
  8
HERRERA
 10
730599.3668567922431976
 20
631744.9340815539471805
 30
7.5
  0
VERTEX
  5
49D
  8
HERRERA
 10
730619.5715705137699842
 20
631747.1363801071420312
 30
7.5
  0
VERTEX
  5
49E
  8
HERRERA
 10
730650.0619181358488277
 20
631753.3759781698463485
 30
7.5
  0
VERTEX
  5
49F
  8
HERRERA
 10
730675.4078688331646845
 20
631775.0286920372163877
 30
7.5
  0
VERTEX
  5
4A0
  8
HERRERA
 10
730687.529433086514473
 20
631802.5551934039685875
 30
7.5
  0
SEQEND
  5
4A1
  8
HERRERA
  0
POLYLINE
  5
81
  8
HERRERA
 66
     1
 10
0.0
 20
0.0
 30
7.5
 70
     1
1001
DCO15
1071
        1
1071
        1
1000
Sog_data_analysis5
1004
073133473300
  0
VERTEX
  5
4A2
  8
HERRERA
 10
731006.8801724729128182
 20
629406.2529365373775363
 30
7.5
  0
VERTEX
  5
4A3
  8
HERRERA
 10
730943.3215024302480742
 20
629343.9885687150526792
 30
7.5
  0
VERTEX
  5
4A4
  8
HERRERA
 10
730944.1468169746221974
 20
629334.9164088438265026
 30
7.5
  0
VERTEX
  5
4A5
  8
HERRERA
 10
730957.7676570032490417
 20
629327.494136870955117
 30
7.5
  0
VERTEX
  5
4A6
  8
HERRERA
 10
730968.0840888015227392
 20
629326.2563503525452688
 30
7.5
  0
VERTEX
  5
4A7
  8
HERRERA
 10
730989.9612243240699172
 20
629318.0098756197839975
 30
7.5
  0
VERTEX
  5
4A8
  8
HERRERA
 10
730998.6270270345266908
 20
629318.0098756197839975
 30
7.5
  0
VERTEX
  5
4A9
  8
HERRERA
 10
731017.6124115979764611
 20
629333.6786223254166543
 30
7.5
  0
VERTEX
  5
4AA
  8
HERRERA
 10
731030.8205943554639816
 20
629350.5851555495755747
 30
7.5
  0
VERTEX
  5
4AB
  8
HERRERA
 10
731037.0104534341953695
 20
629357.5953261428512633
 30
7.5
  0
VERTEX
  5
4AC
  8
HERRERA
 10
731028.7541579405078664
 20
629384.3982219977770001
 30
7.5
  0
VERTEX
  5
4AD
  8
HERRERA
 10
731013.485838879365474
 20
629402.1304403604008257
 30
7.5
  0
SEQEND
  5
4AE
  8
HERRERA
  0
POLYLINE
  5
82
  8
HERRERA
 66
     1
 10
0.0
 20
0.0
 30
7.5
 70
     1
1001
DCO15
1071
        1
1071
        1
1000
Sog_data_analysis5
1004
073133473600
  0
VERTEX
  5
4AF
  8
HERRERA
 10
731173.5023587193572894
 20
629139.9717029046732932
 30
7.5
  0
VERTEX
  5
4B0
  8
HERRERA
 10
731119.4190556531539187
 20
629102.0435521749313921
 30
7.5
  0
VERTEX
  5
4B1
  8
HERRERA
 10
731092.3758290929254144
 20
629080.7417650261195377
 30
7.5
  0
VERTEX
  5
4B2
  8
HERRERA
 10
731073.1352900329511613
 20
629062.0371059977915138
 30
7.5
  0
VERTEX
  5
4B3
  8
HERRERA
 10
731077.296513362438418
 20
629050.6064810357056558
 30
7.5
  0
VERTEX
  5
4B4
  8
HERRERA
 10
731088.7375149778090417
 20
629041.2541515214834362
 30
7.5
  0
VERTEX
  5
4B5
  8
HERRERA
 10
731110.0570906755747274
 20
629056.3210523274028674
 30
7.5
  0
VERTEX
  5
4B6
  8
HERRERA
 10
731145.9393729990115389
 20
629075.5460264071589336
 30
7.5
  0
VERTEX
  5
4B7
  8
HERRERA
 10
731170.3806537077762187
 20
629099.4464240549132228
 30
7.5
  0
VERTEX
  5
4B8
  8
HERRERA
 10
731177.6604319935431704
 20
629119.188748428481631
 30
7.5
  0
VERTEX
  5
4B9
  8
HERRERA
 10
731176.1011545155197382
 20
629135.8151120094116777
 30
7.5
  0
SEQEND
  5
4BA
  8
HERRERA
  0
POLYLINE
  5
83
  8
HERRERA
 66
     1
 10
0.0
 20
0.0
 30
7.5
 70
     1
1001
DCO15
1071
        1
1071
        1
1000
Sog_data_analysis5
1004
073134473100
  0
VERTEX
  5
4BB
  8
HERRERA
 10
730820.0106518991524354
 20
628679.5100914507638663
 30
7.5
  0
VERTEX
  5
4BC
  8
HERRERA
 10
730816.5195066621527076
 20
628717.1101141751278192
 30
7.5
  0
VERTEX
  5
4BD
  8
HERRERA
 10
730812.6383596149971709
 20
628750.0597168316598982
 30
7.5
  0
VERTEX
  5
4BE
  8
HERRERA
 10
730791.6883430171292275
 20
628753.5482719237916172
 30
7.5
  0
VERTEX
  5
4BF
  8
HERRERA
 10
730769.9614679743535817
 20
628748.5085900872945786
 30
7.5
  0
VERTEX
  5
4C0
  8
HERRERA
 10
730753.2794550579274073
 20
628731.4521162298042327
 30
7.5
  0
VERTEX
  5
4C1
  8
HERRERA
 10
730746.2940194079419598
 20
628702.768112120218575
 30
7.5
  0
VERTEX
  5
4C2
  8
HERRERA
 10
730749.3983080106554553
 20
628667.1069978263694793
 30
7.5
  0
VERTEX
  5
4C3
  8
HERRERA
 10
730758.7111738184466958
 20
628653.92686074716039
 30
7.5
  0
VERTEX
  5
4C4
  8
HERRERA
 10
730783.5391922882990912
 20
628665.5558710820041597
 30
7.5
  0
VERTEX
  5
4C5
  8
HERRERA
 10
730816.9063632970210165
 20
628677.1848814168479294
 30
7.5
  0
SEQEND
  5
4C6
  8
HERRERA
  0
POLYLINE
  5
84
  8
HERRERA
 66
     1
 10
0.0
 20
0.0
 30
7.5
 70
     1
1001
DCO15
1071
        1
1071
        1
1000
Sog_data_analysis5
1004
073134473300
  0
VERTEX
  5
4C7
  8
HERRERA
 10
730542.1280717365443707
 20
628425.7632210408337414
 30
7.5
  0
VERTEX
  5
4C8
  8
HERRERA
 10
730565.4086636683205143
 20
628422.7453322699293494
 30
7.5
  0
VERTEX
  5
4C9
  8
HERRERA
 10
730597.8385722618550062
 20
628423.1316338733304292
 30
7.5
  0
VERTEX
  5
4CA
  8
HERRERA
 10
730617.1405166937038302
 20
628427.3735510960686952
 30
7.5
  0
VERTEX
  5
4CB
  8
HERRERA
 10
730618.3010865971446037
 20
628466.7171113253571093
 30
7.5
  0
VERTEX
  5
4CC
  8
HERRERA
 10
730615.98309196671471
 20
628501.4324527280405164
 30
7.5
  0
VERTEX
  5
4CD
  8
HERRERA
 10
730597.8385722618550062
 20
628504.5169452239060774
 30
7.5
  0
VERTEX
  5
4CE
  8
HERRERA
 10
730566.9529450298286974
 20
628519.9468081153463572
 30
7.5
  0
VERTEX
  5
4CF
  8
HERRERA
 10
730543.7887246060417965
 20
628524.575026941485703
 30
7.5
  0
VERTEX
  5
4D0
  8
HERRERA
 10
730528.7327676244312897
 20
628516.4745339335640892
 30
7.5
  0
VERTEX
  5
4D1
  8
HERRERA
 10
730531.8213303474476561
 20
628461.7025908958166838
 30
7.5
  0
VERTEX
  5
4D2
  8
HERRERA
 10
730537.9984557935968041
 20
628430.0747021539136767
 30
7.5
  0
SEQEND
  5
4D3
  8
HERRERA
  0
POLYLINE
  5
85
  8
HERRERA
 66
     1
 10
0.0
 20
0.0
 30
7.5
 70
     1
1001
DCO15
1071
        1
1071
        1
1000
Sog_data_analysis5
1004
073134473400
  0
VERTEX
  5
4D4
  8
HERRERA
 10
730573.5326529898447916
 20
628363.9949267425108701
 30
7.5
  0
VERTEX
  5
4D5
  8
HERRERA
 10
730605.1919934907928109
 20
628361.295255767647177
 30
7.5
  0
VERTEX
  5
4D6
  8
HERRERA
 10
730625.6513626498635858
 20
628367.080899320775643
 30
7.5
  0
VERTEX
  5
4D7
  8
HERRERA
 10
730625.6513626498635858
 20
628398.323966542026028
 30
7.5
  0
VERTEX
  5
4D8
  8
HERRERA
 10
730624.4939379226416349
 20
628418.3805681772064418
 30
7.5
  0
VERTEX
  5
4D9
  8
HERRERA
 10
730605.9625615837285295
 20
628422.2376638792920858
 30
7.5
  0
VERTEX
  5
4DA
  8
HERRERA
 10
730583.1851977938786149
 20
628419.537992904544808
 30
7.5
  0
VERTEX
  5
4DB
  8
HERRERA
 10
730579.3260669779265299
 20
628414.5234724748879671
 30
7.5
  0
VERTEX
  5
4DC
  8
HERRERA
 10
730572.7620848971419036
 20
628383.2804052536375821
 30
7.5
  0
VERTEX
  5
4DD
  8
HERRERA
 10
730573.9195096244802698
 20
628367.080899320775643
 30
7.5
  0
SEQEND
  5
4DE
  8
HERRERA
  0
POLYLINE
  5
86
  8
HERRERA
 66
     1
 10
0.0
 20
0.0
 30
7.5
 70
     1
1001
DCO15
1071
        1
1071
        1
1000
Sog_data_analysis5
1004
073134473500
  0
VERTEX
  5
4DF
  8
HERRERA
 10
730561.1784020974300802
 20
628336.6089552233461291
 30
7.5
  0
VERTEX
  5
4E0
  8
HERRERA
 10
730569.673522174009122
 20
628364.3797482629306614
 30
7.5
  0
VERTEX
  5
4E1
  8
HERRERA
 10
730570.0603788086446002
 20
628369.394268692471087
 30
7.5
  0
VERTEX
  5
4E2
  8
HERRERA
 10
730568.5160974469035864
 20
628384.0515283774584532
 30
7.5
  0
VERTEX
  5
4E3
  8
HERRERA
 10
730570.4440902667120099
 20
628395.2379939638776705
 30
7.5
  0
VERTEX
  5
4E4
  8
HERRERA
 10
730575.850647620507516
 20
628414.5234724748879671
 30
7.5
  0
VERTEX
  5
4E5
  8
HERRERA
 10
730577.7817856164183468
 20
628418.3805681772064418
 30
7.5
  0
VERTEX
  5
4E6
  8
HERRERA
 10
730561.1784020974300802
 20
628421.0802391520701349
 30
7.5
  0
VERTEX
  5
4E7
  8
HERRERA
 10
730541.4896010309457779
 20
628421.8528423588722944
 30
7.5
  0
VERTEX
  5
4E8
  8
HERRERA
 10
730533.3844827641732991
 20
628407.5804041943047196
 30
7.5
  0
VERTEX
  5
4E9
  8
HERRERA
 10
730531.453344768146053
 20
628397.5513633354566991
 30
7.5
  0
VERTEX
  5
4EA
  8
HERRERA
 10
730517.9416691483929753
 20
628385.5952547081978992
 30
7.5
  0
VERTEX
  5
4EB
  8
HERRERA
 10
730514.466249791206792
 20
628367.4657208415446803
 30
7.5
  0
VERTEX
  5
4EC
  8
HERRERA
 10
730515.2368178837932646
 20
628346.251694479258731
 30
7.5
  0
VERTEX
  5
4ED
  8
HERRERA
 10
730536.8567569459555671
 20
628336.6089552233461291
 30
7.5
  0
VERTEX
  5
4EE
  8
HERRERA
 10
730556.5455580125562847
 20
628336.2226536199450493
 30
7.5
  0
SEQEND
  5
4EF
  8
HERRERA
  0
POLYLINE
  5
87
  8
HERRERA
 66
     1
 10
0.0
 20
0.0
 30
7.5
 70
     1
1001
DCO15
1071
        1
1071
        1
1000
Sog_data_analysis5
1004
073134473800
  0
VERTEX
  5
4F0
  8
HERRERA
 10
730502.2283704058500007
 20
628931.1197223387425765
 30
7.5
  0
VERTEX
  5
4F1
  8
HERRERA
 10
730491.2957390150986612
 20
628938.765829935669899
 30
7.5
  0
VERTEX
  5
4F2
  8
HERRERA
 10
730473.802270719432272
 20
628940.404281563591212
 30
7.5
  0
VERTEX
  5
4F3
  8
HERRERA
 10
730447.5589230995392427
 20
628931.1197223387425765
 30
7.5
  0
VERTEX
  5
4F4
  8
HERRERA
 10
730447.5589230995392427
 20
628913.6414248913060874
 30
7.5
  0
VERTEX
  5
4F5
  8
HERRERA
 10
730436.0790311044547707
 20
628881.9617332525085658
 30
7.5
  0
VERTEX
  5
4F6
  8
HERRERA
 10
730429.5213393749436364
 20
628857.9296292932704091
 30
7.5
  0
VERTEX
  5
4F7
  8
HERRERA
 10
730427.8795575611293316
 20
628839.359030761057511
 30
7.5
  0
VERTEX
  5
4F8
  8
HERRERA
 10
730427.8795575611293316
 20
628815.3269268015865237
 30
7.5
  0
VERTEX
  5
4F9
  8
HERRERA
 10
730442.0926074045710266
 20
628803.3116148635745049
 30
7.5
  0
VERTEX
  5
4FA
  8
HERRERA
 10
730461.2278575141681358
 20
628826.7975682800170034
 30
7.5
  0
VERTEX
  5
4FB
  8
HERRERA
 10
730478.7213258099509403
 20
628886.3324176764581352
 30
7.5
  0
VERTEX
  5
4FC
  8
HERRERA
 10
730496.2147941058501601
 20
628918.5567797750700265
 30
7.5
  0
VERTEX
  5
4FD
  8
HERRERA
 10
730500.0424731629900634
 20
628921.8336830309126526
 30
7.5
  0
SEQEND
  5
4FE
  8
HERRERA
  0
POLYLINE
  5
88
  8
HERRERA
 66
     1
 10
0.0
 20
0.0
 30
7.5
 70
     1
1001
DCO15
1071
        1
1071
        1
1000
Sog_data_analysis5
1004
073139433100
  0
VERTEX
  5
4FF
  8
HERRERA
 10
722044.3708631268236786
 20
623293.8520618812181056
 30
7.5
  0
VERTEX
  5
500
  8
HERRERA
 10
722023.6761071309447289
 20
623288.572339809848927
 30
7.5
  0
VERTEX
  5
501
  8
HERRERA
 10
721991.9709796728566289
 20
623267.8953859915491194
 30
7.5
  0
VERTEX
  5
502
  8
HERRERA
 10
721983.6063421298749745
 20
623257.7778763157548383
 30
7.5
  0
VERTEX
  5
503
  8
HERRERA
 10
721984.9260891200974584
 20
623227.4224108473863453
 30
7.5
  0
VERTEX
  5
504
  8
HERRERA
 10
721984.4861734566511586
 20
623205.4255265113897622
 30
7.5
  0
VERTEX
  5
505
  8
HERRERA
 10
721985.3691247523529455
 20
623186.9494357034564018
 30
7.5
  0
VERTEX
  5
506
  8
HERRERA
 10
721991.9709796728566289
 20
623175.9509935354581103
 30
7.5
  0
VERTEX
  5
507
  8
HERRERA
 10
721996.376376245636493
 20
623170.6712714640889317
 30
7.5
  0
VERTEX
  5
508
  8
HERRERA
 10
722022.3532401714473963
 20
623179.9093168681720272
 30
7.5
  0
VERTEX
  5
509
  8
HERRERA
 10
722046.1336457495344803
 20
623189.5878285184735432
 30
7.5
  0
VERTEX
  5
50A
  8
HERRERA
 10
722067.7082330718403682
 20
623204.105595993460156
 30
7.5
  0
VERTEX
  5
50B
  8
HERRERA
 10
722091.4855186808854342
 20
623211.584712854353711
 30
7.5
  0
VERTEX
  5
50C
  8
HERRERA
 10
722100.733107520150952
 20
623222.5831550224684179
 30
7.5
  0
VERTEX
  5
50D
  8
HERRERA
 10
722106.8950467769755051
 20
623235.3405257335398346
 30
7.5
  0
VERTEX
  5
50E
  8
HERRERA
 10
722103.3726015007123351
 20
623250.7392257015453652
 30
7.5
  0
VERTEX
  5
50F
  8
HERRERA
 10
722091.0456030174391344
 20
623254.258551008766517
 30
7.5
  0
VERTEX
  5
510
  8
HERRERA
 10
722071.2306783484527841
 20
623261.7361996485851705
 30
7.5
  0
VERTEX
  5
511
  8
HERRERA
 10
722063.3059564684517682
 20
623271.4147112988866866
 30
7.5
  0
VERTEX
  5
512
  8
HERRERA
 10
722058.0207285688957199
 20
623285.93247877410613
 30
7.5
  0
VERTEX
  5
513
  8
HERRERA
 10
722051.8556693429127336
 20
623291.212200845242478
 30
7.5
  0
SEQEND
  5
514
  8
HERRERA
  0
POLYLINE
  5
89
  8
HERRERA
 66
     1
 10
0.0
 20
0.0
 30
7.5
 70
     1
1001
DCO15
1071
        1
1071
        1
1000
Sog_data_analysis5
1004
0736473800
  0
VERTEX
  5
515
  8
HERRERA
 10
731851.7082159813726321
 20
636608.9355422927765176
 30
7.5
  0
VERTEX
  5
516
  8
HERRERA
 10
731879.5969249221961945
 20
636622.1973424347816035
 30
7.5
  0
VERTEX
  5
517
  8
HERRERA
 10
731894.2053894673008472
 20
636641.4269876485923305
 30
7.5
  0
VERTEX
  5
518
  8
HERRERA
 10
731880.9248188879573718
 20
636666.6244779345579445
 30
7.5
  0
VERTEX
  5
519
  8
HERRERA
 10
731854.3640039138263091
 20
636701.76825998025015
 30
7.5
  0
VERTEX
  5
51A
  8
HERRERA
 10
731839.7558655522298068
 20
636708.399276744807139
 30
7.5
  0
VERTEX
  5
51B
  8
HERRERA
 10
731825.1474010073579848
 20
636672.5923230067128316
 30
7.5
  0
VERTEX
  5
51C
  8
HERRERA
 10
731809.210716312052682
 20
636650.7102244090056047
 30
7.5
  0
VERTEX
  5
51D
  8
HERRERA
 10
731834.4436373205389827
 20
636620.8711157429497689
 30
7.5
  0
VERTEX
  5
51E
  8
HERRERA
 10
731846.3959877496818081
 20
636611.5878789824200794
 30
7.5
  0
SEQEND
  5
51F
  8
HERRERA
  0
POLYLINE
  5
8A
  8
HERRERA
 66
     1
 10
0.0
 20
0.0
 30
7.5
 70
     1
1001
DCO15
1071
        1
1071
        1
1000
Sog_data_analysis5
1004
0737483700
  0
VERTEX
  5
520
  8
HERRERA
 10
732217.7191552835283801
 20
635032.9565509957028553
 30
7.5
  0
VERTEX
  5
521
  8
HERRERA
 10
732170.7944742651889101
 20
635069.592078524059616
 30
7.5
  0
VERTEX
  5
522
  8
HERRERA
 10
732187.8578760951058939
 20
635097.2817946523427963
 30
7.5
  0
VERTEX
  5
523
  8
HERRERA
 10
732209.1874543684534729
 20
635117.7294468702748418
 30
7.5
  0
VERTEX
  5
524
  8
HERRERA
 10
732232.2232424304820597
 20
635104.5236253162147477
 30
7.5
  0
VERTEX
  5
525
  8
HERRERA
 10
732253.5528207038296387
 20
635080.6680116249481216
 30
7.5
  0
VERTEX
  5
526
  8
HERRERA
 10
732249.7136856863508001
 20
635069.1660541843157262
 30
7.5
  0
VERTEX
  5
527
  8
HERRERA
 10
732232.2232424304820597
 20
635047.4403289465699345
 30
7.5
  0
VERTEX
  5
528
  8
HERRERA
 10
732224.5446464099222794
 20
635034.2345073923934251
 30
7.5
  0
SEQEND
  5
529
  8
HERRERA
  0
POLYLINE
  5
8B
  8
HERRERA
 66
     1
 10
0.0
 20
0.0
 30
7.5
 70
     1
1001
DCO15
1071
        1
1071
        1
1000
Sog_data_analysis5
1004
073748313000
  0
VERTEX
  5
52A
  8
HERRERA
 10
732216.7125110670458525
 20
635117.6148063211003318
 30
7.5
  0
VERTEX
  5
52B
  8
HERRERA
 10
732241.5066666492493823
 20
635146.6432395031442866
 30
7.5
  0
VERTEX
  5
52C
  8
HERRERA
 10
732261.5984767590416595
 20
635173.1103952272096649
 30
7.5
  0
VERTEX
  5
52D
  8
HERRERA
 10
732268.4383112619398162
 20
635178.2330667665228248
 30
7.5
  0
VERTEX
  5
52E
  8
HERRERA
 10
732291.9500386229483411
 20
635159.0230193381430581
 30
7.5
  0
VERTEX
  5
52F
  8
HERRERA
 10
732321.4465396770974621
 20
635127.006351372692734
 30
7.5
  0
VERTEX
  5
530
  8
HERRERA
 10
732322.301600486272946
 20
635112.065294079715386
 30
7.5
  0
VERTEX
  5
531
  8
HERRERA
 10
732301.7820969787426293
 20
635072.3645604936173186
 30
7.5
  0
VERTEX
  5
532
  8
HERRERA
 10
732286.819999753148295
 20
635058.7041419297456741
 30
7.5
  0
VERTEX
  5
533
  8
HERRERA
 10
732271.4305351154180244
 20
635064.2536541712470353
 30
7.5
  0
VERTEX
  5
534
  8
HERRERA
 10
732256.4687638751929626
 20
635079.6216687893029302
 30
7.5
  0
VERTEX
  5
535
  8
HERRERA
 10
732251.8159682478290051
 20
635085.2221453440142795
 30
7.5
  0
VERTEX
  5
536
  8
HERRERA
 10
732237.4575967629207298
 20
635101.1304749818518758
 30
7.5
  0
VERTEX
  5
537
  8
HERRERA
 10
732233.265093115507625
 20
635105.1076740144053474
 30
7.5
  0
VERTEX
  5
538
  8
HERRERA
 10
732219.4305808453354985
 20
635113.3757883332436904
 30
7.5
  0
VERTEX
  5
539
  8
HERRERA
 10
732215.9721972673432902
 20
635115.259718579123728
 30
7.5
  0
SEQEND
  5
53A
  8
HERRERA
  0
POLYLINE
  5
8C
  8
HERRERA
 66
     1
 10
0.0
 20
0.0
 30
7.5
 70
     1
1001
DCO15
1071
        1
1071
        1
1000
Sog_data_analysis5
1004
0737483900
  0
VERTEX
  5
53B
  8
HERRERA
 10
732219.0964453784981743
 20
635030.5518984182272106
 30
7.5
  0
VERTEX
  5
53C
  8
HERRERA
 10
732225.301911472924985
 20
635032.2267233694437891
 30
7.5
  0
VERTEX
  5
53D
  8
HERRERA
 10
732232.1785823730751872
 20
635042.7783188205212355
 30
7.5
  0
VERTEX
  5
53E
  8
HERRERA
 10
732242.4093213885789737
 20
635055.3396808885736391
 30
7.5
  0
VERTEX
  5
53F
  8
HERRERA
 10
732252.3049469799734652
 20
635067.7335721235722303
 30
7.5
  0
VERTEX
  5
540
  8
HERRERA
 10
732254.4851401528576389
 20
635076.9452842893078923
 30
7.5
  0
VERTEX
  5
541
  8
HERRERA
 10
732259.1812918942887336
 20
635074.9354010495590046
 30
7.5
  0
VERTEX
  5
542
  8
HERRERA
 10
732268.5735953776165843
 20
635063.713922267081216
 30
7.5
  0
VERTEX
  5
543
  8
HERRERA
 10
732280.3139747316017747
 20
635058.3543891250155866
 30
7.5
  0
VERTEX
  5
544
  8
HERRERA
 10
732289.7062782145803794
 20
635055.1722100557526574
 30
7.5
  0
VERTEX
  5
545
  8
HERRERA
 10
732309.3293207136448473
 20
635037.0838440128136426
 30
7.5
  0
VERTEX
  5
546
  8
HERRERA
 10
732332.614813914638944
 20
635025.7588038797257468
 30
7.5
  0
VERTEX
  5
547
  8
HERRERA
 10
732360.4745401601539925
 20
635002.2183059196686372
 30
7.5
  0
VERTEX
  5
548
  8
HERRERA
 10
732348.9020435041747987
 20
634992.8020367617718875
 30
7.5
  0
VERTEX
  5
549
  8
HERRERA
 10
732307.7554611682426184
 20
634992.8020367617718875
 30
7.5
  0
VERTEX
  5
54A
  8
HERRERA
 10
732247.3219277154421434
 20
634997.5102296521654353
 30
7.5
  0
VERTEX
  5
54B
  8
HERRERA
 10
732230.6060267710126936
 20
635016.3426513449521735
 30
7.5
  0
VERTEX
  5
54C
  8
HERRERA
 10
732219.4622014698106796
 20
635027.470948236528784
 30
7.5
  0
SEQEND
  5
54D
  8
HERRERA
  0
POLYLINE
  5
8D
  8
HERRERA
 66
     1
 10
0.0
 20
0.0
 30
7.5
 70
     1
1001
DCO15
1071
        1
1071
        1
1000
Sog_data_analysis5
1004
073748313200
  0
VERTEX
  5
54E
  8
HERRERA
 10
732186.3319364655762911
 20
635051.4606785419164225
 30
7.5
  0
VERTEX
  5
54F
  8
HERRERA
 10
732163.2619198926258832
 20
635027.6191762507660314
 30
7.5
  0
VERTEX
  5
550
  8
HERRERA
 10
732151.1903389438521117
 20
635022.2616257021436468
 30
7.5
  0
VERTEX
  5
551
  8
HERRERA
 10
732115.7804550912696868
 20
635039.406044028699398
 30
7.5
  0
VERTEX
  5
552
  8
HERRERA
 10
732092.4421521873446181
 20
635060.3008293751627207
 30
7.5
  0
VERTEX
  5
553
  8
HERRERA
 10
732088.3927563149482012
 20
635079.3997349488781765
 30
7.5
  0
VERTEX
  5
554
  8
HERRERA
 10
732110.6582398812752217
 20
635101.9017038240563124
 30
7.5
  0
VERTEX
  5
555
  8
HERRERA
 10
732124.8757854914292693
 20
635113.6885716017568484
 30
7.5
  0
VERTEX
  5
556
  8
HERRERA
 10
732136.9473664397373796
 20
635106.7236042785225436
 30
7.5
  0
VERTEX
  5
557
  8
HERRERA
 10
732164.041026005288586
 20
635088.2397691592341289
 30
7.5
  0
VERTEX
  5
558
  8
HERRERA
 10
732173.6983559613581747
 20
635081.0069184772437438
 30
7.5
  0
VERTEX
  5
559
  8
HERRERA
 10
732169.1381403070408851
 20
635070.5595841153990477
 30
7.5
  0
VERTEX
  5
55A
  8
HERRERA
 10
732170.2109596451045945
 20
635067.3449838124215603
 30
7.5
  0
VERTEX
  5
55B
  8
HERRERA
 10
732186.3065095716156065
 20
635055.2903492990881205
 30
7.5
  0
SEQEND
  5
55C
  8
HERRERA
  0
POLYLINE
  5
8E
  8
HERRERA
 66
     1
 10
0.0
 20
0.0
 30
7.5
 70
     1
1001
DCO15
1071
        1
1071
        1
1000
Sog_data_analysis5
1004
0738483500
  0
VERTEX
  5
55D
  8
HERRERA
 10
732241.9022618856979534
 20
634930.4652988774469122
 30
7.5
  0
VERTEX
  5
55E
  8
HERRERA
 10
732263.9488377949455753
 20
634959.8198985656490549
 30
7.5
  0
VERTEX
  5
55F
  8
HERRERA
 10
732283.9540701106889173
 20
634983.8743104403838515
 30
7.5
  0
VERTEX
  5
560
  8
HERRERA
 10
732318.256194566260092
 20
634955.0738128267694265
 30
7.5
  0
VERTEX
  5
561
  8
HERRERA
 10
732328.0547089170431718
 20
634945.6967007960192859
 30
7.5
  0
VERTEX
  5
562
  8
HERRERA
 10
732323.5638181165559217
 20
634937.1350201915483922
 30
7.5
  0
VERTEX
  5
563
  8
HERRERA
 10
732331.729192489059642
 20
634931.0194009519182146
 30
7.5
  0
VERTEX
  5
564
  8
HERRERA
 10
732326.0133653242373839
 20
634913.8959232862107456
 30
7.5
  0
VERTEX
  5
565
  8
HERRERA
 10
732317.4371831677854061
 20
634882.3866374728968367
 30
7.5
  0
VERTEX
  5
566
  8
HERRERA
 10
732309.2718087956309319
 20
634866.8939062026329339
 30
7.5
  0
VERTEX
  5
567
  8
HERRERA
 10
732296.6155436231056228
 20
634873.8248404115438461
 30
7.5
  0
VERTEX
  5
568
  8
HERRERA
 10
732279.468062128755264
 20
634895.8407901776954532
 30
7.5
  0
VERTEX
  5
569
  8
HERRERA
 10
732259.8710334271891043
 20
634917.0413085174513981
 30
7.5
  0
VERTEX
  5
56A
  8
HERRERA
 10
732243.539959161542356
 20
634925.1953898658975959
 30
7.5
  0
SEQEND
  5
56B
  8
HERRERA
  0
POLYLINE
  5
8F
  8
HERRERA
 66
     1
 10
0.0
 20
0.0
 30
7.5
 70
     1
1001
DCO15
1071
        1
1071
        1
1000
Sog_data_analysis5
1004
0738483400
  0
VERTEX
  5
56C
  8
HERRERA
 10
732167.7814047987340018
 20
634992.5489542672876269
 30
7.5
  0
VERTEX
  5
56D
  8
HERRERA
 10
732164.9220263710012659
 20
634996.2202589962398633
 30
7.5
  0
VERTEX
  5
56E
  8
HERRERA
 10
732170.640783226583153
 20
635010.905244997702539
 30
7.5
  0
VERTEX
  5
56F
  8
HERRERA
 10
732169.824050477007404
 20
635025.1822823721449822
 30
7.5
  0
VERTEX
  5
570
  8
HERRERA
 10
732179.627447645762004
 20
635040.2751005438622087
 30
7.5
  0
VERTEX
  5
571
  8
HERRERA
 10
732193.9246653065783903
 20
635048.0255421715555713
 30
7.5
  0
VERTEX
  5
572
  8
HERRERA
 10
732206.1792372893542051
 20
635039.8672683739569038
 30
7.5
  0
VERTEX
  5
573
  8
HERRERA
 10
732218.43380927213002
 20
635026.4060117960907519
 30
7.5
  0
VERTEX
  5
574
  8
HERRERA
 10
732236.8156672458862886
 20
635006.4181594718247652
 30
7.5
  0
VERTEX
  5
575
  8
HERRERA
 10
732247.0581925458973274
 20
634995.3909691952867433
 30
7.5
  0
VERTEX
  5
576
  8
HERRERA
 10
732262.5793700072681531
 20
634993.7930636540986598
 30
7.5
  0
VERTEX
  5
577
  8
HERRERA
 10
732273.6203988685738295
 20
634990.9168103886768222
 30
7.5
  0
VERTEX
  5
578
  8
HERRERA
 10
732280.9807592546567321
 20
634983.8860725902486593
 30
7.5
  0
VERTEX
  5
579
  8
HERRERA
 10
732271.7047064676880836
 20
634972.2492302835453302
 30
7.5
  0
VERTEX
  5
57A
  8
HERRERA
 10
732247.1483619250357151
 20
634940.8301985913421959
 30
7.5
  0
VERTEX
  5
57B
  8
HERRERA
 10
732240.241778124240227
 20
634930.1018367978977039
 30
7.5
  0
VERTEX
  5
57C
  8
HERRERA
 10
732234.6144927323330194
 20
634930.1018367978977039
 30
7.5
  0
VERTEX
  5
57D
  8
HERRERA
 10
732216.1971529445145279
 20
634943.8954614545218647
 30
7.5
  0
VERTEX
  5
57E
  8
HERRERA
 10
732206.2209040059242398
 20
634952.8358599964994937
 30
7.5
  0
VERTEX
  5
57F
  8
HERRERA
 10
732194.710148019134067
 20
634952.5803534913575277
 30
7.5
  0
VERTEX
  5
580
  8
HERRERA
 10
732187.0363106945296749
 20
634960.4989589265314862
 30
7.5
  0
VERTEX
  5
581
  8
HERRERA
 10
732178.3393601642455906
 20
634979.9123292134609073
 30
7.5
  0
VERTEX
  5
582
  8
HERRERA
 10
732172.2000298876082525
 20
634988.5973377071786672
 30
7.5
  0
SEQEND
  5
583
  8
HERRERA
  0
ENDSEC
  0
EOF
