  0
SECTION
  2
HEADER
  9
$ACADVER
  1
AC1009
  9
$INSBASE
 10
0.0
 20
0.0
 30
0.0
  9
$EXTMIN
 10
485470.1210606033
 20
1741980.942466839
 30
-1.5514919643464959
  9
$EXTMAX
 10
628579.87838281202
 20
1815391.074830642
 30
101751.5529134822
  9
$LIMMIN
 10
0.0
 20
0.0
  9
$LIMMAX
 10
12.0
 20
9.0
  9
$ORTHOMODE
 70
     0
  9
$REGENMODE
 70
     1
  9
$FILLMODE
 70
     1
  9
$QTEXTMODE
 70
     0
  9
$MIRRTEXT
 70
     1
  9
$DRAGMODE
 70
     2
  9
$LTSCALE
 40
1.0
  9
$OSMODE
 70
    37
  9
$ATTMODE
 70
     1
  9
$TEXTSIZE
 40
1.0
  9
$TRACEWID
 40
0.05
  9
$TEXTSTYLE
  7
STANDARD
  9
$CLAYER
  8
RIVERS
  9
$CELTYPE
  6
BYLAYER
  9
$CECOLOR
 62
   256
  9
$DIMSCALE
 40
1.0
  9
$DIMASZ
 40
0.18
  9
$DIMEXO
 40
0.0625
  9
$DIMDLI
 40
0.38
  9
$DIMRND
 40
0.0
  9
$DIMDLE
 40
0.0
  9
$DIMEXE
 40
0.18
  9
$DIMTP
 40
0.0
  9
$DIMTM
 40
0.0
  9
$DIMTXT
 40
0.18
  9
$DIMCEN
 40
0.09
  9
$DIMTSZ
 40
0.0
  9
$DIMTOL
 70
     0
  9
$DIMLIM
 70
     0
  9
$DIMTIH
 70
     1
  9
$DIMTOH
 70
     1
  9
$DIMSE1
 70
     0
  9
$DIMSE2
 70
     0
  9
$DIMTAD
 70
     0
  9
$DIMZIN
 70
     0
  9
$DIMBLK
  1

  9
$DIMASO
 70
     1
  9
$DIMSHO
 70
     1
  9
$DIMPOST
  1

  9
$DIMAPOST
  1

  9
$DIMALT
 70
     0
  9
$DIMALTD
 70
     2
  9
$DIMALTF
 40
25.399999999999999
  9
$DIMLFAC
 40
1.0
  9
$DIMTOFL
 70
     0
  9
$DIMTVP
 40
0.0
  9
$DIMTIX
 70
     0
  9
$DIMSOXD
 70
     0
  9
$DIMSAH
 70
     0
  9
$DIMBLK1
  1

  9
$DIMBLK2
  1

  9
$DIMSTYLE
  2
STANDARD
  9
$DIMCLRD
 70
     0
  9
$DIMCLRE
 70
     0
  9
$DIMCLRT
 70
     0
  9
$DIMTFAC
 40
1.0
  9
$DIMGAP
 40
0.09
  9
$LUNITS
 70
     2
  9
$LUPREC
 70
     4
  9
$SKETCHINC
 40
0.1
  9
$FILLETRAD
 40
0.5
  9
$AUNITS
 70
     0
  9
$AUPREC
 70
     0
  9
$MENU
  1
.
  9
$ELEVATION
 40
0.0
  9
$PELEVATION
 40
0.0
  9
$THICKNESS
 40
0.0
  9
$LIMCHECK
 70
     0
  9
$BLIPMODE
 70
     0
  9
$CHAMFERA
 40
0.5
  9
$CHAMFERB
 40
0.5
  9
$SKPOLY
 70
     0
  9
$TDCREATE
 40
2455959.7770924768
  9
$TDUPDATE
 40
2457956.6289060069
  9
$TDINDWG
 40
9.6208379629999996
  9
$TDUSRTIMER
 40
9.6208379629999996
  9
$USRTIMER
 70
     1
  9
$ANGBASE
 50
0.0
  9
$ANGDIR
 70
     0
  9
$PDMODE
 70
     3
  9
$PDSIZE
 40
0.0
  9
$PLINEWID
 40
0.0
  9
$COORDS
 70
     1
  9
$SPLFRAME
 70
     0
  9
$SPLINETYPE
 70
     6
  9
$SPLINESEGS
 70
     8
  9
$ATTDIA
 70
     1
  9
$ATTREQ
 70
     1
  9
$HANDLING
 70
     1
  9
$HANDSEED
  5
B1D
  9
$SURFTAB1
 70
     6
  9
$SURFTAB2
 70
     6
  9
$SURFTYPE
 70
     6
  9
$SURFU
 70
     6
  9
$SURFV
 70
     6
  9
$UCSNAME
  2

  9
$UCSORG
 10
0.0
 20
0.0
 30
0.0
  9
$UCSXDIR
 10
1.0
 20
0.0
 30
0.0
  9
$UCSYDIR
 10
0.0
 20
1.0
 30
0.0
  9
$PUCSNAME
  2

  9
$PUCSORG
 10
0.0
 20
0.0
 30
0.0
  9
$PUCSXDIR
 10
1.0
 20
0.0
 30
0.0
  9
$PUCSYDIR
 10
0.0
 20
1.0
 30
0.0
  9
$USERI1
 70
     0
  9
$USERI2
 70
     0
  9
$USERI3
 70
     0
  9
$USERI4
 70
     0
  9
$USERI5
 70
     0
  9
$USERR1
 40
0.0
  9
$USERR2
 40
0.0
  9
$USERR3
 40
0.0
  9
$USERR4
 40
0.0
  9
$USERR5
 40
0.0
  9
$WORLDVIEW
 70
     1
  9
$SHADEDGE
 70
     3
  9
$SHADEDIF
 70
    70
  9
$TILEMODE
 70
     1
  9
$MAXACTVP
 70
    64
  9
$PLIMCHECK
 70
     0
  9
$PEXTMIN
 10
1.0000000000000000E+020
 20
1.0000000000000000E+020
 30
1.0000000000000000E+020
  9
$PEXTMAX
 10
-1.0000000000000000E+020
 20
-1.0000000000000000E+020
 30
-1.0000000000000000E+020
  9
$PLIMMIN
 10
0.0
 20
0.0
  9
$PLIMMAX
 10
12.0
 20
9.0
  9
$UNITMODE
 70
     0
  9
$VISRETAIN
 70
     1
  9
$PLINEGEN
 70
     0
  9
$PSLTSCALE
 70
     1
  0
ENDSEC
  0
SECTION
  2
TABLES
  0
TABLE
  2
VPORT
 70
     1
  0
VPORT
  2
*ACTIVE
 70
     0
 10
0.0
 20
0.0
 11
1.0
 21
1.0
 12
-356048.53885372169
 22
238017.1410695588
 13
0.0
 23
0.0
 14
10.0
 24
10.0
 15
0.1
 25
0.1
 16
0.0
 26
0.0
 36
1.0
 17
949850.74678859755
 27
1537997.59960491
 37
161744.97060287729
 40
49559.216358056379
 41
1.942465753424657
 42
50.0
 43
0.0
 44
0.0
 50
0.0
 51
0.0
 71
     0
 72
   100
 73
     1
 74
     3
 75
     0
 76
     0
 77
     0
 78
     0
  0
ENDTAB
  0
TABLE
  2
LTYPE
 70
     1
  0
LTYPE
  2
CONTINUOUS
 70
     0
  3
Solid line
 72
    65
 73
     0
 40
0.0
  0
ENDTAB
  0
TABLE
  2
LAYER
 70
     2
  0
LAYER
  2
0
 70
     0
 62
    -7
  6
CONTINUOUS
  0
LAYER
  2
RIVERS
 70
     0
 62
   160
  6
CONTINUOUS
  0
ENDTAB
  0
TABLE
  2
STYLE
 70
     1
  0
STYLE
  2
STANDARD
 70
     0
 40
0.0
 41
1.0
 50
0.0
 71
     0
 42
1.0
  3
txt
  4

  0
ENDTAB
  0
TABLE
  2
VIEW
 70
     0
  0
ENDTAB
  0
TABLE
  2
UCS
 70
     0
  0
ENDTAB
  0
TABLE
  2
APPID
 70
     6
  0
APPID
  2
ACAD
 70
     0
  0
APPID
  2
ACAECLAYERSTANDARD
 70
     0
  0
APPID
  2
ADE
 70
     0
  0
APPID
  2
ADE_PROJECTION
 70
     0
  0
APPID
  2
ACAD_PSEXT
 70
     0
  0
APPID
  2
ACAD_NAV_VCDISPLAY
 70
     0
  0
ENDTAB
  0
TABLE
  2
DIMSTYLE
 70
     1
  0
DIMSTYLE
  2
STANDARD
 70
     0
  3

  4

  5

  6

  7

 40
1.0
 41
0.18
 42
0.0625
 43
0.38
 44
0.18
 45
0.0
 46
0.0
 47
0.0
 48
0.0
140
0.18
141
0.09
142
0.0
143
25.399999999999999
144
1.0
145
0.0
146
1.0
147
0.09
 71
     0
 72
     0
 73
     1
 74
     1
 75
     0
 76
     0
 77
     0
 78
     0
170
     0
171
     2
172
     0
173
     0
174
     0
175
     0
176
     0
177
     0
178
     0
  0
ENDTAB
  0
ENDSEC
  0
SECTION
  2
BLOCKS
  0
BLOCK
  8
0
  2
$MODEL_SPACE
 70
     0
 10
0.0
 20
0.0
 30
0.0
  3
$MODEL_SPACE
  1

  0
ENDBLK
  5
15
  8
0
  0
BLOCK
 67
     1
  8
0
  2
$PAPER_SPACE
 70
     0
 10
0.0
 20
0.0
 30
0.0
  3
$PAPER_SPACE
  1

  0
ENDBLK
  5
1C
 67
     1
  8
0
  0
ENDSEC
  0
SECTION
  2
ENTITIES
  0
POLYLINE
  5
67
  8
RIVERS
 66
     1
 10
0.0
 20
0.0
 30
0.0
  0
VERTEX
  5
DB
  8
RIVERS
 10
592440.0
 20
1769040.0
 30
0.0
  0
VERTEX
  5
DC
  8
RIVERS
 10
592167.68837007426
 20
1768936.7584897541
 30
0.0
  0
VERTEX
  5
DD
  8
RIVERS
 10
592068.56174053298
 20
1768817.9176088821
 30
0.0
  0
VERTEX
  5
DE
  8
RIVERS
 10
592031.74327813194
 20
1768713.224387195
 30
0.0
  0
VERTEX
  5
DF
  8
RIVERS
 10
592028.91108871636
 20
1768591.553793245
 30
0.0
  0
VERTEX
  5
E0
  8
RIVERS
 10
591952.44197449891
 20
1768475.54244421
 30
0.0
  0
VERTEX
  5
E1
  8
RIVERS
 10
591933.51763322775
 20
1768436.907155253
 30
0.0
  0
VERTEX
  5
E2
  8
RIVERS
 10
591847.08306268638
 20
1768391.571392813
 30
0.0
  0
VERTEX
  5
E3
  8
RIVERS
 10
591780.09643705736
 20
1768328.9648292069
 30
0.0
  0
VERTEX
  5
E4
  8
RIVERS
 10
591622.35351236002
 20
1768229.6580849851
 30
0.0
  0
VERTEX
  5
E5
  8
RIVERS
 10
591466.77128538559
 20
1768162.7340023289
 30
0.0
  0
VERTEX
  5
E6
  8
RIVERS
 10
591393.30190042546
 20
1768143.3042603971
 30
0.0
  0
SEQEND
  5
E7
  8
RIVERS
  0
POLYLINE
  5
68
  8
RIVERS
 66
     1
 10
0.0
 20
0.0
 30
0.0
  0
VERTEX
  5
E8
  8
RIVERS
 10
608274.11872355093
 20
1772689.4982520009
 30
0.0
  0
VERTEX
  5
E9
  8
RIVERS
 10
608262.06884420477
 20
1772743.350919704
 30
0.0
  0
VERTEX
  5
EA
  8
RIVERS
 10
608222.12618572451
 20
1772769.5735043071
 30
0.0
  0
VERTEX
  5
EB
  8
RIVERS
 10
608206.15077867359
 20
1772804.9215821661
 30
0.0
  0
VERTEX
  5
EC
  8
RIVERS
 10
608220.98331057106
 20
1772864.214041356
 30
0.0
  0
VERTEX
  5
ED
  8
RIVERS
 10
608200.44468460605
 20
1772921.2282972729
 30
0.0
  0
VERTEX
  5
EE
  8
RIVERS
 10
608138.81224330328
 20
1773010.1669860571
 30
0.0
  0
VERTEX
  5
EF
  8
RIVERS
 10
608100.18637576327
 20
1773101.9587123359
 30
0.0
  0
VERTEX
  5
F0
  8
RIVERS
 10
608102.4555626642
 20
1773143.8413027341
 30
0.0
  0
VERTEX
  5
F1
  8
RIVERS
 10
608150.04223395139
 20
1773191.387700896
 30
0.0
  0
VERTEX
  5
F2
  8
RIVERS
 10
608174.97016304743
 20
1773260.439661674
 30
0.0
  0
VERTEX
  5
F3
  8
RIVERS
 10
608193.10709484667
 20
1773383.8345899309
 30
0.0
  0
VERTEX
  5
F4
  8
RIVERS
 10
608220.29592913762
 20
1773468.736759003
 30
0.0
  0
VERTEX
  5
F5
  8
RIVERS
 10
608278.31754748721
 20
1773576.281478965
 30
0.0
  0
VERTEX
  5
F6
  8
RIVERS
 10
608285.51434827968
 20
1773637.4041088719
 30
0.0
  0
VERTEX
  5
F7
  8
RIVERS
 10
608260.3214046564
 20
1773738.076178517
 30
0.0
  0
VERTEX
  5
F8
  8
RIVERS
 10
608251.31919238903
 20
1773800.9993920871
 30
0.0
  0
VERTEX
  5
F9
  8
RIVERS
 10
608278.31754748721
 20
1773847.7384863079
 30
0.0
  0
VERTEX
  5
FA
  8
RIVERS
 10
608300.0
 20
1773890.0
 30
0.0
  0
SEQEND
  5
FB
  8
RIVERS
  0
POLYLINE
  5
69
  8
RIVERS
 66
     1
 10
0.0
 20
0.0
 30
0.0
  0
VERTEX
  5
FC
  8
RIVERS
 10
610030.0
 20
1772880.0
 30
0.0
  0
VERTEX
  5
FD
  8
RIVERS
 10
610066.05586705171
 20
1772871.5051371709
 30
0.0
  0
VERTEX
  5
FE
  8
RIVERS
 10
610094.30475945782
 20
1772818.1850364669
 30
0.0
  0
VERTEX
  5
FF
  8
RIVERS
 10
610121.51843886077
 20
1772778.453847674
 30
0.0
  0
VERTEX
  5
100
  8
RIVERS
 10
610180.11977649294
 20
1772761.7287078821
 30
0.0
  0
VERTEX
  5
101
  8
RIVERS
 10
610203.14291366364
 20
1772711.540608336
 30
0.0
  0
VERTEX
  5
102
  8
RIVERS
 10
610210.46394001506
 20
1772657.176507246
 30
0.0
  0
VERTEX
  5
103
  8
RIVERS
 10
610222.53866447322
 20
1772520.9196632979
 30
0.0
  0
VERTEX
  5
104
  8
RIVERS
 10
610242.89509294927
 20
1772435.8526520601
 30
0.0
  0
VERTEX
  5
105
  8
RIVERS
 10
610286.34919393249
 20
1772349.496490546
 30
0.0
  0
VERTEX
  5
106
  8
RIVERS
 10
610277.45464381762
 20
1772262.125915702
 30
0.0
  0
VERTEX
  5
107
  8
RIVERS
 10
610263.55794447474
 20
1772219.321899862
 30
0.0
  0
VERTEX
  5
108
  8
RIVERS
 10
610260.07962878793
 20
1772153.3850333551
 30
0.0
  0
SEQEND
  5
109
  8
RIVERS
  0
POLYLINE
  5
6A
  8
RIVERS
 66
     1
 10
0.0
 20
0.0
 30
0.0
  0
VERTEX
  5
10A
  8
RIVERS
 10
610470.0
 20
1772760.0
 30
0.0
  0
VERTEX
  5
10B
  8
RIVERS
 10
610520.72141764499
 20
1772744.9739810331
 30
0.0
  0
VERTEX
  5
10C
  8
RIVERS
 10
610545.30979687348
 20
1772724.1320138059
 30
0.0
  0
VERTEX
  5
10D
  8
RIVERS
 10
610549.78191704303
 20
1772669.789046326
 30
0.0
  0
VERTEX
  5
10E
  8
RIVERS
 10
610568.40746938065
 20
1772615.4460788469
 30
0.0
  0
VERTEX
  5
10F
  8
RIVERS
 10
610583.31453661248
 20
1772572.2701114521
 30
0.0
  0
VERTEX
  5
110
  8
RIVERS
 10
610585.55059669726
 20
1772523.13869246
 30
0.0
  0
VERTEX
  5
111
  8
RIVERS
 10
610601.19473558851
 20
1772488.1541127099
 30
0.0
  0
VERTEX
  5
112
  8
RIVERS
 10
610627.48086414125
 20
1772413.3369028361
 30
0.0
  0
SEQEND
  5
113
  8
RIVERS
  0
POLYLINE
  5
6B
  8
RIVERS
 66
     1
 10
0.0
 20
0.0
 30
0.0
  0
VERTEX
  5
114
  8
RIVERS
 10
612250.74454190582
 20
1771429.9984336621
 30
0.0
  0
VERTEX
  5
115
  8
RIVERS
 10
612083.66944504529
 20
1771402.1781480629
 30
0.0
  0
VERTEX
  5
116
  8
RIVERS
 10
612009.41568681982
 20
1771355.8152321191
 30
0.0
  0
VERTEX
  5
117
  8
RIVERS
 10
611863.99724596739
 20
1771318.7215179871
 30
0.0
  0
VERTEX
  5
118
  8
RIVERS
 10
611703.11686371267
 20
1771263.0809467889
 30
0.0
  0
VERTEX
  5
119
  8
RIVERS
 10
611631.95218108408
 20
1771213.6240701859
 30
0.0
  0
VERTEX
  5
11A
  8
RIVERS
 10
611542.22819975205
 20
1771188.8977452461
 30
0.0
  0
VERTEX
  5
11B
  8
RIVERS
 10
611307.0857775677
 20
1771219.8077647821
 30
0.0
  0
VERTEX
  5
11C
  8
RIVERS
 10
611180.23491712287
 20
1771219.8077647821
 30
0.0
  0
VERTEX
  5
11D
  8
RIVERS
 10
611056.48141398095
 20
1771315.627557328
 30
0.0
  0
SEQEND
  5
11E
  8
RIVERS
  0
POLYLINE
  5
6C
  8
RIVERS
 66
     1
 10
0.0
 20
0.0
 30
0.0
  0
VERTEX
  5
11F
  8
RIVERS
 10
611038.1954115089
 20
1767872.793246777
 30
0.0
  0
VERTEX
  5
120
  8
RIVERS
 10
610958.42603840667
 20
1767809.5234419859
 30
0.0
  0
VERTEX
  5
121
  8
RIVERS
 10
610892.70243532024
 20
1767714.3968318829
 30
0.0
  0
VERTEX
  5
122
  8
RIVERS
 10
610851.29391522903
 20
1767634.0891098541
 30
0.0
  0
VERTEX
  5
123
  8
RIVERS
 10
610813.53762661107
 20
1767584.1968808649
 30
0.0
  0
VERTEX
  5
124
  8
RIVERS
 10
610730.71230472624
 20
1767552.559865108
 30
0.0
  0
SEQEND
  5
125
  8
RIVERS
  0
POLYLINE
  5
6D
  8
RIVERS
 66
     1
 10
0.0
 20
0.0
 30
0.0
  0
VERTEX
  5
126
  8
RIVERS
 10
611038.1954115089
 20
1767872.793246777
 30
0.0
  0
VERTEX
  5
127
  8
RIVERS
 10
611123.50524459966
 20
1767883.5713884181
 30
0.0
  0
VERTEX
  5
128
  8
RIVERS
 10
611268.62554410845
 20
1767949.2081576469
 30
0.0
  0
VERTEX
  5
129
  8
RIVERS
 10
611343.15259856731
 20
1768036.3969834361
 30
0.0
  0
VERTEX
  5
12A
  8
RIVERS
 10
611438.26796921343
 20
1768109.874322369
 30
0.0
  0
VERTEX
  5
12B
  8
RIVERS
 10
611532.40609878686
 20
1768200.0007200961
 30
0.0
  0
VERTEX
  5
12C
  8
RIVERS
 10
611729.94130302593
 20
1768346.3002560199
 30
0.0
  0
VERTEX
  5
12D
  8
RIVERS
 10
611837.05686279573
 20
1768371.187196404
 30
0.0
  0
SEQEND
  5
12E
  8
RIVERS
  0
POLYLINE
  5
6E
  8
RIVERS
 66
     1
 10
0.0
 20
0.0
 30
0.0
  0
VERTEX
  5
12F
  8
RIVERS
 10
611290.0
 20
1768360.0
 30
0.0
  0
VERTEX
  5
130
  8
RIVERS
 10
611296.07111122459
 20
1768283.5714716711
 30
0.0
  0
VERTEX
  5
131
  8
RIVERS
 10
611291.67352638964
 20
1768204.455685307
 30
0.0
  0
VERTEX
  5
132
  8
RIVERS
 10
611272.31090239633
 20
1768143.8064482871
 30
0.0
  0
VERTEX
  5
133
  8
RIVERS
 10
611223.92090581905
 20
1768094.577814684
 30
0.0
  0
VERTEX
  5
134
  8
RIVERS
 10
611147.92798974924
 20
1768050.6790777911
 30
0.0
  0
VERTEX
  5
135
  8
RIVERS
 10
611076.43203896098
 20
1768007.989183449
 30
0.0
  0
VERTEX
  5
136
  8
RIVERS
 10
611056.82096384652
 20
1767973.697786144
 30
0.0
  0
VERTEX
  5
137
  8
RIVERS
 10
611053.88095891848
 20
1767925.6949019821
 30
0.0
  0
VERTEX
  5
138
  8
RIVERS
 10
611038.1954115089
 20
1767872.793246777
 30
0.0
  0
SEQEND
  5
139
  8
RIVERS
  0
POLYLINE
  5
6F
  8
RIVERS
 66
     1
 10
0.0
 20
0.0
 30
0.0
  0
VERTEX
  5
13A
  8
RIVERS
 10
609030.0
 20
1763380.0
 30
0.0
  0
VERTEX
  5
13B
  8
RIVERS
 10
608897.7061909996
 20
1763557.8931560039
 30
0.0
  0
VERTEX
  5
13C
  8
RIVERS
 10
608837.2580333706
 20
1763602.950014784
 30
0.0
  0
VERTEX
  5
13D
  8
RIVERS
 10
608822.86443178717
 20
1763671.9723885059
 30
0.0
  0
VERTEX
  5
13E
  8
RIVERS
 10
608810.43359405745
 20
1763772.7628063729
 30
0.0
  0
VERTEX
  5
13F
  8
RIVERS
 10
608810.0
 20
1763810.0
 30
0.0
  0
VERTEX
  5
140
  8
RIVERS
 10
608802.74817272834
 20
1763877.31923373
 30
0.0
  0
VERTEX
  5
141
  8
RIVERS
 10
608836.11515821703
 20
1763950.9402812191
 30
0.0
  0
VERTEX
  5
142
  8
RIVERS
 10
609050.18064367585
 20
1764154.1145912269
 30
0.0
  0
VERTEX
  5
143
  8
RIVERS
 10
609121.08859347925
 20
1764218.2762344051
 30
0.0
  0
VERTEX
  5
144
  8
RIVERS
 10
609250.54819068871
 20
1764422.2536216329
 30
0.0
  0
VERTEX
  5
145
  8
RIVERS
 10
609255.39298753999
 20
1764601.2679874781
 30
0.0
  0
VERTEX
  5
146
  8
RIVERS
 10
609323.18701663241
 20
1764809.315708196
 30
0.0
  0
VERTEX
  5
147
  8
RIVERS
 10
609303.8161109332
 20
1764964.140542821
 30
0.0
  0
VERTEX
  5
148
  8
RIVERS
 10
609226.33248813997
 20
1765181.8632306829
 30
0.0
  0
VERTEX
  5
149
  8
RIVERS
 10
609274.76389323734
 20
1765380.2317575361
 30
0.0
  0
VERTEX
  5
14A
  8
RIVERS
 10
609323.18701663241
 20
1765501.1878670759
 30
0.0
  0
VERTEX
  5
14B
  8
RIVERS
 10
609386.14453057759
 20
1765602.789815607
 30
0.0
  0
VERTEX
  5
14C
  8
RIVERS
 10
609490.7424523253
 20
1765815.4531169811
 30
0.0
  0
VERTEX
  5
14D
  8
RIVERS
 10
609591.96143883455
 20
1765879.5048653821
 30
0.0
  0
VERTEX
  5
14E
  8
RIVERS
 10
609733.67795799125
 20
1766014.345757388
 30
0.0
  0
VERTEX
  5
14F
  8
RIVERS
 10
609804.5362175703
 20
1766075.024581464
 30
0.0
  0
VERTEX
  5
150
  8
RIVERS
 10
609946.25273672678
 20
1766101.991069176
 30
0.0
  0
VERTEX
  5
151
  8
RIVERS
 10
610395.01343235385
 20
1766172.7844395051
 30
0.0
  0
VERTEX
  5
152
  8
RIVERS
 10
610610.96714632958
 20
1766206.4925491449
 30
0.0
  0
VERTEX
  5
153
  8
RIVERS
 10
610665.27856127918
 20
1766460.395979142
 30
0.0
  0
VERTEX
  5
154
  8
RIVERS
 10
610751.20124046691
 20
1766593.9223605399
 30
0.0
  0
VERTEX
  5
155
  8
RIVERS
 10
610913.49779410847
 20
1766703.6058019421
 30
0.0
  0
VERTEX
  5
156
  8
RIVERS
 10
611051.91819506697
 20
1766789.446303345
 30
0.0
  0
VERTEX
  5
157
  8
RIVERS
 10
611467.20424305275
 20
1766903.901714124
 30
0.0
  0
VERTEX
  5
158
  8
RIVERS
 10
611648.59012445621
 20
1766951.5875941189
 30
0.0
  0
VERTEX
  5
159
  8
RIVERS
 10
612935.12799855135
 20
1767005.0218163221
 30
0.0
  0
SEQEND
  5
15A
  8
RIVERS
  0
POLYLINE
  5
70
  8
RIVERS
 66
     1
 10
0.0
 20
0.0
 30
0.0
  0
VERTEX
  5
15B
  8
RIVERS
 10
609030.0
 20
1763380.0
 30
0.0
  0
VERTEX
  5
15C
  8
RIVERS
 10
608928.45615801786
 20
1763440.2127561781
 30
0.0
  0
VERTEX
  5
15D
  8
RIVERS
 10
608818.43372013792
 20
1763487.733794007
 30
0.0
  0
VERTEX
  5
15E
  8
RIVERS
 10
608664.22010961734
 20
1763516.7586954371
 30
0.0
  0
VERTEX
  5
15F
  8
RIVERS
 10
608536.83093841188
 20
1763603.8418531709
 30
0.0
  0
VERTEX
  5
160
  8
RIVERS
 10
608440.73004498705
 20
1763737.8120404009
 30
0.0
  0
VERTEX
  5
161
  8
RIVERS
 10
608206.87956862885
 20
1764022.925587211
 30
0.0
  0
VERTEX
  5
162
  8
RIVERS
 10
608174.49810591724
 20
1764105.046573068
 30
0.0
  0
VERTEX
  5
163
  8
RIVERS
 10
608122.19086333923
 20
1764299.150337209
 30
0.0
  0
VERTEX
  5
164
  8
RIVERS
 10
607977.72481844772
 20
1764431.040977112
 30
0.0
  0
VERTEX
  5
165
  8
RIVERS
 10
607855.66906462982
 20
1764503.2080321589
 30
0.0
  0
VERTEX
  5
166
  8
RIVERS
 10
607616.55142451636
 20
1764548.002834161
 30
0.0
  0
VERTEX
  5
167
  8
RIVERS
 10
607529.36992631853
 20
1764597.772488208
 30
0.0
  0
VERTEX
  5
168
  8
RIVERS
 10
607399.85235717893
 20
1764652.52122102
 30
0.0
  0
VERTEX
  5
169
  8
RIVERS
 10
607315.16365189105
 20
1764652.52122102
 30
0.0
  0
VERTEX
  5
16A
  8
RIVERS
 10
607215.68382322602
 20
1764678.0463964581
 30
0.0
  0
VERTEX
  5
16B
  8
RIVERS
 10
607171.74110170652
 20
1764841.1175661189
 30
0.0
  0
VERTEX
  5
16C
  8
RIVERS
 10
607171.74110170652
 20
1764841.1175661189
 30
0.0
  0
SEQEND
  5
16D
  8
RIVERS
  0
POLYLINE
  5
71
  8
RIVERS
 66
     1
 10
0.0
 20
0.0
 30
0.0
  0
VERTEX
  5
16E
  8
RIVERS
 10
610788.21217572305
 20
1761520.0255354389
 30
0.0
  0
VERTEX
  5
16F
  8
RIVERS
 10
610690.34727934189
 20
1761607.417243894
 30
0.0
  0
VERTEX
  5
170
  8
RIVERS
 10
610639.35682770237
 20
1761611.6608729949
 30
0.0
  0
VERTEX
  5
171
  8
RIVERS
 10
610613.85746103164
 20
1761620.1523579189
 30
0.0
  0
VERTEX
  5
172
  8
RIVERS
 10
610556.49009729736
 20
1761668.9752261899
 30
0.0
  0
VERTEX
  5
173
  8
RIVERS
 10
610469.38313443586
 20
1761668.9752261899
 30
0.0
  0
VERTEX
  5
174
  8
RIVERS
 10
610424.76131318696
 20
1761677.4624843909
 30
0.0
  0
VERTEX
  5
175
  8
RIVERS
 10
610337.65435032547
 20
1761719.9156822891
 30
0.0
  0
VERTEX
  5
176
  8
RIVERS
 10
610265.42132787965
 20
1761734.776837585
 30
0.0
  0
VERTEX
  5
177
  8
RIVERS
 10
610205.92556621321
 20
1761781.4736645841
 30
0.0
  0
VERTEX
  5
178
  8
RIVERS
 10
610161.31202666846
 20
1761811.1917484561
 30
0.0
  0
VERTEX
  5
179
  8
RIVERS
 10
610120.93871957995
 20
1761789.9651495081
 30
0.0
  0
VERTEX
  5
17A
  8
RIVERS
 10
610108.19317709655
 20
1761745.3901370601
 30
0.0
  0
VERTEX
  5
17B
  8
RIVERS
 10
610052.01837874204
 20
1761742.7780227331
 30
0.0
  0
VERTEX
  5
17C
  8
RIVERS
 10
610009.93904062547
 20
1761808.8416909061
 30
0.0
  0
VERTEX
  5
17D
  8
RIVERS
 10
609955.83466827497
 20
1761952.9771450569
 30
0.0
  0
VERTEX
  5
17E
  8
RIVERS
 10
609832.60291248746
 20
1762052.068420596
 30
0.0
  0
VERTEX
  5
17F
  8
RIVERS
 10
609754.45675337315
 20
1762124.1382610321
 30
0.0
  0
VERTEX
  5
180
  8
RIVERS
 10
609688.33562849276
 20
1762277.2850869391
 30
0.0
  0
VERTEX
  5
181
  8
RIVERS
 10
609601.17069370113
 20
1762376.376362476
 30
0.0
  0
VERTEX
  5
182
  8
RIVERS
 10
609604.17695225962
 20
1762499.4923270671
 30
0.0
  0
VERTEX
  5
183
  8
RIVERS
 10
609514.00575891137
 20
1762619.607318887
 30
0.0
  0
VERTEX
  5
184
  8
RIVERS
 10
609459.90966826491
 20
1762688.6719598309
 30
0.0
  0
VERTEX
  5
185
  8
RIVERS
 10
609346.08592824091
 20
1762783.0293064921
 30
0.0
  0
VERTEX
  5
186
  8
RIVERS
 10
609193.02347457968
 20
1763007.1385716151
 30
0.0
  0
VERTEX
  5
187
  8
RIVERS
 10
609092.74032062478
 20
1763157.423906585
 30
0.0
  0
VERTEX
  5
188
  8
RIVERS
 10
609045.23646637797
 20
1763247.068457979
 30
0.0
  0
VERTEX
  5
189
  8
RIVERS
 10
609041.36062889732
 20
1763321.6489714091
 30
0.0
  0
VERTEX
  5
18A
  8
RIVERS
 10
609030.0
 20
1763380.0
 30
0.0
  0
SEQEND
  5
18B
  8
RIVERS
  0
POLYLINE
  5
72
  8
RIVERS
 66
     1
 10
0.0
 20
0.0
 30
0.0
  0
VERTEX
  5
18C
  8
RIVERS
 10
610788.21217572305
 20
1761520.0255354389
 30
0.0
  0
VERTEX
  5
18D
  8
RIVERS
 10
610650.52056472003
 20
1761426.813630498
 30
0.0
  0
VERTEX
  5
18E
  8
RIVERS
 10
610579.43041742779
 20
1761327.101026796
 30
0.0
  0
VERTEX
  5
18F
  8
RIVERS
 10
610524.74632579647
 20
1761267.0012636629
 30
0.0
  0
VERTEX
  5
190
  8
RIVERS
 10
610489.19297044724
 20
1761216.4623461741
 30
0.0
  0
VERTEX
  5
191
  8
RIVERS
 10
610446.81549098715
 20
1761175.4842743301
 30
0.0
  0
VERTEX
  5
192
  8
RIVERS
 10
610397.59732400824
 20
1761167.28865996
 30
0.0
  0
VERTEX
  5
193
  8
RIVERS
 10
610329.24013904284
 20
1761163.1929661371
 30
0.0
  0
VERTEX
  5
194
  8
RIVERS
 10
610237.63621089805
 20
1761134.506202484
 30
0.0
  0
VERTEX
  5
195
  8
RIVERS
 10
610207.55706190504
 20
1761108.554128102
 30
0.0
  0
VERTEX
  5
196
  8
RIVERS
 10
610084.64829257317
 20
1761042.938492483
 30
0.0
  0
VERTEX
  5
197
  8
RIVERS
 10
610007.28889534064
 20
1761042.938492483
 30
0.0
  0
VERTEX
  5
198
  8
RIVERS
 10
609906.7158817444
 20
1761042.938492483
 30
0.0
  0
VERTEX
  5
199
  8
RIVERS
 10
609798.4077565968
 20
1761033.2762055071
 30
0.0
  0
VERTEX
  5
19A
  8
RIVERS
 10
609520.89613665454
 20
1761014.6574941629
 30
0.0
  0
VERTEX
  5
19B
  8
RIVERS
 10
609397.17576032877
 20
1760999.8259259211
 30
0.0
  0
SEQEND
  5
19C
  8
RIVERS
  0
POLYLINE
  5
73
  8
RIVERS
 66
     1
 10
0.0
 20
0.0
 30
0.0
  0
VERTEX
  5
19D
  8
RIVERS
 10
611723.96191272512
 20
1761037.507154441
 30
0.0
  0
VERTEX
  5
19E
  8
RIVERS
 10
611605.61636230722
 20
1761030.676771346
 30
0.0
  0
VERTEX
  5
19F
  8
RIVERS
 10
611538.74988406536
 20
1761052.9473706819
 30
0.0
  0
VERTEX
  5
1A0
  8
RIVERS
 10
611500.52982002124
 20
1761129.3031074409
 30
0.0
  0
VERTEX
  5
1A1
  8
RIVERS
 10
611475.05529846251
 20
1761170.6615842851
 30
0.0
  0
VERTEX
  5
1A2
  8
RIVERS
 10
611392.26310339395
 20
1761180.2055230399
 30
0.0
  0
VERTEX
  5
1A3
  8
RIVERS
 10
611389.07464734651
 20
1761192.9321836201
 30
0.0
  0
VERTEX
  5
1A4
  8
RIVERS
 10
611350.86286500655
 20
1761221.563999885
 30
0.0
  0
VERTEX
  5
1A5
  8
RIVERS
 10
611271.25912598521
 20
1761208.8373393039
 30
0.0
  0
VERTEX
  5
1A6
  8
RIVERS
 10
611207.56454038247
 20
1761205.6546174779
 30
0.0
  0
VERTEX
  5
1A7
  8
RIVERS
 10
611182.09001882374
 20
1761301.098231748
 30
0.0
  0
VERTEX
  5
1A8
  8
RIVERS
 10
611127.95251965721
 20
1761323.368831082
 30
0.0
  0
VERTEX
  5
1A9
  8
RIVERS
 10
611077.00347653776
 20
1761323.368831082
 30
0.0
  0
VERTEX
  5
1AA
  8
RIVERS
 10
611045.16032458842
 20
1761332.9127698371
 30
0.0
  0
VERTEX
  5
1AB
  8
RIVERS
 10
611019.68580302794
 20
1761339.2782134879
 30
0.0
  0
VERTEX
  5
1AC
  8
RIVERS
 10
611032.42306380905
 20
1761383.8194121581
 30
0.0
  0
VERTEX
  5
1AD
  8
RIVERS
 10
611000.57991185971
 20
1761453.809705266
 30
0.0
  0
VERTEX
  5
1AE
  8
RIVERS
 10
610981.47402068973
 20
1761460.1709221951
 30
0.0
  0
VERTEX
  5
1AF
  8
RIVERS
 10
610920.96789113246
 20
1761460.1709221951
 30
0.0
  0
VERTEX
  5
1B0
  8
RIVERS
 10
610879.56765274715
 20
1761463.3536440211
 30
0.0
  0
VERTEX
  5
1B1
  8
RIVERS
 10
610885.93628313765
 20
1761523.7999983749
 30
0.0
  0
VERTEX
  5
1B2
  8
RIVERS
 10
610862.19263771735
 20
1761535.5883266239
 30
0.0
  0
VERTEX
  5
1B3
  8
RIVERS
 10
610788.21217572305
 20
1761520.0255354389
 30
0.0
  0
SEQEND
  5
1B4
  8
RIVERS
  0
POLYLINE
  5
74
  8
RIVERS
 66
     1
 10
0.0
 20
0.0
 30
0.0
  0
VERTEX
  5
1B5
  8
RIVERS
 10
611723.96191272512
 20
1761037.507154441
 30
0.0
  0
VERTEX
  5
1B6
  8
RIVERS
 10
611696.35899323225
 20
1761095.840147689
 30
0.0
  0
VERTEX
  5
1B7
  8
RIVERS
 10
611628.92107741348
 20
1761180.6028349281
 30
0.0
  0
VERTEX
  5
1B8
  8
RIVERS
 10
611572.7297156509
 20
1761210.0039146349
 30
0.0
  0
VERTEX
  5
1B9
  8
RIVERS
 10
611556.67977326363
 20
1761254.1139876379
 30
0.0
  0
VERTEX
  5
1BA
  8
RIVERS
 10
611551.32979246788
 20
1761296.8841897021
 30
0.0
  0
VERTEX
  5
1BB
  8
RIVERS
 10
611492.46344030835
 20
1761335.6432323849
 30
0.0
  0
VERTEX
  5
1BC
  8
RIVERS
 10
611483.09683306317
 20
1761358.3660909969
 30
0.0
  0
VERTEX
  5
1BD
  8
RIVERS
 10
611480.42184266634
 20
1761389.1070416451
 30
0.0
  0
VERTEX
  5
1BE
  8
RIVERS
 10
611471.06351712532
 20
1761411.8256735341
 30
0.0
  0
VERTEX
  5
1BF
  8
RIVERS
 10
611475.07186187059
 20
1761443.9022684011
 30
0.0
  0
VERTEX
  5
1C0
  8
RIVERS
 10
611489.78844990965
 20
1761479.990022647
 30
0.0
  0
VERTEX
  5
1C1
  8
RIVERS
 10
611544.63817562175
 20
1761588.253285385
 30
0.0
  0
VERTEX
  5
1C2
  8
RIVERS
 10
611518.39345558919
 20
1761684.8254344841
 30
0.0
  0
VERTEX
  5
1C3
  8
RIVERS
 10
611484.40534229949
 20
1761716.665332908
 30
0.0
  0
VERTEX
  5
1C4
  8
RIVERS
 10
611439.79180275276
 20
1761740.0137464071
 30
0.0
  0
VERTEX
  5
1C5
  8
RIVERS
 10
611427.03797856532
 20
1761816.424430555
 30
0.0
  0
VERTEX
  5
1C6
  8
RIVERS
 10
611414.29243608203
 20
1761924.6750131261
 30
0.0
  0
VERTEX
  5
1C7
  8
RIVERS
 10
611342.0594136361
 20
1761965.0021697499
 30
0.0
  0
VERTEX
  5
1C8
  8
RIVERS
 10
611240.08679206111
 20
1762043.5346684491
 30
0.0
  0
VERTEX
  5
1C9
  8
RIVERS
 10
611189.09634042159
 20
1762113.5799089461
 30
0.0
  0
VERTEX
  5
1CA
  8
RIVERS
 10
611117.80743223429
 20
1762215.076189423
 30
0.0
  0
VERTEX
  5
1CB
  8
RIVERS
 10
611052.89543614164
 20
1762263.1974218059
 30
0.0
  0
VERTEX
  5
1CC
  8
RIVERS
 10
610996.35624280944
 20
1762348.9702956539
 30
0.0
  0
VERTEX
  5
1CD
  8
RIVERS
 10
610929.34897559881
 20
1762422.1940312539
 30
0.0
  0
VERTEX
  5
1CE
  8
RIVERS
 10
610920.96789113246
 20
1762499.602221845
 30
0.0
  0
VERTEX
  5
1CF
  8
RIVERS
 10
610906.30927502178
 20
1762666.9719679949
 30
0.0
  0
VERTEX
  5
1D0
  8
RIVERS
 10
610972.06600492436
 20
1762834.9334552551
 30
0.0
  0
VERTEX
  5
1D1
  8
RIVERS
 10
610980.95227333531
 20
1762950.3567854201
 30
0.0
  0
VERTEX
  5
1D2
  8
RIVERS
 10
611022.42704705894
 20
1762988.8326377161
 30
0.0
  0
VERTEX
  5
1D3
  8
RIVERS
 10
611025.38361539319
 20
1763119.0537223441
 30
0.0
  0
VERTEX
  5
1D4
  8
RIVERS
 10
611084.63092593849
 20
1763249.2748069731
 30
0.0
  0
VERTEX
  5
1D5
  8
RIVERS
 10
611200.16897869483
 20
1763341.0242660299
 30
0.0
  0
VERTEX
  5
1D6
  8
RIVERS
 10
611321.62016811967
 20
1763320.3048737459
 30
0.0
  0
VERTEX
  5
1D7
  8
RIVERS
 10
611374.94606029254
 20
1763335.1026282101
 30
0.0
  0
VERTEX
  5
1D8
  8
RIVERS
 10
611454.93075769767
 20
1763400.2152838849
 30
0.0
  0
VERTEX
  5
1D9
  8
RIVERS
 10
611666.97550737672
 20
1763529.3078336839
 30
0.0
  0
VERTEX
  5
1DA
  8
RIVERS
 10
611687.19942858815
 20
1763589.923256926
 30
0.0
  0
VERTEX
  5
1DB
  8
RIVERS
 10
611712.93896467797
 20
1763674.423887389
 30
0.0
  0
VERTEX
  5
1DC
  8
RIVERS
 10
611806.71269927372
 20
1763738.7165589549
 30
0.0
  0
VERTEX
  5
1DD
  8
RIVERS
 10
611856.35323315859
 20
1763766.2663343321
 30
0.0
  0
VERTEX
  5
1DE
  8
RIVERS
 10
611946.12690471299
 20
1763769.208132992
 30
0.0
  0
VERTEX
  5
1DF
  8
RIVERS
 10
612025.86315099895
 20
1763818.0901753739
 30
0.0
  0
VERTEX
  5
1E0
  8
RIVERS
 10
612085.67361741886
 20
1763915.8627135821
 30
0.0
  0
VERTEX
  5
1E1
  8
RIVERS
 10
612149.09490678832
 20
1763981.0429968131
 30
0.0
  0
VERTEX
  5
1E2
  8
RIVERS
 10
612219.77925058268
 20
1764008.1996870241
 30
0.0
  0
VERTEX
  5
1E3
  8
RIVERS
 10
612353.88488374825
 20
1764020.875626938
 30
0.0
  0
VERTEX
  5
1E4
  8
RIVERS
 10
612462.61537580006
 20
1764029.9292659161
 30
0.0
  0
VERTEX
  5
1E5
  8
RIVERS
 10
612743.51421268471
 20
1764143.991591529
 30
0.0
  0
SEQEND
  5
1E6
  8
RIVERS
  0
POLYLINE
  5
75
  8
RIVERS
 66
     1
 10
0.0
 20
0.0
 30
0.0
  0
VERTEX
  5
1E7
  8
RIVERS
 10
612350.92831541225
 20
1760940.5292400089
 30
0.0
  0
VERTEX
  5
1E8
  8
RIVERS
 10
612261.12979874574
 20
1760949.4772109319
 30
0.0
  0
VERTEX
  5
1E9
  8
RIVERS
 10
612218.66122054122
 20
1760968.569315163
 30
0.0
  0
VERTEX
  5
1EA
  8
RIVERS
 10
612174.07252610661
 20
1760955.842654583
 30
0.0
  0
VERTEX
  5
1EB
  8
RIVERS
 10
612148.59800454788
 20
1760952.659932758
 30
0.0
  0
VERTEX
  5
1EC
  8
RIVERS
 10
612120.99508505501
 20
1760995.0835435989
 30
0.0
  0
VERTEX
  5
1ED
  8
RIVERS
 10
612089.15193310555
 20
1761020.5368647601
 30
0.0
  0
VERTEX
  5
1EE
  8
RIVERS
 10
612010.59168879129
 20
1761027.9632156859
 30
0.0
  0
VERTEX
  5
1EF
  8
RIVERS
 10
611990.41745780234
 20
1761030.085030237
 30
0.0
  0
VERTEX
  5
1F0
  8
RIVERS
 10
611962.81453831133
 20
1761008.8711114549
 30
0.0
  0
VERTEX
  5
1F1
  8
RIVERS
 10
611938.40007486567
 20
1760996.144450875
 30
0.0
  0
VERTEX
  5
1F2
  8
RIVERS
 10
611912.92555330507
 20
1761005.6883896289
 30
0.0
  0
VERTEX
  5
1F3
  8
RIVERS
 10
611890.63120608975
 20
1761038.5680617159
 30
0.0
  0
VERTEX
  5
1F4
  8
RIVERS
 10
611854.53953997791
 20
1761051.2947222961
 30
0.0
  0
VERTEX
  5
1F5
  8
RIVERS
 10
611812.0709617734
 20
1761054.4774441221
 30
0.0
  0
VERTEX
  5
1F6
  8
RIVERS
 10
611723.96191272512
 20
1761037.507154441
 30
0.0
  0
SEQEND
  5
1F7
  8
RIVERS
  0
POLYLINE
  5
76
  8
RIVERS
 66
     1
 10
0.0
 20
0.0
 30
0.0
  0
VERTEX
  5
1F8
  8
RIVERS
 10
612350.92831541225
 20
1760940.5292400089
 30
0.0
  0
VERTEX
  5
1F9
  8
RIVERS
 10
612357.98432723619
 20
1761005.756017185
 30
0.0
  0
VERTEX
  5
1FA
  8
RIVERS
 10
612367.33437107317
 20
1761038.4243531609
 30
0.0
  0
VERTEX
  5
1FB
  8
RIVERS
 10
612337.74384261668
 20
1761083.53615933
 30
0.0
  0
VERTEX
  5
1FC
  8
RIVERS
 10
612305.04767515336
 20
1761116.2044953059
 30
0.0
  0
VERTEX
  5
1FD
  8
RIVERS
 10
612322.17423906177
 20
1761165.9826027961
 30
0.0
  0
VERTEX
  5
1FE
  8
RIVERS
 10
612342.41472368315
 20
1761212.6498427391
 30
0.0
  0
VERTEX
  5
1FF
  8
RIVERS
 10
612353.31344616972
 20
1761257.7616489071
 30
0.0
  0
VERTEX
  5
200
  8
RIVERS
 10
612331.51600119483
 20
1761321.542887087
 30
0.0
  0
VERTEX
  5
201
  8
RIVERS
 10
612295.70591302041
 20
1761354.2112230631
 30
0.0
  0
VERTEX
  5
202
  8
RIVERS
 10
612286.36415088736
 20
1761393.1012941359
 30
0.0
  0
VERTEX
  5
203
  8
RIVERS
 10
612295.70591302041
 20
1761463.1000406879
 30
0.0
  0
VERTEX
  5
204
  8
RIVERS
 10
612312.83247693069
 20
1761509.7715073519
 30
0.0
  0
VERTEX
  5
205
  8
RIVERS
 10
612306.60463550885
 20
1761646.6623596321
 30
0.0
  0
VERTEX
  5
206
  8
RIVERS
 10
612299.98755399894
 20
1761666.9971201939
 30
0.0
  0
VERTEX
  5
207
  8
RIVERS
 10
612313.90081674804
 20
1761710.2407151449
 30
0.0
  0
VERTEX
  5
208
  8
RIVERS
 10
612320.07896794565
 20
1761736.4971135261
 30
0.0
  0
VERTEX
  5
209
  8
RIVERS
 10
612293.80112109706
 20
1761773.561240603
 30
0.0
  0
VERTEX
  5
20A
  8
RIVERS
 10
612290.71204549819
 20
1761790.548437173
 30
0.0
  0
VERTEX
  5
20B
  8
RIVERS
 10
612299.98755399894
 20
1761847.693721479
 30
0.0
  0
VERTEX
  5
20C
  8
RIVERS
 10
612326.26540084742
 20
1761887.847582493
 30
0.0
  0
VERTEX
  5
20D
  8
RIVERS
 10
612349.45417209715
 20
1761951.1681079511
 30
0.0
  0
VERTEX
  5
20E
  8
RIVERS
 10
612309.2630624976
 20
1762022.2108548901
 30
0.0
  0
VERTEX
  5
20F
  8
RIVERS
 10
612239.54767807387
 20
1762152.833478129
 30
0.0
  0
VERTEX
  5
210
  8
RIVERS
 10
612202.71894030645
 20
1762250.939927391
 30
0.0
  0
VERTEX
  5
211
  8
RIVERS
 10
612195.3565054331
 20
1762378.4728166929
 30
0.0
  0
VERTEX
  5
212
  8
RIVERS
 10
612197.80788982287
 20
1762493.748211581
 30
0.0
  0
VERTEX
  5
213
  8
RIVERS
 10
612219.90347614326
 20
1762557.5167695931
 30
0.0
  0
VERTEX
  5
214
  8
RIVERS
 10
612283.7305690106
 20
1762640.9057721139
 30
0.0
  0
VERTEX
  5
215
  8
RIVERS
 10
612357.37976284325
 20
1762702.2186045209
 30
0.0
  0
VERTEX
  5
216
  8
RIVERS
 10
612401.57093548402
 20
1762739.007994653
 30
0.0
  0
VERTEX
  5
217
  8
RIVERS
 10
612448.2134925127
 20
1762753.725441396
 30
0.0
  0
VERTEX
  5
218
  8
RIVERS
 10
612563.59419289231
 20
1762763.5356636499
 30
0.0
  0
VERTEX
  5
219
  8
RIVERS
 10
612644.60582159832
 20
1762802.776552666
 30
0.0
  0
VERTEX
  5
21A
  8
RIVERS
 10
612782.07382659428
 20
1762922.9549453191
 30
0.0
  0
VERTEX
  5
21B
  8
RIVERS
 10
613124.46431581303
 20
1763324.9584949019
 30
0.0
  0
VERTEX
  5
21C
  8
RIVERS
 10
613312.00350330211
 20
1763533.133017286
 30
0.0
  0
VERTEX
  5
21D
  8
RIVERS
 10
613409.23899017845
 20
1763661.507024308
 30
0.0
  0
VERTEX
  5
21E
  8
RIVERS
 10
613409.23899017845
 20
1763661.507024308
 30
0.0
  0
SEQEND
  5
21F
  8
RIVERS
  0
POLYLINE
  5
77
  8
RIVERS
 66
     1
 10
0.0
 20
0.0
 30
0.0
  0
VERTEX
  5
220
  8
RIVERS
 10
613662.84133061953
 20
1760381.5494541959
 30
0.0
  0
VERTEX
  5
221
  8
RIVERS
 10
613641.64016833343
 20
1760460.6314267821
 30
0.0
  0
VERTEX
  5
222
  8
RIVERS
 10
613606.63340544887
 20
1760478.1173765729
 30
0.0
  0
VERTEX
  5
223
  8
RIVERS
 10
613550.93894592684
 20
1760486.0678410539
 30
0.0
  0
VERTEX
  5
224
  8
RIVERS
 10
613506.38337831013
 20
1760495.603326364
 30
0.0
  0
VERTEX
  5
225
  8
RIVERS
 10
613484.11387620494
 20
1760530.579452669
 30
0.0
  0
VERTEX
  5
226
  8
RIVERS
 10
613463.42617956735
 20
1760541.7041855301
 30
0.0
  0
VERTEX
  5
227
  8
RIVERS
 10
613423.64915516973
 20
1760549.6546500111
 30
0.0
  0
VERTEX
  5
228
  8
RIVERS
 10
613369.54478281923
 20
1760556.0116402181
 30
0.0
  0
VERTEX
  5
229
  8
RIVERS
 10
613304.30980026908
 20
1760570.3190949061
 30
0.0
  0
VERTEX
  5
22A
  8
RIVERS
 10
613278.85184211656
 20
1760589.3985189709
 30
0.0
  0
VERTEX
  5
22B
  8
RIVERS
 10
613239.0665360149
 20
1760602.112499384
 30
0.0
  0
VERTEX
  5
22C
  8
RIVERS
 10
613191.33079405501
 20
1760606.884468762
 30
0.0
  0
VERTEX
  5
22D
  8
RIVERS
 10
613116.54700677097
 20
1760625.9596661041
 30
0.0
  0
VERTEX
  5
22E
  8
RIVERS
 10
613025.85406607017
 20
1760703.853929749
 30
0.0
  0
VERTEX
  5
22F
  8
RIVERS
 10
612984.478672795
 20
1760780.1589458419
 30
0.0
  0
VERTEX
  5
230
  8
RIVERS
 10
612955.84054030105
 20
1760840.5672596961
 30
0.0
  0
VERTEX
  5
231
  8
RIVERS
 10
612890.60555775091
 20
1760870.7714166229
 30
0.0
  0
VERTEX
  5
232
  8
RIVERS
 10
612841.27972861938
 20
1760875.539159277
 30
0.0
  0
VERTEX
  5
233
  8
RIVERS
 10
612812.63331441954
 20
1760861.2317045899
 30
0.0
  0
VERTEX
  5
234
  8
RIVERS
 10
612771.26620285027
 20
1760861.2317045899
 30
0.0
  0
VERTEX
  5
235
  8
RIVERS
 10
612766.49594133545
 20
1760888.2573664139
 30
0.0
  0
VERTEX
  5
236
  8
RIVERS
 10
612758.49581525475
 20
1760923.1700918849
 30
0.0
  0
VERTEX
  5
237
  8
RIVERS
 10
612715.84503956139
 20
1760934.2187437471
 30
0.0
  0
VERTEX
  5
238
  8
RIVERS
 10
612690.56927889772
 20
1760910.5448726381
 30
0.0
  0
VERTEX
  5
239
  8
RIVERS
 10
612644.75489227101
 20
1760885.29020742
 30
0.0
  0
VERTEX
  5
23A
  8
RIVERS
 10
612627.37987723947
 20
1760863.1971304191
 30
0.0
  0
VERTEX
  5
23B
  8
RIVERS
 10
612575.24655044638
 20
1760869.5076266821
 30
0.0
  0
VERTEX
  5
23C
  8
RIVERS
 10
612542.07832585461
 20
1760883.7136400361
 30
0.0
  0
VERTEX
  5
23D
  8
RIVERS
 10
612486.78138812631
 20
1760899.4962207749
 30
0.0
  0
VERTEX
  5
23E
  8
RIVERS
 10
612422.01846270449
 20
1760921.589297777
 30
0.0
  0
VERTEX
  5
23F
  8
RIVERS
 10
612350.92831541225
 20
1760940.5292400089
 30
0.0
  0
SEQEND
  5
240
  8
RIVERS
  0
POLYLINE
  5
78
  8
RIVERS
 66
     1
 10
0.0
 20
0.0
 30
0.0
  0
VERTEX
  5
241
  8
RIVERS
 10
613662.84133061953
 20
1760381.5494541959
 30
0.0
  0
VERTEX
  5
242
  8
RIVERS
 10
613742.76805609837
 20
1760455.4875058499
 30
0.0
  0
VERTEX
  5
243
  8
RIVERS
 10
613784.20970300399
 20
1760536.8223213761
 30
0.0
  0
VERTEX
  5
244
  8
RIVERS
 10
613870.45536864735
 20
1760600.4429441099
 30
0.0
  0
VERTEX
  5
245
  8
RIVERS
 10
613935.11063191667
 20
1760616.5932496821
 30
0.0
  0
VERTEX
  5
246
  8
RIVERS
 10
613971.84827094153
 20
1760656.231450587
 30
0.0
  0
VERTEX
  5
247
  8
RIVERS
 10
613999.77417689015
 20
1760725.2326906971
 30
0.0
  0
VERTEX
  5
248
  8
RIVERS
 10
614030.63180606253
 20
1760898.4733539999
 30
0.0
  0
VERTEX
  5
249
  8
RIVERS
 10
614058.40864133835
 20
1761018.2375278771
 30
0.0
  0
VERTEX
  5
24A
  8
RIVERS
 10
614049.65488019027
 20
1761091.118898978
 30
0.0
  0
VERTEX
  5
24B
  8
RIVERS
 10
614068.61998239171
 20
1761139.21899775
 30
0.0
  0
VERTEX
  5
24C
  8
RIVERS
 10
614106.55018679611
 20
1761172.745358336
 30
0.0
  0
VERTEX
  5
24D
  8
RIVERS
 10
614164.91135501117
 20
1761219.3872379451
 30
0.0
  0
VERTEX
  5
24E
  8
RIVERS
 10
614180.95301569439
 20
1761305.38412807
 30
0.0
  0
VERTEX
  5
24F
  8
RIVERS
 10
614264.69760672376
 20
1761449.9084406639
 30
0.0
  0
VERTEX
  5
250
  8
RIVERS
 10
614327.25759887695
 20
1761521.665503657
 30
0.0
  0
VERTEX
  5
251
  8
RIVERS
 10
614341.15429821995
 20
1761588.7943058279
 30
0.0
  0
VERTEX
  5
252
  8
RIVERS
 10
614429.19709363568
 20
1761697.585908842
 30
0.0
  0
VERTEX
  5
253
  8
RIVERS
 10
614542.73097401857
 20
1761720.735666398
 30
0.0
  0
VERTEX
  5
254
  8
RIVERS
 10
614677.10990341567
 20
1761764.714711013
 30
0.0
  0
VERTEX
  5
255
  8
RIVERS
 10
614813.31080769747
 20
1761911.32702438
 30
0.0
  0
VERTEX
  5
256
  8
RIVERS
 10
614906.71186561335
 20
1761943.9911336349
 30
0.0
  0
VERTEX
  5
257
  8
RIVERS
 10
614920.72450881079
 20
1762046.6413092751
 30
0.0
  0
VERTEX
  5
258
  8
RIVERS
 10
614986.10856203374
 20
1762172.6229915251
 30
0.0
  0
VERTEX
  5
259
  8
RIVERS
 10
615051.49261525646
 20
1762247.279585955
 30
0.0
  0
VERTEX
  5
25A
  8
RIVERS
 10
615074.84702058695
 20
1762415.2579801041
 30
0.0
  0
SEQEND
  5
25B
  8
RIVERS
  0
POLYLINE
  5
79
  8
RIVERS
 66
     1
 10
0.0
 20
0.0
 30
0.0
  0
VERTEX
  5
25C
  8
RIVERS
 10
613714.88423277065
 20
1759813.1832206231
 30
0.0
  0
VERTEX
  5
25D
  8
RIVERS
 10
613716.00987041555
 20
1759920.8198262011
 30
0.0
  0
VERTEX
  5
25E
  8
RIVERS
 10
613716.00987041555
 20
1759999.7665436759
 30
0.0
  0
VERTEX
  5
25F
  8
RIVERS
 10
613745.82400488108
 20
1760066.7939045141
 30
0.0
  0
VERTEX
  5
260
  8
RIVERS
 10
613805.46055551444
 20
1760150.208267367
 30
0.0
  0
VERTEX
  5
261
  8
RIVERS
 10
613800.98843534477
 20
1760211.2801766091
 30
0.0
  0
VERTEX
  5
262
  8
RIVERS
 10
613750.29612505075
 20
1760242.557920977
 30
0.0
  0
VERTEX
  5
263
  8
RIVERS
 10
613677.64073569886
 20
1760255.8509623341
 30
0.0
  0
VERTEX
  5
264
  8
RIVERS
 10
613662.84133061953
 20
1760286.9046904261
 30
0.0
  0
VERTEX
  5
265
  8
RIVERS
 10
613662.84133061953
 20
1760381.5494541959
 30
0.0
  0
SEQEND
  5
266
  8
RIVERS
  0
POLYLINE
  5
7A
  8
RIVERS
 66
     1
 10
0.0
 20
0.0
 30
0.0
  0
VERTEX
  5
267
  8
RIVERS
 10
613630.72488243692
 20
1773122.982428618
 30
0.0
  0
VERTEX
  5
268
  8
RIVERS
 10
613661.83096272871
 20
1773120.446395291
 30
0.0
  0
VERTEX
  5
269
  8
RIVERS
 10
613696.31597826071
 20
1773162.933406966
 30
0.0
  0
VERTEX
  5
26A
  8
RIVERS
 10
613739.98540354706
 20
1773168.67329573
 30
0.0
  0
VERTEX
  5
26B
  8
RIVERS
 10
613767.57175963186
 20
1773192.786745948
 30
0.0
  0
VERTEX
  5
26C
  8
RIVERS
 10
613845.72620045033
 20
1773173.267742774
 30
0.0
  0
VERTEX
  5
26D
  8
RIVERS
 10
613921.57832755148
 20
1773175.5628529349
 30
0.0
  0
VERTEX
  5
26E
  8
RIVERS
 10
613988.24604489654
 20
1773152.5990711569
 30
0.0
  0
VERTEX
  5
26F
  8
RIVERS
 10
614016.97527613491
 20
1773152.5990711569
 30
0.0
  0
VERTEX
  5
270
  8
RIVERS
 10
614026.16796759504
 20
1773173.267742774
 30
0.0
  0
VERTEX
  5
271
  8
RIVERS
 10
614027.31912445463
 20
1773195.086082832
 30
0.0
  0
VERTEX
  5
272
  8
RIVERS
 10
614056.05663739704
 20
1773196.231524552
 30
0.0
  0
VERTEX
  5
273
  8
RIVERS
 10
614099.72606268525
 20
1773187.046857185
 30
0.0
  0
VERTEX
  5
274
  8
RIVERS
 10
614162.94030945376
 20
1773223.7897533739
 30
0.0
  0
VERTEX
  5
275
  8
RIVERS
 10
614187.07319496188
 20
1773226.089090257
 30
0.0
  0
VERTEX
  5
276
  8
RIVERS
 10
614206.61801644601
 20
1773177.8621898179
 30
0.0
  0
VERTEX
  5
277
  8
RIVERS
 10
614222.70936735347
 20
1773164.083075407
 30
0.0
  0
VERTEX
  5
278
  8
RIVERS
 10
614245.69109600235
 20
1773176.712521377
 30
0.0
  0
VERTEX
  5
279
  8
RIVERS
 10
614260.36627552286
 20
1773204.110134755
 30
0.0
  0
VERTEX
  5
27A
  8
RIVERS
 10
614277.98145996965
 20
1773210.513618906
 30
0.0
  0
VERTEX
  5
27B
  8
RIVERS
 10
614307.61339694634
 20
1773198.509727824
 30
0.0
  0
VERTEX
  5
27C
  8
RIVERS
 10
614318.02349889651
 20
1773192.9093208921
 30
0.0
  0
VERTEX
  5
27D
  8
RIVERS
 10
614352.45054250024
 20
1773203.3112842571
 30
0.0
  0
VERTEX
  5
27E
  8
RIVERS
 10
614369.27068336122
 20
1773204.913211975
 30
0.0
  0
VERTEX
  5
27F
  8
RIVERS
 10
614377.27909114584
 20
1773192.9093208921
 30
0.0
  0
VERTEX
  5
280
  8
RIVERS
 10
614391.68925613735
 20
1773176.1081001
 30
0.0
  0
VERTEX
  5
281
  8
RIVERS
 10
614406.91102812253
 20
1773168.9099921731
 30
0.0
  0
VERTEX
  5
282
  8
RIVERS
 10
614432.53462035395
 20
1773176.9111773199
 30
0.0
  0
VERTEX
  5
283
  8
RIVERS
 10
614442.14139701612
 20
1773212.9101704
 30
0.0
  0
VERTEX
  5
284
  8
RIVERS
 10
614450.95313009061
 20
1773259.3153535661
 30
0.0
  0
VERTEX
  5
285
  8
RIVERS
 10
614481.38011065323
 20
1773300.1159030781
 30
0.0
  0
VERTEX
  5
286
  8
RIVERS
 10
614563.43523406435
 20
1773352.8189023391
 30
0.0
  0
VERTEX
  5
287
  8
RIVERS
 10
614572.33806588314
 20
1773407.4492869291
 30
0.0
  0
VERTEX
  5
288
  8
RIVERS
 10
614676.61300117522
 20
1773440.485347738
 30
0.0
  0
VERTEX
  5
289
  8
RIVERS
 10
614703.32149663381
 20
1773476.0574418739
 30
0.0
  0
VERTEX
  5
28A
  8
RIVERS
 10
614709.68184531853
 20
1773525.6115330879
 30
0.0
  0
VERTEX
  5
28B
  8
RIVERS
 10
614754.18772271276
 20
1773551.018360303
 30
0.0
  0
VERTEX
  5
28C
  8
RIVERS
 10
614761.82345381752
 20
1773589.134941211
 30
0.0
  0
VERTEX
  5
28D
  8
RIVERS
 10
614810.14719676226
 20
1773639.9570490881
 30
0.0
  0
VERTEX
  5
28E
  8
RIVERS
 10
614861.01342284121
 20
1773669.1763797391
 30
0.0
  0
VERTEX
  5
28F
  8
RIVERS
 10
614884.03656001203
 20
1773722.9149259429
 30
0.0
  0
VERTEX
  5
290
  8
RIVERS
 10
614942.14927710593
 20
1773745.5701569989
 30
0.0
  0
VERTEX
  5
291
  8
RIVERS
 10
614969.08137857355
 20
1773806.4560904631
 30
0.0
  0
VERTEX
  5
292
  8
RIVERS
 10
614993.1728555616
 20
1773847.5186967519
 30
0.0
  0
VERTEX
  5
293
  8
RIVERS
 10
615004.51050836232
 20
1773860.2622642219
 30
0.0
  0
VERTEX
  5
294
  8
RIVERS
 10
614997.42136972211
 20
1773882.9174952779
 30
0.0
  0
VERTEX
  5
295
  8
RIVERS
 10
614971.91372134734
 20
1773914.0726647021
 30
0.0
  0
VERTEX
  5
296
  8
RIVERS
 10
614983.25137414795
 20
1773936.7278957581
 30
0.0
  0
VERTEX
  5
297
  8
RIVERS
 10
615021.52112841606
 20
1773946.6395593451
 30
0.0
  0
VERTEX
  5
298
  8
RIVERS
 10
615059.78260097839
 20
1773928.2321841121
 30
0.0
  0
VERTEX
  5
299
  8
RIVERS
 10
615069.70408239216
 20
1773936.7278957581
 30
0.0
  0
VERTEX
  5
29A
  8
RIVERS
 10
615068.28791100532
 20
1773973.5426462239
 30
0.0
  0
VERTEX
  5
29B
  8
RIVERS
 10
615059.78260097839
 20
1773994.78192534
 30
0.0
  0
VERTEX
  5
29C
  8
RIVERS
 10
615096.63618385978
 20
1774031.596675806
 30
0.0
  0
VERTEX
  5
29D
  8
RIVERS
 10
615122.14383223467
 20
1774048.5880990981
 30
0.0
  0
SEQEND
  5
29E
  8
RIVERS
  0
POLYLINE
  5
7B
  8
RIVERS
 66
     1
 10
0.0
 20
0.0
 30
0.0
  0
VERTEX
  5
29F
  8
RIVERS
 10
614395.47399487346
 20
1774200.724738396
 30
0.0
  0
VERTEX
  5
2A0
  8
RIVERS
 10
614361.01382445358
 20
1774074.244302925
 30
0.0
  0
VERTEX
  5
2A1
  8
RIVERS
 10
614314.27188697644
 20
1774005.75026948
 30
0.0
  0
VERTEX
  5
2A2
  8
RIVERS
 10
614197.93050893035
 20
1773981.881969149
 30
0.0
  0
VERTEX
  5
2A3
  8
RIVERS
 10
614117.95409322914
 20
1773933.109821545
 30
0.0
  0
VERTEX
  5
2A4
  8
RIVERS
 10
614025.50543127395
 20
1773825.180469862
 30
0.0
  0
VERTEX
  5
2A5
  8
RIVERS
 10
613994.50701313454
 20
1773768.5043517209
 30
0.0
  0
VERTEX
  5
2A6
  8
RIVERS
 10
613994.50701313454
 20
1773728.122247708
 30
0.0
  0
VERTEX
  5
2A7
  8
RIVERS
 10
614024.81804984075
 20
1773701.506577939
 30
0.0
  0
VERTEX
  5
2A8
  8
RIVERS
 10
614028.49512642436
 20
1773686.8187182529
 30
0.0
  0
VERTEX
  5
2A9
  8
RIVERS
 10
614018.39144752373
 20
1773660.203048483
 30
0.0
  0
VERTEX
  5
2AA
  8
RIVERS
 10
614035.9403783381
 20
1773580.689950231
 30
0.0
  0
VERTEX
  5
2AB
  8
RIVERS
 10
614008.65216359682
 20
1773504.084836862
 30
0.0
  0
VERTEX
  5
2AC
  8
RIVERS
 10
613922.87855508178
 20
1773432.67436509
 30
0.0
  0
VERTEX
  5
2AD
  8
RIVERS
 10
613804.35080717504
 20
1773391.434236468
 30
0.0
  0
VERTEX
  5
2AE
  8
RIVERS
 10
613715.85251803894
 20
1773311.0588868849
 30
0.0
  0
VERTEX
  5
2AF
  8
RIVERS
 10
613657.23461699858
 20
1773205.4204186399
 30
0.0
  0
VERTEX
  5
2B0
  8
RIVERS
 10
613630.72488243692
 20
1773122.982428618
 30
0.0
  0
SEQEND
  5
2B1
  8
RIVERS
  0
POLYLINE
  5
7C
  8
RIVERS
 66
     1
 10
0.0
 20
0.0
 30
0.0
  0
VERTEX
  5
2B2
  8
RIVERS
 10
614395.47399487346
 20
1774200.724738396
 30
0.0
  0
VERTEX
  5
2B3
  8
RIVERS
 10
614448.98208453495
 20
1774224.783241227
 30
0.0
  0
VERTEX
  5
2B4
  8
RIVERS
 10
614505.16516459361
 20
1774224.783241227
 30
0.0
  0
VERTEX
  5
2B5
  8
RIVERS
 10
614578.73982309003
 20
1774282.2455296989
 30
0.0
  0
VERTEX
  5
2B6
  8
RIVERS
 10
614648.71194033884
 20
1774288.636333684
 30
0.0
  0
VERTEX
  5
2B7
  8
RIVERS
 10
614706.68386846408
 20
1774282.7231493101
 30
0.0
  0
VERTEX
  5
2B8
  8
RIVERS
 10
614767.29766017199
 20
1774323.9505977649
 30
0.0
  0
SEQEND
  5
2B9
  8
RIVERS
  0
POLYLINE
  5
7D
  8
RIVERS
 66
     1
 10
0.0
 20
0.0
 30
0.0
  0
VERTEX
  5
2BA
  8
RIVERS
 10
614203.00719349459
 20
1774557.8827653099
 30
0.0
  0
VERTEX
  5
2BB
  8
RIVERS
 10
614279.80343485251
 20
1774481.159303718
 30
0.0
  0
VERTEX
  5
2BC
  8
RIVERS
 10
614320.12705171667
 20
1774446.6354366899
 30
0.0
  0
VERTEX
  5
2BD
  8
RIVERS
 10
614339.32404163107
 20
1774394.8454094271
 30
0.0
  0
VERTEX
  5
2BE
  8
RIVERS
 10
614331.6386203022
 20
1774350.7311096999
 30
0.0
  0
VERTEX
  5
2BF
  8
RIVERS
 10
614327.80419134174
 20
1774304.69787809
 30
0.0
  0
VERTEX
  5
2C0
  8
RIVERS
 10
614375.40742603689
 20
1774259.5268978099
 30
0.0
  0
VERTEX
  5
2C1
  8
RIVERS
 10
614387.44902368065
 20
1774227.4545296649
 30
0.0
  0
VERTEX
  5
2C2
  8
RIVERS
 10
614395.47399487346
 20
1774200.724738396
 30
0.0
  0
SEQEND
  5
2C3
  8
RIVERS
  0
POLYLINE
  5
7E
  8
RIVERS
 66
     1
 10
0.0
 20
0.0
 30
0.0
  0
VERTEX
  5
2C4
  8
RIVERS
 10
613630.72488243692
 20
1773122.982428618
 30
0.0
  0
VERTEX
  5
2C5
  8
RIVERS
 10
613611.33741333161
 20
1773307.884618504
 30
0.0
  0
VERTEX
  5
2C6
  8
RIVERS
 10
613607.99160490755
 20
1773358.081171493
 30
0.0
  0
VERTEX
  5
2C7
  8
RIVERS
 10
613633.67316906725
 20
1773418.3161897359
 30
0.0
  0
VERTEX
  5
2C8
  8
RIVERS
 10
613689.50013585389
 20
1773452.8992308751
 30
0.0
  0
VERTEX
  5
2C9
  8
RIVERS
 10
613727.76160841621
 20
1773534.9018685089
 30
0.0
  0
VERTEX
  5
2CA
  8
RIVERS
 10
613715.10716467735
 20
1773650.6168425069
 30
0.0
  0
VERTEX
  5
2CB
  8
RIVERS
 10
613696.61411960435
 20
1773730.353957036
 30
0.0
  0
VERTEX
  5
2CC
  8
RIVERS
 10
613719.00784727
 20
1773818.8403865439
 30
0.0
  0
VERTEX
  5
2CD
  8
RIVERS
 10
613734.94184580084
 20
1773851.6143905751
 30
0.0
  0
VERTEX
  5
2CE
  8
RIVERS
 10
613706.02213536948
 20
1773862.616548493
 30
0.0
  0
VERTEX
  5
2CF
  8
RIVERS
 10
613657.83089968748
 20
1773862.616548493
 30
0.0
  0
VERTEX
  5
2D0
  8
RIVERS
 10
613613.77223431133
 20
1773876.374529294
 30
0.0
  0
VERTEX
  5
2D1
  8
RIVERS
 10
613590.3681387566
 20
1773913.51473737
 30
0.0
  0
VERTEX
  5
2D2
  8
RIVERS
 10
613598.6249976625
 20
1773950.6591721689
 30
0.0
  0
VERTEX
  5
2D3
  8
RIVERS
 10
613635.80156699941
 20
1773980.9225032071
 30
0.0
  0
VERTEX
  5
2D4
  8
RIVERS
 10
613642.68366303854
 20
1774030.442780643
 30
0.0
  0
VERTEX
  5
2D5
  8
RIVERS
 10
613661.96346999332
 20
1774059.332426961
 30
0.0
  0
VERTEX
  5
2D6
  8
RIVERS
 10
613663.33823285997
 20
1774095.098950319
 30
0.0
  0
VERTEX
  5
2D7
  8
RIVERS
 10
613614.77432049823
 20
1774155.1226324521
 30
0.0
  0
VERTEX
  5
2D8
  8
RIVERS
 10
613621.60672631313
 20
1774191.996557029
 30
0.0
  0
VERTEX
  5
2D9
  8
RIVERS
 10
613638.01278197393
 20
1774220.67909396
 30
0.0
  0
VERTEX
  5
2DA
  8
RIVERS
 10
613616.14080166083
 20
1774271.2095580031
 30
0.0
  0
VERTEX
  5
2DB
  8
RIVERS
 10
613584.69517150521
 20
1774310.81394513
 30
0.0
  0
VERTEX
  5
2DC
  8
RIVERS
 10
613569.6638787128
 20
1774342.2269446091
 30
0.0
  0
VERTEX
  5
2DD
  8
RIVERS
 10
613549.15837956406
 20
1774349.053100982
 30
0.0
  0
VERTEX
  5
2DE
  8
RIVERS
 10
613497.20725025795
 20
1774354.5182528021
 30
0.0
  0
VERTEX
  5
2DF
  8
RIVERS
 10
613450.73032730818
 20
1774400.9487963009
 30
0.0
  0
VERTEX
  5
2E0
  8
RIVERS
 10
613445.19814902358
 20
1774458.909837994
 30
0.0
  0
VERTEX
  5
2E1
  8
RIVERS
 10
613464.53592790663
 20
1774563.23379563
 30
0.0
  0
VERTEX
  5
2E2
  8
RIVERS
 10
613427.37592197768
 20
1774736.2673495449
 30
0.0
  0
VERTEX
  5
2E3
  8
RIVERS
 10
613402.42314777162
 20
1774789.97208197
 30
0.0
  0
SEQEND
  5
2E4
  8
RIVERS
  0
POLYLINE
  5
7F
  8
RIVERS
 66
     1
 10
0.0
 20
0.0
 30
0.0
  0
VERTEX
  5
2E5
  8
RIVERS
 10
610827.69105877727
 20
1774280.2716504261
 30
0.0
  0
VERTEX
  5
2E6
  8
RIVERS
 10
610842.19232251309
 20
1774213.0963543111
 30
0.0
  0
VERTEX
  5
2E7
  8
RIVERS
 10
610834.28329517704
 20
1774168.3100057531
 30
0.0
  0
VERTEX
  5
2E8
  8
RIVERS
 10
610876.47029544425
 20
1774123.523657195
 30
0.0
  0
VERTEX
  5
2E9
  8
RIVERS
 10
610868.5612681061
 20
1774084.0080312351
 30
0.0
  0
VERTEX
  5
2EA
  8
RIVERS
 10
610860.65224077005
 20
1774032.6364494711
 30
0.0
  0
VERTEX
  5
2EB
  8
RIVERS
 10
610880.42894996505
 20
1774008.9287645831
 30
0.0
  0
VERTEX
  5
2EC
  8
RIVERS
 10
610916.02371383458
 20
1773994.4395608411
 30
0.0
  0
VERTEX
  5
2ED
  8
RIVERS
 10
610929.20818663202
 20
1773973.365123892
 30
0.0
  0
VERTEX
  5
2EE
  8
RIVERS
 10
610922.61595023226
 20
1773944.386716407
 30
0.0
  0
VERTEX
  5
2EF
  8
RIVERS
 10
610872.51992262714
 20
1773924.6267900651
 30
0.0
  0
VERTEX
  5
2F0
  8
RIVERS
 10
610718.26490358636
 20
1773867.9887124251
 30
0.0
  0
VERTEX
  5
2F1
  8
RIVERS
 10
610626.90114486031
 20
1773819.6011965419
 30
0.0
  0
VERTEX
  5
2F2
  8
RIVERS
 10
610599.41416922398
 20
1773772.5197378229
 30
0.0
  0
VERTEX
  5
2F3
  8
RIVERS
 10
610564.06785647385
 20
1773653.5206006661
 30
0.0
  0
VERTEX
  5
2F4
  8
RIVERS
 10
610560.14232877083
 20
1773590.749549096
 30
0.0
  0
VERTEX
  5
2F5
  8
RIVERS
 10
610574.46967672184
 20
1773537.6323310579
 30
0.0
  0
VERTEX
  5
2F6
  8
RIVERS
 10
610606.87598454393
 20
1773484.434805298
 30
0.0
  0
VERTEX
  5
2F7
  8
RIVERS
 10
610654.33843027253
 20
1773432.3869479799
 30
0.0
  0
VERTEX
  5
2F8
  8
RIVERS
 10
610671.70516359806
 20
1773353.7445545041
 30
0.0
  0
VERTEX
  5
2F9
  8
RIVERS
 10
610704.19428846065
 20
1773290.2676403241
 30
0.0
  0
VERTEX
  5
2FA
  8
RIVERS
 10
610719.51544089429
 20
1773261.2554190599
 30
0.0
  0
VERTEX
  5
2FB
  8
RIVERS
 10
610734.84487503208
 20
1773252.3919825819
 30
0.0
  0
VERTEX
  5
2FC
  8
RIVERS
 10
610763.06892232422
 20
1773254.8096676881
 30
0.0
  0
VERTEX
  5
2FD
  8
RIVERS
 10
610775.98009888828
 20
1773243.528546104
 30
0.0
  0
VERTEX
  5
2FE
  8
RIVERS
 10
610778.3983564619
 20
1773222.5766840989
 30
0.0
  0
VERTEX
  5
2FF
  8
RIVERS
 10
610785.65312918276
 20
1773198.404059768
 30
0.0
  0
SEQEND
  5
300
  8
RIVERS
  0
POLYLINE
  5
80
  8
RIVERS
 66
     1
 10
0.0
 20
0.0
 30
0.0
  0
VERTEX
  5
301
  8
RIVERS
 10
610855.3933587186
 20
1774491.4682791929
 30
0.0
  0
VERTEX
  5
302
  8
RIVERS
 10
610915.63447374478
 20
1774477.0593831721
 30
0.0
  0
VERTEX
  5
303
  8
RIVERS
 10
610962.31015759148
 20
1774430.4344104519
 30
0.0
  0
VERTEX
  5
304
  8
RIVERS
 10
611039.52048415132
 20
1774366.8560549391
 30
0.0
  0
VERTEX
  5
305
  8
RIVERS
 10
611050.0
 20
1774330.0
 30
0.0
  0
VERTEX
  5
306
  8
RIVERS
 10
611070.06340857036
 20
1774271.061622727
 30
0.0
  0
VERTEX
  5
307
  8
RIVERS
 10
611074.31192273274
 20
1774209.178182821
 30
0.0
  0
VERTEX
  5
308
  8
RIVERS
 10
611122.34580603614
 20
1774113.5739531079
 30
0.0
  0
VERTEX
  5
309
  8
RIVERS
 10
611140.32538546063
 20
1774033.211283691
 30
0.0
  0
VERTEX
  5
30A
  8
RIVERS
 10
611115.91092201509
 20
1773933.515586877
 30
0.0
  0
VERTEX
  5
30B
  8
RIVERS
 10
611124.39966863405
 20
1773852.907767572
 30
0.0
  0
VERTEX
  5
30C
  8
RIVERS
 10
611165.75849849929
 20
1773780.52092297
 30
0.0
  0
VERTEX
  5
30D
  8
RIVERS
 10
611201.44436111301
 20
1773701.857395883
 30
0.0
  0
VERTEX
  5
30E
  8
RIVERS
 10
611233.54424588755
 20
1773679.3374199369
 30
0.0
  0
VERTEX
  5
30F
  8
RIVERS
 10
611243.10961402766
 20
1773659.547906541
 30
0.0
  0
VERTEX
  5
310
  8
RIVERS
 10
611241.46155492775
 20
1773609.799386106
 30
0.0
  0
VERTEX
  5
311
  8
RIVERS
 10
611226.96857289784
 20
1773549.9447728619
 30
0.0
  0
VERTEX
  5
312
  8
RIVERS
 10
611240.50087726302
 20
1773526.778108418
 30
0.0
  0
VERTEX
  5
313
  8
RIVERS
 10
611293.94271329045
 20
1773432.488389313
 30
0.0
  0
VERTEX
  5
314
  8
RIVERS
 10
611340.41963624023
 20
1773380.5926939941
 30
0.0
  0
VERTEX
  5
315
  8
RIVERS
 10
611407.39377663471
 20
1773353.27961506
 30
0.0
  0
VERTEX
  5
316
  8
RIVERS
 10
611447.03829376958
 20
1773319.1361530321
 30
0.0
  0
VERTEX
  5
317
  8
RIVERS
 10
611441.57236911729
 20
1773295.922994643
 30
0.0
  0
VERTEX
  5
318
  8
RIVERS
 10
611431.99871927325
 20
1773265.875226439
 30
0.0
  0
SEQEND
  5
319
  8
RIVERS
  0
POLYLINE
  5
81
  8
RIVERS
 66
     1
 10
0.0
 20
0.0
 30
0.0
  0
VERTEX
  5
31A
  8
RIVERS
 10
611689.76675683446
 20
1774414.3686393241
 30
0.0
  0
VERTEX
  5
31B
  8
RIVERS
 10
611731.07589647733
 20
1774363.4619970031
 30
0.0
  0
VERTEX
  5
31C
  8
RIVERS
 10
611761.37036977522
 20
1774357.9588046831
 30
0.0
  0
VERTEX
  5
31D
  8
RIVERS
 10
611787.54055447131
 20
1774370.3431007641
 30
0.0
  0
VERTEX
  5
31E
  8
RIVERS
 10
611817.83502776921
 20
1774356.5851199629
 30
0.0
  0
VERTEX
  5
31F
  8
RIVERS
 10
611879.7987372335
 20
1774353.8335238041
 30
0.0
  0
VERTEX
  5
320
  8
RIVERS
 10
611908.71844766475
 20
1774324.9438774851
 30
0.0
  0
VERTEX
  5
321
  8
RIVERS
 10
611920.0
 20
1774290.0
 30
0.0
  0
VERTEX
  5
322
  8
RIVERS
 10
611951.65908299759
 20
1774246.6396217861
 30
0.0
  0
VERTEX
  5
323
  8
RIVERS
 10
611986.92257870734
 20
1774201.920900783
 30
0.0
  0
VERTEX
  5
324
  8
RIVERS
 10
611988.28077816591
 20
1774172.1056023
 30
0.0
  0
VERTEX
  5
325
  8
RIVERS
 10
611987.60167843674
 20
1774134.162317002
 30
0.0
  0
VERTEX
  5
326
  8
RIVERS
 10
612003.34519777447
 20
1774101.6841835249
 30
0.0
  0
VERTEX
  5
327
  8
RIVERS
 10
612073.43325887993
 20
1774082.046832128
 30
0.0
  0
VERTEX
  5
328
  8
RIVERS
 10
612117.87288263999
 20
1774056.432895524
 30
0.0
  0
VERTEX
  5
329
  8
RIVERS
 10
612170.00620943494
 20
1774048.74448782
 30
0.0
  0
VERTEX
  5
32A
  8
RIVERS
 10
612199.91972434707
 20
1774032.5223279709
 30
0.0
  0
VERTEX
  5
32B
  8
RIVERS
 10
612233.2535830196
 20
1774022.276753329
 30
0.0
  0
VERTEX
  5
32C
  8
RIVERS
 10
612251.20003562793
 20
1774034.2299237449
 30
0.0
  0
SEQEND
  5
32D
  8
RIVERS
  0
POLYLINE
  5
82
  8
RIVERS
 66
     1
 10
0.0
 20
0.0
 30
0.0
  0
VERTEX
  5
32E
  8
RIVERS
 10
612239.13359287393
 20
1773481.590221249
 30
0.0
  0
VERTEX
  5
32F
  8
RIVERS
 10
612315.0105650872
 20
1773481.036520639
 30
0.0
  0
VERTEX
  5
330
  8
RIVERS
 10
612346.69636465993
 20
1773489.1518272869
 30
0.0
  0
VERTEX
  5
331
  8
RIVERS
 10
612380.82526691805
 20
1773537.8605740571
 30
0.0
  0
VERTEX
  5
332
  8
RIVERS
 10
612430.38298376277
 20
1773619.8463048041
 30
0.0
  0
VERTEX
  5
333
  8
RIVERS
 10
612459.63396235369
 20
1773723.75181694
 30
0.0
  0
VERTEX
  5
334
  8
RIVERS
 10
612535.51921627112
 20
1773790.6650562789
 30
0.0
  0
VERTEX
  5
335
  8
RIVERS
 10
612556.2069129087
 20
1773814.7785064981
 30
0.0
  0
VERTEX
  5
336
  8
RIVERS
 10
612555.05575605121
 20
1773868.753749145
 30
0.0
  0
VERTEX
  5
337
  8
RIVERS
 10
612543.56075087364
 20
1773919.279986467
 30
0.0
  0
VERTEX
  5
338
  8
RIVERS
 10
612553.90459919162
 20
1773958.322219539
 30
0.0
  0
VERTEX
  5
339
  8
RIVERS
 10
612587.23845786415
 20
1774005.4036782591
 30
0.0
  0
VERTEX
  5
33A
  8
RIVERS
 10
612589.54077158123
 20
1774051.339695259
 30
0.0
  0
VERTEX
  5
33B
  8
RIVERS
 10
612556.2069129087
 20
1774163.8761741531
 30
0.0
  0
VERTEX
  5
33C
  8
RIVERS
 10
612549.63123991899
 20
1774253.820822824
 30
0.0
  0
VERTEX
  5
33D
  8
RIVERS
 10
612525.3575654421
 20
1774296.9333893859
 30
0.0
  0
VERTEX
  5
33E
  8
RIVERS
 10
612487.59299511835
 20
1774373.276445979
 30
0.0
  0
VERTEX
  5
33F
  8
RIVERS
 10
612475.90751075
 20
1774434.352581942
 30
0.0
  0
VERTEX
  5
340
  8
RIVERS
 10
612475.94063756615
 20
1774473.3567745141
 30
0.0
  0
VERTEX
  5
341
  8
RIVERS
 10
612517.42369299196
 20
1774509.888334593
 30
0.0
  0
VERTEX
  5
342
  8
RIVERS
 10
612520.0
 20
1774540.0
 30
0.0
  0
VERTEX
  5
343
  8
RIVERS
 10
612553.2834713906
 20
1774584.3547265229
 30
0.0
  0
VERTEX
  5
344
  8
RIVERS
 10
612574.37697152421
 20
1774638.448317393
 30
0.0
  0
VERTEX
  5
345
  8
RIVERS
 10
612687.81147146039
 20
1774739.2556421489
 30
0.0
  0
VERTEX
  5
346
  8
RIVERS
 10
612702.72682039626
 20
1774790.9315479121
 30
0.0
  0
SEQEND
  5
347
  8
RIVERS
  0
POLYLINE
  5
83
  8
RIVERS
 66
     1
 10
0.0
 20
0.0
 30
0.0
  0
VERTEX
  5
348
  8
RIVERS
 10
612239.13359287393
 20
1773481.590221249
 30
0.0
  0
VERTEX
  5
349
  8
RIVERS
 10
612260.99729148124
 20
1773523.832083036
 30
0.0
  0
VERTEX
  5
34A
  8
RIVERS
 10
612290.16545303154
 20
1773533.3041675121
 30
0.0
  0
VERTEX
  5
34B
  8
RIVERS
 10
612320.78291278705
 20
1773542.7720252681
 30
0.0
  0
VERTEX
  5
34C
  8
RIVERS
 10
612333.17234199867
 20
1773560.980744557
 30
0.0
  0
VERTEX
  5
34D
  8
RIVERS
 10
612336.09578351676
 20
1773594.4859715321
 30
0.0
  0
VERTEX
  5
34E
  8
RIVERS
 10
612329.52839223109
 20
1773629.445190947
 30
0.0
  0
VERTEX
  5
34F
  8
RIVERS
 10
612353.00702312216
 20
1773704.841461764
 30
0.0
  0
VERTEX
  5
350
  8
RIVERS
 10
612377.81900835969
 20
1773731.4613582559
 30
0.0
  0
VERTEX
  5
351
  8
RIVERS
 10
612395.26855872583
 20
1773794.79456388
 30
0.0
  0
SEQEND
  5
352
  8
RIVERS
  0
POLYLINE
  5
84
  8
RIVERS
 66
     1
 10
0.0
 20
0.0
 30
0.0
  0
VERTEX
  5
353
  8
RIVERS
 10
610109.45199610665
 20
1770982.5364866911
 30
0.0
  0
VERTEX
  5
354
  8
RIVERS
 10
610088.01894610748
 20
1771035.894627894
 30
0.0
  0
VERTEX
  5
355
  8
RIVERS
 10
610097.02944007888
 20
1771146.6812437931
 30
0.0
  0
VERTEX
  5
356
  8
RIVERS
 10
610103.26556320488
 20
1771193.7669292339
 30
0.0
  0
VERTEX
  5
357
  8
RIVERS
 10
610072.27542676963
 20
1771291.581734665
 30
0.0
  0
VERTEX
  5
358
  8
RIVERS
 10
610098.87626007572
 20
1771389.024588539
 30
0.0
  0
VERTEX
  5
359
  8
RIVERS
 10
610086.46198575199
 20
1771433.316410599
 30
0.0
  0
VERTEX
  5
35A
  8
RIVERS
 10
610100.64854473632
 20
1771468.749022902
 30
0.0
  0
VERTEX
  5
35B
  8
RIVERS
 10
610097.74994833034
 20
1771544.884970106
 30
0.0
  0
VERTEX
  5
35C
  8
RIVERS
 10
610122.87663831934
 20
1771596.057895927
 30
0.0
  0
VERTEX
  5
35D
  8
RIVERS
 10
610170.22314019129
 20
1771631.77792534
 30
0.0
  0
VERTEX
  5
35E
  8
RIVERS
 10
610214.67932736129
 20
1771731.2242455441
 30
0.0
  0
VERTEX
  5
35F
  8
RIVERS
 10
610257.20587749407
 20
1771781.4292519779
 30
0.0
  0
VERTEX
  5
360
  8
RIVERS
 10
610320.01432076655
 20
1771823.9120369309
 30
0.0
  0
VERTEX
  5
361
  8
RIVERS
 10
610461.97929104418
 20
1771997.173833844
 30
0.0
  0
VERTEX
  5
362
  8
RIVERS
 10
610514.15402635746
 20
1772030.907303818
 30
0.0
  0
VERTEX
  5
363
  8
RIVERS
 10
610618.52006039396
 20
1772231.7653700539
 30
0.0
  0
VERTEX
  5
364
  8
RIVERS
 10
610649.21205548395
 20
1772247.095691517
 30
0.0
  0
VERTEX
  5
365
  8
RIVERS
 10
610715.20067309961
 20
1772270.0975137949
 30
0.0
  0
VERTEX
  5
366
  8
RIVERS
 10
610768.91580536216
 20
1772297.6937831161
 30
0.0
  0
VERTEX
  5
367
  8
RIVERS
 10
610834.90442297794
 20
1772366.690796505
 30
0.0
  0
VERTEX
  5
368
  8
RIVERS
 10
610861.00007233769
 20
1772382.0253446901
 30
0.0
  0
VERTEX
  5
369
  8
RIVERS
 10
611026.74181485164
 20
1772371.2894702719
 30
0.0
  0
VERTEX
  5
36A
  8
RIVERS
 10
611157.89916138526
 20
1772385.842074848
 30
0.0
  0
VERTEX
  5
36B
  8
RIVERS
 10
611223.92090581905
 20
1772432.614982845
 30
0.0
  0
VERTEX
  5
36C
  8
RIVERS
 10
611277.93417942338
 20
1772498.5729829629
 30
0.0
  0
VERTEX
  5
36D
  8
RIVERS
 10
611304.70892851416
 20
1772602.7236449891
 30
0.0
  0
VERTEX
  5
36E
  8
RIVERS
 10
611310.43158599176
 20
1772669.3832809939
 30
0.0
  0
VERTEX
  5
36F
  8
RIVERS
 10
611344.74268573709
 20
1772730.3241618469
 30
0.0
  0
VERTEX
  5
370
  8
RIVERS
 10
611390.49081873335
 20
1772751.2760238519
 30
0.0
  0
VERTEX
  5
371
  8
RIVERS
 10
611470.55833318084
 20
1772774.1299108521
 30
0.0
  0
VERTEX
  5
372
  8
RIVERS
 10
611537.27574075013
 20
1772861.7329554169
 30
0.0
  0
VERTEX
  5
373
  8
RIVERS
 10
611575.39642434567
 20
1772903.6324527049
 30
0.0
  0
VERTEX
  5
374
  8
RIVERS
 10
611619.23976541683
 20
1772934.1028931311
 30
0.0
  0
VERTEX
  5
375
  8
RIVERS
 10
611666.90097204025
 20
1772945.5319499921
 30
0.0
  0
VERTEX
  5
376
  8
RIVERS
 10
611788.77452837117
 20
1772988.9699741651
 30
0.0
  0
VERTEX
  5
377
  8
RIVERS
 10
611840.04655794625
 20
1773039.2595150431
 30
0.0
  0
VERTEX
  5
378
  8
RIVERS
 10
611875.45912432857
 20
1773103.51414611
 30
0.0
  0
VERTEX
  5
379
  8
RIVERS
 10
611919.26933858357
 20
1773140.764248963
 30
0.0
  0
VERTEX
  5
37A
  8
RIVERS
 10
611981.83761243895
 20
1773223.3290406531
 30
0.0
  0
VERTEX
  5
37B
  8
RIVERS
 10
612005.04294709861
 20
1773292.867074484
 30
0.0
  0
VERTEX
  5
37C
  8
RIVERS
 10
611998.70744352415
 20
1773335.0117216599
 30
0.0
  0
VERTEX
  5
37D
  8
RIVERS
 10
612038.78260926716
 20
1773419.301016011
 30
0.0
  0
VERTEX
  5
37E
  8
RIVERS
 10
612091.52050045505
 20
1773461.449889909
 30
0.0
  0
VERTEX
  5
37F
  8
RIVERS
 10
612194.8678848967
 20
1773469.8779740001
 30
0.0
  0
VERTEX
  5
380
  8
RIVERS
 10
612239.13359287393
 20
1773481.590221249
 30
0.0
  0
SEQEND
  5
381
  8
RIVERS
  0
POLYLINE
  5
85
  8
RIVERS
 66
     1
 10
0.0
 20
0.0
 30
0.0
  0
VERTEX
  5
382
  8
RIVERS
 10
610109.45199610665
 20
1770982.5364866911
 30
0.0
  0
VERTEX
  5
383
  8
RIVERS
 10
610138.1563822329
 20
1771075.410253854
 30
0.0
  0
VERTEX
  5
384
  8
RIVERS
 10
610191.47399270174
 20
1771177.8448666621
 30
0.0
  0
VERTEX
  5
385
  8
RIVERS
 10
610251.62400898524
 20
1771220.1839430591
 30
0.0
  0
VERTEX
  5
386
  8
RIVERS
 10
610370.98820899788
 20
1771299.0672597019
 30
0.0
  0
VERTEX
  5
387
  8
RIVERS
 10
610458.21111571603
 20
1771362.290570549
 30
0.0
  0
VERTEX
  5
388
  8
RIVERS
 10
610509.52455381118
 20
1771416.971675805
 30
0.0
  0
VERTEX
  5
389
  8
RIVERS
 10
610542.02196037769
 20
1771463.106348749
 30
0.0
  0
VERTEX
  5
38A
  8
RIVERS
 10
610615.56349205971
 20
1771534.8760919089
 30
0.0
  0
VERTEX
  5
38B
  8
RIVERS
 10
610641.22021110728
 20
1771603.2264167981
 30
0.0
  0
VERTEX
  5
38C
  8
RIVERS
 10
610660.02796093188
 20
1771663.0303093761
 30
0.0
  0
VERTEX
  5
38D
  8
RIVERS
 10
610709.62708629668
 20
1771709.16498232
 30
0.0
  0
VERTEX
  5
38E
  8
RIVERS
 10
610813.95999351516
 20
1771746.757449673
 30
0.0
  0
VERTEX
  5
38F
  8
RIVERS
 10
610884.08118143678
 20
1771760.4308960291
 30
0.0
  0
VERTEX
  5
390
  8
RIVERS
 10
610932.35523415741
 20
1771815.4881795619
 30
0.0
  0
VERTEX
  5
391
  8
RIVERS
 10
610950.23543313332
 20
1771869.061883599
 30
0.0
  0
VERTEX
  5
392
  8
RIVERS
 10
610964.52965426818
 20
1771919.064007367
 30
0.0
  0
VERTEX
  5
393
  8
RIVERS
 10
611059.86863092519
 20
1772053.600575374
 30
0.0
  0
VERTEX
  5
394
  8
RIVERS
 10
611163.21601536497
 20
1772222.62296991
 30
0.0
  0
VERTEX
  5
395
  8
RIVERS
 10
611189.24541109428
 20
1772239.170587369
 30
0.0
  0
VERTEX
  5
396
  8
RIVERS
 10
611260.22789623414
 20
1772253.355467112
 30
0.0
  0
VERTEX
  5
397
  8
RIVERS
 10
611304.00498367287
 20
1772258.080942546
 30
0.0
  0
VERTEX
  5
398
  8
RIVERS
 10
611313.47097136639
 20
1772289.9969219679
 30
0.0
  0
VERTEX
  5
399
  8
RIVERS
 10
611340.67636906554
 20
1772301.814837273
 30
0.0
  0
VERTEX
  5
39A
  8
RIVERS
 10
611402.20114821568
 20
1772294.7223974019
 30
0.0
  0
VERTEX
  5
39B
  8
RIVERS
 10
611465.75494484976
 20
1772305.204668487
 30
0.0
  0
VERTEX
  5
39C
  8
RIVERS
 10
611501.90458288789
 20
1772307.533592426
 30
0.0
  0
VERTEX
  5
39D
  8
RIVERS
 10
611611.51293556765
 20
1772365.7862779519
 30
0.0
  0
VERTEX
  5
39E
  8
RIVERS
 10
611855.23520311515
 20
1772460.152078056
 30
0.0
  0
VERTEX
  5
39F
  8
RIVERS
 10
611882.05964243039
 20
1772462.4852287171
 30
0.0
  0
VERTEX
  5
3A0
  8
RIVERS
 10
611921.70415956527
 20
1772454.3276548481
 30
0.0
  0
VERTEX
  5
3A1
  8
RIVERS
 10
611947.36087861285
 20
1772455.4942301791
 30
0.0
  0
VERTEX
  5
3A2
  8
RIVERS
 10
611994.00343564164
 20
1772490.44499615
 30
0.0
  0
VERTEX
  5
3A3
  8
RIVERS
 10
612007.99951543286
 20
1772493.9404954191
 30
0.0
  0
VERTEX
  5
3A4
  8
RIVERS
 10
612051.13891166262
 20
1772496.2694193581
 30
0.0
  0
VERTEX
  5
3A5
  8
RIVERS
 10
612086.1291111391
 20
1772488.1160722109
 30
0.0
  0
VERTEX
  5
3A6
  8
RIVERS
 10
612176.9379956983
 20
1772433.7392909541
 30
0.0
  0
VERTEX
  5
3A7
  8
RIVERS
 10
612384.79220314336
 20
1772387.591937843
 30
0.0
  0
VERTEX
  5
3A8
  8
RIVERS
 10
612435.93172545359
 20
1772394.185624494
 30
0.0
  0
VERTEX
  5
3A9
  8
RIVERS
 10
612478.82267056406
 20
1772385.9435161811
 30
0.0
  0
VERTEX
  5
3AA
  8
RIVERS
 10
612539.86711088195
 20
1772385.9435161811
 30
0.0
  0
VERTEX
  5
3AB
  8
RIVERS
 10
612577.80559698865
 20
1772438.684555942
 30
0.0
  0
VERTEX
  5
3AC
  8
RIVERS
 10
612650.39473270625
 20
1772446.9266642551
 30
0.0
  0
VERTEX
  5
3AD
  8
RIVERS
 10
612800.35982906632
 20
1772497.1908448001
 30
0.0
  0
VERTEX
  5
3AE
  8
RIVERS
 10
612855.51597782597
 20
1772517.394576973
 30
0.0
  0
VERTEX
  5
3AF
  8
RIVERS
 10
612932.73458608985
 20
1772576.171376053
 30
0.0
  0
VERTEX
  5
3B0
  8
RIVERS
 10
612949.28143071756
 20
1772578.0100002161
 30
0.0
  0
VERTEX
  5
3B1
  8
RIVERS
 10
612975.02096680738
 20
1772557.806268042
 30
0.0
  0
VERTEX
  5
3B2
  8
RIVERS
 10
613000.76050289546
 20
1772544.9485790739
 30
0.0
  0
VERTEX
  5
3B3
  8
RIVERS
 10
613142.32795137912
 20
1772544.9485790739
 30
0.0
  0
VERTEX
  5
3B4
  8
RIVERS
 10
613232.41632768884
 20
1772583.52164598
 30
0.0
  0
VERTEX
  5
3B5
  8
RIVERS
 10
613286.53726344556
 20
1772643.6636763341
 30
0.0
  0
VERTEX
  5
3B6
  8
RIVERS
 10
613302.13999381661
 20
1772770.989456248
 30
0.0
  0
VERTEX
  5
3B7
  8
RIVERS
 10
613333.35373626091
 20
1772822.961232567
 30
0.0
  0
VERTEX
  5
3B8
  8
RIVERS
 10
613426.98668188788
 20
1772895.7200287241
 30
0.0
  0
VERTEX
  5
3B9
  8
RIVERS
 10
613494.61507689964
 20
1772989.265844719
 30
0.0
  0
VERTEX
  5
3BA
  8
RIVERS
 10
613520.61962751672
 20
1773036.0387527179
 30
0.0
  0
VERTEX
  5
3BB
  8
RIVERS
 10
613605.80523504689
 20
1773085.6308844299
 30
0.0
  0
VERTEX
  5
3BC
  8
RIVERS
 10
613630.72488243692
 20
1773122.982428618
 30
0.0
  0
SEQEND
  5
3BD
  8
RIVERS
  0
POLYLINE
  5
86
  8
RIVERS
 66
     1
 10
0.0
 20
0.0
 30
0.0
  0
VERTEX
  5
3BE
  8
RIVERS
 10
609918.06181624904
 20
1771143.6971779109
 30
0.0
  0
VERTEX
  5
3BF
  8
RIVERS
 10
609887.99094896019
 20
1771098.6276389649
 30
0.0
  0
VERTEX
  5
3C0
  8
RIVERS
 10
609867.48544981144
 20
1771056.288562567
 30
0.0
  0
VERTEX
  5
3C1
  8
RIVERS
 10
609863.38600632176
 20
1771034.4364087309
 30
0.0
  0
VERTEX
  5
3C2
  8
RIVERS
 10
609838.77278198116
 20
1771016.679948719
 30
0.0
  0
VERTEX
  5
3C3
  8
RIVERS
 10
609771.79035988275
 20
1771007.119103075
 30
0.0
  0
VERTEX
  5
3C4
  8
RIVERS
 10
609714.37330592435
 20
1770985.266949239
 30
0.0
  0
VERTEX
  5
3C5
  8
RIVERS
 10
609688.40188212506
 20
1770982.5364866911
 30
0.0
  0
VERTEX
  5
3C6
  8
RIVERS
 10
609610.47932901792
 20
1771009.853792347
 30
0.0
  0
VERTEX
  5
3C7
  8
RIVERS
 10
609543.4969069194
 20
1770993.462563609
 30
0.0
  0
VERTEX
  5
3C8
  8
RIVERS
 10
609491.54577761516
 20
1770970.2451784981
 30
0.0
  0
VERTEX
  5
3C9
  8
RIVERS
 10
609447.8018169906
 20
1770962.049564129
 30
0.0
  0
VERTEX
  5
3CA
  8
RIVERS
 10
609404.0578563679
 20
1770962.049564129
 30
0.0
  0
VERTEX
  5
3CB
  8
RIVERS
 10
609384.91883838177
 20
1770938.8321790181
 30
0.0
  0
VERTEX
  5
3CC
  8
RIVERS
 10
609369.87926388532
 20
1770908.7844108141
 30
0.0
  0
VERTEX
  5
3CD
  8
RIVERS
 10
609246.84626899287
 20
1770891.032177523
 30
0.0
  0
VERTEX
  5
3CE
  8
RIVERS
 10
609207.201751858
 20
1770896.4931026211
 30
0.0
  0
VERTEX
  5
3CF
  8
RIVERS
 10
609171.22602960467
 20
1770896.514236232
 30
0.0
  0
SEQEND
  5
3D0
  8
RIVERS
  0
POLYLINE
  5
87
  8
RIVERS
 66
     1
 10
0.0
 20
0.0
 30
0.0
  0
VERTEX
  5
3D1
  8
RIVERS
 10
609012.19246734504
 20
1770440.142358837
 30
0.0
  0
VERTEX
  5
3D2
  8
RIVERS
 10
609084.40892638266
 20
1770462.65810806
 30
0.0
  0
VERTEX
  5
3D3
  8
RIVERS
 10
609141.63550114818
 20
1770459.3570380129
 30
0.0
  0
VERTEX
  5
3D4
  8
RIVERS
 10
609199.97182425123
 20
1770461.5591602849
 30
0.0
  0
VERTEX
  5
3D5
  8
RIVERS
 10
609245.0988294445
 20
1770489.0455348289
 30
0.0
  0
VERTEX
  5
3D6
  8
RIVERS
 10
609262.70573218726
 20
1770485.7486915051
 30
0.0
  0
VERTEX
  5
3D7
  8
RIVERS
 10
609280.31263493001
 20
1770476.9528825809
 30
0.0
  0
VERTEX
  5
3D8
  8
RIVERS
 10
609319.93230695277
 20
1770489.0455348289
 30
0.0
  0
VERTEX
  5
3D9
  8
RIVERS
 10
609337.54749139957
 20
1770491.2434303809
 30
0.0
  0
VERTEX
  5
3DA
  8
RIVERS
 10
609349.65534267388
 20
1770485.7486915051
 30
0.0
  0
VERTEX
  5
3DB
  8
RIVERS
 10
609393.74713486619
 20
1770473.8504684779
 30
0.0
  0
VERTEX
  5
3DC
  8
RIVERS
 10
609439.18884481303
 20
1770498.6148339179
 30
0.0
  0
VERTEX
  5
3DD
  8
RIVERS
 10
609483.24751018919
 20
1770516.4980955969
 30
0.0
  0
VERTEX
  5
3DE
  8
RIVERS
 10
609534.19655330852
 20
1770515.1201841561
 30
0.0
  0
VERTEX
  5
3DF
  8
RIVERS
 10
609596.16026277095
 20
1770506.8696223979
 30
0.0
  0
VERTEX
  5
3E0
  8
RIVERS
 10
609618.18959545915
 20
1770513.7464994369
 30
0.0
  0
VERTEX
  5
3E1
  8
RIVERS
 10
609660.88177967258
 20
1770564.6446883141
 30
0.0
  0
VERTEX
  5
3E2
  8
RIVERS
 10
609726.97805944085
 20
1770619.6723847911
 30
0.0
  0
VERTEX
  5
3E3
  8
RIVERS
 10
609791.69129463844
 20
1770641.6851540711
 30
0.0
  0
VERTEX
  5
3E4
  8
RIVERS
 10
609812.34586445801
 20
1770670.574800391
 30
0.0
  0
VERTEX
  5
3E5
  8
RIVERS
 10
609846.77290806174
 20
1770726.976181587
 30
0.0
  0
VERTEX
  5
3E6
  8
RIVERS
 10
609926.63337990828
 20
1770780.6301933459
 30
0.0
  0
VERTEX
  5
3E7
  8
RIVERS
 10
609968.64646439254
 20
1770799.523641634
 30
0.0
  0
VERTEX
  5
3E8
  8
RIVERS
 10
610001.45029400662
 20
1770870.5452549621
 30
0.0
  0
VERTEX
  5
3E9
  8
RIVERS
 10
610024.69703718647
 20
1770915.6147939081
 30
0.0
  0
VERTEX
  5
3EA
  8
RIVERS
 10
610058.86734796502
 20
1770932.001795924
 30
0.0
  0
VERTEX
  5
3EB
  8
RIVERS
 10
610098.51186509989
 20
1770940.1974102929
 30
0.0
  0
VERTEX
  5
3EC
  8
RIVERS
 10
610109.45199610665
 20
1770959.31910158
 30
0.0
  0
VERTEX
  5
3ED
  8
RIVERS
 10
610109.45199610665
 20
1770982.5364866911
 30
0.0
  0
SEQEND
  5
3EE
  8
RIVERS
  0
POLYLINE
  5
88
  8
RIVERS
 66
     1
 10
0.0
 20
0.0
 30
0.0
  0
VERTEX
  5
3EF
  8
RIVERS
 10
609171.22602960467
 20
1770896.514236232
 30
0.0
  0
VERTEX
  5
3F0
  8
RIVERS
 10
609158.67096631229
 20
1770855.12194561
 30
0.0
  0
VERTEX
  5
3F1
  8
RIVERS
 10
609153.69366219826
 20
1770809.118301054
 30
0.0
  0
VERTEX
  5
3F2
  8
RIVERS
 10
609079.02581877075
 20
1770760.6293438389
 30
0.0
  0
VERTEX
  5
3F3
  8
RIVERS
 10
609021.77439889312
 20
1770712.1403866231
 30
0.0
  0
VERTEX
  5
3F4
  8
RIVERS
 10
609010.57753506105
 20
1770657.4339210331
 30
0.0
  0
VERTEX
  5
3F5
  8
RIVERS
 10
609025.50944740698
 20
1770586.5644697051
 30
0.0
  0
VERTEX
  5
3F6
  8
RIVERS
 10
609021.67501844652
 20
1770541.8246150911
 30
0.0
  0
VERTEX
  5
3F7
  8
RIVERS
 10
608997.45931589603
 20
1770509.938222724
 30
0.0
  0
VERTEX
  5
3F8
  8
RIVERS
 10
608994.16319769807
 20
1770474.7507603089
 30
0.0
  0
VERTEX
  5
3F9
  8
RIVERS
 10
609005.1613006331
 20
1770452.7591246399
 30
0.0
  0
VERTEX
  5
3FA
  8
RIVERS
 10
609012.19246734504
 20
1770440.142358837
 30
0.0
  0
SEQEND
  5
3FB
  8
RIVERS
  0
POLYLINE
  5
89
  8
RIVERS
 66
     1
 10
0.0
 20
0.0
 30
0.0
  0
VERTEX
  5
3FC
  8
RIVERS
 10
608589.41147722304
 20
1771644.7835495861
 30
0.0
  0
VERTEX
  5
3FD
  8
RIVERS
 10
608651.15158067655
 20
1771630.7254715089
 30
0.0
  0
VERTEX
  5
3FE
  8
RIVERS
 10
608690.42342113145
 20
1771583.466490458
 30
0.0
  0
VERTEX
  5
3FF
  8
RIVERS
 10
608725.52956446446
 20
1771476.61917966
 30
0.0
  0
VERTEX
  5
400
  8
RIVERS
 10
608740.67680111353
 20
1771394.629222193
 30
0.0
  0
VERTEX
  5
401
  8
RIVERS
 10
608781.08323501609
 20
1771347.957755527
 30
0.0
  0
VERTEX
  5
402
  8
RIVERS
 10
608805.0670498535
 20
1771298.7629357029
 30
0.0
  0
VERTEX
  5
403
  8
RIVERS
 10
608846.14430178329
 20
1771246.271272552
 30
0.0
  0
VERTEX
  5
404
  8
RIVERS
 10
608896.15751234815
 20
1771221.287117556
 30
0.0
  0
VERTEX
  5
405
  8
RIVERS
 10
608940.8124604132
 20
1771160.616746926
 30
0.0
  0
VERTEX
  5
406
  8
RIVERS
 10
609047.97771040723
 20
1771116.0036939781
 30
0.0
  0
VERTEX
  5
407
  8
RIVERS
 10
609074.7690229062
 20
1771089.235862209
 30
0.0
  0
VERTEX
  5
408
  8
RIVERS
 10
609097.99092097208
 20
1771067.823287484
 30
0.0
  0
VERTEX
  5
409
  8
RIVERS
 10
609140.85702097043
 20
1771048.1943895309
 30
0.0
  0
VERTEX
  5
40A
  8
RIVERS
 10
609149.7929796055
 20
1771028.565491579
 30
0.0
  0
VERTEX
  5
40B
  8
RIVERS
 10
609160.50950460508
 20
1770994.662952716
 30
0.0
  0
VERTEX
  5
40C
  8
RIVERS
 10
609158.72065653652
 20
1770932.2046785899
 30
0.0
  0
VERTEX
  5
40D
  8
RIVERS
 10
609171.22602960467
 20
1770896.514236232
 30
0.0
  0
SEQEND
  5
40E
  8
RIVERS
  0
POLYLINE
  5
8A
  8
RIVERS
 66
     1
 10
0.0
 20
0.0
 30
0.0
  0
VERTEX
  5
40F
  8
RIVERS
 10
608268.14761495416
 20
1772414.9346038329
 30
0.0
  0
VERTEX
  5
410
  8
RIVERS
 10
608293.16664279252
 20
1772366.4921405611
 30
0.0
  0
VERTEX
  5
411
  8
RIVERS
 10
608299.66778044589
 20
1772282.0718178209
 30
0.0
  0
VERTEX
  5
412
  8
RIVERS
 10
608303.72581541538
 20
1772222.001641745
 30
0.0
  0
VERTEX
  5
413
  8
RIVERS
 10
608302.91420842148
 20
1772183.0397163939
 30
0.0
  0
VERTEX
  5
414
  8
RIVERS
 10
608303.35313873366
 20
1772105.576578415
 30
0.0
  0
VERTEX
  5
415
  8
RIVERS
 10
608298.82304663595
 20
1771995.9480844019
 30
0.0
  0
VERTEX
  5
416
  8
RIVERS
 10
608316.02414588258
 20
1771919.0513271999
 30
0.0
  0
VERTEX
  5
417
  8
RIVERS
 10
608355.72663494572
 20
1771799.253339546
 30
0.0
  0
VERTEX
  5
418
  8
RIVERS
 10
608374.46813113801
 20
1771710.082181039
 30
0.0
  0
VERTEX
  5
419
  8
RIVERS
 10
608399.46231386438
 20
1771657.472169667
 30
0.0
  0
VERTEX
  5
41A
  8
RIVERS
 10
608436.05088221654
 20
1771640.531467041
 30
0.0
  0
VERTEX
  5
41B
  8
RIVERS
 10
608458.3700745441
 20
1771641.4233054279
 30
0.0
  0
VERTEX
  5
41C
  8
RIVERS
 10
608480.68098516949
 20
1771650.3416892949
 30
0.0
  0
VERTEX
  5
41D
  8
RIVERS
 10
608518.16397755605
 20
1771643.2069822019
 30
0.0
  0
VERTEX
  5
41E
  8
RIVERS
 10
608550.29698914476
 20
1771635.1804367211
 30
0.0
  0
VERTEX
  5
41F
  8
RIVERS
 10
608589.41147722304
 20
1771644.7835495861
 30
0.0
  0
SEQEND
  5
420
  8
RIVERS
  0
POLYLINE
  5
8B
  8
RIVERS
 66
     1
 10
0.0
 20
0.0
 30
0.0
  0
VERTEX
  5
421
  8
RIVERS
 10
608274.11872355093
 20
1772689.4982520009
 30
0.0
  0
VERTEX
  5
422
  8
RIVERS
 10
608342.31855613925
 20
1772652.12134748
 30
0.0
  0
VERTEX
  5
423
  8
RIVERS
 10
608368.79516388476
 20
1772545.307850461
 30
0.0
  0
VERTEX
  5
424
  8
RIVERS
 10
608428.6304754169
 20
1772489.4559431521
 30
0.0
  0
VERTEX
  5
425
  8
RIVERS
 10
608432.54772141576
 20
1772413.0241253921
 30
0.0
  0
VERTEX
  5
426
  8
RIVERS
 10
608436.47324912075
 20
1772379.7048741961
 30
0.0
  0
VERTEX
  5
427
  8
RIVERS
 10
608440.39877682552
 20
1772296.413086287
 30
0.0
  0
VERTEX
  5
428
  8
RIVERS
 10
608457.06984701368
 20
1772267.016233302
 30
0.0
  0
VERTEX
  5
429
  8
RIVERS
 10
608493.36027402058
 20
1772263.0980618109
 30
0.0
  0
VERTEX
  5
42A
  8
RIVERS
 10
608527.68793717586
 20
1772261.136862705
 30
0.0
  0
VERTEX
  5
42B
  8
RIVERS
 10
608558.29711522721
 20
1772228.519247395
 30
0.0
  0
VERTEX
  5
42C
  8
RIVERS
 10
608560.11080840603
 20
1772203.7633353991
 30
0.0
  0
VERTEX
  5
42D
  8
RIVERS
 10
608546.20582736097
 20
1772163.309377108
 30
0.0
  0
VERTEX
  5
42E
  8
RIVERS
 10
608506.92570520192
 20
1772122.250997541
 30
0.0
  0
VERTEX
  5
42F
  8
RIVERS
 10
608485.64172587544
 20
1772051.9859674899
 30
0.0
  0
VERTEX
  5
430
  8
RIVERS
 10
608501.47634395957
 20
1772015.4713143001
 30
0.0
  0
VERTEX
  5
431
  8
RIVERS
 10
608529.50163035654
 20
1771991.1296210811
 30
0.0
  0
VERTEX
  5
432
  8
RIVERS
 10
608545.33624843881
 20
1771953.3976718951
 30
0.0
  0
VERTEX
  5
433
  8
RIVERS
 10
608538.02350378968
 20
1771909.5792427231
 30
0.0
  0
VERTEX
  5
434
  8
RIVERS
 10
608535.58868280984
 20
1771874.2861122531
 30
0.0
  0
VERTEX
  5
435
  8
RIVERS
 10
608534.54518810275
 20
1771758.9895837549
 30
0.0
  0
VERTEX
  5
436
  8
RIVERS
 10
608563.50630705443
 20
1771707.2164633791
 30
0.0
  0
VERTEX
  5
437
  8
RIVERS
 10
608589.41147722304
 20
1771644.7835495861
 30
0.0
  0
SEQEND
  5
438
  8
RIVERS
  0
POLYLINE
  5
8C
  8
RIVERS
 66
     1
 10
0.0
 20
0.0
 30
0.0
  0
VERTEX
  5
439
  8
RIVERS
 10
608268.14761495416
 20
1772414.9346038329
 30
0.0
  0
VERTEX
  5
43A
  8
RIVERS
 10
608280.09811385162
 20
1772496.5061158021
 30
0.0
  0
VERTEX
  5
43B
  8
RIVERS
 10
608252.21361642331
 20
1772556.195886879
 30
0.0
  0
VERTEX
  5
43C
  8
RIVERS
 10
608240.26311752573
 20
1772593.9954636211
 30
0.0
  0
VERTEX
  5
43D
  8
RIVERS
 10
608252.21361642331
 20
1772641.7447444501
 30
0.0
  0
VERTEX
  5
43E
  8
RIVERS
 10
608274.11872355093
 20
1772689.4982520009
 30
0.0
  0
SEQEND
  5
43F
  8
RIVERS
  0
POLYLINE
  5
8D
  8
RIVERS
 66
     1
 10
0.0
 20
0.0
 30
0.0
  0
VERTEX
  5
440
  8
RIVERS
 10
608217.28967057925
 20
1771219.131489228
 30
0.0
  0
VERTEX
  5
441
  8
RIVERS
 10
608165.18947060045
 20
1771311.248673117
 30
0.0
  0
VERTEX
  5
442
  8
RIVERS
 10
608146.43969270401
 20
1771391.5310348109
 30
0.0
  0
VERTEX
  5
443
  8
RIVERS
 10
608145.15602858178
 20
1771474.603033165
 30
0.0
  0
VERTEX
  5
444
  8
RIVERS
 10
608196.90011528705
 20
1771547.1758535451
 30
0.0
  0
VERTEX
  5
445
  8
RIVERS
 10
608242.68137509748
 20
1771614.778048604
 30
0.0
  0
VERTEX
  5
446
  8
RIVERS
 10
608247.65039750945
 20
1771658.5203967751
 30
0.0
  0
VERTEX
  5
447
  8
RIVERS
 10
608227.74946275365
 20
1771715.188061472
 30
0.0
  0
VERTEX
  5
448
  8
RIVERS
 10
608167.05285400525
 20
1771775.833071769
 30
0.0
  0
VERTEX
  5
449
  8
RIVERS
 10
608138.70458115079
 20
1771826.0169445919
 30
0.0
  0
VERTEX
  5
44A
  8
RIVERS
 10
608116.79947402328
 20
1771907.5926832841
 30
0.0
  0
VERTEX
  5
44B
  8
RIVERS
 10
608088.91497659497
 20
1771945.392260025
 30
0.0
  0
VERTEX
  5
44C
  8
RIVERS
 10
608059.04287020117
 20
1771977.227931726
 30
0.0
  0
VERTEX
  5
44D
  8
RIVERS
 10
608035.15015411004
 20
1772062.776789296
 30
0.0
  0
VERTEX
  5
44E
  8
RIVERS
 10
608035.15015411004
 20
1772152.3072191901
 30
0.0
  0
VERTEX
  5
44F
  8
RIVERS
 10
608112.81597439013
 20
1772219.955908194
 30
0.0
  0
VERTEX
  5
450
  8
RIVERS
 10
608170.56429650832
 20
1772263.727843421
 30
0.0
  0
VERTEX
  5
451
  8
RIVERS
 10
608190.48179467209
 20
1772339.3312236259
 30
0.0
  0
VERTEX
  5
452
  8
RIVERS
 10
608224.33740069903
 20
1772375.144240929
 30
0.0
  0
VERTEX
  5
453
  8
RIVERS
 10
608268.14761495416
 20
1772414.9346038329
 30
0.0
  0
SEQEND
  5
454
  8
RIVERS
  0
POLYLINE
  5
8E
  8
RIVERS
 66
     1
 10
0.0
 20
0.0
 30
0.0
  0
VERTEX
  5
455
  8
RIVERS
 10
608217.28967057925
 20
1771219.131489228
 30
0.0
  0
VERTEX
  5
456
  8
RIVERS
 10
608218.13440438919
 20
1771186.8604651401
 30
0.0
  0
VERTEX
  5
457
  8
RIVERS
 10
608199.16102048394
 20
1771134.6350854889
 30
0.0
  0
VERTEX
  5
458
  8
RIVERS
 10
608181.12346913107
 20
1771114.3003249271
 30
0.0
  0
VERTEX
  5
459
  8
RIVERS
 10
608174.18340116553
 20
1771088.8808175439
 30
0.0
  0
VERTEX
  5
45A
  8
RIVERS
 10
608185.74465997342
 20
1771075.4778814099
 30
0.0
  0
VERTEX
  5
45B
  8
RIVERS
 10
608203.6828308776
 20
1771050.366924749
 30
0.0
  0
VERTEX
  5
45C
  8
RIVERS
 10
608226.42439011112
 20
1771032.8936551239
 30
0.0
  0
VERTEX
  5
45D
  8
RIVERS
 10
608236.32930811692
 20
1771017.1702484949
 30
0.0
  0
VERTEX
  5
45E
  8
RIVERS
 10
608242.15962774493
 20
1770990.3770563931
 30
0.0
  0
VERTEX
  5
45F
  8
RIVERS
 10
608237.57984542288
 20
1770897.2200988419
 30
0.0
  0
VERTEX
  5
460
  8
RIVERS
 10
608232.76817538776
 20
1770868.964460854
 30
0.0
  0
VERTEX
  5
461
  8
RIVERS
 10
608243.68346128426
 20
1770846.5755132979
 30
0.0
  0
VERTEX
  5
462
  8
RIVERS
 10
608257.47249847464
 20
1770840.2607903129
 30
0.0
  0
VERTEX
  5
463
  8
RIVERS
 10
608292.52066987939
 20
1770836.8160117101
 30
0.0
  0
VERTEX
  5
464
  8
RIVERS
 10
608339.6435657423
 20
1770845.4258448561
 30
0.0
  0
VERTEX
  5
465
  8
RIVERS
 10
608390.77480634861
 20
1770854.6105122219
 30
0.0
  0
VERTEX
  5
466
  8
RIVERS
 10
608421.23491372727
 20
1770855.760180664
 30
0.0
  0
VERTEX
  5
467
  8
RIVERS
 10
608456.28308513213
 20
1770840.2607903129
 30
0.0
  0
VERTEX
  5
468
  8
RIVERS
 10
608478.69337620586
 20
1770821.316621358
 30
0.0
  0
VERTEX
  5
469
  8
RIVERS
 10
608501.67510485463
 20
1770780.5583390689
 30
0.0
  0
VERTEX
  5
46A
  8
RIVERS
 10
608511.91129102185
 20
1770709.718474796
 30
0.0
  0
VERTEX
  5
46B
  8
RIVERS
 10
608498.08912701532
 20
1770656.935167813
 30
0.0
  0
VERTEX
  5
46C
  8
RIVERS
 10
608509.00441291195
 20
1770605.6565739361
 30
0.0
  0
VERTEX
  5
46D
  8
RIVERS
 10
608542.42108862475
 20
1770581.8897149391
 30
0.0
  0
VERTEX
  5
46E
  8
RIVERS
 10
608577.53551366006
 20
1770575.6679798421
 30
0.0
  0
VERTEX
  5
46F
  8
RIVERS
 10
608611.51534524746
 20
1770572.269695184
 30
0.0
  0
VERTEX
  5
470
  8
RIVERS
 10
608638.13274196174
 20
1770584.155238044
 30
0.0
  0
VERTEX
  5
471
  8
RIVERS
 10
608653.4290492814
 20
1770579.628418555
 30
0.0
  0
VERTEX
  5
472
  8
RIVERS
 10
608669.59493552521
 20
1770571.935784129
 30
0.0
  0
VERTEX
  5
473
  8
RIVERS
 10
608694.85413278081
 20
1770575.6510729541
 30
0.0
  0
VERTEX
  5
474
  8
RIVERS
 10
608714.88757480122
 20
1770578.1871062799
 30
0.0
  0
SEQEND
  5
475
  8
RIVERS
  0
POLYLINE
  5
8F
  8
RIVERS
 66
     1
 10
0.0
 20
0.0
 30
0.0
  0
VERTEX
  5
476
  8
RIVERS
 10
608714.88757480122
 20
1770578.1871062799
 30
0.0
  0
VERTEX
  5
477
  8
RIVERS
 10
608747.65827759914
 20
1770630.9239193201
 30
0.0
  0
VERTEX
  5
478
  8
RIVERS
 10
608762.48252779245
 20
1770678.06455215
 30
0.0
  0
VERTEX
  5
479
  8
RIVERS
 10
608750.34983140614
 20
1770717.1194653879
 30
0.0
  0
VERTEX
  5
47A
  8
RIVERS
 10
608728.78427414235
 20
1770744.056366046
 30
0.0
  0
VERTEX
  5
47B
  8
RIVERS
 10
608715.30166000116
 20
1770773.685688752
 30
0.0
  0
VERTEX
  5
47C
  8
RIVERS
 10
608707.21043517615
 20
1770815.437250762
 30
0.0
  0
VERTEX
  5
47D
  8
RIVERS
 10
608686.99479566701
 20
1770830.2519121149
 30
0.0
  0
VERTEX
  5
47E
  8
RIVERS
 10
608651.94662426226
 20
1770841.025827033
 30
0.0
  0
VERTEX
  5
47F
  8
RIVERS
 10
608641.1555639283
 20
1770863.9219812551
 30
0.0
  0
VERTEX
  5
480
  8
RIVERS
 10
608638.4640101213
 20
1770893.5513039611
 30
0.0
  0
VERTEX
  5
481
  8
RIVERS
 10
608651.94662426226
 20
1770967.624610726
 30
0.0
  0
VERTEX
  5
482
  8
RIVERS
 10
608645.20531719166
 20
1771010.7202703999
 30
0.0
  0
VERTEX
  5
483
  8
RIVERS
 10
608633.51155111939
 20
1771031.9384159041
 30
0.0
  0
VERTEX
  5
484
  8
RIVERS
 10
608594.70348609064
 20
1771042.6362498221
 30
0.0
  0
VERTEX
  5
485
  8
RIVERS
 10
608577.30362594884
 20
1771054.6697279599
 30
0.0
  0
VERTEX
  5
486
  8
RIVERS
 10
608562.57875620387
 20
1771089.4345181531
 30
0.0
  0
VERTEX
  5
487
  8
RIVERS
 10
608547.86216816492
 20
1771109.4903150499
 30
0.0
  0
VERTEX
  5
488
  8
RIVERS
 10
608523.77069117501
 20
1771129.546111946
 30
0.0
  0
VERTEX
  5
489
  8
RIVERS
 10
608424.72979282402
 20
1771152.2774240021
 30
0.0
  0
VERTEX
  5
48A
  8
RIVERS
 10
608323.02218577825
 20
1771168.322061518
 30
0.0
  0
VERTEX
  5
48B
  8
RIVERS
 10
608282.86420299299
 20
1771183.031054816
 30
0.0
  0
VERTEX
  5
48C
  8
RIVERS
 10
608217.28967057925
 20
1771219.131489228
 30
0.0
  0
SEQEND
  5
48D
  8
RIVERS
  0
POLYLINE
  5
90
  8
RIVERS
 66
     1
 10
0.0
 20
0.0
 30
0.0
  0
VERTEX
  5
48E
  8
RIVERS
 10
608780.63602299988
 20
1770422.0562144921
 30
0.0
  0
VERTEX
  5
48F
  8
RIVERS
 10
608828.28066621535
 20
1770436.334082125
 30
0.0
  0
VERTEX
  5
490
  8
RIVERS
 10
608872.11572558433
 20
1770432.5258054109
 30
0.0
  0
VERTEX
  5
491
  8
RIVERS
 10
608893.08500015736
 20
1770424.9092519849
 30
0.0
  0
VERTEX
  5
492
  8
RIVERS
 10
608904.51375170238
 20
1770398.255541716
 30
0.0
  0
VERTEX
  5
493
  8
RIVERS
 10
608919.76036879979
 20
1770388.7327365719
 30
0.0
  0
VERTEX
  5
494
  8
RIVERS
 10
608945.49162318371
 20
1770383.022434864
 30
0.0
  0
VERTEX
  5
495
  8
RIVERS
 10
608971.22287756775
 20
1770396.3492899991
 30
0.0
  0
VERTEX
  5
496
  8
RIVERS
 10
609012.19246734504
 20
1770440.142358837
 30
0.0
  0
SEQEND
  5
497
  8
RIVERS
  0
POLYLINE
  5
91
  8
RIVERS
 66
     1
 10
0.0
 20
0.0
 30
0.0
  0
VERTEX
  5
498
  8
RIVERS
 10
608780.63602299988
 20
1770422.0562144921
 30
0.0
  0
VERTEX
  5
499
  8
RIVERS
 10
608767.29419782758
 20
1770467.751308325
 30
0.0
  0
VERTEX
  5
49A
  8
RIVERS
 10
608743.46773536701
 20
1770484.8906668951
 30
0.0
  0
VERTEX
  5
49B
  8
RIVERS
 10
608727.26872230705
 20
1770508.6913396721
 30
0.0
  0
VERTEX
  5
49C
  8
RIVERS
 10
608714.88757480122
 20
1770578.1871062799
 30
0.0
  0
SEQEND
  5
49D
  8
RIVERS
  0
POLYLINE
  5
92
  8
RIVERS
 66
     1
 10
0.0
 20
0.0
 30
0.0
  0
VERTEX
  5
49E
  8
RIVERS
 10
608649.83478973806
 20
1769955.3542280111
 30
0.0
  0
VERTEX
  5
49F
  8
RIVERS
 10
608650.1246493794
 20
1769977.624827347
 30
0.0
  0
VERTEX
  5
4A0
  8
RIVERS
 10
608668.07938368991
 20
1770034.005074932
 30
0.0
  0
VERTEX
  5
4A1
  8
RIVERS
 10
608681.76075872779
 20
1770075.8623049981
 30
0.0
  0
VERTEX
  5
4A2
  8
RIVERS
 10
608673.20575847663
 20
1770123.7003469919
 30
0.0
  0
VERTEX
  5
4A3
  8
RIVERS
 10
608691.16877449304
 20
1770172.387960152
 30
0.0
  0
VERTEX
  5
4A4
  8
RIVERS
 10
608715.10289910436
 20
1770180.9301657421
 30
0.0
  0
VERTEX
  5
4A5
  8
RIVERS
 10
608770.68141476996
 20
1770187.7647755591
 30
0.0
  0
VERTEX
  5
4A6
  8
RIVERS
 10
608794.62382108707
 20
1770202.2877930801
 30
0.0
  0
VERTEX
  5
4A7
  8
RIVERS
 10
608795.47683659941
 20
1770232.1876260079
 30
0.0
  0
VERTEX
  5
4A8
  8
RIVERS
 10
608782.54081492324
 20
1770287.81551704
 30
0.0
  0
VERTEX
  5
4A9
  8
RIVERS
 10
608762.53221801668
 20
1770311.6204165381
 30
0.0
  0
VERTEX
  5
4AA
  8
RIVERS
 10
608745.38080899417
 20
1770340.180378523
 30
0.0
  0
VERTEX
  5
4AB
  8
RIVERS
 10
608753.95237265341
 20
1770366.8383155151
 30
0.0
  0
VERTEX
  5
4AC
  8
RIVERS
 10
608780.63602299988
 20
1770422.0562144921
 30
0.0
  0
SEQEND
  5
4AD
  8
RIVERS
  0
POLYLINE
  5
93
  8
RIVERS
 66
     1
 10
0.0
 20
0.0
 30
0.0
  0
VERTEX
  5
4AE
  8
RIVERS
 10
608649.83478973806
 20
1769955.3542280111
 30
0.0
  0
VERTEX
  5
4AF
  8
RIVERS
 10
608683.06926796224
 20
1769945.5651393679
 30
0.0
  0
VERTEX
  5
4B0
  8
RIVERS
 10
608731.30191216432
 20
1769925.7756259721
 30
0.0
  0
VERTEX
  5
4B1
  8
RIVERS
 10
608757.14082870085
 20
1769909.426664456
 30
0.0
  0
VERTEX
  5
4B2
  8
RIVERS
 10
608796.75221901946
 20
1769907.706388515
 30
0.0
  0
VERTEX
  5
4B3
  8
RIVERS
 10
608843.26226878539
 20
1769927.495901912
 30
0.0
  0
VERTEX
  5
4B4
  8
RIVERS
 10
608878.5754547175
 20
1769955.0287704009
 30
0.0
  0
VERTEX
  5
4B5
  8
RIVERS
 10
608975.89375863411
 20
1769980.845589672
 30
0.0
  0
VERTEX
  5
4B6
  8
RIVERS
 10
609035.31498496421
 20
1770029.8882474969
 30
0.0
  0
VERTEX
  5
4B7
  8
RIVERS
 10
609118.39703967224
 20
1770111.214609578
 30
0.0
  0
VERTEX
  5
4B8
  8
RIVERS
 10
609136.84867622517
 20
1770165.4307753909
 30
0.0
  0
VERTEX
  5
4B9
  8
RIVERS
 10
609169.41233642399
 20
1770189.2863955561
 30
0.0
  0
VERTEX
  5
4BA
  8
RIVERS
 10
609324.43755393836
 20
1770216.9967863769
 30
0.0
  0
SEQEND
  5
4BB
  8
RIVERS
  0
POLYLINE
  5
94
  8
RIVERS
 66
     1
 10
0.0
 20
0.0
 30
0.0
  0
VERTEX
  5
4BC
  8
RIVERS
 10
608529.26146093942
 20
1769875.215574872
 30
0.0
  0
VERTEX
  5
4BD
  8
RIVERS
 10
608554.33017900214
 20
1769878.520871642
 30
0.0
  0
VERTEX
  5
4BE
  8
RIVERS
 10
608589.16302610189
 20
1769864.8770123411
 30
0.0
  0
VERTEX
  5
4BF
  8
RIVERS
 10
608613.06402389891
 20
1769850.8865618201
 30
0.0
  0
VERTEX
  5
4C0
  8
RIVERS
 10
608639.50750482827
 20
1769848.0631113821
 30
0.0
  0
VERTEX
  5
4C1
  8
RIVERS
 10
608651.89693403989
 20
1769865.257417341
 30
0.0
  0
VERTEX
  5
4C2
  8
RIVERS
 10
608653.9673600439
 20
1769893.4538812169
 30
0.0
  0
VERTEX
  5
4C3
  8
RIVERS
 10
608649.83478973806
 20
1769955.3542280111
 30
0.0
  0
SEQEND
  5
4C4
  8
RIVERS
  0
POLYLINE
  5
95
  8
RIVERS
 66
     1
 10
0.0
 20
0.0
 30
0.0
  0
VERTEX
  5
4C5
  8
RIVERS
 10
608529.26146093942
 20
1769875.215574872
 30
0.0
  0
VERTEX
  5
4C6
  8
RIVERS
 10
608476.92937324941
 20
1769903.3317310261
 30
0.0
  0
VERTEX
  5
4C7
  8
RIVERS
 10
608449.22707330808
 20
1769945.0663861469
 30
0.0
  0
VERTEX
  5
4C8
  8
RIVERS
 10
608443.94334614463
 20
1769985.4823039391
 30
0.0
  0
VERTEX
  5
4C9
  8
RIVERS
 10
608442.3781040851
 20
1770033.9459008209
 30
0.0
  0
VERTEX
  5
4CA
  8
RIVERS
 10
608512.37506644614
 20
1770182.4982796831
 30
0.0
  0
SEQEND
  5
4CB
  8
RIVERS
  0
POLYLINE
  5
96
  8
RIVERS
 66
     1
 10
0.0
 20
0.0
 30
0.0
  0
VERTEX
  5
4CC
  8
RIVERS
 10
607941.53377188928
 20
1769057.1968915749
 30
0.0
  0
VERTEX
  5
4CD
  8
RIVERS
 10
607921.8730065506
 20
1769160.6163306581
 30
0.0
  0
VERTEX
  5
4CE
  8
RIVERS
 10
607923.1732340809
 20
1769211.159474869
 30
0.0
  0
VERTEX
  5
4CF
  8
RIVERS
 10
607950.42004030012
 20
1769224.1186051711
 30
0.0
  0
VERTEX
  5
4D0
  8
RIVERS
 10
608072.36813196726
 20
1769238.3711124689
 30
0.0
  0
VERTEX
  5
4D1
  8
RIVERS
 10
608148.9159222059
 20
1769261.698392357
 30
0.0
  0
VERTEX
  5
4D2
  8
RIVERS
 10
608194.32450533658
 20
1769316.1301210041
 30
0.0
  0
VERTEX
  5
4D3
  8
RIVERS
 10
608226.75565827079
 20
1769373.1486036431
 30
0.0
  0
VERTEX
  5
4D4
  8
RIVERS
 10
608220.2710840255
 20
1769424.9851248511
 30
0.0
  0
VERTEX
  5
4D5
  8
RIVERS
 10
608180.50234133005
 20
1769490.845910358
 30
0.0
  0
VERTEX
  5
4D6
  8
RIVERS
 10
608178.69692985527
 20
1769535.1208255291
 30
0.0
  0
VERTEX
  5
4D7
  8
RIVERS
 10
608208.54419113509
 20
1769584.8186252969
 30
0.0
  0
VERTEX
  5
4D8
  8
RIVERS
 10
608281.82070828788
 20
1769659.8175842271
 30
0.0
  0
VERTEX
  5
4D9
  8
RIVERS
 10
608334.28530324262
 20
1769683.3139330039
 30
0.0
  0
VERTEX
  5
4DA
  8
RIVERS
 10
608389.0936204344
 20
1769754.3735868309
 30
0.0
  0
VERTEX
  5
4DB
  8
RIVERS
 10
608432.60569334403
 20
1769768.4358916311
 30
0.0
  0
VERTEX
  5
4DC
  8
RIVERS
 10
608500.44113095663
 20
1769781.2174996
 30
0.0
  0
VERTEX
  5
4DD
  8
RIVERS
 10
608520.91350328934
 20
1769802.9513052129
 30
0.0
  0
VERTEX
  5
4DE
  8
RIVERS
 10
608524.75621395383
 20
1769868.148495333
 30
0.0
  0
VERTEX
  5
4DF
  8
RIVERS
 10
608529.26146093942
 20
1769875.215574872
 30
0.0
  0
SEQEND
  5
4E0
  8
RIVERS
  0
POLYLINE
  5
97
  8
RIVERS
 66
     1
 10
0.0
 20
0.0
 30
0.0
  0
VERTEX
  5
4E1
  8
RIVERS
 10
605570.0
 20
1766980.0
 30
0.0
  0
VERTEX
  5
4E2
  8
RIVERS
 10
605521.21405431256
 20
1766957.3528432159
 30
0.0
  0
VERTEX
  5
4E3
  8
RIVERS
 10
605432.83170903288
 20
1766961.8078084269
 30
0.0
  0
VERTEX
  5
4E4
  8
RIVERS
 10
605331.06613005896
 20
1767003.7199858821
 30
0.0
  0
VERTEX
  5
4E5
  8
RIVERS
 10
605255.18915784359
 20
1767057.221835641
 30
0.0
  0
VERTEX
  5
4E6
  8
RIVERS
 10
605174.84834716469
 20
1767133.907256732
 30
0.0
  0
VERTEX
  5
4E7
  8
RIVERS
 10
605106.20130256005
 20
1767200.5034919039
 30
0.0
  0
VERTEX
  5
4E8
  8
RIVERS
 10
605019.06121288065
 20
1767257.2725979339
 30
0.0
  0
VERTEX
  5
4E9
  8
RIVERS
 10
604959.15135711199
 20
1767296.302038538
 30
0.0
  0
VERTEX
  5
4EA
  8
RIVERS
 10
604873.82496951707
 20
1767293.8548786789
 30
0.0
  0
VERTEX
  5
4EB
  8
RIVERS
 10
604752.58910439524
 20
1767278.7147597161
 30
0.0
  0
VERTEX
  5
4EC
  8
RIVERS
 10
604676.81151263055
 20
1767269.885137015
 30
0.0
  0
VERTEX
  5
4ED
  8
RIVERS
 10
604628.8273195494
 20
1767271.1489269561
 30
0.0
  0
VERTEX
  5
4EE
  8
RIVERS
 10
604569.46406514745
 20
1767245.91539535
 30
0.0
  0
VERTEX
  5
4EF
  8
RIVERS
 10
604489.90173464641
 20
1767242.132478971
 30
0.0
  0
SEQEND
  5
4F0
  8
RIVERS
  0
POLYLINE
  5
98
  8
RIVERS
 66
     1
 10
0.0
 20
0.0
 30
0.0
  0
VERTEX
  5
4F1
  8
RIVERS
 10
605341.90688061726
 20
1767571.795677895
 30
0.0
  0
VERTEX
  5
4F2
  8
RIVERS
 10
605293.88956072181
 20
1767573.6089417241
 30
0.0
  0
VERTEX
  5
4F3
  8
RIVERS
 10
605233.8472065907
 20
1767559.2127258689
 30
0.0
  0
VERTEX
  5
4F4
  8
RIVERS
 10
605159.38640576415
 20
1767559.2127258689
 30
0.0
  0
VERTEX
  5
4F5
  8
RIVERS
 10
605117.75427966379
 20
1767572.011240727
 30
0.0
  0
VERTEX
  5
4F6
  8
RIVERS
 10
605068.91707107052
 20
1767588.005157578
 30
0.0
  0
VERTEX
  5
4F7
  8
RIVERS
 10
605024.07992551674
 20
1767631.9884289161
 30
0.0
  0
VERTEX
  5
4F8
  8
RIVERS
 10
604994.45627024397
 20
1767648.7854229859
 30
0.0
  0
VERTEX
  5
4F9
  8
RIVERS
 10
604967.23430913687
 20
1767648.7854229859
 30
0.0
  0
SEQEND
  5
4FA
  8
RIVERS
  0
POLYLINE
  5
99
  8
RIVERS
 66
     1
 10
0.0
 20
0.0
 30
0.0
  0
VERTEX
  5
4FB
  8
RIVERS
 10
605341.90688061726
 20
1767571.795677895
 30
0.0
  0
VERTEX
  5
4FC
  8
RIVERS
 10
605364.85548245162
 20
1767548.362729952
 30
0.0
  0
VERTEX
  5
4FD
  8
RIVERS
 10
605391.45631575771
 20
1767542.140994855
 30
0.0
  0
VERTEX
  5
4FE
  8
RIVERS
 10
605465.59413012676
 20
1767542.7073756319
 30
0.0
  0
VERTEX
  5
4FF
  8
RIVERS
 10
605505.77695802227
 20
1767532.533655267
 30
0.0
  0
VERTEX
  5
500
  8
RIVERS
 10
605539.73194449767
 20
1767503.1368022831
 30
0.0
  0
VERTEX
  5
501
  8
RIVERS
 10
605560.66809225455
 20
1767498.6142095169
 30
0.0
  0
VERTEX
  5
502
  8
RIVERS
 10
605595.1862346027
 20
1767502.5704215071
 30
0.0
  0
VERTEX
  5
503
  8
RIVERS
 10
605651.21196228452
 20
1767527.4446817241
 30
0.0
  0
SEQEND
  5
504
  8
RIVERS
  0
POLYLINE
  5
9A
  8
RIVERS
 66
     1
 10
0.0
 20
0.0
 30
0.0
  0
VERTEX
  5
505
  8
RIVERS
 10
605670.0
 20
1767690.0
 30
0.0
  0
VERTEX
  5
506
  8
RIVERS
 10
605600.3291727975
 20
1767688.0854861131
 30
0.0
  0
VERTEX
  5
507
  8
RIVERS
 10
605543.40073937736
 20
1767643.9965467199
 30
0.0
  0
VERTEX
  5
508
  8
RIVERS
 10
605500.54292108305
 20
1767621.632959496
 30
0.0
  0
VERTEX
  5
509
  8
RIVERS
 10
605434.66196561977
 20
1767608.2173431951
 30
0.0
  0
VERTEX
  5
50A
  8
RIVERS
 10
605341.90688061726
 20
1767571.795677895
 30
0.0
  0
SEQEND
  5
50B
  8
RIVERS
  0
POLYLINE
  5
9B
  8
RIVERS
 66
     1
 10
0.0
 20
0.0
 30
0.0
  0
VERTEX
  5
50C
  8
RIVERS
 10
610411.20416370966
 20
1768970.418057841
 30
0.0
  0
VERTEX
  5
50D
  8
RIVERS
 10
610287.06970218197
 20
1768904.09233289
 30
0.0
  0
VERTEX
  5
50E
  8
RIVERS
 10
610224.51799173455
 20
1768822.3897925329
 30
0.0
  0
VERTEX
  5
50F
  8
RIVERS
 10
610170.0
 20
1768780.0
 30
0.0
  0
VERTEX
  5
510
  8
RIVERS
 10
610046.18805911206
 20
1768629.6301260551
 30
0.0
  0
VERTEX
  5
511
  8
RIVERS
 10
609923.70165668614
 20
1768542.4117132111
 30
0.0
  0
VERTEX
  5
512
  8
RIVERS
 10
609845.89504743565
 20
1768467.611410225
 30
0.0
  0
VERTEX
  5
513
  8
RIVERS
 10
609635.96213228256
 20
1768404.1218158789
 30
0.0
  0
VERTEX
  5
514
  8
RIVERS
 10
609329.72128110204
 20
1768342.5596068611
 30
0.0
  0
VERTEX
  5
515
  8
RIVERS
 10
609227.64099737455
 20
1768250.209953252
 30
0.0
  0
VERTEX
  5
516
  8
RIVERS
 10
609135.19233542134
 20
1768204.0372398079
 30
0.0
  0
VERTEX
  5
517
  8
RIVERS
 10
609040.82231813495
 20
1768198.2635372661
 30
0.0
  0
VERTEX
  5
518
  8
RIVERS
 10
608888.66257021204
 20
1768144.393962675
 30
0.0
  0
VERTEX
  5
519
  8
RIVERS
 10
608821.24949950352
 20
1768090.5286148051
 30
0.0
  0
VERTEX
  5
51A
  8
RIVERS
 10
608786.58228648454
 20
1768040.5053574271
 30
0.0
  0
VERTEX
  5
51B
  8
RIVERS
 10
608701.8356092684
 20
1768017.4190007041
 30
0.0
  0
VERTEX
  5
51C
  8
RIVERS
 10
608656.17029331252
 20
1768033.7256949979
 30
0.0
  0
VERTEX
  5
51D
  8
RIVERS
 10
608622.0910812784
 20
1768013.2979465481
 30
0.0
  0
VERTEX
  5
51E
  8
RIVERS
 10
608576.07793375303
 20
1767984.3618062839
 30
0.0
  0
VERTEX
  5
51F
  8
RIVERS
 10
608501.10366727784
 20
1767967.340795937
 30
0.0
  0
SEQEND
  5
520
  8
RIVERS
  0
POLYLINE
  5
9C
  8
RIVERS
 66
     1
 10
0.0
 20
0.0
 30
0.0
  0
VERTEX
  5
521
  8
RIVERS
 10
605976.26884499379
 20
1766731.4303142631
 30
0.0
  0
VERTEX
  5
522
  8
RIVERS
 10
606025.19715233147
 20
1766724.2448865031
 30
0.0
  0
VERTEX
  5
523
  8
RIVERS
 10
606197.95349814917
 20
1766682.3834297149
 30
0.0
  0
SEQEND
  5
524
  8
RIVERS
  0
POLYLINE
  5
9D
  8
RIVERS
 66
     1
 10
0.0
 20
0.0
 30
0.0
  0
VERTEX
  5
525
  8
RIVERS
 10
607941.53377188928
 20
1769057.1968915749
 30
0.0
  0
VERTEX
  5
526
  8
RIVERS
 10
607991.40619348548
 20
1769015.5467708991
 30
0.0
  0
VERTEX
  5
527
  8
RIVERS
 10
608021.65925826319
 20
1768985.3299338049
 30
0.0
  0
VERTEX
  5
528
  8
RIVERS
 10
608030.65318882838
 20
1768948.5785841721
 30
0.0
  0
VERTEX
  5
529
  8
RIVERS
 10
608045.22898789868
 20
1768918.3279333001
 30
0.0
  0
VERTEX
  5
52A
  8
RIVERS
 10
608066.33905144222
 20
1768900.4827121219
 30
0.0
  0
VERTEX
  5
52B
  8
RIVERS
 10
608066.33905144222
 20
1768887.50667493
 30
0.0
  0
VERTEX
  5
52C
  8
RIVERS
 10
608053.34505783767
 20
1768858.3042511679
 30
0.0
  0
VERTEX
  5
52D
  8
RIVERS
 10
608059.84619549103
 20
1768835.5940727231
 30
0.0
  0
VERTEX
  5
52E
  8
RIVERS
 10
608077.7098310591
 20
1768810.449302284
 30
0.0
  0
VERTEX
  5
52F
  8
RIVERS
 10
608076.08661707118
 20
1768783.681470515
 30
0.0
  0
VERTEX
  5
530
  8
RIVERS
 10
607986.94235501986
 20
1768696.5053248941
 30
0.0
  0
VERTEX
  5
531
  8
RIVERS
 10
607975.6543924436
 20
1768659.4496512611
 30
0.0
  0
VERTEX
  5
532
  8
RIVERS
 10
607984.52409744635
 20
1768640.1166238631
 30
0.0
  0
VERTEX
  5
533
  8
RIVERS
 10
607968.39133802056
 20
1768617.5586074181
 30
0.0
  0
VERTEX
  5
534
  8
RIVERS
 10
607952.26686029695
 20
1768611.112856044
 30
0.0
  0
VERTEX
  5
535
  8
RIVERS
 10
607884.7461274378
 20
1768544.1996167069
 30
0.0
  0
VERTEX
  5
536
  8
RIVERS
 10
607869.50779204443
 20
1768507.651149739
 30
0.0
  0
VERTEX
  5
537
  8
RIVERS
 10
607872.5554591231
 20
1768468.055216057
 30
0.0
  0
VERTEX
  5
538
  8
RIVERS
 10
607885.7647770308
 20
1768424.4016290519
 30
0.0
  0
VERTEX
  5
539
  8
RIVERS
 10
607874.58447660704
 20
1768400.0345755001
 30
0.0
  0
VERTEX
  5
53A
  8
RIVERS
 10
607856.29019243096
 20
1768384.805695371
 30
0.0
  0
VERTEX
  5
53B
  8
RIVERS
 10
607809.53997324966
 20
1768382.776868708
 30
0.0
  0
VERTEX
  5
53C
  8
RIVERS
 10
607745.66319015808
 20
1768366.554708859
 30
0.0
  0
VERTEX
  5
53D
  8
RIVERS
 10
607720.4288380146
 20
1768326.2233255119
 30
0.0
  0
VERTEX
  5
53E
  8
RIVERS
 10
607699.2276757285
 20
1768266.7322103779
 30
0.0
  0
VERTEX
  5
53F
  8
RIVERS
 10
607654.81289708056
 20
1768251.604771581
 30
0.0
  0
VERTEX
  5
540
  8
RIVERS
 10
607602.32345701382
 20
1768252.6149581899
 30
0.0
  0
VERTEX
  5
541
  8
RIVERS
 10
607535.69714818709
 20
1768218.332014329
 30
0.0
  0
VERTEX
  5
542
  8
RIVERS
 10
607523.58101520874
 20
1768185.0550303541
 30
0.0
  0
VERTEX
  5
543
  8
RIVERS
 10
607525.60175099038
 20
1768161.863005576
 30
0.0
  0
VERTEX
  5
544
  8
RIVERS
 10
607524.59138309956
 20
1768121.5316222301
 30
0.0
  0
VERTEX
  5
545
  8
RIVERS
 10
607506.42132448405
 20
1768096.323450957
 30
0.0
  0
VERTEX
  5
546
  8
RIVERS
 10
607490.27200164832
 20
1768095.313264349
 30
0.0
  0
VERTEX
  5
547
  8
RIVERS
 10
607464.02728161588
 20
1768102.3718904429
 30
0.0
  0
VERTEX
  5
548
  8
RIVERS
 10
607444.84685510956
 20
1768107.414370042
 30
0.0
  0
VERTEX
  5
549
  8
RIVERS
 10
607426.67679649405
 20
1768100.3557439479
 30
0.0
  0
VERTEX
  5
54A
  8
RIVERS
 10
607424.85482160933
 20
1768084.9282078741
 30
0.0
  0
VERTEX
  5
54B
  8
RIVERS
 10
607435.88605136238
 20
1768058.8915990491
 30
0.0
  0
VERTEX
  5
54C
  8
RIVERS
 10
607440.89648229245
 20
1768036.8576961581
 30
0.0
  0
VERTEX
  5
54D
  8
RIVERS
 10
607423.85273542441
 20
1768016.8314863171
 30
0.0
  0
VERTEX
  5
54E
  8
RIVERS
 10
607400.79647143744
 20
1768007.8158878379
 30
0.0
  0
VERTEX
  5
54F
  8
RIVERS
 10
607351.66940320283
 20
1768011.8228204951
 30
0.0
  0
VERTEX
  5
550
  8
RIVERS
 10
607322.59234039485
 20
1767990.7906507689
 30
0.0
  0
VERTEX
  5
551
  8
RIVERS
 10
607285.49858809821
 20
1767959.745376122
 30
0.0
  0
VERTEX
  5
552
  8
RIVERS
 10
607282.49232953985
 20
1767941.718405887
 30
0.0
  0
VERTEX
  5
553
  8
RIVERS
 10
607277.48189860769
 20
1767917.68526339
 30
0.0
  0
VERTEX
  5
554
  8
RIVERS
 10
607258.43397936597
 20
1767903.6652258129
 30
0.0
  0
VERTEX
  5
555
  8
RIVERS
 10
607214.31734206341
 20
1767913.678330733
 30
0.0
  0
VERTEX
  5
556
  8
RIVERS
 10
607174.21733120643
 20
1767936.713966789
 30
0.0
  0
VERTEX
  5
557
  8
RIVERS
 10
607126.09234915848
 20
1767915.681797062
 30
0.0
  0
VERTEX
  5
558
  8
RIVERS
 10
607108.04651610367
 20
1767854.592980932
 30
0.0
  0
VERTEX
  5
559
  8
RIVERS
 10
607087.99651067518
 20
1767812.5328682009
 30
0.0
  0
VERTEX
  5
55A
  8
RIVERS
 10
607042.87778718397
 20
1767805.520736051
 30
0.0
  0
VERTEX
  5
55B
  8
RIVERS
 10
607017.80906912126
 20
1767794.505897966
 30
0.0
  0
VERTEX
  5
55C
  8
RIVERS
 10
607003.77986251574
 20
1767775.4771945679
 30
0.0
  0
VERTEX
  5
55D
  8
RIVERS
 10
606966.67782851495
 20
1767769.4667955821
 30
0.0
  0
VERTEX
  5
55E
  8
RIVERS
 10
606895.61252633494
 20
1767705.5629824591
 30
0.0
  0
VERTEX
  5
55F
  8
RIVERS
 10
606887.10721630789
 20
1767650.307042982
 30
0.0
  0
VERTEX
  5
560
  8
RIVERS
 10
606862.99089420785
 20
1767541.2153426909
 30
0.0
  0
VERTEX
  5
561
  8
RIVERS
 10
606831.79371517152
 20
1767500.1273760679
 30
0.0
  0
VERTEX
  5
562
  8
RIVERS
 10
606758.03685918637
 20
1767454.7915536221
 30
0.0
  0
VERTEX
  5
563
  8
RIVERS
 10
606688.53679906775
 20
1767406.6196005731
 30
0.0
  0
VERTEX
  5
564
  8
RIVERS
 10
606653.07454246283
 20
1767347.115805272
 30
0.0
  0
VERTEX
  5
565
  8
RIVERS
 10
606637.48837549984
 20
1767285.9340012539
 30
0.0
  0
VERTEX
  5
566
  8
RIVERS
 10
606600.85839862749
 20
1767271.8632430099
 30
0.0
  0
VERTEX
  5
567
  8
RIVERS
 10
606545.92585587688
 20
1767273.270741506
 30
0.0
  0
VERTEX
  5
568
  8
RIVERS
 10
606523.38305753842
 20
1767253.5699892759
 30
0.0
  0
VERTEX
  5
569
  8
RIVERS
 10
606514.92743773747
 20
1767193.0644608119
 30
0.0
  0
VERTEX
  5
56A
  8
RIVERS
 10
606521.97516785562
 20
1767160.7004488341
 30
0.0
  0
VERTEX
  5
56B
  8
RIVERS
 10
606548.74163524248
 20
1767143.8104668751
 30
0.0
  0
VERTEX
  5
56C
  8
RIVERS
 10
606562.82881377835
 20
1767129.739708632
 30
0.0
  0
VERTEX
  5
56D
  8
RIVERS
 10
606551.55741460808
 20
1767101.598192144
 30
0.0
  0
VERTEX
  5
56E
  8
RIVERS
 10
606526.19883690588
 20
1767072.04917716
 30
0.0
  0
VERTEX
  5
56F
  8
RIVERS
 10
606430.40436652873
 20
1767035.4626696941
 30
0.0
  0
VERTEX
  5
570
  8
RIVERS
 10
606379.6954928264
 20
1766998.8761622261
 30
0.0
  0
VERTEX
  5
571
  8
RIVERS
 10
606295.17242161755
 20
1766996.0611652329
 30
0.0
  0
VERTEX
  5
572
  8
RIVERS
 10
606108.97487017885
 20
1766859.0435112871
 30
0.0
  0
VERTEX
  5
573
  8
RIVERS
 10
606092.27895487845
 20
1766811.949372401
 30
0.0
  0
VERTEX
  5
574
  8
RIVERS
 10
606071.64923016925
 20
1766786.4411038519
 30
0.0
  0
VERTEX
  5
575
  8
RIVERS
 10
606042.18292727321
 20
1766795.2707265529
 30
0.0
  0
VERTEX
  5
576
  8
RIVERS
 10
606008.79109667253
 20
1766796.251326106
 30
0.0
  0
VERTEX
  5
577
  8
RIVERS
 10
605988.16137196322
 20
1766776.6266548759
 30
0.0
  0
VERTEX
  5
578
  8
RIVERS
 10
605984.23584425822
 20
1766743.2693631791
 30
0.0
  0
VERTEX
  5
579
  8
RIVERS
 10
605976.26884499379
 20
1766731.4303142631
 30
0.0
  0
SEQEND
  5
57A
  8
RIVERS
  0
POLYLINE
  5
9E
  8
RIVERS
 66
     1
 10
0.0
 20
0.0
 30
0.0
  0
VERTEX
  5
57B
  8
RIVERS
 10
606908.12618110713
 20
1770939.825458738
 30
0.0
  0
VERTEX
  5
57C
  8
RIVERS
 10
606915.36439041793
 20
1770878.952205441
 30
0.0
  0
VERTEX
  5
57D
  8
RIVERS
 10
606933.87399889913
 20
1770816.4389839261
 30
0.0
  0
VERTEX
  5
57E
  8
RIVERS
 10
606944.44973492995
 20
1770767.1300426009
 30
0.0
  0
VERTEX
  5
57F
  8
RIVERS
 10
606975.29908239655
 20
1770720.4670293811
 30
0.0
  0
VERTEX
  5
580
  8
RIVERS
 10
607006.20640179329
 20
1770664.665842738
 30
0.0
  0
VERTEX
  5
581
  8
RIVERS
 10
607002.37197283295
 20
1770632.403272094
 30
0.0
  0
VERTEX
  5
582
  8
RIVERS
 10
607012.22720061429
 20
1770597.4017854561
 30
0.0
  0
VERTEX
  5
583
  8
RIVERS
 10
607025.91685735632
 20
1770589.7471915309
 30
0.0
  0
VERTEX
  5
584
  8
RIVERS
 10
607054.92766653001
 20
1770599.0417536751
 30
0.0
  0
VERTEX
  5
585
  8
RIVERS
 10
607091.06074116193
 20
1770596.8565382911
 30
0.0
  0
VERTEX
  5
586
  8
RIVERS
 10
607105.84358283319
 20
1770574.433776957
 30
0.0
  0
VERTEX
  5
587
  8
RIVERS
 10
607124.46085346676
 20
1770548.1858320199
 30
0.0
  0
VERTEX
  5
588
  8
RIVERS
 10
607124.23724745784
 20
1770515.3822409329
 30
0.0
  0
VERTEX
  5
589
  8
RIVERS
 10
607107.3839797806
 20
1770505.0648120141
 30
0.0
  0
VERTEX
  5
58A
  8
RIVERS
 10
607087.26772072166
 20
1770493.1158683191
 30
0.0
  0
VERTEX
  5
58B
  8
RIVERS
 10
607088.8992164135
 20
1770479.5354098531
 30
0.0
  0
VERTEX
  5
58C
  8
RIVERS
 10
607107.3839797806
 20
1770465.959178108
 30
0.0
  0
VERTEX
  5
58D
  8
RIVERS
 10
607135.65771729883
 20
1770457.26903724
 30
0.0
  0
VERTEX
  5
58E
  8
RIVERS
 10
607189.56332875229
 20
1770408.3235940251
 30
0.0
  0
VERTEX
  5
58F
  8
RIVERS
 10
607192.64412264712
 20
1770381.4289605911
 30
0.0
  0
VERTEX
  5
590
  8
RIVERS
 10
607189.56332875229
 20
1770336.0973648671
 30
0.0
  0
VERTEX
  5
591
  8
RIVERS
 10
607225.72124849632
 20
1770298.4457234021
 30
0.0
  0
VERTEX
  5
592
  8
RIVERS
 10
607251.2454602794
 20
1770261.009644771
 30
0.0
  0
VERTEX
  5
593
  8
RIVERS
 10
607245.13356271386
 20
1770229.7192202359
 30
0.0
  0
VERTEX
  5
594
  8
RIVERS
 10
607216.85982519574
 20
1770193.0862188239
 30
0.0
  0
VERTEX
  5
595
  8
RIVERS
 10
607212.2800428737
 20
1770167.9034078859
 30
0.0
  0
VERTEX
  5
596
  8
RIVERS
 10
607225.26575477433
 20
1770130.5095964761
 30
0.0
  0
VERTEX
  5
597
  8
RIVERS
 10
607247.01350952685
 20
1770101.915820712
 30
0.0
  0
VERTEX
  5
598
  8
RIVERS
 10
607263.70114312333
 20
1770097.367867612
 30
0.0
  0
VERTEX
  5
599
  8
RIVERS
 10
607293.29995328374
 20
1770100.398427438
 30
0.0
  0
VERTEX
  5
59A
  8
RIVERS
 10
607293.29995328374
 20
1770100.398427438
 30
0.0
  0
VERTEX
  5
59B
  8
RIVERS
 10
607299.37044232886
 20
1770077.6628886589
 30
0.0
  0
VERTEX
  5
59C
  8
RIVERS
 10
607290.26056790911
 20
1770062.5016360851
 30
0.0
  0
VERTEX
  5
59D
  8
RIVERS
 10
607300.88599416427
 20
1770055.679706435
 30
0.0
  0
VERTEX
  5
59E
  8
RIVERS
 10
607323.6523985099
 20
1770049.6185867831
 30
0.0
  0
VERTEX
  5
59F
  8
RIVERS
 10
607328.96097078547
 20
1770040.522680582
 30
0.0
  0
VERTEX
  5
5A0
  8
RIVERS
 10
607331.23843939044
 20
1770021.574284906
 30
0.0
  0
VERTEX
  5
5A1
  8
RIVERS
 10
607319.09746129997
 20
1770001.1084959561
 30
0.0
  0
VERTEX
  5
5A2
  8
RIVERS
 10
607302.40154599957
 20
1769982.1601002789
 30
0.0
  0
VERTEX
  5
5A3
  8
RIVERS
 10
607301.6396292299
 20
1769963.9682878789
 30
0.0
  0
VERTEX
  5
5A4
  8
RIVERS
 10
607327.44541895017
 20
1769945.0198922029
 30
0.0
  0
VERTEX
  5
5A5
  8
RIVERS
 10
607341.80589371745
 20
1769937.914772165
 30
0.0
  0
VERTEX
  5
5A6
  8
RIVERS
 10
607344.62995478697
 20
1769915.7878813839
 30
0.0
  0
VERTEX
  5
5A7
  8
RIVERS
 10
607335.20537561364
 20
1769885.659805458
 30
0.0
  0
VERTEX
  5
5A8
  8
RIVERS
 10
607344.62995478697
 20
1769864.0063075661
 30
0.0
  0
VERTEX
  5
5A9
  8
RIVERS
 10
607357.83099099249
 20
1769856.474288584
 30
0.0
  0
VERTEX
  5
5AA
  8
RIVERS
 10
607388.46501415409
 20
1769859.297739021
 30
0.0
  0
VERTEX
  5
5AB
  8
RIVERS
 10
607420.03486987203
 20
1769872.0074927141
 30
0.0
  0
VERTEX
  5
5AC
  8
RIVERS
 10
607430.40356330201
 20
1769864.0063075661
 30
0.0
  0
VERTEX
  5
5AD
  8
RIVERS
 10
607432.29179181915
 20
1769851.7657200401
 30
0.0
  0
VERTEX
  5
5AE
  8
RIVERS
 10
607410.42809320986
 20
1769822.3435067229
 30
0.0
  0
VERTEX
  5
5AF
  8
RIVERS
 10
607416.38263839856
 20
1769805.808569429
 30
0.0
  0
VERTEX
  5
5B0
  8
RIVERS
 10
607442.87580955401
 20
1769793.23829757
 30
0.0
  0
VERTEX
  5
5B1
  8
RIVERS
 10
607472.6733806096
 20
1769781.995216487
 30
0.0
  0
VERTEX
  5
5B2
  8
RIVERS
 10
607481.94060740632
 20
1769768.7655759631
 30
0.0
  0
VERTEX
  5
5B3
  8
RIVERS
 10
607474.66098957497
 20
1769753.549375999
 30
0.0
  0
VERTEX
  5
5B4
  8
RIVERS
 10
607452.80557267193
 20
1769738.3374027589
 30
0.0
  0
VERTEX
  5
5B5
  8
RIVERS
 10
607451.48050002754
 20
1769713.8604544289
 30
0.0
  0
VERTEX
  5
5B6
  8
RIVERS
 10
607460.75600852817
 20
1769694.015993644
 30
0.0
  0
VERTEX
  5
5B7
  8
RIVERS
 10
607519.0260779988
 20
1769612.6558177851
 30
0.0
  0
VERTEX
  5
5B8
  8
RIVERS
 10
607533.64328559116
 20
1769582.933507191
 30
0.0
  0
VERTEX
  5
5B9
  8
RIVERS
 10
607532.32649465278
 20
1769565.853322732
 30
0.0
  0
VERTEX
  5
5BA
  8
RIVERS
 10
607507.34059363045
 20
1769540.8903013491
 30
0.0
  0
VERTEX
  5
5BB
  8
RIVERS
 10
607502.07342987508
 20
1769512.6388900841
 30
0.0
  0
VERTEX
  5
5BC
  8
RIVERS
 10
607511.94522106461
 20
1769488.331010642
 30
0.0
  0
VERTEX
  5
5BD
  8
RIVERS
 10
607538.91044934653
 20
1769473.8756206769
 30
0.0
  0
VERTEX
  5
5BE
  8
RIVERS
 10
607565.87567763031
 20
1769465.992783752
 30
0.0
  0
VERTEX
  5
5BF
  8
RIVERS
 10
607579.6812782269
 20
1769439.060109817
 30
0.0
  0
VERTEX
  5
5C0
  8
RIVERS
 10
607590.86157865275
 20
1769427.8888830109
 30
0.0
  0
VERTEX
  5
5C1
  8
RIVERS
 10
607611.25113394496
 20
1769409.494187945
 30
0.0
  0
VERTEX
  5
5C2
  8
RIVERS
 10
607616.51829770021
 20
1769385.8456771681
 30
0.0
  0
VERTEX
  5
5C3
  8
RIVERS
 10
607604.0212063361
 20
1769356.93912396
 30
0.0
  0
VERTEX
  5
5C4
  8
RIVERS
 10
607600.50976383325
 20
1769309.054588021
 30
0.0
  0
VERTEX
  5
5C5
  8
RIVERS
 10
607612.51823465899
 20
1769296.129271497
 30
0.0
  0
VERTEX
  5
5C6
  8
RIVERS
 10
607631.93054887839
 20
1769300.744852152
 30
0.0
  0
VERTEX
  5
5C7
  8
RIVERS
 10
607652.26213224244
 20
1769292.439343005
 30
0.0
  0
VERTEX
  5
5C8
  8
RIVERS
 10
607657.80259223096
 20
1769248.130614057
 30
0.0
  0
VERTEX
  5
5C9
  8
RIVERS
 10
607679.98099558987
 20
1769222.284207731
 30
0.0
  0
VERTEX
  5
5CA
  8
RIVERS
 10
607705.85303894244
 20
1769202.8962329449
 30
0.0
  0
VERTEX
  5
5CB
  8
RIVERS
 10
607757.60540735163
 20
1769205.6689627159
 30
0.0
  0
VERTEX
  5
5CC
  8
RIVERS
 10
607799.19612492993
 20
1769204.7433105509
 30
0.0
  0
VERTEX
  5
5CD
  8
RIVERS
 10
607802.8897649236
 20
1769190.896568585
 30
0.0
  0
VERTEX
  5
5CE
  8
RIVERS
 10
607804.73658491857
 20
1769164.1287368161
 30
0.0
  0
VERTEX
  5
5CF
  8
RIVERS
 10
607813.05141575274
 20
1769144.74076203
 30
0.0
  0
VERTEX
  5
5D0
  8
RIVERS
 10
607858.95690112561
 20
1769105.3815247919
 30
0.0
  0
VERTEX
  5
5D1
  8
RIVERS
 10
607941.53377188928
 20
1769057.1968915749
 30
0.0
  0
SEQEND
  5
5D2
  8
RIVERS
  0
POLYLINE
  5
9F
  8
RIVERS
 66
     1
 10
0.0
 20
0.0
 30
0.0
  0
VERTEX
  5
5D3
  8
RIVERS
 10
606908.12618110713
 20
1770939.825458738
 30
0.0
  0
VERTEX
  5
5D4
  8
RIVERS
 10
606930.25489424355
 20
1770972.1472034941
 30
0.0
  0
VERTEX
  5
5D5
  8
RIVERS
 10
606957.40232001431
 20
1771043.836638931
 30
0.0
  0
VERTEX
  5
5D6
  8
RIVERS
 10
607009.39485783875
 20
1771093.1709405889
 30
0.0
  0
VERTEX
  5
5D7
  8
RIVERS
 10
607091.28434717096
 20
1771173.6688651161
 30
0.0
  0
VERTEX
  5
5D8
  8
RIVERS
 10
607106.87879583624
 20
1771251.567355484
 30
0.0
  0
VERTEX
  5
5D9
  8
RIVERS
 10
607114.27654582006
 20
1771288.521118213
 30
0.0
  0
VERTEX
  5
5DA
  8
RIVERS
 10
607118.5559985023
 20
1771334.969038171
 30
0.0
  0
VERTEX
  5
5DB
  8
RIVERS
 10
607083.77284162503
 20
1771368.262929034
 30
0.0
  0
VERTEX
  5
5DC
  8
RIVERS
 10
607063.48266678117
 20
1771449.327234338
 30
0.0
  0
VERTEX
  5
5DD
  8
RIVERS
 10
607066.38126318716
 20
1771514.4694770679
 30
0.0
  0
VERTEX
  5
5DE
  8
RIVERS
 10
607054.78687756334
 20
1771591.192938661
 30
0.0
  0
VERTEX
  5
5DF
  8
RIVERS
 10
607018.54614077881
 20
1771643.8874844781
 30
0.0
  0
VERTEX
  5
5E0
  8
RIVERS
 10
607017.1134059839
 20
1771727.276486998
 30
0.0
  0
VERTEX
  5
5E1
  8
RIVERS
 10
607050.21537694533
 20
1771794.8533217229
 30
0.0
  0
VERTEX
  5
5E2
  8
RIVERS
 10
607180.85097612627
 20
1771974.641177732
 30
0.0
  0
VERTEX
  5
5E3
  8
RIVERS
 10
607286.63318154775
 20
1772074.598931324
 30
0.0
  0
VERTEX
  5
5E4
  8
RIVERS
 10
607350.0
 20
1772160.0
 30
0.0
  0
VERTEX
  5
5E5
  8
RIVERS
 10
607446.5446044337
 20
1772288.914881082
 30
0.0
  0
VERTEX
  5
5E6
  8
RIVERS
 10
607464.35026807152
 20
1772340.193474958
 30
0.0
  0
VERTEX
  5
5E7
  8
RIVERS
 10
607434.90881028771
 20
1772402.444639697
 30
0.0
  0
VERTEX
  5
5E8
  8
RIVERS
 10
607453.62546136789
 20
1772458.5247900051
 30
0.0
  0
VERTEX
  5
5E9
  8
RIVERS
 10
607492.30101913412
 20
1772517.0944796971
 30
0.0
  0
VERTEX
  5
5EA
  8
RIVERS
 10
607487.30715161003
 20
1772566.944441465
 30
0.0
  0
VERTEX
  5
5EB
  8
RIVERS
 10
607377.16048816964
 20
1772636.6980381289
 30
0.0
  0
VERTEX
  5
5EC
  8
RIVERS
 10
607321.6813529525
 20
1772769.302994085
 30
0.0
  0
VERTEX
  5
5ED
  8
RIVERS
 10
607252.33036350645
 20
1772842.5351831301
 30
0.0
  0
VERTEX
  5
5EE
  8
RIVERS
 10
607238.45850927569
 20
1772893.9955260609
 30
0.0
  0
VERTEX
  5
5EF
  8
RIVERS
 10
607276.10713574116
 20
1772973.162033092
 30
0.0
  0
VERTEX
  5
5F0
  8
RIVERS
 10
607246.38410002005
 20
1773046.3942221359
 30
0.0
  0
VERTEX
  5
5F1
  8
RIVERS
 10
607260.18970061839
 20
1773106.2953293249
 30
0.0
  0
VERTEX
  5
5F2
  8
RIVERS
 10
607332.59663884901
 20
1773186.1127515759
 30
0.0
  0
VERTEX
  5
5F3
  8
RIVERS
 10
607325.47437339276
 20
1773315.1799410409
 30
0.0
  0
SEQEND
  5
5F4
  8
RIVERS
  0
POLYLINE
  5
A0
  8
RIVERS
 66
     1
 10
0.0
 20
0.0
 30
0.0
  0
VERTEX
  5
5F5
  8
RIVERS
 10
604186.37728238478
 20
1766632.4277998919
 30
0.0
  0
VERTEX
  5
5F6
  8
RIVERS
 10
604255.97672295198
 20
1766558.3418129601
 30
0.0
  0
VERTEX
  5
5F7
  8
RIVERS
 10
604342.95946025476
 20
1766484.3741742501
 30
0.0
  0
VERTEX
  5
5F8
  8
RIVERS
 10
604415.83017390966
 20
1766452.67375766
 30
0.0
  0
VERTEX
  5
5F9
  8
RIVERS
 10
604464.0214095898
 20
1766412.75659309
 30
0.0
  0
VERTEX
  5
5FA
  8
RIVERS
 10
604482.82915941614
 20
1766379.881147725
 30
0.0
  0
VERTEX
  5
5FB
  8
RIVERS
 10
604515.74065118295
 20
1766372.835201798
 30
0.0
  0
VERTEX
  5
5FC
  8
RIVERS
 10
604538.06812521629
 20
1766378.7061189499
 30
0.0
  0
VERTEX
  5
5FD
  8
RIVERS
 10
604558.05187701073
 20
1766401.014758785
 30
0.0
  0
VERTEX
  5
5FE
  8
RIVERS
 10
604581.55535301566
 20
1766399.8397300099
 30
0.0
  0
VERTEX
  5
5FF
  8
RIVERS
 10
604605.06711072288
 20
1766381.0561764999
 30
0.0
  0
VERTEX
  5
600
  8
RIVERS
 10
604699.83464980125
 20
1766235.428689409
 30
0.0
  0
VERTEX
  5
601
  8
RIVERS
 10
604837.84924726188
 20
1766041.0882288229
 30
0.0
  0
VERTEX
  5
602
  8
RIVERS
 10
604901.03864892013
 20
1765959.69846591
 30
0.0
  0
VERTEX
  5
603
  8
RIVERS
 10
604967.5572955925
 20
1765906.5474340939
 30
0.0
  0
VERTEX
  5
604
  8
RIVERS
 10
605054.0265672449
 20
1765891.5975176301
 30
0.0
  0
SEQEND
  5
605
  8
RIVERS
  0
POLYLINE
  5
A1
  8
RIVERS
 66
     1
 10
0.0
 20
0.0
 30
0.0
  0
VERTEX
  5
606
  8
RIVERS
 10
604186.37728238478
 20
1766632.4277998919
 30
0.0
  0
VERTEX
  5
607
  8
RIVERS
 10
604149.36634712853
 20
1766617.6004583719
 30
0.0
  0
VERTEX
  5
608
  8
RIVERS
 10
604123.99949244154
 20
1766609.9993986511
 30
0.0
  0
VERTEX
  5
609
  8
RIVERS
 10
604127.00048452045
 20
1766576.9996636331
 30
0.0
  0
VERTEX
  5
60A
  8
RIVERS
 10
604134.28536411177
 20
1766552.3356406961
 30
0.0
  0
VERTEX
  5
60B
  8
RIVERS
 10
604130.99930294137
 20
1766537.9999284931
 30
0.0
  0
VERTEX
  5
60C
  8
RIVERS
 10
604107.00057794806
 20
1766532.0005144889
 30
0.0
  0
VERTEX
  5
60D
  8
RIVERS
 10
604069.99944999977
 20
1766531.0004321041
 30
0.0
  0
VERTEX
  5
60E
  8
RIVERS
 10
604040.00012644625
 20
1766534.0004802521
 30
0.0
  0
VERTEX
  5
60F
  8
RIVERS
 10
604008.00041213457
 20
1766531.000171107
 30
0.0
  0
VERTEX
  5
610
  8
RIVERS
 10
603983.99992773903
 20
1766549.0008296289
 30
0.0
  0
VERTEX
  5
611
  8
RIVERS
 10
603961.99936811486
 20
1766571.0003367211
 30
0.0
  0
VERTEX
  5
612
  8
RIVERS
 10
603938.99918625993
 20
1766585.9999751181
 30
0.0
  0
VERTEX
  5
613
  8
RIVERS
 10
603926.00042015885
 20
1766603.9992628831
 30
0.0
  0
VERTEX
  5
614
  8
RIVERS
 10
603936.00009010092
 20
1766637.0001086851
 30
0.0
  0
VERTEX
  5
615
  8
RIVERS
 10
603890.99934773997
 20
1766726.9996851841
 30
0.0
  0
VERTEX
  5
616
  8
RIVERS
 10
603872.99962720356
 20
1766748.000144226
 30
0.0
  0
VERTEX
  5
617
  8
RIVERS
 10
603843.0006224867
 20
1766738.9996122411
 30
0.0
  0
VERTEX
  5
618
  8
RIVERS
 10
603806.99957204296
 20
1766750.9994030211
 30
0.0
  0
VERTEX
  5
619
  8
RIVERS
 10
603764.99983024341
 20
1766777.999960985
 30
0.0
  0
VERTEX
  5
61A
  8
RIVERS
 10
603734.00080743863
 20
1766796.0005936259
 30
0.0
  0
VERTEX
  5
61B
  8
RIVERS
 10
603711.00008192868
 20
1766831.0006667441
 30
0.0
  0
VERTEX
  5
61C
  8
RIVERS
 10
603717.00033481536
 20
1766880.0003101521
 30
0.0
  0
VERTEX
  5
61D
  8
RIVERS
 10
603695.00023392902
 20
1766918.9996552549
 30
0.0
  0
VERTEX
  5
61E
  8
RIVERS
 10
603663.00025681721
 20
1766948.0008537681
 30
0.0
  0
VERTEX
  5
61F
  8
RIVERS
 10
603641.99978725577
 20
1766970.0001849551
 30
0.0
  0
VERTEX
  5
620
  8
RIVERS
 10
603617.99965788249
 20
1766974.9996049469
 30
0.0
  0
VERTEX
  5
621
  8
RIVERS
 10
603567.00003694405
 20
1766975.000635694
 30
0.0
  0
VERTEX
  5
622
  8
RIVERS
 10
603551.9992186547
 20
1766957.000290578
 30
0.0
  0
VERTEX
  5
623
  8
RIVERS
 10
603526.99981948012
 20
1766934.0006398601
 30
0.0
  0
VERTEX
  5
624
  8
RIVERS
 10
603512.00018840737
 20
1766909.0000034799
 30
0.0
  0
VERTEX
  5
625
  8
RIVERS
 10
603488.9994606853
 20
1766885.999481447
 30
0.0
  0
VERTEX
  5
626
  8
RIVERS
 10
603466.99976500589
 20
1766879.9998213099
 30
0.0
  0
VERTEX
  5
627
  8
RIVERS
 10
603447.00022203859
 20
1766862.000162696
 30
0.0
  0
VERTEX
  5
628
  8
RIVERS
 10
603431.0007324561
 20
1766846.9992984531
 30
0.0
  0
VERTEX
  5
629
  8
RIVERS
 10
603398.99978383747
 20
1766843.999845746
 30
0.0
  0
VERTEX
  5
62A
  8
RIVERS
 10
603328.99979374884
 20
1766842.9992473139
 30
0.0
  0
VERTEX
  5
62B
  8
RIVERS
 10
603281.99968371366
 20
1766834.000595548
 30
0.0
  0
VERTEX
  5
62C
  8
RIVERS
 10
603252.0002068039
 20
1766840.0005974299
 30
0.0
  0
VERTEX
  5
62D
  8
RIVERS
 10
603227.99992244085
 20
1766849.999221954
 30
0.0
  0
VERTEX
  5
62E
  8
RIVERS
 10
603242.99975720444
 20
1766918.000669582
 30
0.0
  0
VERTEX
  5
62F
  8
RIVERS
 10
603227.99949150172
 20
1766957.0005413941
 30
0.0
  0
VERTEX
  5
630
  8
RIVERS
 10
603196.99991777888
 20
1766960.0004427701
 30
0.0
  0
VERTEX
  5
631
  8
RIVERS
 10
603179.00070933369
 20
1766995.9994347261
 30
0.0
  0
VERTEX
  5
632
  8
RIVERS
 10
603164.00037045777
 20
1767001.999260644
 30
0.0
  0
VERTEX
  5
633
  8
RIVERS
 10
603141.00041727896
 20
1766992.999769527
 30
0.0
  0
VERTEX
  5
634
  8
RIVERS
 10
603122.99938332324
 20
1767011.999214825
 30
0.0
  0
VERTEX
  5
635
  8
RIVERS
 10
603113.99922915385
 20
1767019.999482116
 30
0.0
  0
VERTEX
  5
636
  8
RIVERS
 10
603077.99998027855
 20
1767003.0000408159
 30
0.0
  0
VERTEX
  5
637
  8
RIVERS
 10
603052.99960367335
 20
1766993.99989008
 30
0.0
  0
VERTEX
  5
638
  8
RIVERS
 10
603029.99948614114
 20
1767011.0002541931
 30
0.0
  0
VERTEX
  5
639
  8
RIVERS
 10
603005.9994981885
 20
1767021.0007959129
 30
0.0
  0
VERTEX
  5
63A
  8
RIVERS
 10
602985.00014989218
 20
1767018.0000499859
 30
0.0
  0
VERTEX
  5
63B
  8
RIVERS
 10
602986.99935119227
 20
1766987.999657989
 30
0.0
  0
VERTEX
  5
63C
  8
RIVERS
 10
602972.99982341321
 20
1766967.0003280949
 30
0.0
  0
VERTEX
  5
63D
  8
RIVERS
 10
602921.99940103048
 20
1766959.00003198
 30
0.0
  0
VERTEX
  5
63E
  8
RIVERS
 10
602897.99988843617
 20
1766955.000048239
 30
0.0
  0
VERTEX
  5
63F
  8
RIVERS
 10
602854.99918780208
 20
1766894.9999909459
 30
0.0
  0
VERTEX
  5
640
  8
RIVERS
 10
602843.00024220685
 20
1766870.000094665
 30
0.0
  0
VERTEX
  5
641
  8
RIVERS
 10
602829.00010077795
 20
1766857.9993341551
 30
0.0
  0
VERTEX
  5
642
  8
RIVERS
 10
602816.00062544853
 20
1766849.9994856471
 30
0.0
  0
VERTEX
  5
643
  8
RIVERS
 10
602795.99947909347
 20
1766848.999986717
 30
0.0
  0
VERTEX
  5
644
  8
RIVERS
 10
602779.99972822238
 20
1766864.999802242
 30
0.0
  0
VERTEX
  5
645
  8
RIVERS
 10
602785.99949063768
 20
1766890.999985829
 30
0.0
  0
VERTEX
  5
646
  8
RIVERS
 10
602807.00045917777
 20
1766918.999482651
 30
0.0
  0
VERTEX
  5
647
  8
RIVERS
 10
602820.0003984787
 20
1766948.999340412
 30
0.0
  0
VERTEX
  5
648
  8
RIVERS
 10
602827.99979908648
 20
1766978.0008811899
 30
0.0
  0
VERTEX
  5
649
  8
RIVERS
 10
602832.00007979409
 20
1767002.0005029391
 30
0.0
  0
VERTEX
  5
64A
  8
RIVERS
 10
602833.99967036932
 20
1767019.9998585859
 30
0.0
  0
VERTEX
  5
64B
  8
RIVERS
 10
602825.99990425119
 20
1767040.9996178411
 30
0.0
  0
VERTEX
  5
64C
  8
RIVERS
 10
602811.00001723028
 20
1767048.000456023
 30
0.0
  0
VERTEX
  5
64D
  8
RIVERS
 10
602792.00010960991
 20
1767041.9999915829
 30
0.0
  0
VERTEX
  5
64E
  8
RIVERS
 10
602771.99985043181
 20
1767032.9994133171
 30
0.0
  0
VERTEX
  5
64F
  8
RIVERS
 10
602757.00040370505
 20
1767021.000895099
 30
0.0
  0
VERTEX
  5
650
  8
RIVERS
 10
602740.99992739526
 20
1767008.999461991
 30
0.0
  0
VERTEX
  5
651
  8
RIVERS
 10
602727.00012004655
 20
1767008.0004700241
 30
0.0
  0
VERTEX
  5
652
  8
RIVERS
 10
602713.99998646323
 20
1767017.9993077889
 30
0.0
  0
VERTEX
  5
653
  8
RIVERS
 10
602705.99999957404
 20
1767038.000026257
 30
0.0
  0
VERTEX
  5
654
  8
RIVERS
 10
602701.99982530251
 20
1767060.0003101381
 30
0.0
  0
VERTEX
  5
655
  8
RIVERS
 10
602689.99974786793
 20
1767077.0006892809
 30
0.0
  0
VERTEX
  5
656
  8
RIVERS
 10
602671.99984657753
 20
1767092.999853831
 30
0.0
  0
VERTEX
  5
657
  8
RIVERS
 10
602654.99966219382
 20
1767105.000544474
 30
0.0
  0
VERTEX
  5
658
  8
RIVERS
 10
602645.00069586292
 20
1767114.000571342
 30
0.0
  0
VERTEX
  5
659
  8
RIVERS
 10
602637.00046815106
 20
1767122.9995933869
 30
0.0
  0
VERTEX
  5
65A
  8
RIVERS
 10
602628.00022820674
 20
1767140.0002005531
 30
0.0
  0
VERTEX
  5
65B
  8
RIVERS
 10
602615.99992233887
 20
1767161.000302071
 30
0.0
  0
VERTEX
  5
65C
  8
RIVERS
 10
602608.99943516112
 20
1767176.000076758
 30
0.0
  0
VERTEX
  5
65D
  8
RIVERS
 10
602593.99939136498
 20
1767182.0002830159
 30
0.0
  0
VERTEX
  5
65E
  8
RIVERS
 10
602576.00024734426
 20
1767180.000901853
 30
0.0
  0
VERTEX
  5
65F
  8
RIVERS
 10
602558.99980553635
 20
1767175.9994879919
 30
0.0
  0
VERTEX
  5
660
  8
RIVERS
 10
602538.00026058289
 20
1767177.0005482701
 30
0.0
  0
VERTEX
  5
661
  8
RIVERS
 10
602528.99945716863
 20
1767191.9996512181
 30
0.0
  0
VERTEX
  5
662
  8
RIVERS
 10
602530.99957559153
 20
1767205.999272302
 30
0.0
  0
VERTEX
  5
663
  8
RIVERS
 10
602528.99955130205
 20
1767211.999815882
 30
0.0
  0
VERTEX
  5
664
  8
RIVERS
 10
602522.00075284438
 20
1767222.0008585011
 30
0.0
  0
VERTEX
  5
665
  8
RIVERS
 10
602509.99930286652
 20
1767249.0005359601
 30
0.0
  0
VERTEX
  5
666
  8
RIVERS
 10
602497.9998153355
 20
1767267.000073333
 30
0.0
  0
VERTEX
  5
667
  8
RIVERS
 10
602492.00053799385
 20
1767297.000789166
 30
0.0
  0
VERTEX
  5
668
  8
RIVERS
 10
602481.000377269
 20
1767353.999382915
 30
0.0
  0
VERTEX
  5
669
  8
RIVERS
 10
602464.99959354405
 20
1767374.999857669
 30
0.0
  0
VERTEX
  5
66A
  8
RIVERS
 10
602456.00081502157
 20
1767381.0005324499
 30
0.0
  0
VERTEX
  5
66B
  8
RIVERS
 10
602426.99919629178
 20
1767399.000154485
 30
0.0
  0
VERTEX
  5
66C
  8
RIVERS
 10
602395.99928743695
 20
1767388.999582472
 30
0.0
  0
VERTEX
  5
66D
  8
RIVERS
 10
602372.00030475738
 20
1767394.9993825171
 30
0.0
  0
VERTEX
  5
66E
  8
RIVERS
 10
602361.00028897705
 20
1767407.9997074681
 30
0.0
  0
VERTEX
  5
66F
  8
RIVERS
 10
602367.00057334604
 20
1767424.9996082149
 30
0.0
  0
VERTEX
  5
670
  8
RIVERS
 10
602381.99923971563
 20
1767434.9997283979
 30
0.0
  0
VERTEX
  5
671
  8
RIVERS
 10
602398.99980752997
 20
1767469.000420063
 30
0.0
  0
VERTEX
  5
672
  8
RIVERS
 10
602392.999972463
 20
1767492.000843745
 30
0.0
  0
VERTEX
  5
673
  8
RIVERS
 10
602384.99930906575
 20
1767499.0000991421
 30
0.0
  0
VERTEX
  5
674
  8
RIVERS
 10
602368.00079322909
 20
1767499.9992810551
 30
0.0
  0
VERTEX
  5
675
  8
RIVERS
 10
602336.99962016777
 20
1767486.000794684
 30
0.0
  0
VERTEX
  5
676
  8
RIVERS
 10
602313.00056509639
 20
1767476.99924438
 30
0.0
  0
VERTEX
  5
677
  8
RIVERS
 10
602291.9999522682
 20
1767474.0008390089
 30
0.0
  0
VERTEX
  5
678
  8
RIVERS
 10
602282.00068235619
 20
1767485.9999182951
 30
0.0
  0
VERTEX
  5
679
  8
RIVERS
 10
602268.00061267568
 20
1767511.999966129
 30
0.0
  0
VERTEX
  5
67A
  8
RIVERS
 10
602264.00036275957
 20
1767561.00078011
 30
0.0
  0
VERTEX
  5
67B
  8
RIVERS
 10
602248.99972580699
 20
1767650.0007380119
 30
0.0
  0
VERTEX
  5
67C
  8
RIVERS
 10
602237.99956512521
 20
1767662.0003460019
 30
0.0
  0
VERTEX
  5
67D
  8
RIVERS
 10
602232.00021314481
 20
1767662.0000167841
 30
0.0
  0
VERTEX
  5
67E
  8
RIVERS
 10
602198.99961916392
 20
1767617.0008793441
 30
0.0
  0
VERTEX
  5
67F
  8
RIVERS
 10
602159.99998639734
 20
1767610.999323844
 30
0.0
  0
VERTEX
  5
680
  8
RIVERS
 10
602144.00076786929
 20
1767621.00002043
 30
0.0
  0
VERTEX
  5
681
  8
RIVERS
 10
602126.99975571129
 20
1767637.9998334181
 30
0.0
  0
VERTEX
  5
682
  8
RIVERS
 10
602111.00011812255
 20
1767641.9993082511
 30
0.0
  0
VERTEX
  5
683
  8
RIVERS
 10
602080.99920367671
 20
1767634.9992529531
 30
0.0
  0
VERTEX
  5
684
  8
RIVERS
 10
602062.99924638681
 20
1767653.0004197101
 30
0.0
  0
VERTEX
  5
685
  8
RIVERS
 10
602063.00033862644
 20
1767684.0005602851
 30
0.0
  0
VERTEX
  5
686
  8
RIVERS
 10
602046.00065974845
 20
1767736.999351932
 30
0.0
  0
VERTEX
  5
687
  8
RIVERS
 10
602048.00077924062
 20
1767755.0003086389
 30
0.0
  0
VERTEX
  5
688
  8
RIVERS
 10
602054.99993578612
 20
1767775.0002219661
 30
0.0
  0
VERTEX
  5
689
  8
RIVERS
 10
602046.00044794288
 20
1767833.9994801951
 30
0.0
  0
VERTEX
  5
68A
  8
RIVERS
 10
602030.99964700057
 20
1767863.999861856
 30
0.0
  0
VERTEX
  5
68B
  8
RIVERS
 10
602009.99949213606
 20
1767903.000137025
 30
0.0
  0
VERTEX
  5
68C
  8
RIVERS
 10
601994.99976798438
 20
1767944.999608004
 30
0.0
  0
VERTEX
  5
68D
  8
RIVERS
 10
601930.99992798513
 20
1768004.999569874
 30
0.0
  0
VERTEX
  5
68E
  8
RIVERS
 10
601925.99951004621
 20
1768022.000021447
 30
0.0
  0
VERTEX
  5
68F
  8
RIVERS
 10
601910.99944486865
 20
1768067.0001685841
 30
0.0
  0
VERTEX
  5
690
  8
RIVERS
 10
601882.99952088122
 20
1768097.000670589
 30
0.0
  0
VERTEX
  5
691
  8
RIVERS
 10
601838.99962571554
 20
1768106.0002465141
 30
0.0
  0
VERTEX
  5
692
  8
RIVERS
 10
601798.99957621901
 20
1768140.000098587
 30
0.0
  0
VERTEX
  5
693
  8
RIVERS
 10
601750.99941957428
 20
1768163.0008745361
 30
0.0
  0
VERTEX
  5
694
  8
RIVERS
 10
601730.99969246937
 20
1768175.9994638781
 30
0.0
  0
VERTEX
  5
695
  8
RIVERS
 10
601723.99920333002
 20
1768210.9996224761
 30
0.0
  0
VERTEX
  5
696
  8
RIVERS
 10
601736.00018725544
 20
1768236.000624937
 30
0.0
  0
VERTEX
  5
697
  8
RIVERS
 10
601734.00047674798
 20
1768259.999821705
 30
0.0
  0
VERTEX
  5
698
  8
RIVERS
 10
601715.99967301346
 20
1768286.99966635
 30
0.0
  0
VERTEX
  5
699
  8
RIVERS
 10
601679.99973256642
 20
1768314.000655103
 30
0.0
  0
VERTEX
  5
69A
  8
RIVERS
 10
601675.85746484646
 20
1768318.14299368
 30
0.0
  0
VERTEX
  5
69B
  8
RIVERS
 10
601665.00077489228
 20
1768328.999874498
 30
0.0
  0
VERTEX
  5
69C
  8
RIVERS
 10
601635.00020478223
 20
1768333.999437463
 30
0.0
  0
VERTEX
  5
69D
  8
RIVERS
 10
601610.00071415491
 20
1768329.000526584
 30
0.0
  0
VERTEX
  5
69E
  8
RIVERS
 10
601588.99944464816
 20
1768330.9997876701
 30
0.0
  0
VERTEX
  5
69F
  8
RIVERS
 10
601573.99927922268
 20
1768346.9998363571
 30
0.0
  0
VERTEX
  5
6A0
  8
RIVERS
 10
601562.00072949391
 20
1768364.0007434359
 30
0.0
  0
VERTEX
  5
6A1
  8
RIVERS
 10
601527.00005896529
 20
1768390.0006464489
 30
0.0
  0
VERTEX
  5
6A2
  8
RIVERS
 10
601518.00035132747
 20
1768383.000126618
 30
0.0
  0
VERTEX
  5
6A3
  8
RIVERS
 10
601491.00049379247
 20
1768334.0007928391
 30
0.0
  0
VERTEX
  5
6A4
  8
RIVERS
 10
601469.99925887515
 20
1768323.0003370619
 30
0.0
  0
VERTEX
  5
6A5
  8
RIVERS
 10
601430.999741451
 20
1768309.9996959169
 30
0.0
  0
VERTEX
  5
6A6
  8
RIVERS
 10
601420.00034917786
 20
1768321.999671838
 30
0.0
  0
VERTEX
  5
6A7
  8
RIVERS
 10
601414.0005498128
 20
1768328.999857544
 30
0.0
  0
VERTEX
  5
6A8
  8
RIVERS
 10
601412.99963325274
 20
1768367.999875169
 30
0.0
  0
VERTEX
  5
6A9
  8
RIVERS
 10
601428.00056164502
 20
1768375.999543746
 30
0.0
  0
VERTEX
  5
6AA
  8
RIVERS
 10
601442.00064562575
 20
1768380.0000800679
 30
0.0
  0
VERTEX
  5
6AB
  8
RIVERS
 10
601454.00020983384
 20
1768391.999392784
 30
0.0
  0
VERTEX
  5
6AC
  8
RIVERS
 10
601457.00065873878
 20
1768402.9994338891
 30
0.0
  0
VERTEX
  5
6AD
  8
RIVERS
 10
601454.99935068435
 20
1768421.999878908
 30
0.0
  0
VERTEX
  5
6AE
  8
RIVERS
 10
601430.00007827557
 20
1768451.9992680559
 30
0.0
  0
VERTEX
  5
6AF
  8
RIVERS
 10
601398.00022989686
 20
1768446.0002468319
 30
0.0
  0
VERTEX
  5
6B0
  8
RIVERS
 10
601382.99987539102
 20
1768447.999808033
 30
0.0
  0
VERTEX
  5
6B1
  8
RIVERS
 10
601369.99954375532
 20
1768457.999354108
 30
0.0
  0
VERTEX
  5
6B2
  8
RIVERS
 10
601339.99956675863
 20
1768480.999584998
 30
0.0
  0
VERTEX
  5
6B3
  8
RIVERS
 10
601322.99975257425
 20
1768485.000127967
 30
0.0
  0
VERTEX
  5
6B4
  8
RIVERS
 10
601309.99923424097
 20
1768472.9997355009
 30
0.0
  0
VERTEX
  5
6B5
  8
RIVERS
 10
601298.00011056289
 20
1768474.9994118819
 30
0.0
  0
VERTEX
  5
6B6
  8
RIVERS
 10
601286.00059081765
 20
1768492.9995216159
 30
0.0
  0
VERTEX
  5
6B7
  8
RIVERS
 10
601275.00077720731
 20
1768511.9998536899
 30
0.0
  0
VERTEX
  5
6B8
  8
RIVERS
 10
601267.99945083854
 20
1768530.000599101
 30
0.0
  0
VERTEX
  5
6B9
  8
RIVERS
 10
601254.00041412923
 20
1768553.9996580479
 30
0.0
  0
VERTEX
  5
6BA
  8
RIVERS
 10
601234.99936077348
 20
1768568.0005735939
 30
0.0
  0
VERTEX
  5
6BB
  8
RIVERS
 10
601214.00009882392
 20
1768566.000493333
 30
0.0
  0
VERTEX
  5
6BC
  8
RIVERS
 10
601193.99997721915
 20
1768571.9992445379
 30
0.0
  0
VERTEX
  5
6BD
  8
RIVERS
 10
601172.00079556555
 20
1768560.000561689
 30
0.0
  0
VERTEX
  5
6BE
  8
RIVERS
 10
601148.99971102376
 20
1768554.000259026
 30
0.0
  0
VERTEX
  5
6BF
  8
RIVERS
 10
601140.00021799607
 20
1768576.9992221261
 30
0.0
  0
VERTEX
  5
6C0
  8
RIVERS
 10
601132.99972903566
 20
1768600.9995339341
 30
0.0
  0
VERTEX
  5
6C1
  8
RIVERS
 10
601137.00022569462
 20
1768621.999880455
 30
0.0
  0
VERTEX
  5
6C2
  8
RIVERS
 10
601149.00050138426
 20
1768640.0002524201
 30
0.0
  0
VERTEX
  5
6C3
  8
RIVERS
 10
601182.00006582856
 20
1768673.0004786721
 30
0.0
  0
VERTEX
  5
6C4
  8
RIVERS
 10
601204.99929045513
 20
1768683.000493828
 30
0.0
  0
VERTEX
  5
6C5
  8
RIVERS
 10
601234.99975060311
 20
1768691.999280866
 30
0.0
  0
VERTEX
  5
6C6
  8
RIVERS
 10
601262.99947294535
 20
1768703.999829801
 30
0.0
  0
VERTEX
  5
6C7
  8
RIVERS
 10
601271.00077124557
 20
1768722.0007921751
 30
0.0
  0
VERTEX
  5
6C8
  8
RIVERS
 10
601265.99936244357
 20
1768738.999653996
 30
0.0
  0
VERTEX
  5
6C9
  8
RIVERS
 10
601251.00047236029
 20
1768756.999740673
 30
0.0
  0
VERTEX
  5
6CA
  8
RIVERS
 10
601226.00025547785
 20
1768766.000130466
 30
0.0
  0
VERTEX
  5
6CB
  8
RIVERS
 10
601202.99999699439
 20
1768770.0006832569
 30
0.0
  0
VERTEX
  5
6CC
  8
RIVERS
 10
601179.00062172045
 20
1768766.000754395
 30
0.0
  0
VERTEX
  5
6CD
  8
RIVERS
 10
601154.9992093927
 20
1768761.000065797
 30
0.0
  0
VERTEX
  5
6CE
  8
RIVERS
 10
601138.99926205433
 20
1768748.9997450621
 30
0.0
  0
VERTEX
  5
6CF
  8
RIVERS
 10
601128.00021101756
 20
1768740.000661297
 30
0.0
  0
VERTEX
  5
6D0
  8
RIVERS
 10
601104.00069977797
 20
1768718.9996035299
 30
0.0
  0
VERTEX
  5
6D1
  8
RIVERS
 10
601092.00048038387
 20
1768722.0001429359
 30
0.0
  0
VERTEX
  5
6D2
  8
RIVERS
 10
601085.00014957762
 20
1768742.000779385
 30
0.0
  0
VERTEX
  5
6D3
  8
RIVERS
 10
601091.00010195852
 20
1768761.0001665631
 30
0.0
  0
VERTEX
  5
6D4
  8
RIVERS
 10
601093.99973388133
 20
1768777.9996778669
 30
0.0
  0
VERTEX
  5
6D5
  8
RIVERS
 10
601084.99972714949
 20
1768790.999440772
 30
0.0
  0
VERTEX
  5
6D6
  8
RIVERS
 10
601058.99988810765
 20
1768802.9994920101
 30
0.0
  0
VERTEX
  5
6D7
  8
RIVERS
 10
601046.00049619935
 20
1768801.999233152
 30
0.0
  0
VERTEX
  5
6D8
  8
RIVERS
 10
601028.99952068389
 20
1768793.9992333909
 30
0.0
  0
VERTEX
  5
6D9
  8
RIVERS
 10
601014.00050908921
 20
1768778.000467038
 30
0.0
  0
VERTEX
  5
6DA
  8
RIVERS
 10
601001.99931407545
 20
1768765.9996893189
 30
0.0
  0
VERTEX
  5
6DB
  8
RIVERS
 10
600997.99946085073
 20
1768751.000591652
 30
0.0
  0
VERTEX
  5
6DC
  8
RIVERS
 10
600983.00036409392
 20
1768738.999832938
 30
0.0
  0
VERTEX
  5
6DD
  8
RIVERS
 10
600942.00002507283
 20
1768752.0007740839
 30
0.0
  0
VERTEX
  5
6DE
  8
RIVERS
 10
600914.99939929682
 20
1768752.0008087531
 30
0.0
  0
VERTEX
  5
6DF
  8
RIVERS
 10
600905.00038788607
 20
1768744.999411321
 30
0.0
  0
VERTEX
  5
6E0
  8
RIVERS
 10
600890.00045028725
 20
1768727.0008837511
 30
0.0
  0
VERTEX
  5
6E1
  8
RIVERS
 10
600869.99987769395
 20
1768714.9996483859
 30
0.0
  0
VERTEX
  5
6E2
  8
RIVERS
 10
600857.99923428951
 20
1768725.000598371
 30
0.0
  0
VERTEX
  5
6E3
  8
RIVERS
 10
600854.00061950099
 20
1768757.999405412
 30
0.0
  0
VERTEX
  5
6E4
  8
RIVERS
 10
600851.00042754808
 20
1768797.000548732
 30
0.0
  0
VERTEX
  5
6E5
  8
RIVERS
 10
600839.00024969084
 20
1768808.0005809879
 30
0.0
  0
VERTEX
  5
6E6
  8
RIVERS
 10
600821.00022029842
 20
1768821.0004863769
 30
0.0
  0
VERTEX
  5
6E7
  8
RIVERS
 10
600820.9997559851
 20
1768832.0004580161
 30
0.0
  0
VERTEX
  5
6E8
  8
RIVERS
 10
600802.99922064657
 20
1768872.000771753
 30
0.0
  0
VERTEX
  5
6E9
  8
RIVERS
 10
600775.99998380896
 20
1768874.9998820701
 30
0.0
  0
VERTEX
  5
6EA
  8
RIVERS
 10
600761.99966160115
 20
1768885.999397089
 30
0.0
  0
VERTEX
  5
6EB
  8
RIVERS
 10
600746.00036318495
 20
1768904.000363935
 30
0.0
  0
VERTEX
  5
6EC
  8
RIVERS
 10
600741.00059304736
 20
1768931.9992995721
 30
0.0
  0
VERTEX
  5
6ED
  8
RIVERS
 10
600740.9997359548
 20
1768949.9995553361
 30
0.0
  0
VERTEX
  5
6EE
  8
RIVERS
 10
600730.00055589213
 20
1768996.9995818781
 30
0.0
  0
VERTEX
  5
6EF
  8
RIVERS
 10
600710.00013643643
 20
1769005.0002785609
 30
0.0
  0
VERTEX
  5
6F0
  8
RIVERS
 10
600666.99942206801
 20
1769004.000556319
 30
0.0
  0
VERTEX
  5
6F1
  8
RIVERS
 10
600630.00015885988
 20
1769000.9993153189
 30
0.0
  0
VERTEX
  5
6F2
  8
RIVERS
 10
600604.99930895574
 20
1769019.0004918431
 30
0.0
  0
VERTEX
  5
6F3
  8
RIVERS
 10
600585.00066876761
 20
1769039.000334729
 30
0.0
  0
VERTEX
  5
6F4
  8
RIVERS
 10
600575.0005798135
 20
1769056.999615378
 30
0.0
  0
VERTEX
  5
6F5
  8
RIVERS
 10
600563.99958802829
 20
1769079.0008614659
 30
0.0
  0
VERTEX
  5
6F6
  8
RIVERS
 10
600554.99966214458
 20
1769103.0007849841
 30
0.0
  0
VERTEX
  5
6F7
  8
RIVERS
 10
600545.99968352437
 20
1769114.9999783791
 30
0.0
  0
VERTEX
  5
6F8
  8
RIVERS
 10
600519.00001307239
 20
1769124.0005917861
 30
0.0
  0
VERTEX
  5
6F9
  8
RIVERS
 10
600496.99997923418
 20
1769129.0003273271
 30
0.0
  0
VERTEX
  5
6FA
  8
RIVERS
 10
600479.00066826434
 20
1769122.9994744561
 30
0.0
  0
VERTEX
  5
6FB
  8
RIVERS
 10
600460.99923191546
 20
1769111.9998837661
 30
0.0
  0
VERTEX
  5
6FC
  8
RIVERS
 10
600452.0007063509
 20
1769099.9993517599
 30
0.0
  0
VERTEX
  5
6FD
  8
RIVERS
 10
600455.00043194392
 20
1769084.9996456311
 30
0.0
  0
VERTEX
  5
6FE
  8
RIVERS
 10
600468.00038410816
 20
1769076.000379934
 30
0.0
  0
VERTEX
  5
6FF
  8
RIVERS
 10
600484.99987713119
 20
1769060.9992506199
 30
0.0
  0
VERTEX
  5
700
  8
RIVERS
 10
600489.00051597715
 20
1769041.999287321
 30
0.0
  0
VERTEX
  5
701
  8
RIVERS
 10
600484.99989254726
 20
1769018.0001738821
 30
0.0
  0
VERTEX
  5
702
  8
RIVERS
 10
600477.00026586594
 20
1769012.99931887
 30
0.0
  0
VERTEX
  5
703
  8
RIVERS
 10
600455.0005699594
 20
1769018.999878207
 30
0.0
  0
VERTEX
  5
704
  8
RIVERS
 10
600436.9992119458
 20
1769024.0007244991
 30
0.0
  0
VERTEX
  5
705
  8
RIVERS
 10
600417.00026422006
 20
1769039.000261606
 30
0.0
  0
VERTEX
  5
706
  8
RIVERS
 10
600385.99947141646
 20
1769058.0008795641
 30
0.0
  0
VERTEX
  5
707
  8
RIVERS
 10
600369.00036942679
 20
1769066.0000977351
 30
0.0
  0
VERTEX
  5
708
  8
RIVERS
 10
600351.00023385719
 20
1769066.0005704861
 30
0.0
  0
VERTEX
  5
709
  8
RIVERS
 10
600330.00044389779
 20
1769054.0004076031
 30
0.0
  0
VERTEX
  5
70A
  8
RIVERS
 10
600320.99924686295
 20
1769036.000417731
 30
0.0
  0
VERTEX
  5
70B
  8
RIVERS
 10
600324.00018172036
 20
1769023.99961114
 30
0.0
  0
VERTEX
  5
70C
  8
RIVERS
 10
600328.99983444076
 20
1768996.9996717931
 30
0.0
  0
VERTEX
  5
70D
  8
RIVERS
 10
600339.00028560613
 20
1768961.0000527641
 30
0.0
  0
VERTEX
  5
70E
  8
RIVERS
 10
600316.00055247964
 20
1768922.9998173511
 30
0.0
  0
VERTEX
  5
70F
  8
RIVERS
 10
600291.00067332748
 20
1768916.0008235611
 30
0.0
  0
VERTEX
  5
710
  8
RIVERS
 10
600277.99984914821
 20
1768923.000354243
 30
0.0
  0
VERTEX
  5
711
  8
RIVERS
 10
600264.00076832203
 20
1768939.999686749
 30
0.0
  0
VERTEX
  5
712
  8
RIVERS
 10
600258.00037715549
 20
1768952.000596974
 30
0.0
  0
VERTEX
  5
713
  8
RIVERS
 10
600262.99995541561
 20
1768967.0006358169
 30
0.0
  0
VERTEX
  5
714
  8
RIVERS
 10
600265.99996961246
 20
1768994.9999628731
 30
0.0
  0
VERTEX
  5
715
  8
RIVERS
 10
600256.99976033194
 20
1769009.999873616
 30
0.0
  0
VERTEX
  5
716
  8
RIVERS
 10
600240.00016608078
 20
1769013.000447212
 30
0.0
  0
VERTEX
  5
717
  8
RIVERS
 10
600221.99990876962
 20
1769008.9996427291
 30
0.0
  0
VERTEX
  5
718
  8
RIVERS
 10
600204.00001145434
 20
1769020.9992552949
 30
0.0
  0
VERTEX
  5
719
  8
RIVERS
 10
600188.99931830284
 20
1769020.999756831
 30
0.0
  0
VERTEX
  5
71A
  8
RIVERS
 10
600169.99969600607
 20
1769012.9999243789
 30
0.0
  0
VERTEX
  5
71B
  8
RIVERS
 10
600134.99927669659
 20
1769022.0007123321
 30
0.0
  0
VERTEX
  5
71C
  8
RIVERS
 10
600099.00063317723
 20
1769007.0007371581
 30
0.0
  0
VERTEX
  5
71D
  8
RIVERS
 10
600071.00001184363
 20
1768996.999790353
 30
0.0
  0
VERTEX
  5
71E
  8
RIVERS
 10
600050.99944651139
 20
1769018.9999102289
 30
0.0
  0
VERTEX
  5
71F
  8
RIVERS
 10
600035.00075708551
 20
1769047.9996129761
 30
0.0
  0
VERTEX
  5
720
  8
RIVERS
 10
600023.99926950247
 20
1769089.9994490261
 30
0.0
  0
VERTEX
  5
721
  8
RIVERS
 10
600005.99998406623
 20
1769102.9999781209
 30
0.0
  0
VERTEX
  5
722
  8
RIVERS
 10
599952.00061879575
 20
1769105.0004387959
 30
0.0
  0
VERTEX
  5
723
  8
RIVERS
 10
599894.00081093493
 20
1769150.9998723499
 30
0.0
  0
VERTEX
  5
724
  8
RIVERS
 10
599790.00009093969
 20
1769159.9994085911
 30
0.0
  0
VERTEX
  5
725
  8
RIVERS
 10
599762.00040993013
 20
1769181.0005478789
 30
0.0
  0
VERTEX
  5
726
  8
RIVERS
 10
599738.00013944134
 20
1769177.9995228809
 30
0.0
  0
VERTEX
  5
727
  8
RIVERS
 10
599714.00014881964
 20
1769171.999623752
 30
0.0
  0
VERTEX
  5
728
  8
RIVERS
 10
599668.99937849434
 20
1769174.0002655671
 30
0.0
  0
VERTEX
  5
729
  8
RIVERS
 10
599636.0006587666
 20
1769178.0001366041
 30
0.0
  0
VERTEX
  5
72A
  8
RIVERS
 10
599627.00049539073
 20
1769191.9995019441
 30
0.0
  0
VERTEX
  5
72B
  8
RIVERS
 10
599621.00016319868
 20
1769213.999720104
 30
0.0
  0
VERTEX
  5
72C
  8
RIVERS
 10
599620.99963163573
 20
1769219.9992234821
 30
0.0
  0
VERTEX
  5
72D
  8
RIVERS
 10
599608.99954114424
 20
1769258.0001827199
 30
0.0
  0
VERTEX
  5
72E
  8
RIVERS
 10
599596.99952330207
 20
1769271.0006699821
 30
0.0
  0
VERTEX
  5
72F
  8
RIVERS
 10
599558.00004388485
 20
1769266.9999690179
 30
0.0
  0
VERTEX
  5
730
  8
RIVERS
 10
599534.00030601805
 20
1769264.9999242951
 30
0.0
  0
VERTEX
  5
731
  8
RIVERS
 10
599497.99973735865
 20
1769267.0003423239
 30
0.0
  0
VERTEX
  5
732
  8
RIVERS
 10
599468.00003521191
 20
1769298.00056431
 30
0.0
  0
VERTEX
  5
733
  8
RIVERS
 10
599456.00010018738
 20
1769317.999683965
 30
0.0
  0
VERTEX
  5
734
  8
RIVERS
 10
599440.9992993765
 20
1769349.0006492189
 30
0.0
  0
VERTEX
  5
735
  8
RIVERS
 10
599423.00048408192
 20
1769396.9995627759
 30
0.0
  0
VERTEX
  5
736
  8
RIVERS
 10
599396.00048106164
 20
1769420.9993874449
 30
0.0
  0
VERTEX
  5
737
  8
RIVERS
 10
599356.99958978524
 20
1769423.9992827771
 30
0.0
  0
VERTEX
  5
738
  8
RIVERS
 10
599312.00034657901
 20
1769421.0001888741
 30
0.0
  0
VERTEX
  5
739
  8
RIVERS
 10
599293.99964459694
 20
1769433.0004894331
 30
0.0
  0
VERTEX
  5
73A
  8
RIVERS
 10
599261.00034637714
 20
1769465.999314629
 30
0.0
  0
VERTEX
  5
73B
  8
RIVERS
 10
599228.00021462608
 20
1769458.9998337999
 30
0.0
  0
VERTEX
  5
73C
  8
RIVERS
 10
599197.99921920139
 20
1769448.000494302
 30
0.0
  0
VERTEX
  5
73D
  8
RIVERS
 10
599176.99966879224
 20
1769430.000228965
 30
0.0
  0
VERTEX
  5
73E
  8
RIVERS
 10
599147.00032013166
 20
1769425.9995373019
 30
0.0
  0
VERTEX
  5
73F
  8
RIVERS
 10
599126.00009279279
 20
1769416.9994212361
 30
0.0
  0
VERTEX
  5
740
  8
RIVERS
 10
599077.99927022925
 20
1769429.999684223
 30
0.0
  0
VERTEX
  5
741
  8
RIVERS
 10
599050.99941438728
 20
1769450.000257836
 30
0.0
  0
VERTEX
  5
742
  8
RIVERS
 10
599023.99978014827
 20
1769450.0008377109
 30
0.0
  0
VERTEX
  5
743
  8
RIVERS
 10
598973.00005641207
 20
1769457.0003934461
 30
0.0
  0
VERTEX
  5
744
  8
RIVERS
 10
598936.99946161639
 20
1769448.000070272
 30
0.0
  0
VERTEX
  5
745
  8
RIVERS
 10
598909.99952768674
 20
1769443.9994162121
 30
0.0
  0
VERTEX
  5
746
  8
RIVERS
 10
598889.00068907032
 20
1769447.9992854311
 30
0.0
  0
VERTEX
  5
747
  8
RIVERS
 10
598825.99993477436
 20
1769448.0000130259
 30
0.0
  0
VERTEX
  5
748
  8
RIVERS
 10
598801.9994017412
 20
1769454.0000680911
 30
0.0
  0
VERTEX
  5
749
  8
RIVERS
 10
598759.9994352957
 20
1769443.9998439001
 30
0.0
  0
VERTEX
  5
74A
  8
RIVERS
 10
598739.00073815719
 20
1769435.0001080551
 30
0.0
  0
VERTEX
  5
74B
  8
RIVERS
 10
598727.00027061568
 20
1769425.9995002639
 30
0.0
  0
VERTEX
  5
74C
  8
RIVERS
 10
598720.99970024149
 20
1769406.000086467
 30
0.0
  0
VERTEX
  5
74D
  8
RIVERS
 10
598739.00038321223
 20
1769387.9998577731
 30
0.0
  0
VERTEX
  5
74E
  8
RIVERS
 10
598843.99940219068
 20
1769324.0003400559
 30
0.0
  0
VERTEX
  5
74F
  8
RIVERS
 10
598838.00022962189
 20
1769299.999539288
 30
0.0
  0
VERTEX
  5
750
  8
RIVERS
 10
598810.00066367141
 20
1769288.9994334071
 30
0.0
  0
VERTEX
  5
751
  8
RIVERS
 10
598771.99956789287
 20
1769280.0007203941
 30
0.0
  0
VERTEX
  5
752
  8
RIVERS
 10
598732.00038037112
 20
1769294.9996668319
 30
0.0
  0
VERTEX
  5
753
  8
RIVERS
 10
598697.00076483388
 20
1769299.999601118
 30
0.0
  0
VERTEX
  5
754
  8
RIVERS
 10
598663.99968578096
 20
1769281.999360177
 30
0.0
  0
VERTEX
  5
755
  8
RIVERS
 10
598631.0000559527
 20
1769266.999775006
 30
0.0
  0
VERTEX
  5
756
  8
RIVERS
 10
598579.9996260585
 20
1769234.0002599009
 30
0.0
  0
VERTEX
  5
757
  8
RIVERS
 10
598555.99996205035
 20
1769215.999251958
 30
0.0
  0
VERTEX
  5
758
  8
RIVERS
 10
598540.99957452808
 20
1769187.0007895599
 30
0.0
  0
VERTEX
  5
759
  8
RIVERS
 10
598526.00068765902
 20
1769160.9995354421
 30
0.0
  0
VERTEX
  5
75A
  8
RIVERS
 10
598494.0003294762
 20
1769152.999744714
 30
0.0
  0
VERTEX
  5
75B
  8
RIVERS
 10
598459.99945466465
 20
1769153.9997229041
 30
0.0
  0
VERTEX
  5
75C
  8
RIVERS
 10
598423.99963253993
 20
1769150.9997519411
 30
0.0
  0
VERTEX
  5
75D
  8
RIVERS
 10
598397.99978373712
 20
1769127.000801316
 30
0.0
  0
VERTEX
  5
75E
  8
RIVERS
 10
598363.99998700758
 20
1769110.999850549
 30
0.0
  0
VERTEX
  5
75F
  8
RIVERS
 10
598340.00025081786
 20
1769102.999932854
 30
0.0
  0
VERTEX
  5
760
  8
RIVERS
 10
598306.99970545038
 20
1769103.000395281
 30
0.0
  0
VERTEX
  5
761
  8
RIVERS
 10
598271.00040557294
 20
1769117.000076974
 30
0.0
  0
VERTEX
  5
762
  8
RIVERS
 10
598244.0005420841
 20
1769133.0002302791
 30
0.0
  0
VERTEX
  5
763
  8
RIVERS
 10
598198.99979183427
 20
1769144.000510992
 30
0.0
  0
VERTEX
  5
764
  8
RIVERS
 10
598172.99964259041
 20
1769145.0005133899
 30
0.0
  0
VERTEX
  5
765
  8
RIVERS
 10
598148.99937103549
 20
1769136.0000318079
 30
0.0
  0
VERTEX
  5
766
  8
RIVERS
 10
598112.99990564003
 20
1769115.0004441489
 30
0.0
  0
VERTEX
  5
767
  8
RIVERS
 10
598098.99999430205
 20
1769076.9998678709
 30
0.0
  0
VERTEX
  5
768
  8
RIVERS
 10
598088.99983379175
 20
1769013.0004810749
 30
0.0
  0
VERTEX
  5
769
  8
RIVERS
 10
598072.99920648523
 20
1768967.999365553
 30
0.0
  0
VERTEX
  5
76A
  8
RIVERS
 10
598071.00052845269
 20
1768945.999281717
 30
0.0
  0
VERTEX
  5
76B
  8
RIVERS
 10
598074.0004116809
 20
1768924.9998709951
 30
0.0
  0
VERTEX
  5
76C
  8
RIVERS
 10
598066.99917897396
 20
1768910.0000938941
 30
0.0
  0
VERTEX
  5
76D
  8
RIVERS
 10
598059.54517679755
 20
1768903.6637539761
 30
0.0
  0
VERTEX
  5
76E
  8
RIVERS
 10
598046.99970143847
 20
1768892.999361265
 30
0.0
  0
VERTEX
  5
76F
  8
RIVERS
 10
598018.99936297035
 20
1768909.9995567901
 30
0.0
  0
VERTEX
  5
770
  8
RIVERS
 10
598013.0007921732
 20
1768919.9994829779
 30
0.0
  0
VERTEX
  5
771
  8
RIVERS
 10
597990.00041498255
 20
1768922.0000832721
 30
0.0
  0
VERTEX
  5
772
  8
RIVERS
 10
597970.99958989525
 20
1768907.0002362351
 30
0.0
  0
VERTEX
  5
773
  8
RIVERS
 10
597973.99959599809
 20
1768870.9995902129
 30
0.0
  0
VERTEX
  5
774
  8
RIVERS
 10
597973.99999412184
 20
1768843.9993972529
 30
0.0
  0
VERTEX
  5
775
  8
RIVERS
 10
597958.99941836577
 20
1768834.999648971
 30
0.0
  0
VERTEX
  5
776
  8
RIVERS
 10
597914.99971036415
 20
1768847.000594178
 30
0.0
  0
VERTEX
  5
777
  8
RIVERS
 10
597887.99950857298
 20
1768840.999709229
 30
0.0
  0
VERTEX
  5
778
  8
RIVERS
 10
597864.00053208577
 20
1768822.9995142119
 30
0.0
  0
VERTEX
  5
779
  8
RIVERS
 10
597852.00008334662
 20
1768797.00006063
 30
0.0
  0
VERTEX
  5
77A
  8
RIVERS
 10
597847.99936322798
 20
1768769.000249608
 30
0.0
  0
VERTEX
  5
77B
  8
RIVERS
 10
597839.00001142221
 20
1768743.000390067
 30
0.0
  0
VERTEX
  5
77C
  8
RIVERS
 10
597817.99966259464
 20
1768748.000352836
 30
0.0
  0
VERTEX
  5
77D
  8
RIVERS
 10
597783.00012029707
 20
1768742.0001731331
 30
0.0
  0
VERTEX
  5
77E
  8
RIVERS
 10
597758.00064795779
 20
1768706.9997574489
 30
0.0
  0
VERTEX
  5
77F
  8
RIVERS
 10
597733.9998817849
 20
1768659.0006530629
 30
0.0
  0
VERTEX
  5
780
  8
RIVERS
 10
597694.99926140183
 20
1768609.9996213829
 30
0.0
  0
VERTEX
  5
781
  8
RIVERS
 10
597705.00046604022
 20
1768562.000141274
 30
0.0
  0
VERTEX
  5
782
  8
RIVERS
 10
597689.99959762138
 20
1768544.0005330341
 30
0.0
  0
VERTEX
  5
783
  8
RIVERS
 10
597662.00022196339
 20
1768518.000745802
 30
0.0
  0
VERTEX
  5
784
  8
RIVERS
 10
597647.00039024383
 20
1768492.999244696
 30
0.0
  0
VERTEX
  5
785
  8
RIVERS
 10
597634.99949254259
 20
1768466.999949604
 30
0.0
  0
VERTEX
  5
786
  8
RIVERS
 10
597644.00081544649
 20
1768451.0000177219
 30
0.0
  0
VERTEX
  5
787
  8
RIVERS
 10
597664.99918405351
 20
1768438.9996421731
 30
0.0
  0
VERTEX
  5
788
  8
RIVERS
 10
597688.99930033775
 20
1768443.0008366969
 30
0.0
  0
VERTEX
  5
789
  8
RIVERS
 10
597704.00028194976
 20
1768434.000284041
 30
0.0
  0
VERTEX
  5
78A
  8
RIVERS
 10
597713.99987147481
 20
1768410.0003695411
 30
0.0
  0
VERTEX
  5
78B
  8
RIVERS
 10
597715.99960111745
 20
1768388.0008977139
 30
0.0
  0
VERTEX
  5
78C
  8
RIVERS
 10
597708.00028949778
 20
1768378.9997483499
 30
0.0
  0
VERTEX
  5
78D
  8
RIVERS
 10
597681.00001473422
 20
1768368.0004605029
 30
0.0
  0
VERTEX
  5
78E
  8
RIVERS
 10
597661.99961321242
 20
1768375.9997328999
 30
0.0
  0
VERTEX
  5
78F
  8
RIVERS
 10
597642.00048838963
 20
1768390.9999751879
 30
0.0
  0
VERTEX
  5
790
  8
RIVERS
 10
597624.00049774151
 20
1768388.9994594629
 30
0.0
  0
VERTEX
  5
791
  8
RIVERS
 10
597580.99934519571
 20
1768377.0008019679
 30
0.0
  0
VERTEX
  5
792
  8
RIVERS
 10
597558.00064324599
 20
1768373.9997873891
 30
0.0
  0
VERTEX
  5
793
  8
RIVERS
 10
597542.00021120172
 20
1768353.0004271029
 30
0.0
  0
VERTEX
  5
794
  8
RIVERS
 10
597538.99997982883
 20
1768330.999452905
 30
0.0
  0
VERTEX
  5
795
  8
RIVERS
 10
597542.99923954904
 20
1768307.9994680011
 30
0.0
  0
VERTEX
  5
796
  8
RIVERS
 10
597555.00050760468
 20
1768269.0002478161
 30
0.0
  0
VERTEX
  5
797
  8
RIVERS
 10
597562.99919697607
 20
1768243.999252843
 30
0.0
  0
VERTEX
  5
798
  8
RIVERS
 10
597569.99969013652
 20
1768221.000505893
 30
0.0
  0
VERTEX
  5
799
  8
RIVERS
 10
597569.00027355109
 20
1768200.000551472
 30
0.0
  0
VERTEX
  5
79A
  8
RIVERS
 10
597551.00051439903
 20
1768172.000722863
 30
0.0
  0
VERTEX
  5
79B
  8
RIVERS
 10
597540.00045354653
 20
1768172.99921252
 30
0.0
  0
VERTEX
  5
79C
  8
RIVERS
 10
597521.00044123223
 20
1768172.9993374411
 30
0.0
  0
VERTEX
  5
79D
  8
RIVERS
 10
597506.00039056502
 20
1768171.9992134089
 30
0.0
  0
VERTEX
  5
79E
  8
RIVERS
 10
597501.99923275679
 20
1768161.999602508
 30
0.0
  0
VERTEX
  5
79F
  8
RIVERS
 10
597500.00000609655
 20
1768155.00082002
 30
0.0
  0
VERTEX
  5
7A0
  8
RIVERS
 10
597506.00012126542
 20
1768138.999610794
 30
0.0
  0
VERTEX
  5
7A1
  8
RIVERS
 10
597501.00012181059
 20
1768120.9997350399
 30
0.0
  0
VERTEX
  5
7A2
  8
RIVERS
 10
597494.99953701929
 20
1768083.000677987
 30
0.0
  0
VERTEX
  5
7A3
  8
RIVERS
 10
597491.99963211233
 20
1768046.999267003
 30
0.0
  0
VERTEX
  5
7A4
  8
RIVERS
 10
597473.00037946214
 20
1768024.9997049209
 30
0.0
  0
VERTEX
  5
7A5
  8
RIVERS
 10
597468.00049229106
 20
1768021.999346632
 30
0.0
  0
VERTEX
  5
7A6
  8
RIVERS
 10
597448.00043037685
 20
1768018.0006250951
 30
0.0
  0
VERTEX
  5
7A7
  8
RIVERS
 10
597443.00022088957
 20
1768035.0001777951
 30
0.0
  0
VERTEX
  5
7A8
  8
RIVERS
 10
597436.00022198807
 20
1768047.000794803
 30
0.0
  0
VERTEX
  5
7A9
  8
RIVERS
 10
597428.00036632293
 20
1768057.999666061
 30
0.0
  0
VERTEX
  5
7AA
  8
RIVERS
 10
597407.999491147
 20
1768073.000114287
 30
0.0
  0
VERTEX
  5
7AB
  8
RIVERS
 10
597389.00003242423
 20
1768080.0005791711
 30
0.0
  0
VERTEX
  5
7AC
  8
RIVERS
 10
597375.00036302791
 20
1768080.999643432
 30
0.0
  0
VERTEX
  5
7AD
  8
RIVERS
 10
597359.99968707003
 20
1768079.0005675971
 30
0.0
  0
VERTEX
  5
7AE
  8
RIVERS
 10
597344.00077943469
 20
1768075.9997764949
 30
0.0
  0
VERTEX
  5
7AF
  8
RIVERS
 10
597329.99931175297
 20
1768068.0005174361
 30
0.0
  0
VERTEX
  5
7B0
  8
RIVERS
 10
597326.00078398373
 20
1768057.0001900941
 30
0.0
  0
VERTEX
  5
7B1
  8
RIVERS
 10
597325.99945708318
 20
1768042.99974704
 30
0.0
  0
VERTEX
  5
7B2
  8
RIVERS
 10
597326.99965485185
 20
1768029.999328335
 30
0.0
  0
VERTEX
  5
7B3
  8
RIVERS
 10
597329.0008045414
 20
1768016.9998911831
 30
0.0
  0
VERTEX
  5
7B4
  8
RIVERS
 10
597329.99935631291
 20
1768003.9994765951
 30
0.0
  0
VERTEX
  5
7B5
  8
RIVERS
 10
597330.00080112019
 20
1767992.0005561849
 30
0.0
  0
VERTEX
  5
7B6
  8
RIVERS
 10
597327.00043867202
 20
1767978.999667279
 30
0.0
  0
VERTEX
  5
7B7
  8
RIVERS
 10
597320.99996895378
 20
1767968.0007985451
 30
0.0
  0
VERTEX
  5
7B8
  8
RIVERS
 10
597312.99976891687
 20
1767958.000757202
 30
0.0
  0
VERTEX
  5
7B9
  8
RIVERS
 10
597303.00042690639
 20
1767950.0003029581
 30
0.0
  0
VERTEX
  5
7BA
  8
RIVERS
 10
597289.99926758208
 20
1767940.999594104
 30
0.0
  0
VERTEX
  5
7BB
  8
RIVERS
 10
597275.00058373692
 20
1767934.000179352
 30
0.0
  0
VERTEX
  5
7BC
  8
RIVERS
 10
597261.00065660104
 20
1767925.9992853771
 30
0.0
  0
VERTEX
  5
7BD
  8
RIVERS
 10
597075.35009919852
 20
1767835.999629921
 30
0.0
  0
VERTEX
  5
7BE
  8
RIVERS
 10
596942.69376423769
 20
1767868.617245232
 30
0.0
  0
VERTEX
  5
7BF
  8
RIVERS
 10
596812.07472846471
 20
1767913.466994623
 30
0.0
  0
VERTEX
  5
7C0
  8
RIVERS
 10
596756.96826992754
 20
1767913.466994623
 30
0.0
  0
VERTEX
  5
7C1
  8
RIVERS
 10
596655.40145185043
 20
1767874.970008716
 30
0.0
  0
VERTEX
  5
7C2
  8
RIVERS
 10
596535.59003982146
 20
1767787.202121984
 30
0.0
  0
VERTEX
  5
7C3
  8
RIVERS
 10
596500.44248796825
 20
1767739.3302662109
 30
0.0
  0
VERTEX
  5
7C4
  8
RIVERS
 10
596401.40158961725
 20
1767710.609688781
 30
0.0
  0
VERTEX
  5
7C5
  8
RIVERS
 10
596297.55730293319
 20
1767718.5855135941
 30
0.0
  0
VERTEX
  5
7C6
  8
RIVERS
 10
596223.09650210675
 20
1767772.7467320189
 30
0.0
  0
VERTEX
  5
7C7
  8
RIVERS
 10
596158.05199874938
 20
1767783.8418778251
 30
0.0
  0
VERTEX
  5
7C8
  8
RIVERS
 10
596124.72642178088
 20
1767802.86212778
 30
0.0
  0
VERTEX
  5
7C9
  8
RIVERS
 10
596083.47525406617
 20
1767897.954924105
 30
0.0
  0
VERTEX
  5
7CA
  8
RIVERS
 10
595886.73509341304
 20
1768061.1993893769
 30
0.0
  0
VERTEX
  5
7CB
  8
RIVERS
 10
595878.80122096464
 20
1768100.820683392
 30
0.0
  0
VERTEX
  5
7CC
  8
RIVERS
 10
595891.48879151978
 20
1768127.76181077
 30
0.0
  0
VERTEX
  5
7CD
  8
RIVERS
 10
595883.56320077565
 20
1768154.707164872
 30
0.0
  0
VERTEX
  5
7CE
  8
RIVERS
 10
595782.01294610475
 20
1768235.5347737309
 30
0.0
  0
VERTEX
  5
7CF
  8
RIVERS
 10
595550.0
 20
1768470.0
 30
0.0
  0
VERTEX
  5
7D0
  8
RIVERS
 10
595280.0
 20
1768580.0
 30
0.0
  0
VERTEX
  5
7D1
  8
RIVERS
 10
595020.0
 20
1768630.0
 30
0.0
  0
VERTEX
  5
7D2
  8
RIVERS
 10
594840.0
 20
1768610.0
 30
0.0
  0
VERTEX
  5
7D3
  8
RIVERS
 10
594640.0
 20
1768540.0
 30
0.0
  0
VERTEX
  5
7D4
  8
RIVERS
 10
594380.0
 20
1768570.0
 30
0.0
  0
VERTEX
  5
7D5
  8
RIVERS
 10
594190.0
 20
1768750.0
 30
0.0
  0
VERTEX
  5
7D6
  8
RIVERS
 10
594040.0
 20
1768880.0
 30
0.0
  0
VERTEX
  5
7D7
  8
RIVERS
 10
593980.0
 20
1768930.0
 30
0.0
  0
VERTEX
  5
7D8
  8
RIVERS
 10
593840.0
 20
1768950.0
 30
0.0
  0
VERTEX
  5
7D9
  8
RIVERS
 10
593770.0
 20
1769020.0
 30
0.0
  0
VERTEX
  5
7DA
  8
RIVERS
 10
593700.0
 20
1769060.0
 30
0.0
  0
VERTEX
  5
7DB
  8
RIVERS
 10
593640.0
 20
1769110.0
 30
0.0
  0
VERTEX
  5
7DC
  8
RIVERS
 10
593520.0
 20
1769090.0
 30
0.0
  0
VERTEX
  5
7DD
  8
RIVERS
 10
593460.0
 20
1769060.0
 30
0.0
  0
VERTEX
  5
7DE
  8
RIVERS
 10
593360.0
 20
1769030.0
 30
0.0
  0
VERTEX
  5
7DF
  8
RIVERS
 10
593280.0
 20
1768980.0
 30
0.0
  0
VERTEX
  5
7E0
  8
RIVERS
 10
593200.0
 20
1768970.0
 30
0.0
  0
VERTEX
  5
7E1
  8
RIVERS
 10
593070.0
 20
1768980.0
 30
0.0
  0
VERTEX
  5
7E2
  8
RIVERS
 10
592990.0
 20
1769020.0
 30
0.0
  0
VERTEX
  5
7E3
  8
RIVERS
 10
592890.0
 20
1769090.0
 30
0.0
  0
VERTEX
  5
7E4
  8
RIVERS
 10
592760.0
 20
1769080.0
 30
0.0
  0
VERTEX
  5
7E5
  8
RIVERS
 10
592670.0
 20
1769100.0
 30
0.0
  0
VERTEX
  5
7E6
  8
RIVERS
 10
592560.0
 20
1769080.0
 30
0.0
  0
VERTEX
  5
7E7
  8
RIVERS
 10
592440.0
 20
1769040.0
 30
0.0
  0
SEQEND
  5
7E8
  8
RIVERS
  0
POLYLINE
  5
A2
  8
RIVERS
 66
     1
 10
0.0
 20
0.0
 30
0.0
  0
VERTEX
  5
7E9
  8
RIVERS
 10
605976.26884499379
 20
1766731.4303142631
 30
0.0
  0
VERTEX
  5
7EA
  8
RIVERS
 10
605976.26884499379
 20
1766731.4303142631
 30
0.0
  0
VERTEX
  5
7EB
  8
RIVERS
 10
605923.96988411993
 20
1766756.9977569231
 30
0.0
  0
VERTEX
  5
7EC
  8
RIVERS
 10
605923.96988411993
 20
1766756.9977569231
 30
0.0
  0
VERTEX
  5
7ED
  8
RIVERS
 10
605877.22794664104
 20
1766765.8907804571
 30
0.0
  0
VERTEX
  5
7EE
  8
RIVERS
 10
605836.05131426465
 20
1766778.1186878169
 30
0.0
  0
VERTEX
  5
7EF
  8
RIVERS
 10
605784.85382002394
 20
1766795.9089616069
 30
0.0
  0
VERTEX
  5
7F0
  8
RIVERS
 10
605750.99921220075
 20
1766836.9997882701
 30
0.0
  0
VERTEX
  5
7F1
  8
RIVERS
 10
605721.00050992868
 20
1766842.999906891
 30
0.0
  0
VERTEX
  5
7F2
  8
RIVERS
 10
605620.99926415877
 20
1766795.00014409
 30
0.0
  0
VERTEX
  5
7F3
  8
RIVERS
 10
605486.16588290792
 20
1766753.743180821
 30
0.0
  0
VERTEX
  5
7F4
  8
RIVERS
 10
605376.11859991588
 20
1766820.419723714
 30
0.0
  0
VERTEX
  5
7F5
  8
RIVERS
 10
605294.93305542704
 20
1766802.3969802021
 30
0.0
  0
VERTEX
  5
7F6
  8
RIVERS
 10
605147.00525825645
 20
1766876.28431119
 30
0.0
  0
VERTEX
  5
7F7
  8
RIVERS
 10
605045.97675094008
 20
1766960.9793708739
 30
0.0
  0
VERTEX
  5
7F8
  8
RIVERS
 10
604995.45835642889
 20
1766955.5733931649
 30
0.0
  0
VERTEX
  5
7F9
  8
RIVERS
 10
604928.70782204345
 20
1766988.013486142
 30
0.0
  0
VERTEX
  5
7FA
  8
RIVERS
 10
604890.00015252607
 20
1767015.0001370199
 30
0.0
  0
VERTEX
  5
7FB
  8
RIVERS
 10
604852.99941483967
 20
1766990.999475844
 30
0.0
  0
VERTEX
  5
7FC
  8
RIVERS
 10
604823.99924575433
 20
1766984.0004429889
 30
0.0
  0
VERTEX
  5
7FD
  8
RIVERS
 10
604775.00061104307
 20
1766972.9995432829
 30
0.0
  0
VERTEX
  5
7FE
  8
RIVERS
 10
604741.9993389966
 20
1766957.99937591
 30
0.0
  0
VERTEX
  5
7FF
  8
RIVERS
 10
604703.99919223797
 20
1766927.9998122191
 30
0.0
  0
VERTEX
  5
800
  8
RIVERS
 10
604683.00007388636
 20
1766911.999234288
 30
0.0
  0
VERTEX
  5
801
  8
RIVERS
 10
604661.99973048305
 20
1766890.999892069
 30
0.0
  0
VERTEX
  5
802
  8
RIVERS
 10
604637.99925289862
 20
1766862.000652116
 30
0.0
  0
VERTEX
  5
803
  8
RIVERS
 10
604619.00030465599
 20
1766858.9992540311
 30
0.0
  0
VERTEX
  5
804
  8
RIVERS
 10
604584.00044780993
 20
1766873.000647862
 30
0.0
  0
VERTEX
  5
805
  8
RIVERS
 10
604561.99991680193
 20
1766883.0004472469
 30
0.0
  0
VERTEX
  5
806
  8
RIVERS
 10
604535.9993860618
 20
1766902.9994917661
 30
0.0
  0
VERTEX
  5
807
  8
RIVERS
 10
604511.68316297024
 20
1766920.868946064
 30
0.0
  0
VERTEX
  5
808
  8
RIVERS
 10
604477.99983017216
 20
1766906.999338056
 30
0.0
  0
VERTEX
  5
809
  8
RIVERS
 10
604448.99927142973
 20
1766886.000113867
 30
0.0
  0
VERTEX
  5
80A
  8
RIVERS
 10
604423.9997876886
 20
1766853.000125506
 30
0.0
  0
VERTEX
  5
80B
  8
RIVERS
 10
604387.99935734004
 20
1766828.9998783651
 30
0.0
  0
VERTEX
  5
80C
  8
RIVERS
 10
604357.99974183424
 20
1766822.999267183
 30
0.0
  0
VERTEX
  5
80D
  8
RIVERS
 10
604325.00049464614
 20
1766778.999307452
 30
0.0
  0
VERTEX
  5
80E
  8
RIVERS
 10
604307.00013312395
 20
1766753.9993561681
 30
0.0
  0
VERTEX
  5
80F
  8
RIVERS
 10
604265.99957037205
 20
1766705.999758837
 30
0.0
  0
VERTEX
  5
810
  8
RIVERS
 10
604248.90414772183
 20
1766674.8175969559
 30
0.0
  0
VERTEX
  5
811
  8
RIVERS
 10
604221.67390490882
 20
1766652.3060744549
 30
0.0
  0
VERTEX
  5
812
  8
RIVERS
 10
604186.37728238478
 20
1766632.4277998919
 30
0.0
  0
SEQEND
  5
813
  8
RIVERS
  0
POLYLINE
  5
A3
  8
RIVERS
 66
     1
 10
0.0
 20
0.0
 30
0.0
  0
VERTEX
  5
814
  8
RIVERS
 10
602226.95095682144
 20
1769005.453358256
 30
0.0
  0
VERTEX
  5
815
  8
RIVERS
 10
602360.59281456098
 20
1768968.0510934021
 30
0.0
  0
VERTEX
  5
816
  8
RIVERS
 10
602427.14458805136
 20
1768958.3803529809
 30
0.0
  0
VERTEX
  5
817
  8
RIVERS
 10
602469.49722239934
 20
1768925.7416040599
 30
0.0
  0
VERTEX
  5
818
  8
RIVERS
 10
602503.38595524058
 20
1768894.315924414
 30
0.0
  0
VERTEX
  5
819
  8
RIVERS
 10
602569.93772873096
 20
1768884.645183993
 30
0.0
  0
VERTEX
  5
81A
  8
RIVERS
 10
602681.26867584512
 20
1768900.3601371781
 30
0.0
  0
VERTEX
  5
81B
  8
RIVERS
 10
602762.34655818145
 20
1768893.107081861
 30
0.0
  0
VERTEX
  5
81C
  8
RIVERS
 10
602851.88834202476
 20
1768862.8860180459
 30
0.0
  0
VERTEX
  5
81D
  8
RIVERS
 10
603052.24760733359
 20
1768791.1416352191
 30
0.0
  0
VERTEX
  5
81E
  8
RIVERS
 10
603238.04763698019
 20
1768598.567944519
 30
0.0
  0
VERTEX
  5
81F
  8
RIVERS
 10
603327.83787194465
 20
1768518.2559957691
 30
0.0
  0
VERTEX
  5
820
  8
RIVERS
 10
603397.51184784807
 20
1768507.5454816851
 30
0.0
  0
VERTEX
  5
821
  8
RIVERS
 10
603448.43604585528
 20
1768528.9622831319
 30
0.0
  0
VERTEX
  5
822
  8
RIVERS
 10
603492.66034531035
 20
1768523.6070260899
 30
0.0
  0
VERTEX
  5
823
  8
RIVERS
 10
603536.87636306323
 20
1768488.808422118
 30
0.0
  0
VERTEX
  5
824
  8
RIVERS
 10
603569.04250147007
 20
1768415.18737463
 30
0.0
  0
VERTEX
  5
825
  8
RIVERS
 10
603597.06778786716
 20
1768401.623823052
 30
0.0
  0
VERTEX
  5
826
  8
RIVERS
 10
603665.3587191999
 20
1768407.5074203711
 30
0.0
  0
VERTEX
  5
827
  8
RIVERS
 10
603728.94564265024
 20
1768399.273765502
 30
0.0
  0
VERTEX
  5
828
  8
RIVERS
 10
603809.01315709762
 20
1768341.6381814191
 30
0.0
  0
VERTEX
  5
829
  8
RIVERS
 10
603894.96896310151
 20
1768284.006824058
 30
0.0
  0
VERTEX
  5
82A
  8
RIVERS
 10
603980.92476910353
 20
1768255.7765464049
 30
0.0
  0
VERTEX
  5
82B
  8
RIVERS
 10
604077.48115625046
 20
1768265.1852300491
 30
0.0
  0
VERTEX
  5
82C
  8
RIVERS
 10
604144.60436731763
 20
1768255.7765464049
 30
0.0
  0
VERTEX
  5
82D
  8
RIVERS
 10
604194.05442200974
 20
1768244.013578489
 30
0.0
  0
VERTEX
  5
82E
  8
RIVERS
 10
604270.59393054433
 20
1768285.1818528329
 30
0.0
  0
VERTEX
  5
82F
  8
RIVERS
 10
604279.78662200458
 20
1768290.718858931
 30
0.0
  0
VERTEX
  5
830
  8
RIVERS
 10
604309.34402364492
 20
1768289.0788907129
 30
0.0
  0
VERTEX
  5
831
  8
RIVERS
 10
604346.28870526887
 20
1768277.5991131859
 30
0.0
  0
VERTEX
  5
832
  8
RIVERS
 10
604388.98917118646
 20
1768275.9591449681
 30
0.0
  0
VERTEX
  5
833
  8
RIVERS
 10
604416.07862502895
 20
1768251.3553949711
 30
0.0
  0
VERTEX
  5
834
  8
RIVERS
 10
604439.06863538362
 20
1768225.111676757
 30
0.0
  0
VERTEX
  5
835
  8
RIVERS
 10
604479.29287179932
 20
1768216.911835666
 30
0.0
  0
VERTEX
  5
836
  8
RIVERS
 10
604509.67844384175
 20
1768209.527751962
 30
0.0
  0
VERTEX
  5
837
  8
RIVERS
 10
604586.30076941662
 20
1768161.6770297999
 30
0.0
  0
VERTEX
  5
838
  8
RIVERS
 10
604643.27889306087
 20
1768142.2721481239
 30
0.0
  0
VERTEX
  5
839
  8
RIVERS
 10
604682.12836661004
 20
1768155.210144815
 30
0.0
  0
VERTEX
  5
83A
  8
RIVERS
 10
604742.99889114324
 20
1768208.247055131
 30
0.0
  0
VERTEX
  5
83B
  8
RIVERS
 10
604783.14859222248
 20
1768219.8874481029
 30
0.0
  0
VERTEX
  5
83C
  8
RIVERS
 10
604809.04548068717
 20
1768209.5404321279
 30
0.0
  0
VERTEX
  5
83D
  8
RIVERS
 10
604850.48712759279
 20
1768235.4121987871
 30
0.0
  0
VERTEX
  5
83E
  8
RIVERS
 10
604890.636828674
 20
1768234.11882179
 30
0.0
  0
VERTEX
  5
83F
  8
RIVERS
 10
604932.07847557962
 20
1768227.651936807
 30
0.0
  0
VERTEX
  5
840
  8
RIVERS
 10
605003.20174968615
 20
1768274.4840189151
 30
0.0
  0
VERTEX
  5
841
  8
RIVERS
 10
605040.0
 20
1768290.0
 30
0.0
  0
SEQEND
  5
842
  8
RIVERS
  0
POLYLINE
  5
A4
  8
RIVERS
 66
     1
 10
0.0
 20
0.0
 30
0.0
  0
VERTEX
  5
843
  8
RIVERS
 10
602226.95095682144
 20
1769005.453358256
 30
0.0
  0
VERTEX
  5
844
  8
RIVERS
 10
602076.29019732599
 20
1768952.336140218
 30
0.0
  0
VERTEX
  5
845
  8
RIVERS
 10
601978.79797762446
 20
1768932.4198251551
 30
0.0
  0
VERTEX
  5
846
  8
RIVERS
 10
601915.65826619056
 20
1768892.582968307
 30
0.0
  0
VERTEX
  5
847
  8
RIVERS
 10
601855.39230605215
 20
1768868.6174533661
 30
0.0
  0
VERTEX
  5
848
  8
RIVERS
 10
601701.51824539527
 20
1768904.8404627219
 30
0.0
  0
VERTEX
  5
849
  8
RIVERS
 10
601505.49859299138
 20
1768963.583448024
 30
0.0
  0
VERTEX
  5
84A
  8
RIVERS
 10
601367.30179804191
 20
1769049.7367268701
 30
0.0
  0
VERTEX
  5
84B
  8
RIVERS
 10
601309.27189798828
 20
1769089.138231331
 30
0.0
  0
VERTEX
  5
84C
  8
RIVERS
 10
601175.40643423982
 20
1769182.430443994
 30
0.0
  0
VERTEX
  5
84D
  8
RIVERS
 10
601102.24586094357
 20
1769219.748174404
 30
0.0
  0
VERTEX
  5
84E
  8
RIVERS
 10
601077.34277696174
 20
1769283.4955988049
 30
0.0
  0
VERTEX
  5
84F
  8
RIVERS
 10
600976.16519897245
 20
1769358.131059624
 30
0.0
  0
VERTEX
  5
850
  8
RIVERS
 10
600862.53193814121
 20
1769424.9893515729
 30
0.0
  0
VERTEX
  5
851
  8
RIVERS
 10
600792.49356725998
 20
1769507.3977545409
 30
0.0
  0
VERTEX
  5
852
  8
RIVERS
 10
600744.28576817177
 20
1769550.9034062689
 30
0.0
  0
VERTEX
  5
853
  8
RIVERS
 10
600744.28576817177
 20
1769550.9034062689
 30
0.0
  0
SEQEND
  5
854
  8
RIVERS
  0
POLYLINE
  5
A5
  8
RIVERS
 66
     1
 10
0.0
 20
0.0
 30
0.0
  0
VERTEX
  5
855
  8
RIVERS
 10
600744.28576817177
 20
1769550.9034062689
 30
0.0
  0
VERTEX
  5
856
  8
RIVERS
 10
600797.15616662242
 20
1769542.7627392891
 30
0.0
  0
VERTEX
  5
857
  8
RIVERS
 10
600977.16728515923
 20
1769486.6825889801
 30
0.0
  0
VERTEX
  5
858
  8
RIVERS
 10
601101.03673215781
 20
1769456.4150312201
 30
0.0
  0
VERTEX
  5
859
  8
RIVERS
 10
601239.15899177082
 20
1769416.3583848169
 30
0.0
  0
VERTEX
  5
85A
  8
RIVERS
 10
601324.96572710201
 20
1769350.55677342
 30
0.0
  0
VERTEX
  5
85B
  8
RIVERS
 10
601375.64147398807
 20
1769340.6324296671
 30
0.0
  0
VERTEX
  5
85C
  8
RIVERS
 10
601458.10240089707
 20
1769343.612268826
 30
0.0
  0
VERTEX
  5
85D
  8
RIVERS
 10
601524.67901949782
 20
1769329.714806193
 30
0.0
  0
VERTEX
  5
85E
  8
RIVERS
 10
601590.25355191354
 20
1769268.182184231
 30
0.0
  0
VERTEX
  5
85F
  8
RIVERS
 10
601810.41437152959
 20
1769168.1187625839
 30
0.0
  0
VERTEX
  5
860
  8
RIVERS
 10
602003.17103254981
 20
1769081.8048682939
 30
0.0
  0
VERTEX
  5
861
  8
RIVERS
 10
602048.58789738466
 20
1769059.673750791
 30
0.0
  0
VERTEX
  5
862
  8
RIVERS
 10
602226.95095682144
 20
1769005.453358256
 30
0.0
  0
SEQEND
  5
863
  8
RIVERS
  0
POLYLINE
  5
A6
  8
RIVERS
 66
     1
 10
0.0
 20
0.0
 30
0.0
  0
VERTEX
  5
864
  8
RIVERS
 10
596217.49807019171
 20
1770776.433058189
 30
0.0
  0
VERTEX
  5
865
  8
RIVERS
 10
596322.47695032507
 20
1770663.123089131
 30
0.0
  0
VERTEX
  5
866
  8
RIVERS
 10
596351.91840810888
 20
1770599.367211285
 30
0.0
  0
VERTEX
  5
867
  8
RIVERS
 10
596391.58777035587
 20
1770521.9547939729
 30
0.0
  0
VERTEX
  5
868
  8
RIVERS
 10
596447.86194915697
 20
1770467.5822394381
 30
0.0
  0
VERTEX
  5
869
  8
RIVERS
 10
596480.33451061323
 20
1770407.3345410279
 30
0.0
  0
VERTEX
  5
86A
  8
RIVERS
 10
596536.65837963845
 20
1770337.369608253
 30
0.0
  0
VERTEX
  5
86B
  8
RIVERS
 10
596553.99198614992
 20
1770299.8574486219
 30
0.0
  0
VERTEX
  5
86C
  8
RIVERS
 10
596546.77034024533
 20
1770251.52910685
 30
0.0
  0
VERTEX
  5
86D
  8
RIVERS
 10
596562.65464855172
 20
1770214.7439434391
 30
0.0
  0
VERTEX
  5
86E
  8
RIVERS
 10
596624.03863873333
 20
1770185.8923376191
 30
0.0
  0
VERTEX
  5
86F
  8
RIVERS
 10
596702.74795372225
 20
1770156.3179623019
 30
0.0
  0
VERTEX
  5
870
  8
RIVERS
 10
596772.54615518637
 20
1770109.32526475
 30
0.0
  0
VERTEX
  5
871
  8
RIVERS
 10
596805.76407000236
 20
1770111.239969912
 30
0.0
  0
VERTEX
  5
872
  8
RIVERS
 10
596844.73776911199
 20
1770118.260555506
 30
0.0
  0
VERTEX
  5
873
  8
RIVERS
 10
596867.7360611707
 20
1770106.772324533
 30
0.0
  0
VERTEX
  5
874
  8
RIVERS
 10
596877.31799271901
 20
1770086.9912645819
 30
0.0
  0
VERTEX
  5
875
  8
RIVERS
 10
596904.15071373805
 20
1770076.1412686631
 30
0.0
  0
VERTEX
  5
876
  8
RIVERS
 10
596941.8407487236
 20
1770071.673623285
 30
0.0
  0
VERTEX
  5
877
  8
RIVERS
 10
596969.95713386498
 20
1770123.3664359369
 30
0.0
  0
VERTEX
  5
878
  8
RIVERS
 10
597012.11928902008
 20
1770159.741607294
 30
0.0
  0
VERTEX
  5
879
  8
RIVERS
 10
597084.89890393254
 20
1770146.1019747159
 30
0.0
  0
VERTEX
  5
87A
  8
RIVERS
 10
597105.03172639944
 20
1770126.802761096
 30
0.0
  0
VERTEX
  5
87B
  8
RIVERS
 10
597133.20608346909
 20
1770088.2001071339
 30
0.0
  0
VERTEX
  5
87C
  8
RIVERS
 10
597185.5381711591
 20
1770083.3731903681
 30
0.0
  0
VERTEX
  5
87D
  8
RIVERS
 10
597267.18749107234
 20
1770068.9304805701
 30
0.0
  0
VERTEX
  5
87E
  8
RIVERS
 10
597371.17256672506
 20
1770060.7475463671
 30
0.0
  0
VERTEX
  5
87F
  8
RIVERS
 10
597406.46090754494
 20
1770032.4200541021
 30
0.0
  0
VERTEX
  5
880
  8
RIVERS
 10
597425.368037818
 20
1769993.390501197
 30
0.0
  0
VERTEX
  5
881
  8
RIVERS
 10
597465.6999363862
 20
1769978.9097508979
 30
0.0
  0
VERTEX
  5
882
  8
RIVERS
 10
597514.85184973304
 20
1769980.799095727
 30
0.0
  0
VERTEX
  5
883
  8
RIVERS
 10
597570.94383104704
 20
1769998.424527352
 30
0.0
  0
VERTEX
  5
884
  8
RIVERS
 10
597643.54124847054
 20
1770021.8321149619
 30
0.0
  0
VERTEX
  5
885
  8
RIVERS
 10
597714.2670007851
 20
1770021.2065600739
 30
0.0
  0
VERTEX
  5
886
  8
RIVERS
 10
597739.92371983256
 20
1770038.088088589
 30
0.0
  0
VERTEX
  5
887
  8
RIVERS
 10
597788.12323721685
 20
1770108.112195475
 30
0.0
  0
VERTEX
  5
888
  8
RIVERS
 10
597875.74366572872
 20
1770139.3730329541
 30
0.0
  0
VERTEX
  5
889
  8
RIVERS
 10
597948.3493648544
 20
1770172.506308374
 30
0.0
  0
VERTEX
  5
88A
  8
RIVERS
 10
598100.71615538013
 20
1770179.260610468
 30
0.0
  0
VERTEX
  5
88B
  8
RIVERS
 10
598163.35896457173
 20
1770194.278154488
 30
0.0
  0
VERTEX
  5
88C
  8
RIVERS
 10
598229.74510398135
 20
1770263.101872266
 30
0.0
  0
VERTEX
  5
88D
  8
RIVERS
 10
598262.31704588421
 20
1770288.1282944831
 30
0.0
  0
VERTEX
  5
88E
  8
RIVERS
 10
598346.25211610831
 20
1770323.163594899
 30
0.0
  0
VERTEX
  5
88F
  8
RIVERS
 10
598407.63610629004
 20
1770389.485093127
 30
0.0
  0
VERTEX
  5
890
  8
RIVERS
 10
598422.66739908233
 20
1770459.5599206791
 30
0.0
  0
VERTEX
  5
891
  8
RIVERS
 10
598476.53160201572
 20
1770488.3396722211
 30
0.0
  0
VERTEX
  5
892
  8
RIVERS
 10
598559.20785322785
 20
1770513.366094437
 30
0.0
  0
VERTEX
  5
893
  8
RIVERS
 10
598606.81108792312
 20
1770553.410060674
 30
0.0
  0
VERTEX
  5
894
  8
RIVERS
 10
598664.43518448249
 20
1770559.6656095481
 30
0.0
  0
VERTEX
  5
895
  8
RIVERS
 10
598699.51648270153
 20
1770589.6964708639
 30
0.0
  0
VERTEX
  5
896
  8
RIVERS
 10
598722.06756274402
 20
1770589.6964708639
 30
0.0
  0
VERTEX
  5
897
  8
RIVERS
 10
598757.14057925902
 20
1770575.9342633421
 30
0.0
  0
VERTEX
  5
898
  8
RIVERS
 10
598866.14436754584
 20
1770539.630946263
 30
0.0
  0
VERTEX
  5
899
  8
RIVERS
 10
598923.99207011226
 20
1770476.9486558591
 30
0.0
  0
VERTEX
  5
89A
  8
RIVERS
 10
598944.58866800554
 20
1770419.1566830541
 30
0.0
  0
VERTEX
  5
89B
  8
RIVERS
 10
598947.52867293172
 20
1770330.0277917711
 30
0.0
  0
VERTEX
  5
89C
  8
RIVERS
 10
598996.55636071786
 20
1770270.283073304
 30
0.0
  0
VERTEX
  5
89D
  8
RIVERS
 10
599139.87124875013
 20
1770124.4780638791
 30
0.0
  0
VERTEX
  5
89E
  8
RIVERS
 10
599224.17899565399
 20
1770100.7788324361
 30
0.0
  0
VERTEX
  5
89F
  8
RIVERS
 10
599267.16103950876
 20
1770134.5123024101
 30
0.0
  0
VERTEX
  5
8A0
  8
RIVERS
 10
599326.25927938148
 20
1770123.0113912721
 30
0.0
  0
VERTEX
  5
8A1
  8
RIVERS
 10
599379.98269334633
 20
1770093.876595065
 30
0.0
  0
VERTEX
  5
8A2
  8
RIVERS
 10
599424.49685244448
 20
1770080.8456104849
 30
0.0
  0
VERTEX
  5
8A3
  8
RIVERS
 10
599527.82767347805
 20
1770003.02742784
 30
0.0
  0
VERTEX
  5
8A4
  8
RIVERS
 10
599652.69920666143
 20
1769944.457738149
 30
0.0
  0
VERTEX
  5
8A5
  8
RIVERS
 10
599722.19098507799
 20
1769917.343315159
 30
0.0
  0
VERTEX
  5
8A6
  8
RIVERS
 10
599796.03065810166
 20
1769896.7380443751
 30
0.0
  0
VERTEX
  5
8A7
  8
RIVERS
 10
599959.99183425133
 20
1769862.340979015
 30
0.0
  0
VERTEX
  5
8A8
  8
RIVERS
 10
600027.93493401632
 20
1769813.8647019649
 30
0.0
  0
VERTEX
  5
8A9
  8
RIVERS
 10
600090.48664446548
 20
1769790.1654705231
 30
0.0
  0
VERTEX
  5
8AA
  8
RIVERS
 10
600127.14974815212
 20
1769750.3074800631
 30
0.0
  0
VERTEX
  5
8AB
  8
RIVERS
 10
600242.53873023577
 20
1769686.750258161
 30
0.0
  0
VERTEX
  5
8AC
  8
RIVERS
 10
600386.81429593451
 20
1769637.889349391
 30
0.0
  0
VERTEX
  5
8AD
  8
RIVERS
 10
600556.35734059289
 20
1769636.6889602831
 30
0.0
  0
VERTEX
  5
8AE
  8
RIVERS
 10
600614.07253589493
 20
1769606.6623256891
 30
0.0
  0
VERTEX
  5
8AF
  8
RIVERS
 10
600687.4153066799
 20
1769552.6152287649
 30
0.0
  0
VERTEX
  5
8B0
  8
RIVERS
 10
600714.17349236074
 20
1769541.5031760689
 30
0.0
  0
VERTEX
  5
8B1
  8
RIVERS
 10
600744.28576817177
 20
1769550.9034062689
 30
0.0
  0
SEQEND
  5
8B2
  8
RIVERS
  0
POLYLINE
  5
A7
  8
RIVERS
 66
     1
 10
0.0
 20
0.0
 30
0.0
  0
VERTEX
  5
8B3
  8
RIVERS
 10
596217.49807019171
 20
1770776.433058189
 30
0.0
  0
VERTEX
  5
8B4
  8
RIVERS
 10
596229.94547132961
 20
1770823.971002907
 30
0.0
  0
VERTEX
  5
8B5
  8
RIVERS
 10
596265.69758757565
 20
1770851.774381618
 30
0.0
  0
VERTEX
  5
8B6
  8
RIVERS
 10
596275.75985795818
 20
1770881.5939068231
 30
0.0
  0
VERTEX
  5
8B7
  8
RIVERS
 10
596270.29393330589
 20
1770899.329233225
 30
0.0
  0
VERTEX
  5
8B8
  8
RIVERS
 10
596238.88142996654
 20
1770926.612725103
 30
0.0
  0
VERTEX
  5
8B9
  8
RIVERS
 10
596241.15889857151
 20
1770959.352915358
 30
0.0
  0
VERTEX
  5
8BA
  8
RIVERS
 10
596297.60699315742
 20
1771005.7369649119
 30
0.0
  0
VERTEX
  5
8BB
  8
RIVERS
 10
596341.41720741428
 20
1771010.1707965131
 30
0.0
  0
VERTEX
  5
8BC
  8
RIVERS
 10
596382.72634705529
 20
1771033.092311068
 30
0.0
  0
VERTEX
  5
8BD
  8
RIVERS
 10
596424.03548669815
 20
1771025.64482653
 30
0.0
  0
VERTEX
  5
8BE
  8
RIVERS
 10
596496.89791864902
 20
1770995.2716007149
 30
0.0
  0
VERTEX
  5
8BF
  8
RIVERS
 10
596527.87977338035
 20
1770982.0884541359
 30
0.0
  0
VERTEX
  5
8C0
  8
RIVERS
 10
596552.84911099449
 20
1770986.8519700691
 30
0.0
  0
VERTEX
  5
8C1
  8
RIVERS
 10
596570.41460521705
 20
1770998.255666597
 30
0.0
  0
VERTEX
  5
8C2
  8
RIVERS
 10
596579.37540896423
 20
1771018.7806296579
 30
0.0
  0
VERTEX
  5
8C3
  8
RIVERS
 10
596604.13770397939
 20
1771024.571239088
 30
0.0
  0
VERTEX
  5
8C4
  8
RIVERS
 10
596635.41770005424
 20
1771009.9298733459
 30
0.0
  0
VERTEX
  5
8C5
  8
RIVERS
 10
596632.09673674405
 20
1770999.316573872
 30
0.0
  0
VERTEX
  5
8C6
  8
RIVERS
 10
596636.30384238425
 20
1770984.5061392409
 30
0.0
  0
VERTEX
  5
8C7
  8
RIVERS
 10
596671.49280275765
 20
1770980.9683727501
 30
0.0
  0
VERTEX
  5
8C8
  8
RIVERS
 10
596703.93223739602
 20
1770973.4025399911
 30
0.0
  0
VERTEX
  5
8C9
  8
RIVERS
 10
596705.35669048689
 20
1770960.578664799
 30
0.0
  0
VERTEX
  5
8CA
  8
RIVERS
 10
596703.22001085058
 20
1770936.355319802
 30
0.0
  0
VERTEX
  5
8CB
  8
RIVERS
 10
596721.05051960237
 20
1770918.548139123
 30
0.0
  0
VERTEX
  5
8CC
  8
RIVERS
 10
596769.54817833193
 20
1770924.9600767179
 30
0.0
  0
VERTEX
  5
8CD
  8
RIVERS
 10
596835.86806410737
 20
1770944.9059788371
 30
0.0
  0
VERTEX
  5
8CE
  8
RIVERS
 10
596917.6747363992
 20
1770993.8767823861
 30
0.0
  0
VERTEX
  5
8CF
  8
RIVERS
 10
596996.76500977215
 20
1771031.583371239
 30
0.0
  0
VERTEX
  5
8D0
  8
RIVERS
 10
597078.55511865404
 20
1771048.6424220849
 30
0.0
  0
VERTEX
  5
8D1
  8
RIVERS
 10
597132.87481530756
 20
1771071.741458975
 30
0.0
  0
VERTEX
  5
8D2
  8
RIVERS
 10
597210.0
 20
1771030.0
 30
0.0
  0
VERTEX
  5
8D3
  8
RIVERS
 10
597258.09310856333
 20
1771111.1849651369
 30
0.0
  0
VERTEX
  5
8D4
  8
RIVERS
 10
597180.0
 20
1771150.0
 30
0.0
  0
VERTEX
  5
8D5
  8
RIVERS
 10
597290.0
 20
1771280.0
 30
0.0
  0
SEQEND
  5
8D6
  8
RIVERS
  0
POLYLINE
  5
A8
  8
RIVERS
 66
     1
 10
0.0
 20
0.0
 30
0.0
  0
VERTEX
  5
8D7
  8
RIVERS
 10
591051.61674617778
 20
1773495.133778454
 30
0.0
  0
VERTEX
  5
8D8
  8
RIVERS
 10
591195.73698995064
 20
1773419.4734120229
 30
0.0
  0
VERTEX
  5
8D9
  8
RIVERS
 10
591305.7097082492
 20
1773384.408596108
 30
0.0
  0
VERTEX
  5
8DA
  8
RIVERS
 10
591401.64319899527
 20
1773410.1227375329
 30
0.0
  0
VERTEX
  5
8DB
  8
RIVERS
 10
591457.79943782568
 20
1773419.4734120229
 30
0.0
  0
VERTEX
  5
8DC
  8
RIVERS
 10
591593.5101804873
 20
1773382.0708848019
 30
0.0
  0
VERTEX
  5
8DD
  8
RIVERS
 10
591656.68569740385
 20
1773330.6424312149
 30
0.0
  0
VERTEX
  5
8DE
  8
RIVERS
 10
591677.74420304282
 20
1773265.188221998
 30
0.0
  0
VERTEX
  5
8DF
  8
RIVERS
 10
591673.06468431884
 20
1773202.0715533509
 30
0.0
  0
VERTEX
  5
8E0
  8
RIVERS
 10
591747.93966942583
 20
1773094.5393943
 30
0.0
  0
VERTEX
  5
8E1
  8
RIVERS
 10
591867.2714251728
 20
1772725.189886173
 30
0.0
  0
VERTEX
  5
8E2
  8
RIVERS
 10
591969.59712506866
 20
1772543.036042674
 30
0.0
  0
VERTEX
  5
8E3
  8
RIVERS
 10
592080.29023412627
 20
1772480.3687500251
 30
0.0
  0
VERTEX
  5
8E4
  8
RIVERS
 10
592157.77520905272
 20
1772373.4655807819
 30
0.0
  0
VERTEX
  5
8E5
  8
RIVERS
 10
592309.0552543276
 20
1772288.6803498359
 30
0.0
  0
VERTEX
  5
8E6
  8
RIVERS
 10
592475.09458222426
 20
1772170.7182968131
 30
0.0
  0
VERTEX
  5
8E7
  8
RIVERS
 10
592615.30524945538
 20
1772104.364652659
 30
0.0
  0
VERTEX
  5
8E8
  8
RIVERS
 10
592781.34457735205
 20
1772078.560533592
 30
0.0
  0
VERTEX
  5
8E9
  8
RIVERS
 10
592917.86567569536
 20
1772001.147834921
 30
0.0
  0
VERTEX
  5
8EA
  8
RIVERS
 10
593028.55844906298
 20
1771883.1859526341
 30
0.0
  0
VERTEX
  5
8EB
  8
RIVERS
 10
593076.52553012606
 20
1771787.341667172
 30
0.0
  0
VERTEX
  5
8EC
  8
RIVERS
 10
593168.76945198397
 20
1771706.2427877311
 30
0.0
  0
VERTEX
  5
8ED
  8
RIVERS
 10
593231.49547997885
 20
1771573.5354994221
 30
0.0
  0
VERTEX
  5
8EE
  8
RIVERS
 10
593286.84169881768
 20
1771510.868206773
 30
0.0
  0
VERTEX
  5
8EF
  8
RIVERS
 10
593308.98045490531
 20
1771514.5545582781
 30
0.0
  0
VERTEX
  5
8F0
  8
RIVERS
 10
593345.87815792451
 20
1771555.103912631
 30
0.0
  0
VERTEX
  5
8F1
  8
RIVERS
 10
593375.39605178789
 20
1771555.103912631
 30
0.0
  0
VERTEX
  5
8F2
  8
RIVERS
 10
593393.84490329749
 20
1771510.868206773
 30
0.0
  0
VERTEX
  5
8F3
  8
RIVERS
 10
593574.64317812584
 20
1771142.2368124181
 30
0.0
  0
VERTEX
  5
8F4
  8
RIVERS
 10
593774.89468897053
 20
1770649.9571879031
 30
0.0
  0
VERTEX
  5
8F5
  8
RIVERS
 10
593844.00688369456
 20
1770391.9368269769
 30
0.0
  0
VERTEX
  5
8F6
  8
RIVERS
 10
594040.0
 20
1770110.0
 30
0.0
  0
VERTEX
  5
8F7
  8
RIVERS
 10
594210.0
 20
1770120.0
 30
0.0
  0
VERTEX
  5
8F8
  8
RIVERS
 10
594320.0
 20
1769960.0
 30
0.0
  0
VERTEX
  5
8F9
  8
RIVERS
 10
594340.0
 20
1769880.0
 30
0.0
  0
VERTEX
  5
8FA
  8
RIVERS
 10
594400.0
 20
1769810.0
 30
0.0
  0
VERTEX
  5
8FB
  8
RIVERS
 10
594480.0
 20
1769740.0
 30
0.0
  0
VERTEX
  5
8FC
  8
RIVERS
 10
594610.0
 20
1769820.0
 30
0.0
  0
VERTEX
  5
8FD
  8
RIVERS
 10
594790.0
 20
1769910.0
 30
0.0
  0
VERTEX
  5
8FE
  8
RIVERS
 10
594920.0
 20
1769960.0
 30
0.0
  0
VERTEX
  5
8FF
  8
RIVERS
 10
595010.0
 20
1769930.0
 30
0.0
  0
VERTEX
  5
900
  8
RIVERS
 10
595040.0
 20
1769960.0
 30
0.0
  0
VERTEX
  5
901
  8
RIVERS
 10
594978.90330184426
 20
1770028.5277212369
 30
0.0
  0
VERTEX
  5
902
  8
RIVERS
 10
594971.62856366136
 20
1770053.9662954661
 30
0.0
  0
VERTEX
  5
903
  8
RIVERS
 10
595018.91587245627
 20
1770097.575401814
 30
0.0
  0
VERTEX
  5
904
  8
RIVERS
 10
595080.75299330754
 20
1770155.720933856
 30
0.0
  0
VERTEX
  5
905
  8
RIVERS
 10
595123.30277191661
 20
1770172.417547208
 30
0.0
  0
VERTEX
  5
906
  8
RIVERS
 10
595263.08137233369
 20
1770325.792616114
 30
0.0
  0
VERTEX
  5
907
  8
RIVERS
 10
595325.73246322945
 20
1770515.766872654
 30
0.0
  0
VERTEX
  5
908
  8
RIVERS
 10
595399.75433374394
 20
1770572.1767072959
 30
0.0
  0
VERTEX
  5
909
  8
RIVERS
 10
595431.73827466182
 20
1770578.7873008349
 30
0.0
  0
VERTEX
  5
90A
  8
RIVERS
 10
595465.91686714254
 20
1770553.4523278959
 30
0.0
  0
VERTEX
  5
90B
  8
RIVERS
 10
595539.80623039231
 20
1770565.5703404781
 30
0.0
  0
VERTEX
  5
90C
  8
RIVERS
 10
595628.02294159308
 20
1770587.600016647
 30
0.0
  0
VERTEX
  5
90D
  8
RIVERS
 10
595739.39529722754
 20
1770682.3293148619
 30
0.0
  0
VERTEX
  5
90E
  8
RIVERS
 10
595854.00579913333
 20
1770684.493396634
 30
0.0
  0
VERTEX
  5
90F
  8
RIVERS
 10
595986.6124438718
 20
1770751.4996238609
 30
0.0
  0
VERTEX
  5
910
  8
RIVERS
 10
596167.57595837116
 20
1770779.5523791809
 30
0.0
  0
VERTEX
  5
911
  8
RIVERS
 10
596217.49807019171
 20
1770776.433058189
 30
0.0
  0
SEQEND
  5
912
  8
RIVERS
  0
POLYLINE
  5
A9
  8
RIVERS
 66
     1
 10
0.0
 20
0.0
 30
0.0
  0
VERTEX
  5
913
  8
RIVERS
 10
589076.14764106751
 20
1774437.3455593709
 30
0.0
  0
VERTEX
  5
914
  8
RIVERS
 10
589225.88560230448
 20
1774354.7613737639
 30
0.0
  0
VERTEX
  5
915
  8
RIVERS
 10
589472.41513959912
 20
1774139.619289791
 30
0.0
  0
VERTEX
  5
916
  8
RIVERS
 10
589617.37495113804
 20
1773974.9314312921
 30
0.0
  0
VERTEX
  5
917
  8
RIVERS
 10
589740.77200959937
 20
1773784.654618578
 30
0.0
  0
VERTEX
  5
918
  8
RIVERS
 10
589942.47610715695
 20
1773665.8147413339
 30
0.0
  0
VERTEX
  5
919
  8
RIVERS
 10
590089.72121887351
 20
1773660.4958938491
 30
0.0
  0
VERTEX
  5
91A
  8
RIVERS
 10
590364.11683477019
 20
1773724.3226875579
 30
0.0
  0
VERTEX
  5
91B
  8
RIVERS
 10
590583.57036172587
 20
1773720.3329693959
 30
0.0
  0
VERTEX
  5
91C
  8
RIVERS
 10
590861.15125826723
 20
1773610.5109883379
 30
0.0
  0
VERTEX
  5
91D
  8
RIVERS
 10
591015.63124361075
 20
1773516.932514424
 30
0.0
  0
SEQEND
  5
91E
  8
RIVERS
  0
POLYLINE
  5
AA
  8
RIVERS
 66
     1
 10
0.0
 20
0.0
 30
0.0
  0
VERTEX
  5
91F
  8
RIVERS
 10
589076.14764106751
 20
1774437.3455593709
 30
0.0
  0
VERTEX
  5
920
  8
RIVERS
 10
589269.30652953987
 20
1774535.620456941
 30
0.0
  0
VERTEX
  5
921
  8
RIVERS
 10
589381.61739420122
 20
1774606.3442084619
 30
0.0
  0
VERTEX
  5
922
  8
RIVERS
 10
589517.28082218894
 20
1774598.7218697669
 30
0.0
  0
VERTEX
  5
923
  8
RIVERS
 10
589710.39920795534
 20
1774566.6100043079
 30
0.0
  0
VERTEX
  5
924
  8
RIVERS
 10
589908.00432242069
 20
1774573.1482285289
 30
0.0
  0
VERTEX
  5
925
  8
RIVERS
 10
590032.61161267338
 20
1774523.855415704
 30
0.0
  0
VERTEX
  5
926
  8
RIVERS
 10
590271.81564280554
 20
1774498.1537573531
 30
0.0
  0
VERTEX
  5
927
  8
RIVERS
 10
590363.13420854893
 20
1774350.1286149621
 30
0.0
  0
VERTEX
  5
928
  8
RIVERS
 10
590483.97493771359
 20
1774314.2675475951
 30
0.0
  0
VERTEX
  5
929
  8
RIVERS
 10
590603.99740210094
 20
1774031.996543573
 30
0.0
  0
VERTEX
  5
92A
  8
RIVERS
 10
590955.28387311241
 20
1773842.585741231
 30
0.0
  0
VERTEX
  5
92B
  8
RIVERS
 10
591018.80515575293
 20
1773719.1438832351
 30
0.0
  0
VERTEX
  5
92C
  8
RIVERS
 10
591015.63124361075
 20
1773516.932514424
 30
0.0
  0
SEQEND
  5
92D
  8
RIVERS
  0
POLYLINE
  5
AB
  8
RIVERS
 66
     1
 10
0.0
 20
0.0
 30
0.0
  0
VERTEX
  5
92E
  8
RIVERS
 10
588010.73588136479
 20
1774379.6758136461
 30
0.0
  0
VERTEX
  5
92F
  8
RIVERS
 10
588189.81809492619
 20
1774629.324232874
 30
0.0
  0
VERTEX
  5
930
  8
RIVERS
 10
588337.66472276906
 20
1774664.691037511
 30
0.0
  0
VERTEX
  5
931
  8
RIVERS
 10
588570.28933626029
 20
1774660.726616296
 30
0.0
  0
VERTEX
  5
932
  8
RIVERS
 10
588814.27661833714
 20
1774586.9703136969
 30
0.0
  0
VERTEX
  5
933
  8
RIVERS
 10
589076.14764106751
 20
1774437.3455593709
 30
0.0
  0
VERTEX
  5
934
  8
RIVERS
 10
589076.14764106751
 20
1774437.3455593709
 30
0.0
  0
SEQEND
  5
935
  8
RIVERS
  0
POLYLINE
  5
AC
  8
RIVERS
 66
     1
 10
0.0
 20
0.0
 30
0.0
  0
VERTEX
  5
936
  8
RIVERS
 10
613958.02837230742
 20
1759277.4844733479
 30
0.0
  0
VERTEX
  5
937
  8
RIVERS
 10
613960.51520511776
 20
1759264.915646764
 30
0.0
  0
VERTEX
  5
938
  8
RIVERS
 10
613961.93625126581
 20
1759250.1117216321
 30
0.0
  0
VERTEX
  5
939
  8
RIVERS
 10
613963.97387080675
 20
1759237.1355253791
 30
0.0
  0
VERTEX
  5
93A
  8
RIVERS
 10
613965.76440183097
 20
1759219.9625353541
 30
0.0
  0
VERTEX
  5
93B
  8
RIVERS
 10
613967.55335745681
 20
1759206.0098011291
 30
0.0
  0
VERTEX
  5
93C
  8
RIVERS
 10
613970.06004098733
 20
1759191.1603501691
 30
0.0
  0
VERTEX
  5
93D
  8
RIVERS
 10
613974.90848021815
 20
1759176.705773412
 30
0.0
  0
VERTEX
  5
93E
  8
RIVERS
 10
613976.19519753265
 20
1759161.7616017789
 30
0.0
  0
VERTEX
  5
93F
  8
RIVERS
 10
613976.19421185076
 20
1759146.7615058031
 30
0.0
  0
VERTEX
  5
940
  8
RIVERS
 10
613976.15532772965
 20
1759131.761205886
 30
0.0
  0
VERTEX
  5
941
  8
RIVERS
 10
613974.16410005465
 20
1759117.523696535
 30
0.0
  0
VERTEX
  5
942
  8
RIVERS
 10
613967.61202067893
 20
1759104.6075732911
 30
0.0
  0
VERTEX
  5
943
  8
RIVERS
 10
613954.68620968459
 20
1759096.4672509611
 30
0.0
  0
VERTEX
  5
944
  8
RIVERS
 10
613942.67390778323
 20
1759089.412381914
 30
0.0
  0
VERTEX
  5
945
  8
RIVERS
 10
613934.45631018747
 20
1759080.439919831
 30
0.0
  0
VERTEX
  5
946
  8
RIVERS
 10
613930.21390767535
 20
1759065.4778041721
 30
0.0
  0
VERTEX
  5
947
  8
RIVERS
 10
613929.46530647296
 20
1759050.763242248
 30
0.0
  0
VERTEX
  5
948
  8
RIVERS
 10
613927.13607095252
 20
1759035.9419256039
 30
0.0
  0
VERTEX
  5
949
  8
RIVERS
 10
613927.0460930923
 20
1759020.941380339
 30
0.0
  0
VERTEX
  5
94A
  8
RIVERS
 10
613923.3054618407
 20
1759006.4158347631
 30
0.0
  0
VERTEX
  5
94B
  8
RIVERS
 10
613918.05368160852
 20
1758992.3659726949
 30
0.0
  0
VERTEX
  5
94C
  8
RIVERS
 10
613913.08736231597
 20
1758978.2120554161
 30
0.0
  0
VERTEX
  5
94D
  8
RIVERS
 10
613905.07636441989
 20
1758965.530206813
 30
0.0
  0
VERTEX
  5
94E
  8
RIVERS
 10
613896.56790770974
 20
1758953.1760349071
 30
0.0
  0
VERTEX
  5
94F
  8
RIVERS
 10
613889.95923157409
 20
1758939.711591318
 30
0.0
  0
VERTEX
  5
950
  8
RIVERS
 10
613884.80477819464
 20
1758925.624797635
 30
0.0
  0
VERTEX
  5
951
  8
RIVERS
 10
613883.30120208487
 20
1758910.7004561331
 30
0.0
  0
VERTEX
  5
952
  8
RIVERS
 10
613881.30319887749
 20
1758895.833174374
 30
0.0
  0
VERTEX
  5
953
  8
RIVERS
 10
613879.82762967807
 20
1758880.905579895
 30
0.0
  0
VERTEX
  5
954
  8
RIVERS
 10
613879.22037345066
 20
1758865.917717986
 30
0.0
  0
VERTEX
  5
955
  8
RIVERS
 10
613876.26953918615
 20
1758851.2123893891
 30
0.0
  0
VERTEX
  5
956
  8
RIVERS
 10
613872.90318924445
 20
1758836.5934532229
 30
0.0
  0
SEQEND
  5
957
  8
RIVERS
  0
POLYLINE
  5
AD
  8
RIVERS
 66
     1
 10
0.0
 20
0.0
 30
0.0
  0
VERTEX
  5
958
  8
RIVERS
 10
605961.44459480047
 20
1771415.0273835871
 30
0.0
  0
VERTEX
  5
959
  8
RIVERS
 10
606039.39199301985
 20
1771374.193020297
 30
0.0
  0
VERTEX
  5
95A
  8
RIVERS
 10
606160.13095589913
 20
1771389.3880866489
 30
0.0
  0
VERTEX
  5
95B
  8
RIVERS
 10
606208.61205122061
 20
1771374.193020297
 30
0.0
  0
VERTEX
  5
95C
  8
RIVERS
 10
606258.69815132022
 20
1771307.7267812139
 30
0.0
  0
VERTEX
  5
95D
  8
RIVERS
 10
606294.57373034093
 20
1771273.6128627381
 30
0.0
  0
VERTEX
  5
95E
  8
RIVERS
 10
606352.15882696584
 20
1771291.577507942
 30
0.0
  0
VERTEX
  5
95F
  8
RIVERS
 10
606444.88854240684
 20
1771201.60683525
 30
0.0
  0
VERTEX
  5
960
  8
RIVERS
 10
606498.88900901563
 20
1771174.606119025
 30
0.0
  0
VERTEX
  5
961
  8
RIVERS
 10
606573.88837360078
 20
1771129.6069708311
 30
0.0
  0
VERTEX
  5
962
  8
RIVERS
 10
606618.88936826028
 20
1771099.6069340729
 30
0.0
  0
VERTEX
  5
963
  8
RIVERS
 10
606639.88906123932
 20
1771087.606367131
 30
0.0
  0
SEQEND
  5
964
  8
RIVERS
  0
POLYLINE
  5
AE
  8
RIVERS
 66
     1
 10
0.0
 20
0.0
 30
0.0
  0
VERTEX
  5
965
  8
RIVERS
 10
606639.88906123932
 20
1771087.606367131
 30
0.0
  0
VERTEX
  5
966
  8
RIVERS
 10
606663.8890088005
 20
1771046.607548926
 30
0.0
  0
VERTEX
  5
967
  8
RIVERS
 10
606689.88921125408
 20
1771018.606502984
 30
0.0
  0
VERTEX
  5
968
  8
RIVERS
 10
606729.88891612936
 20
1770995.6068954361
 30
0.0
  0
VERTEX
  5
969
  8
RIVERS
 10
606772.88916959439
 20
1770981.6067567689
 30
0.0
  0
VERTEX
  5
96A
  8
RIVERS
 10
606857.88814267493
 20
1770985.6067426431
 30
0.0
  0
VERTEX
  5
96B
  8
RIVERS
 10
606874.88910824561
 20
1770982.6061720219
 30
0.0
  0
VERTEX
  5
96C
  8
RIVERS
 10
606908.12618110713
 20
1770939.825458738
 30
0.0
  0
VERTEX
  5
96D
  8
RIVERS
 10
606908.12618110713
 20
1770939.825458738
 30
0.0
  0
SEQEND
  5
96E
  8
RIVERS
  0
POLYLINE
  5
AF
  8
RIVERS
 66
     1
 10
0.0
 20
0.0
 30
0.0
  0
VERTEX
  5
96F
  8
RIVERS
 10
616353.64704915602
 20
1760492.163186945
 30
0.0
  0
VERTEX
  5
970
  8
RIVERS
 10
616344.81948157272
 20
1760479.78754399
 30
0.0
  0
VERTEX
  5
971
  8
RIVERS
 10
616335.7690570514
 20
1760467.8243494071
 30
0.0
  0
VERTEX
  5
972
  8
RIVERS
 10
616325.89989428106
 20
1760456.5292194861
 30
0.0
  0
VERTEX
  5
973
  8
RIVERS
 10
616314.53569449927
 20
1760446.737726171
 30
0.0
  0
VERTEX
  5
974
  8
RIVERS
 10
616303.63861235545
 20
1760436.429554506
 30
0.0
  0
VERTEX
  5
975
  8
RIVERS
 10
616291.85007279308
 20
1760427.1533000739
 30
0.0
  0
VERTEX
  5
976
  8
RIVERS
 10
616285.39536442177
 20
1760414.8479012989
 30
0.0
  0
VERTEX
  5
977
  8
RIVERS
 10
616283.86440383445
 20
1760399.5112312511
 30
0.0
  0
VERTEX
  5
978
  8
RIVERS
 10
616285.88349457295
 20
1760384.6474656099
 30
0.0
  0
VERTEX
  5
979
  8
RIVERS
 10
616289.26828228321
 20
1760370.034208945
 30
0.0
  0
VERTEX
  5
97A
  8
RIVERS
 10
616296.74402920215
 20
1760357.030245757
 30
0.0
  0
VERTEX
  5
97B
  8
RIVERS
 10
616304.51205742511
 20
1760344.1980038621
 30
0.0
  0
VERTEX
  5
97C
  8
RIVERS
 10
616314.1506778514
 20
1760332.704814221
 30
0.0
  0
VERTEX
  5
97D
  8
RIVERS
 10
616323.89753814857
 20
1760321.302390917
 30
0.0
  0
VERTEX
  5
97E
  8
RIVERS
 10
616333.50338217127
 20
1760309.783492625
 30
0.0
  0
VERTEX
  5
97F
  8
RIVERS
 10
616340.99230516504
 20
1760296.7864252969
 30
0.0
  0
VERTEX
  5
980
  8
RIVERS
 10
616345.47412988963
 20
1760282.4716310541
 30
0.0
  0
VERTEX
  5
981
  8
RIVERS
 10
616346.85462041141
 20
1760267.534769051
 30
0.0
  0
VERTEX
  5
982
  8
RIVERS
 10
616346.78609397891
 20
1760252.5358907219
 30
0.0
  0
VERTEX
  5
983
  8
RIVERS
 10
616346.31732018385
 20
1760237.5417448259
 30
0.0
  0
VERTEX
  5
984
  8
RIVERS
 10
616344.53047269525
 20
1760224.5389603879
 30
0.0
  0
VERTEX
  5
985
  8
RIVERS
 10
616333.42358888534
 20
1760214.016931514
 30
0.0
  0
VERTEX
  5
986
  8
RIVERS
 10
616318.45307037537
 20
1760210.100909207
 30
0.0
  0
VERTEX
  5
987
  8
RIVERS
 10
616303.83851516794
 20
1760208.676845636
 30
0.0
  0
VERTEX
  5
988
  8
RIVERS
 10
616289.22294025763
 20
1760209.0314426669
 30
0.0
  0
VERTEX
  5
989
  8
RIVERS
 10
616271.02107968717
 20
1760211.4388028081
 30
0.0
  0
VERTEX
  5
98A
  8
RIVERS
 10
616258.13792198536
 20
1760219.1212719691
 30
0.0
  0
VERTEX
  5
98B
  8
RIVERS
 10
616246.88519374817
 20
1760229.0385044659
 30
0.0
  0
VERTEX
  5
98C
  8
RIVERS
 10
616234.75210412638
 20
1760237.8584484451
 30
0.0
  0
VERTEX
  5
98D
  8
RIVERS
 10
616222.53399380005
 20
1760246.560518912
 30
0.0
  0
VERTEX
  5
98E
  8
RIVERS
 10
616208.50536111463
 20
1760251.872897981
 30
0.0
  0
VERTEX
  5
98F
  8
RIVERS
 10
616193.63920607558
 20
1760253.8653334519
 30
0.0
  0
VERTEX
  5
990
  8
RIVERS
 10
616178.63941191079
 20
1760253.6835552109
 30
0.0
  0
VERTEX
  5
991
  8
RIVERS
 10
616166.99418180459
 20
1760251.982272967
 30
0.0
  0
VERTEX
  5
992
  8
RIVERS
 10
616151.96838812577
 20
1760245.7104323369
 30
0.0
  0
VERTEX
  5
993
  8
RIVERS
 10
616143.12618350168
 20
1760237.3788974879
 30
0.0
  0
VERTEX
  5
994
  8
RIVERS
 10
616141.66205137514
 20
1760234.2003575161
 30
0.0
  0
VERTEX
  5
995
  8
RIVERS
 10
616137.1264059809
 20
1760219.903366734
 30
0.0
  0
VERTEX
  5
996
  8
RIVERS
 10
616137.12525362021
 20
1760204.9048604551
 30
0.0
  0
VERTEX
  5
997
  8
RIVERS
 10
616137.12576865254
 20
1760189.9046592719
 30
0.0
  0
VERTEX
  5
998
  8
RIVERS
 10
616137.12627223006
 20
1760174.904458221
 30
0.0
  0
VERTEX
  5
999
  8
RIVERS
 10
616137.1251264608
 20
1760159.904248795
 30
0.0
  0
VERTEX
  5
99A
  8
RIVERS
 10
616137.71309424704
 20
1760147.8567554171
 30
0.0
  0
VERTEX
  5
99B
  8
RIVERS
 10
616138.59256181505
 20
1760141.2028886231
 30
0.0
  0
VERTEX
  5
99C
  8
RIVERS
 10
616140.33646996785
 20
1760127.935922991
 30
0.0
  0
VERTEX
  5
99D
  8
RIVERS
 10
616143.12396306475
 20
1760113.198692807
 30
0.0
  0
VERTEX
  5
99E
  8
RIVERS
 10
616146.52020449715
 20
1760098.587173732
 30
0.0
  0
VERTEX
  5
99F
  8
RIVERS
 10
616147.36713814491
 20
1760083.611793028
 30
0.0
  0
VERTEX
  5
9A0
  8
RIVERS
 10
616147.35612446873
 20
1760068.6115330351
 30
0.0
  0
VERTEX
  5
9A1
  8
RIVERS
 10
616144.88191784697
 20
1760055.690304352
 30
0.0
  0
VERTEX
  5
9A2
  8
RIVERS
 10
616135.27337887604
 20
1760044.263864242
 30
0.0
  0
VERTEX
  5
9A3
  8
RIVERS
 10
616120.85723133909
 20
1760038.5483898241
 30
0.0
  0
VERTEX
  5
9A4
  8
RIVERS
 10
616106.21263216203
 20
1760037.177080374
 30
0.0
  0
VERTEX
  5
9A5
  8
RIVERS
 10
616091.13990159403
 20
1760033.252183296
 30
0.0
  0
VERTEX
  5
9A6
  8
RIVERS
 10
616079.51972313481
 20
1760024.80072699
 30
0.0
  0
VERTEX
  5
9A7
  8
RIVERS
 10
616073.1478490911
 20
1760011.401420091
 30
0.0
  0
VERTEX
  5
9A8
  8
RIVERS
 10
616070.52937762183
 20
1759997.073557552
 30
0.0
  0
VERTEX
  5
9A9
  8
RIVERS
 10
616070.52817826613
 20
1759982.0733532221
 30
0.0
  0
VERTEX
  5
9AA
  8
RIVERS
 10
616070.53027537628
 20
1759967.073166193
 30
0.0
  0
VERTEX
  5
9AB
  8
RIVERS
 10
616070.52908522275
 20
1759952.0729622941
 30
0.0
  0
VERTEX
  5
9AC
  8
RIVERS
 10
616072.35660936334
 20
1759937.919657608
 30
0.0
  0
VERTEX
  5
9AD
  8
RIVERS
 10
616073.98949459684
 20
1759929.533606994
 30
0.0
  0
VERTEX
  5
9AE
  8
RIVERS
 10
616077.12906527997
 20
1759914.866283735
 30
0.0
  0
VERTEX
  5
9AF
  8
RIVERS
 10
616080.27028800605
 20
1759900.1989693891
 30
0.0
  0
VERTEX
  5
9B0
  8
RIVERS
 10
616083.90995787561
 20
1759885.646580027
 30
0.0
  0
VERTEX
  5
9B1
  8
RIVERS
 10
616087.52002418099
 20
1759871.087233477
 30
0.0
  0
VERTEX
  5
9B2
  8
RIVERS
 10
616090.8816912988
 20
1759856.4704292601
 30
0.0
  0
VERTEX
  5
9B3
  8
RIVERS
 10
616096.87080083473
 20
1759842.7182913099
 30
0.0
  0
VERTEX
  5
9B4
  8
RIVERS
 10
616103.29699455434
 20
1759829.1641565571
 30
0.0
  0
VERTEX
  5
9B5
  8
RIVERS
 10
616106.86103411275
 20
1759814.5926581409
 30
0.0
  0
VERTEX
  5
9B6
  8
RIVERS
 10
616109.91343433876
 20
1759799.9078592481
 30
0.0
  0
VERTEX
  5
9B7
  8
RIVERS
 10
616109.913900126
 20
1759784.9076642499
 30
0.0
  0
VERTEX
  5
9B8
  8
RIVERS
 10
616109.91931102704
 20
1759769.9074951159
 30
0.0
  0
VERTEX
  5
9B9
  8
RIVERS
 10
616109.99553706066
 20
1759754.907693824
 30
0.0
  0
VERTEX
  5
9BA
  8
RIVERS
 10
616112.0705016501
 20
1759740.0510297411
 30
0.0
  0
VERTEX
  5
9BB
  8
RIVERS
 10
616116.11481812329
 20
1759725.606267385
 30
0.0
  0
VERTEX
  5
9BC
  8
RIVERS
 10
616122.82527048804
 20
1759712.191483727
 30
0.0
  0
VERTEX
  5
9BD
  8
RIVERS
 10
616129.50452703622
 20
1759698.759513201
 30
0.0
  0
VERTEX
  5
9BE
  8
RIVERS
 10
616135.4476744209
 20
1759684.9884250099
 30
0.0
  0
VERTEX
  5
9BF
  8
RIVERS
 10
616138.85484909476
 20
1759674.940173689
 30
0.0
  0
VERTEX
  5
9C0
  8
RIVERS
 10
616148.03401261219
 20
1759657.759650412
 30
0.0
  0
VERTEX
  5
9C1
  8
RIVERS
 10
616153.47094862384
 20
1759644.419952349
 30
0.0
  0
VERTEX
  5
9C2
  8
RIVERS
 10
616158.11395562266
 20
1759623.166689367
 30
0.0
  0
VERTEX
  5
9C3
  8
RIVERS
 10
616157.91407608218
 20
1759615.66810822
 30
0.0
  0
VERTEX
  5
9C4
  8
RIVERS
 10
616156.17535659135
 20
1759599.0725629451
 30
0.0
  0
VERTEX
  5
9C5
  8
RIVERS
 10
616153.72440341231
 20
1759583.8809203859
 30
0.0
  0
VERTEX
  5
9C6
  8
RIVERS
 10
616152.13681419007
 20
1759573.384621639
 30
0.0
  0
VERTEX
  5
9C7
  8
RIVERS
 10
616149.39572850137
 20
1759554.4367503021
 30
0.0
  0
VERTEX
  5
9C8
  8
RIVERS
 10
616149.42585191783
 20
1759539.4366995459
 30
0.0
  0
VERTEX
  5
9C9
  8
RIVERS
 10
616153.21693046088
 20
1759524.924258152
 30
0.0
  0
VERTEX
  5
9CA
  8
RIVERS
 10
616159.94388671801
 20
1759511.5163718599
 30
0.0
  0
VERTEX
  5
9CB
  8
RIVERS
 10
616167.65505161672
 20
1759499.201214253
 30
0.0
  0
VERTEX
  5
9CC
  8
RIVERS
 10
616179.31148977997
 20
1759488.671574574
 30
0.0
  0
VERTEX
  5
9CD
  8
RIVERS
 10
616189.93227186822
 20
1759478.080392034
 30
0.0
  0
VERTEX
  5
9CE
  8
RIVERS
 10
616200.58912516688
 20
1759467.5234543041
 30
0.0
  0
VERTEX
  5
9CF
  8
RIVERS
 10
616210.06399995333
 20
1759454.950247241
 30
0.0
  0
VERTEX
  5
9D0
  8
RIVERS
 10
616217.63746373355
 20
1759444.7381178669
 30
0.0
  0
VERTEX
  5
9D1
  8
RIVERS
 10
616224.8317296023
 20
1759433.0126009199
 30
0.0
  0
VERTEX
  5
9D2
  8
RIVERS
 10
616230.89050868002
 20
1759420.1527351949
 30
0.0
  0
VERTEX
  5
9D3
  8
RIVERS
 10
616236.57045117475
 20
1759407.294298674
 30
0.0
  0
VERTEX
  5
9D4
  8
RIVERS
 10
616241.78141407948
 20
1759394.356823608
 30
0.0
  0
VERTEX
  5
9D5
  8
RIVERS
 10
616247.13624051108
 20
1759376.2373602609
 30
0.0
  0
VERTEX
  5
9D6
  8
RIVERS
 10
616247.84215223859
 20
1759363.3735010689
 30
0.0
  0
VERTEX
  5
9D7
  8
RIVERS
 10
616241.08009692049
 20
1759349.919371254
 30
0.0
  0
VERTEX
  5
9D8
  8
RIVERS
 10
616229.91936617112
 20
1759341.420896288
 30
0.0
  0
VERTEX
  5
9D9
  8
RIVERS
 10
616216.2600335927
 20
1759337.6785907559
 30
0.0
  0
VERTEX
  5
9DA
  8
RIVERS
 10
616198.61125516356
 20
1759337.163106045
 30
0.0
  0
VERTEX
  5
9DB
  8
RIVERS
 10
616182.92619720497
 20
1759339.1002671339
 30
0.0
  0
VERTEX
  5
9DC
  8
RIVERS
 10
616169.29709875362
 20
1759343.8088521389
 30
0.0
  0
VERTEX
  5
9DD
  8
RIVERS
 10
616157.28193847544
 20
1759351.7222806851
 30
0.0
  0
VERTEX
  5
9DE
  8
RIVERS
 10
616146.39562887547
 20
1759362.0567931831
 30
0.0
  0
VERTEX
  5
9DF
  8
RIVERS
 10
616135.11761508451
 20
1759369.163879999
 30
0.0
  0
VERTEX
  5
9E0
  8
RIVERS
 10
616119.98472017143
 20
1759371.030776975
 30
0.0
  0
VERTEX
  5
9E1
  8
RIVERS
 10
616102.80535943049
 20
1759364.8074021621
 30
0.0
  0
VERTEX
  5
9E2
  8
RIVERS
 10
616095.32037859457
 20
1759354.1681674961
 30
0.0
  0
VERTEX
  5
9E3
  8
RIVERS
 10
616096.18331803742
 20
1759338.6397106301
 30
0.0
  0
VERTEX
  5
9E4
  8
RIVERS
 10
616099.63912508823
 20
1759320.811619661
 30
0.0
  0
VERTEX
  5
9E5
  8
RIVERS
 10
616101.67626992706
 20
1759306.5794200471
 30
0.0
  0
VERTEX
  5
9E6
  8
RIVERS
 10
616103.46311871056
 20
1759292.655684151
 30
0.0
  0
VERTEX
  5
9E7
  8
RIVERS
 10
616105.07199380815
 20
1759277.480026046
 30
0.0
  0
VERTEX
  5
9E8
  8
RIVERS
 10
616107.32672673184
 20
1759261.9468781
 30
0.0
  0
VERTEX
  5
9E9
  8
RIVERS
 10
616107.15586559637
 20
1759246.9474936
 30
0.0
  0
VERTEX
  5
9EA
  8
RIVERS
 10
616105.3456150057
 20
1759232.0587532511
 30
0.0
  0
VERTEX
  5
9EB
  8
RIVERS
 10
616099.82787832071
 20
1759218.1107280641
 30
0.0
  0
VERTEX
  5
9EC
  8
RIVERS
 10
616089.6717417097
 20
1759207.0712730889
 30
0.0
  0
VERTEX
  5
9ED
  8
RIVERS
 10
616076.62922338699
 20
1759199.6626501631
 30
0.0
  0
VERTEX
  5
9EE
  8
RIVERS
 10
616063.51188236696
 20
1759192.386407411
 30
0.0
  0
VERTEX
  5
9EF
  8
RIVERS
 10
616049.75534294033
 20
1759186.407220297
 30
0.0
  0
VERTEX
  5
9F0
  8
RIVERS
 10
616036.27534132218
 20
1759179.825241057
 30
0.0
  0
VERTEX
  5
9F1
  8
RIVERS
 10
616023.53699755087
 20
1759173.7815646019
 30
0.0
  0
VERTEX
  5
9F2
  8
RIVERS
 10
616011.27514745784
 20
1759167.3267748461
 30
0.0
  0
VERTEX
  5
9F3
  8
RIVERS
 10
615998.1864470609
 20
1759160.8728054189
 30
0.0
  0
VERTEX
  5
9F4
  8
RIVERS
 10
615986.58835007634
 20
1759154.418064204
 30
0.0
  0
VERTEX
  5
9F5
  8
RIVERS
 10
615975.1548791473
 20
1759148.2943903401
 30
0.0
  0
VERTEX
  5
9F6
  8
RIVERS
 10
615961.1159579932
 20
1759140.8585372581
 30
0.0
  0
VERTEX
  5
9F7
  8
RIVERS
 10
615945.44351680647
 20
1759131.759838741
 30
0.0
  0
VERTEX
  5
9F8
  8
RIVERS
 10
615932.05633757799
 20
1759124.4159007319
 30
0.0
  0
VERTEX
  5
9F9
  8
RIVERS
 10
615919.81029292813
 20
1759118.3969653789
 30
0.0
  0
VERTEX
  5
9FA
  8
RIVERS
 10
615907.59609050932
 20
1759111.634414122
 30
0.0
  0
VERTEX
  5
9FB
  8
RIVERS
 10
615894.38344739925
 20
1759105.2496443749
 30
0.0
  0
VERTEX
  5
9FC
  8
RIVERS
 10
615882.44949093147
 20
1759098.4375023369
 30
0.0
  0
VERTEX
  5
9FD
  8
RIVERS
 10
615870.94108309131
 20
1759088.6455600089
 30
0.0
  0
VERTEX
  5
9FE
  8
RIVERS
 10
615861.36310237099
 20
1759075.658672781
 30
0.0
  0
VERTEX
  5
9FF
  8
RIVERS
 10
615853.11573458859
 20
1759063.665861754
 30
0.0
  0
VERTEX
  5
A00
  8
RIVERS
 10
615844.34506214561
 20
1759051.581838347
 30
0.0
  0
VERTEX
  5
A01
  8
RIVERS
 10
615835.07052079472
 20
1759039.4696763561
 30
0.0
  0
VERTEX
  5
A02
  8
RIVERS
 10
615828.44735349785
 20
1759029.3456290211
 30
0.0
  0
VERTEX
  5
A03
  8
RIVERS
 10
615820.97044409101
 20
1759018.37125133
 30
0.0
  0
VERTEX
  5
A04
  8
RIVERS
 10
615812.12196086219
 20
1759005.7217588851
 30
0.0
  0
VERTEX
  5
A05
  8
RIVERS
 10
615806.2424565102
 20
1758995.113078733
 30
0.0
  0
VERTEX
  5
A06
  8
RIVERS
 10
615797.01744463213
 20
1758980.424299398
 30
0.0
  0
VERTEX
  5
A07
  8
RIVERS
 10
615789.58830615191
 20
1758966.8988011091
 30
0.0
  0
VERTEX
  5
A08
  8
RIVERS
 10
615782.16375911061
 20
1758951.528309373
 30
0.0
  0
VERTEX
  5
A09
  8
RIVERS
 10
615775.4122094037
 20
1758937.555271666
 30
0.0
  0
VERTEX
  5
A0A
  8
RIVERS
 10
615768.49370334239
 20
1758924.9702632669
 30
0.0
  0
VERTEX
  5
A0B
  8
RIVERS
 10
615760.33524917124
 20
1758912.9626325581
 30
0.0
  0
VERTEX
  5
A0C
  8
RIVERS
 10
615748.46713127848
 20
1758903.584210379
 30
0.0
  0
VERTEX
  5
A0D
  8
RIVERS
 10
615737.07729541336
 20
1758895.6754433659
 30
0.0
  0
VERTEX
  5
A0E
  8
RIVERS
 10
615723.61587366171
 20
1758887.3593818711
 30
0.0
  0
VERTEX
  5
A0F
  8
RIVERS
 10
615710.57191444957
 20
1758883.9933616931
 30
0.0
  0
VERTEX
  5
A10
  8
RIVERS
 10
615691.77261078835
 20
1758883.5778637989
 30
0.0
  0
VERTEX
  5
A11
  8
RIVERS
 10
615673.60621640924
 20
1758886.2668032439
 30
0.0
  0
VERTEX
  5
A12
  8
RIVERS
 10
615660.59825438901
 20
1758891.8673812479
 30
0.0
  0
VERTEX
  5
A13
  8
RIVERS
 10
615649.64199077291
 20
1758904.5897436971
 30
0.0
  0
VERTEX
  5
A14
  8
RIVERS
 10
615641.38546494965
 20
1758916.6452484131
 30
0.0
  0
VERTEX
  5
A15
  8
RIVERS
 10
615633.44299332157
 20
1758926.8930936379
 30
0.0
  0
VERTEX
  5
A16
  8
RIVERS
 10
615623.26743295451
 20
1758937.711498681
 30
0.0
  0
VERTEX
  5
A17
  8
RIVERS
 10
615613.15606090403
 20
1758942.4845643509
 30
0.0
  0
VERTEX
  5
A18
  8
RIVERS
 10
615604.16941464785
 20
1758942.203246983
 30
0.0
  0
VERTEX
  5
A19
  8
RIVERS
 10
615595.18110022251
 20
1758941.9236283719
 30
0.0
  0
VERTEX
  5
A1A
  8
RIVERS
 10
615587.59823453811
 20
1758939.957744407
 30
0.0
  0
VERTEX
  5
A1B
  8
RIVERS
 10
615580.29590052925
 20
1758934.0615621661
 30
0.0
  0
VERTEX
  5
A1C
  8
RIVERS
 10
615570.20046646497
 20
1758925.863403949
 30
0.0
  0
VERTEX
  5
A1D
  8
RIVERS
 10
615561.5334867161
 20
1758918.2206940921
 30
0.0
  0
VERTEX
  5
A1E
  8
RIVERS
 10
615546.21668667847
 20
1758909.0883899441
 30
0.0
  0
VERTEX
  5
A1F
  8
RIVERS
 10
615531.45238608599
 20
1758898.85602529
 30
0.0
  0
VERTEX
  5
A20
  8
RIVERS
 10
615515.13800647575
 20
1758893.759272211
 30
0.0
  0
VERTEX
  5
A21
  8
RIVERS
 10
615502.39281558886
 20
1758886.115946379
 30
0.0
  0
VERTEX
  5
A22
  8
RIVERS
 10
615486.5872661944
 20
1758870.828265589
 30
0.0
  0
VERTEX
  5
A23
  8
RIVERS
 10
615472.51006306394
 20
1758848.72429
 30
0.0
  0
VERTEX
  5
A24
  8
RIVERS
 10
615469.61700957362
 20
1758844.7265663489
 30
0.0
  0
VERTEX
  5
A25
  8
RIVERS
 10
615455.82959426206
 20
1758835.404786729
 30
0.0
  0
VERTEX
  5
A26
  8
RIVERS
 10
615437.58096150216
 20
1758837.4313987291
 30
0.0
  0
VERTEX
  5
A27
  8
RIVERS
 10
615424.36158927099
 20
1758835.4909503879
 30
0.0
  0
VERTEX
  5
A28
  8
RIVERS
 10
615411.63329881534
 20
1758828.390733625
 30
0.0
  0
VERTEX
  5
A29
  8
RIVERS
 10
615397.41730011313
 20
1758823.602741343
 30
0.0
  0
VERTEX
  5
A2A
  8
RIVERS
 10
615384.52360993996
 20
1758820.465762424
 30
0.0
  0
VERTEX
  5
A2B
  8
RIVERS
 10
615376.09688383981
 20
1758819.2342785629
 30
0.0
  0
VERTEX
  5
A2C
  8
RIVERS
 10
615353.28183571727
 20
1758814.686219014
 30
0.0
  0
VERTEX
  5
A2D
  8
RIVERS
 10
615338.62194262259
 20
1758810.694239639
 30
0.0
  0
VERTEX
  5
A2E
  8
RIVERS
 10
615328.28213491186
 20
1758806.4215770201
 30
0.0
  0
VERTEX
  5
A2F
  8
RIVERS
 10
615312.16380598792
 20
1758799.060556022
 30
0.0
  0
VERTEX
  5
A30
  8
RIVERS
 10
615298.0194861074
 20
1758790.5812493879
 30
0.0
  0
VERTEX
  5
A31
  8
RIVERS
 10
615287.36841597199
 20
1758783.1020503719
 30
0.0
  0
VERTEX
  5
A32
  8
RIVERS
 10
615272.39533054049
 20
1758774.3546759761
 30
0.0
  0
VERTEX
  5
A33
  8
RIVERS
 10
615260.69835897768
 20
1758768.1534361721
 30
0.0
  0
VERTEX
  5
A34
  8
RIVERS
 10
615246.26674635638
 20
1758762.6802129559
 30
0.0
  0
VERTEX
  5
A35
  8
RIVERS
 10
615232.1771568883
 20
1758758.9176216261
 30
0.0
  0
VERTEX
  5
A36
  8
RIVERS
 10
615218.08909974853
 20
1758756.1354224901
 30
0.0
  0
VERTEX
  5
A37
  8
RIVERS
 10
615201.54325129325
 20
1758756.2987312111
 30
0.0
  0
VERTEX
  5
A38
  8
RIVERS
 10
615185.5795005064
 20
1758757.608828421
 30
0.0
  0
VERTEX
  5
A39
  8
RIVERS
 10
615170.62541078788
 20
1758760.520656944
 30
0.0
  0
VERTEX
  5
A3A
  8
RIVERS
 10
615156.24416987645
 20
1758764.7817589859
 30
0.0
  0
VERTEX
  5
A3B
  8
RIVERS
 10
615142.48330909177
 20
1758770.753218669
 30
0.0
  0
VERTEX
  5
A3C
  8
RIVERS
 10
615128.7501384787
 20
1758776.7878011309
 30
0.0
  0
VERTEX
  5
A3D
  8
RIVERS
 10
615114.76156647666
 20
1758782.2032363419
 30
0.0
  0
VERTEX
  5
A3E
  8
RIVERS
 10
615101.09519046475
 20
1758788.3845570241
 30
0.0
  0
VERTEX
  5
A3F
  8
RIVERS
 10
615087.33599193662
 20
1758794.359464756
 30
0.0
  0
VERTEX
  5
A40
  8
RIVERS
 10
615074.00535694859
 20
1758801.2352565329
 30
0.0
  0
VERTEX
  5
A41
  8
RIVERS
 10
615072.84437771188
 20
1758801.8335197109
 30
0.0
  0
VERTEX
  5
A42
  8
RIVERS
 10
615059.02499385353
 20
1758807.6651521861
 30
0.0
  0
VERTEX
  5
A43
  8
RIVERS
 10
615045.35115952161
 20
1758812.740136212
 30
0.0
  0
VERTEX
  5
A44
  8
RIVERS
 10
615031.11624990427
 20
1758818.023298553
 30
0.0
  0
VERTEX
  5
A45
  8
RIVERS
 10
615017.03510100045
 20
1758823.1932193099
 30
0.0
  0
VERTEX
  5
A46
  8
RIVERS
 10
615002.8208498233
 20
1758827.986312167
 30
0.0
  0
VERTEX
  5
A47
  8
RIVERS
 10
614989.97356569034
 20
1758831.5184178429
 30
0.0
  0
VERTEX
  5
A48
  8
RIVERS
 10
614975.53286772757
 20
1758835.826985877
 30
0.0
  0
VERTEX
  5
A49
  8
RIVERS
 10
614961.11146719125
 20
1758842.1508754259
 30
0.0
  0
VERTEX
  5
A4A
  8
RIVERS
 10
614945.28385871567
 20
1758851.284454566
 30
0.0
  0
VERTEX
  5
A4B
  8
RIVERS
 10
614933.32540584775
 20
1758860.068557723
 30
0.0
  0
VERTEX
  5
A4C
  8
RIVERS
 10
614920.3111794953
 20
1758868.8523556781
 30
0.0
  0
VERTEX
  5
A4D
  8
RIVERS
 10
614909.49205197999
 20
1758877.7274317329
 30
0.0
  0
VERTEX
  5
A4E
  8
RIVERS
 10
614897.44908869569
 20
1758885.013324646
 30
0.0
  0
VERTEX
  5
A4F
  8
RIVERS
 10
614883.02946440142
 20
1758887.471930671
 30
0.0
  0
VERTEX
  5
A50
  8
RIVERS
 10
614870.88047155598
 20
1758883.32974641
 30
0.0
  0
VERTEX
  5
A51
  8
RIVERS
 10
614863.33126567607
 20
1758874.4727037309
 30
0.0
  0
VERTEX
  5
A52
  8
RIVERS
 10
614861.33145120076
 20
1758860.7252190141
 30
0.0
  0
VERTEX
  5
A53
  8
RIVERS
 10
614865.44222890376
 20
1758849.8804584821
 30
0.0
  0
VERTEX
  5
A54
  8
RIVERS
 10
614873.88303480099
 20
1758836.1780729829
 30
0.0
  0
VERTEX
  5
A55
  8
RIVERS
 10
614886.76907542895
 20
1758826.6957504491
 30
0.0
  0
VERTEX
  5
A56
  8
RIVERS
 10
614900.20560454275
 20
1758820.031450324
 30
0.0
  0
VERTEX
  5
A57
  8
RIVERS
 10
614912.25330912974
 20
1758813.1132146029
 30
0.0
  0
VERTEX
  5
A58
  8
RIVERS
 10
614923.13099641888
 20
1758802.143227054
 30
0.0
  0
VERTEX
  5
A59
  8
RIVERS
 10
614931.67992857809
 20
1758786.640642317
 30
0.0
  0
VERTEX
  5
A5A
  8
RIVERS
 10
614934.91213400557
 20
1758768.5593894019
 30
0.0
  0
VERTEX
  5
A5B
  8
RIVERS
 10
614935.88113014481
 20
1758754.0305987
 30
0.0
  0
VERTEX
  5
A5C
  8
RIVERS
 10
614933.94296457444
 20
1758740.792346034
 30
0.0
  0
VERTEX
  5
A5D
  8
RIVERS
 10
614929.90458950202
 20
1758726.304207013
 30
0.0
  0
VERTEX
  5
A5E
  8
RIVERS
 10
614922.41905332415
 20
1758712.4179222099
 30
0.0
  0
VERTEX
  5
A5F
  8
RIVERS
 10
614912.66481511481
 20
1758701.8645033571
 30
0.0
  0
VERTEX
  5
A60
  8
RIVERS
 10
614902.77706406638
 20
1758693.2541478721
 30
0.0
  0
VERTEX
  5
A61
  8
RIVERS
 10
614890.86198576714
 20
1758683.6325811739
 30
0.0
  0
VERTEX
  5
A62
  8
RIVERS
 10
614880.74392024206
 20
1758673.359856057
 30
0.0
  0
VERTEX
  5
A63
  8
RIVERS
 10
614872.14761245891
 20
1758666.645413551
 30
0.0
  0
VERTEX
  5
A64
  8
RIVERS
 10
614856.76655565354
 20
1758652.298223909
 30
0.0
  0
VERTEX
  5
A65
  8
RIVERS
 10
614839.09818681609
 20
1758646.8375944421
 30
0.0
  0
VERTEX
  5
A66
  8
RIVERS
 10
614823.84634485643
 20
1758645.82321451
 30
0.0
  0
VERTEX
  5
A67
  8
RIVERS
 10
614810.75281730818
 20
1758649.5056429049
 30
0.0
  0
VERTEX
  5
A68
  8
RIVERS
 10
614796.26128434378
 20
1758654.076182337
 30
0.0
  0
VERTEX
  5
A69
  8
RIVERS
 10
614782.75746993406
 20
1758654.5788011751
 30
0.0
  0
VERTEX
  5
A6A
  8
RIVERS
 10
614770.81696061208
 20
1758646.6898618061
 30
0.0
  0
VERTEX
  5
A6B
  8
RIVERS
 10
614762.50715454773
 20
1758635.1686500369
 30
0.0
  0
VERTEX
  5
A6C
  8
RIVERS
 10
614759.29633396212
 20
1758620.5163017721
 30
0.0
  0
VERTEX
  5
A6D
  8
RIVERS
 10
614759.122884518
 20
1758605.5169961939
 30
0.0
  0
VERTEX
  5
A6E
  8
RIVERS
 10
614757.03311467753
 20
1758590.6627506251
 30
0.0
  0
VERTEX
  5
A6F
  8
RIVERS
 10
614755.32060309895
 20
1758582.862004908
 30
0.0
  0
VERTEX
  5
A70
  8
RIVERS
 10
614751.92018693604
 20
1758576.2729744171
 30
0.0
  0
VERTEX
  5
A71
  8
RIVERS
 10
614744.45270035404
 20
1758571.6851189369
 30
0.0
  0
VERTEX
  5
A72
  8
RIVERS
 10
614736.14018519688
 20
1758569.6783475729
 30
0.0
  0
VERTEX
  5
A73
  8
RIVERS
 10
614726.14012349409
 20
1758569.7785616501
 30
0.0
  0
VERTEX
  5
A74
  8
RIVERS
 10
614716.28352334909
 20
1758571.4539101969
 30
0.0
  0
VERTEX
  5
A75
  8
RIVERS
 10
614707.61887953663
 20
1758576.449247841
 30
0.0
  0
VERTEX
  5
A76
  8
RIVERS
 10
614699.60963805427
 20
1758582.4368396809
 30
0.0
  0
VERTEX
  5
A77
  8
RIVERS
 10
614692.11299806787
 20
1758595.4275786381
 30
0.0
  0
VERTEX
  5
A78
  8
RIVERS
 10
614683.99240839889
 20
1758608.0389593609
 30
0.0
  0
VERTEX
  5
A79
  8
RIVERS
 10
614676.64030445379
 20
1758621.1138383159
 30
0.0
  0
VERTEX
  5
A7A
  8
RIVERS
 10
614666.97565757344
 20
1758632.5854493219
 30
0.0
  0
VERTEX
  5
A7B
  8
RIVERS
 10
614655.59541595401
 20
1758642.319004965
 30
0.0
  0
VERTEX
  5
A7C
  8
RIVERS
 10
614642.27106880583
 20
1758647.016477383
 30
0.0
  0
VERTEX
  5
A7D
  8
RIVERS
 10
614627.27168642695
 20
1758646.8783657521
 30
0.0
  0
VERTEX
  5
A7E
  8
RIVERS
 10
614612.73524710257
 20
1758643.1802676851
 30
0.0
  0
VERTEX
  5
A7F
  8
RIVERS
 10
614599.04004299315
 20
1758638.924804057
 30
0.0
  0
VERTEX
  5
A80
  8
RIVERS
 10
614587.1679045338
 20
1758633.109400651
 30
0.0
  0
VERTEX
  5
A81
  8
RIVERS
 10
614574.52329080214
 20
1758625.0399539249
 30
0.0
  0
VERTEX
  5
A82
  8
RIVERS
 10
614561.88031698531
 20
1758616.9705123501
 30
0.0
  0
VERTEX
  5
A83
  8
RIVERS
 10
614547.72593594925
 20
1758610.0626543779
 30
0.0
  0
VERTEX
  5
A84
  8
RIVERS
 10
614534.63765032485
 20
1758604.360196823
 30
0.0
  0
VERTEX
  5
A85
  8
RIVERS
 10
614520.15636150748
 20
1758599.2123021539
 30
0.0
  0
VERTEX
  5
A86
  8
RIVERS
 10
614506.23240445135
 20
1758595.8748323161
 30
0.0
  0
VERTEX
  5
A87
  8
RIVERS
 10
614491.32736443821
 20
1758594.03185866
 30
0.0
  0
VERTEX
  5
A88
  8
RIVERS
 10
614475.49381332821
 20
1758594.0325656449
 30
0.0
  0
VERTEX
  5
A89
  8
RIVERS
 10
614460.2239554259
 20
1758596.8564406121
 30
0.0
  0
VERTEX
  5
A8A
  8
RIVERS
 10
614447.17717894318
 20
1758602.355400264
 30
0.0
  0
VERTEX
  5
A8B
  8
RIVERS
 10
614435.87542740465
 20
1758612.218815099
 30
0.0
  0
VERTEX
  5
A8C
  8
RIVERS
 10
614430.72538971051
 20
1758626.307535226
 30
0.0
  0
VERTEX
  5
A8D
  8
RIVERS
 10
614430.73598863068
 20
1758641.307694522
 30
0.0
  0
VERTEX
  5
A8E
  8
RIVERS
 10
614430.85529172048
 20
1758656.306706097
 30
0.0
  0
VERTEX
  5
A8F
  8
RIVERS
 10
614431.44108275941
 20
1758672.2033770899
 30
0.0
  0
VERTEX
  5
A90
  8
RIVERS
 10
614430.60520804382
 20
1758686.2120320781
 30
0.0
  0
VERTEX
  5
A91
  8
RIVERS
 10
614429.84494980471
 20
1758699.603222766
 30
0.0
  0
VERTEX
  5
A92
  8
RIVERS
 10
614427.76106534456
 20
1758713.8386662321
 30
0.0
  0
VERTEX
  5
A93
  8
RIVERS
 10
614426.07889905979
 20
1758728.7518870879
 30
0.0
  0
VERTEX
  5
A94
  8
RIVERS
 10
614423.13464072428
 20
1758744.7139037461
 30
0.0
  0
VERTEX
  5
A95
  8
RIVERS
 10
614420.22298779222
 20
1758759.132350299
 30
0.0
  0
VERTEX
  5
A96
  8
RIVERS
 10
614416.95316694933
 20
1758773.377053499
 30
0.0
  0
VERTEX
  5
A97
  8
RIVERS
 10
614407.29756115202
 20
1758783.7646091059
 30
0.0
  0
VERTEX
  5
A98
  8
RIVERS
 10
614392.74005810427
 20
1758788.067849919
 30
0.0
  0
VERTEX
  5
A99
  8
RIVERS
 10
614378.77533025295
 20
1758788.216028892
 30
0.0
  0
VERTEX
  5
A9A
  8
RIVERS
 10
614363.62230565143
 20
1758788.511325717
 30
0.0
  0
VERTEX
  5
A9B
  8
RIVERS
 10
614349.50580379833
 20
1758788.3864246199
 30
0.0
  0
VERTEX
  5
A9C
  8
RIVERS
 10
614334.50582343922
 20
1758788.386370261
 30
0.0
  0
VERTEX
  5
A9D
  8
RIVERS
 10
614319.50584376638
 20
1758788.386325954
 30
0.0
  0
VERTEX
  5
A9E
  8
RIVERS
 10
614304.50583867473
 20
1758788.3914028001
 30
0.0
  0
VERTEX
  5
A9F
  8
RIVERS
 10
614289.50800165348
 20
1758788.6177552559
 30
0.0
  0
VERTEX
  5
AA0
  8
RIVERS
 10
614274.52571566473
 20
1758789.346315044
 30
0.0
  0
VERTEX
  5
AA1
  8
RIVERS
 10
614259.58329969307
 20
1758790.6537641119
 30
0.0
  0
VERTEX
  5
AA2
  8
RIVERS
 10
614245.33825336257
 20
1758791.833738866
 30
0.0
  0
VERTEX
  5
AA3
  8
RIVERS
 10
614230.75018617045
 20
1758792.452003849
 30
0.0
  0
VERTEX
  5
AA4
  8
RIVERS
 10
614214.87344699539
 20
1758793.5232360731
 30
0.0
  0
VERTEX
  5
AA5
  8
RIVERS
 10
614200.05064383359
 20
1758795.9223619071
 30
0.0
  0
VERTEX
  5
AA6
  8
RIVERS
 10
614185.09986393701
 20
1758798.2272268869
 30
0.0
  0
VERTEX
  5
AA7
  8
RIVERS
 10
614170.62336705322
 20
1758802.1599597631
 30
0.0
  0
VERTEX
  5
AA8
  8
RIVERS
 10
614156.88238741667
 20
1758808.1729638909
 30
0.0
  0
VERTEX
  5
AA9
  8
RIVERS
 10
614143.38904535281
 20
1758814.723365359
 30
0.0
  0
VERTEX
  5
AAA
  8
RIVERS
 10
614130.05873319134
 20
1758821.603107712
 30
0.0
  0
VERTEX
  5
AAB
  8
RIVERS
 10
614117.95527960116
 20
1758830.4634878749
 30
0.0
  0
VERTEX
  5
AAC
  8
RIVERS
 10
614106.10214548395
 20
1758839.6570375429
 30
0.0
  0
VERTEX
  5
AAD
  8
RIVERS
 10
614095.78043072694
 20
1758850.538325975
 30
0.0
  0
VERTEX
  5
AAE
  8
RIVERS
 10
614086.18588792847
 20
1758862.230092993
 30
0.0
  0
VERTEX
  5
AAF
  8
RIVERS
 10
614076.74097654363
 20
1758873.3286061741
 30
0.0
  0
VERTEX
  5
AB0
  8
RIVERS
 10
614067.01797014521
 20
1758882.7628180911
 30
0.0
  0
VERTEX
  5
AB1
  8
RIVERS
 10
614055.35073172348
 20
1758889.4230095909
 30
0.0
  0
VERTEX
  5
AB2
  8
RIVERS
 10
614040.62797815888
 20
1758893.8617837729
 30
0.0
  0
VERTEX
  5
AB3
  8
RIVERS
 10
614026.19632393203
 20
1758897.418681778
 30
0.0
  0
VERTEX
  5
AB4
  8
RIVERS
 10
614011.17397551856
 20
1758899.88668597
 30
0.0
  0
VERTEX
  5
AB5
  8
RIVERS
 10
613997.74229056016
 20
1758901.14244788
 30
0.0
  0
VERTEX
  5
AB6
  8
RIVERS
 10
613983.02333699272
 20
1758901.9286957609
 30
0.0
  0
VERTEX
  5
AB7
  8
RIVERS
 10
613967.52150943805
 20
1758900.554480467
 30
0.0
  0
VERTEX
  5
AB8
  8
RIVERS
 10
613951.31101377786
 20
1758897.644836036
 30
0.0
  0
VERTEX
  5
AB9
  8
RIVERS
 10
613937.13993088552
 20
1758892.728655027
 30
0.0
  0
VERTEX
  5
ABA
  8
RIVERS
 10
613923.77567169233
 20
1758885.91883173
 30
0.0
  0
VERTEX
  5
ABB
  8
RIVERS
 10
613911.56911582954
 20
1758877.2018064
 30
0.0
  0
VERTEX
  5
ABC
  8
RIVERS
 10
613899.42727206182
 20
1758868.3915115451
 30
0.0
  0
VERTEX
  5
ABD
  8
RIVERS
 10
613888.90084535885
 20
1758857.70698714
 30
0.0
  0
VERTEX
  5
ABE
  8
RIVERS
 10
613879.92946905317
 20
1758845.685764353
 30
0.0
  0
VERTEX
  5
ABF
  8
RIVERS
 10
613872.90318924445
 20
1758836.5934532229
 30
0.0
  0
SEQEND
  5
AC0
  8
RIVERS
  0
POLYLINE
  5
B0
  8
RIVERS
 66
     1
 10
0.0
 20
0.0
 30
0.0
  0
VERTEX
  5
AC1
  8
RIVERS
 10
613714.88423277065
 20
1759813.1832206231
 30
0.0
  0
VERTEX
  5
AC2
  8
RIVERS
 10
613718.44473447895
 20
1759796.728971336
 30
0.0
  0
VERTEX
  5
AC3
  8
RIVERS
 10
613720.22442356788
 20
1759782.9429778859
 30
0.0
  0
VERTEX
  5
AC4
  8
RIVERS
 10
613721.55962093011
 20
1759767.8220210141
 30
0.0
  0
VERTEX
  5
AC5
  8
RIVERS
 10
613716.6641949109
 20
1759752.7017315971
 30
0.0
  0
VERTEX
  5
AC6
  8
RIVERS
 10
613711.69200737355
 20
1759737.4499870811
 30
0.0
  0
VERTEX
  5
AC7
  8
RIVERS
 10
613711.8390981307
 20
1759722.4506487041
 30
0.0
  0
VERTEX
  5
AC8
  8
RIVERS
 10
613716.16142555617
 20
1759708.085267229
 30
0.0
  0
VERTEX
  5
AC9
  8
RIVERS
 10
613725.25833642215
 20
1759694.714335239
 30
0.0
  0
VERTEX
  5
ACA
  8
RIVERS
 10
613730.53927105176
 20
1759681.960559682
 30
0.0
  0
VERTEX
  5
ACB
  8
RIVERS
 10
613734.06054281921
 20
1759664.8048789089
 30
0.0
  0
VERTEX
  5
ACC
  8
RIVERS
 10
613734.44020036445
 20
1759651.0355866391
 30
0.0
  0
VERTEX
  5
ACD
  8
RIVERS
 10
613737.14196954237
 20
1759636.6534708741
 30
0.0
  0
VERTEX
  5
ACE
  8
RIVERS
 10
613739.34372136462
 20
1759622.139449846
 30
0.0
  0
VERTEX
  5
ACF
  8
RIVERS
 10
613741.51435924531
 20
1759606.9444484189
 30
0.0
  0
VERTEX
  5
AD0
  8
RIVERS
 10
613744.96011459827
 20
1759593.3030964029
 30
0.0
  0
VERTEX
  5
AD1
  8
RIVERS
 10
613751.92927470477
 20
1759576.665343835
 30
0.0
  0
VERTEX
  5
AD2
  8
RIVERS
 10
613760.61392573291
 20
1759561.787710628
 30
0.0
  0
VERTEX
  5
AD3
  8
RIVERS
 10
613763.7171192395
 20
1759548.1480259669
 30
0.0
  0
VERTEX
  5
AD4
  8
RIVERS
 10
613763.09717818629
 20
1759530.790855397
 30
0.0
  0
VERTEX
  5
AD5
  8
RIVERS
 10
613756.17918021465
 20
1759518.25758719
 30
0.0
  0
VERTEX
  5
AD6
  8
RIVERS
 10
613753.76823005476
 20
1759505.5685263821
 30
0.0
  0
VERTEX
  5
AD7
  8
RIVERS
 10
613756.77126932237
 20
1759490.571798373
 30
0.0
  0
VERTEX
  5
AD8
  8
RIVERS
 10
613762.50616455358
 20
1759473.742250877
 30
0.0
  0
VERTEX
  5
AD9
  8
RIVERS
 10
613766.22495393781
 20
1759459.210413761
 30
0.0
  0
VERTEX
  5
ADA
  8
RIVERS
 10
613771.49933516292
 20
1759445.1698653561
 30
0.0
  0
VERTEX
  5
ADB
  8
RIVERS
 10
613776.84771488828
 20
1759431.153535638
 30
0.0
  0
VERTEX
  5
ADC
  8
RIVERS
 10
613783.59128362034
 20
1759417.7553279321
 30
0.0
  0
VERTEX
  5
ADD
  8
RIVERS
 10
613799.74716627167
 20
1759407.6933494881
 30
0.0
  0
VERTEX
  5
ADE
  8
RIVERS
 10
613813.26409888791
 20
1759401.272240527
 30
0.0
  0
VERTEX
  5
ADF
  8
RIVERS
 10
613826.17535592965
 20
1759393.4744972531
 30
0.0
  0
VERTEX
  5
AE0
  8
RIVERS
 10
613835.66118106199
 20
1759383.657740382
 30
0.0
  0
VERTEX
  5
AE1
  8
RIVERS
 10
613846.16473136679
 20
1759374.5167665619
 30
0.0
  0
VERTEX
  5
AE2
  8
RIVERS
 10
613857.00662664382
 20
1759362.327464672
 30
0.0
  0
VERTEX
  5
AE3
  8
RIVERS
 10
613868.52641723969
 20
1759353.1865614429
 30
0.0
  0
VERTEX
  5
AE4
  8
RIVERS
 10
613882.41750280967
 20
1759346.0763615831
 30
0.0
  0
VERTEX
  5
AE5
  8
RIVERS
 10
613893.23150524776
 20
1759339.6960015381
 30
0.0
  0
VERTEX
  5
AE6
  8
RIVERS
 10
613903.42430663004
 20
1759329.487999504
 30
0.0
  0
VERTEX
  5
AE7
  8
RIVERS
 10
613912.87130086403
 20
1759316.311236416
 30
0.0
  0
VERTEX
  5
AE8
  8
RIVERS
 10
613922.31588116207
 20
1759308.1367662139
 30
0.0
  0
VERTEX
  5
AE9
  8
RIVERS
 10
613936.1190743834
 20
1759299.8602576009
 30
0.0
  0
VERTEX
  5
AEA
  8
RIVERS
 10
613948.54321959079
 20
1759291.355455945
 30
0.0
  0
SEQEND
  5
AEB
  8
RIVERS
  0
LINE
  5
B1
  8
RIVERS
 10
613948.54321959079
 20
1759291.355455945
 30
0.0
 11
613958.02837230742
 21
1759277.4844733479
 31
0.0
  0
POLYLINE
  5
B2
  8
RIVERS
 66
     1
 10
0.0
 20
0.0
 30
0.0
  0
VERTEX
  5
AEC
  8
RIVERS
 10
613872.90318924445
 20
1758836.5934532229
 30
0.0
  0
VERTEX
  5
AED
  8
RIVERS
 10
613861.49134382734
 20
1758824.7947042889
 30
0.0
  0
VERTEX
  5
AEE
  8
RIVERS
 10
613851.47910148778
 20
1758813.3962603561
 30
0.0
  0
VERTEX
  5
AEF
  8
RIVERS
 10
613839.21928424388
 20
1758804.12925299
 30
0.0
  0
VERTEX
  5
AF0
  8
RIVERS
 10
613827.60391865822
 20
1758794.1251445641
 30
0.0
  0
VERTEX
  5
AF1
  8
RIVERS
 10
613814.57211480895
 20
1758786.6975306959
 30
0.0
  0
VERTEX
  5
AF2
  8
RIVERS
 10
613801.44224574324
 20
1758779.4447458331
 30
0.0
  0
VERTEX
  5
AF3
  8
RIVERS
 10
613787.73993788799
 20
1758773.339626526
 30
0.0
  0
VERTEX
  5
AF4
  8
RIVERS
 10
613774.61117094709
 20
1758761.979839144
 30
0.0
  0
VERTEX
  5
AF5
  8
RIVERS
 10
613766.99430382287
 20
1758750.1425682111
 30
0.0
  0
VERTEX
  5
AF6
  8
RIVERS
 10
613762.88125049486
 20
1758736.590440158
 30
0.0
  0
VERTEX
  5
AF7
  8
RIVERS
 10
613761.42983790056
 20
1758720.7796274051
 30
0.0
  0
VERTEX
  5
AF8
  8
RIVERS
 10
613760.94933698489
 20
1758705.7873206339
 30
0.0
  0
VERTEX
  5
AF9
  8
RIVERS
 10
613760.22270117362
 20
1758692.233690287
 30
0.0
  0
VERTEX
  5
AFA
  8
RIVERS
 10
613753.45110012894
 20
1758678.708896945
 30
0.0
  0
VERTEX
  5
AFB
  8
RIVERS
 10
613741.18001783069
 20
1758666.4497039691
 30
0.0
  0
VERTEX
  5
AFC
  8
RIVERS
 10
613726.17189153493
 20
1758657.670906171
 30
0.0
  0
VERTEX
  5
AFD
  8
RIVERS
 10
613713.63492075389
 20
1758649.4357119361
 30
0.0
  0
VERTEX
  5
AFE
  8
RIVERS
 10
613700.86215751979
 20
1758641.5720706671
 30
0.0
  0
VERTEX
  5
AFF
  8
RIVERS
 10
613687.43446320505
 20
1758634.886323055
 30
0.0
  0
VERTEX
  5
B00
  8
RIVERS
 10
613675.82258399331
 20
1758627.731531759
 30
0.0
  0
VERTEX
  5
B01
  8
RIVERS
 10
613663.5849536988
 20
1758618.275819374
 30
0.0
  0
VERTEX
  5
B02
  8
RIVERS
 10
613649.96350383374
 20
1758607.89739255
 30
0.0
  0
VERTEX
  5
B03
  8
RIVERS
 10
613639.80288479896
 20
1758600.055562332
 30
0.0
  0
VERTEX
  5
B04
  8
RIVERS
 10
613628.06541273801
 20
1758590.056063608
 30
0.0
  0
VERTEX
  5
B05
  8
RIVERS
 10
613617.64137461979
 20
1758579.2683781791
 30
0.0
  0
VERTEX
  5
B06
  8
RIVERS
 10
613610.20994166832
 20
1758566.2389861329
 30
0.0
  0
VERTEX
  5
B07
  8
RIVERS
 10
613604.77632775484
 20
1758552.25809821
 30
0.0
  0
VERTEX
  5
B08
  8
RIVERS
 10
613600.00109069864
 20
1758538.038855141
 30
0.0
  0
VERTEX
  5
B09
  8
RIVERS
 10
613594.11361388175
 20
1758527.1533667529
 30
0.0
  0
VERTEX
  5
B0A
  8
RIVERS
 10
613585.56044152204
 20
1758518.9997416909
 30
0.0
  0
VERTEX
  5
B0B
  8
RIVERS
 10
613574.03185174882
 20
1758513.2666402101
 30
0.0
  0
VERTEX
  5
B0C
  8
RIVERS
 10
613561.44950942858
 20
1758509.0770534109
 30
0.0
  0
VERTEX
  5
B0D
  8
RIVERS
 10
613547.15304747445
 20
1758506.4106063009
 30
0.0
  0
VERTEX
  5
B0E
  8
RIVERS
 10
613529.07855641772
 20
1758502.036586327
 30
0.0
  0
VERTEX
  5
B0F
  8
RIVERS
 10
613514.11139670503
 20
1758496.1856543759
 30
0.0
  0
VERTEX
  5
B10
  8
RIVERS
 10
613503.44689530006
 20
1758486.348260493
 30
0.0
  0
VERTEX
  5
B11
  8
RIVERS
 10
613494.38257403369
 20
1758474.396535771
 30
0.0
  0
VERTEX
  5
B12
  8
RIVERS
 10
613488.33318341116
 20
1758460.6712641029
 30
0.0
  0
VERTEX
  5
B13
  8
RIVERS
 10
613483.92246551788
 20
1758446.334750372
 30
0.0
  0
VERTEX
  5
B14
  8
RIVERS
 10
613481.45929953724
 20
1758431.538366942
 30
0.0
  0
VERTEX
  5
B15
  8
RIVERS
 10
613481.3508766446
 20
1758416.537758122
 30
0.0
  0
VERTEX
  5
B16
  8
RIVERS
 10
613478.06139408145
 20
1758401.9601439149
 30
0.0
  0
VERTEX
  5
B17
  8
RIVERS
 10
613474.40405764559
 20
1758387.491298205
 30
0.0
  0
VERTEX
  5
B18
  8
RIVERS
 10
613468.88283025636
 20
1758373.5440404529
 30
0.0
  0
VERTEX
  5
B19
  8
RIVERS
 10
613464.92130699079
 20
1758359.943403448
 30
0.0
  0
VERTEX
  5
B1A
  8
RIVERS
 10
613461.45695013029
 20
1758344.1173160691
 30
0.0
  0
VERTEX
  5
B1B
  8
RIVERS
 10
613457.99118499155
 20
1758330.517479477
 30
0.0
  0
SEQEND
  5
B1C
  8
RIVERS
  0
ENDSEC
  0
EOF
