  0
SECTION
  2
HEADER
  9
$ACADVER
  1
AC1009
  9
$INSBASE
 10
0.0
 20
0.0
 30
0.0
  9
$EXTMIN
 10
485510.67325941642
 20
1741954.367625206
 30
-7.7617242885462474
  9
$EXTMAX
 10
628570.28906394239
 20
1815363.3800785691
 30
101750.0004738682
  9
$LIMMIN
 10
0.0
 20
0.0
  9
$LIMMAX
 10
12.0
 20
9.0
  9
$ORTHOMODE
 70
     0
  9
$REGENMODE
 70
     1
  9
$FILLMODE
 70
     1
  9
$QTEXTMODE
 70
     0
  9
$MIRRTEXT
 70
     1
  9
$DRAGMODE
 70
     2
  9
$LTSCALE
 40
1.0
  9
$OSMODE
 70
    37
  9
$ATTMODE
 70
     1
  9
$TEXTSIZE
 40
1.0
  9
$TRACEWID
 40
0.05
  9
$TEXTSTYLE
  7
STANDARD
  9
$CLAYER
  8
CIVIC_ID
  9
$CELTYPE
  6
BYLAYER
  9
$CECOLOR
 62
   256
  9
$DIMSCALE
 40
1.0
  9
$DIMASZ
 40
0.18
  9
$DIMEXO
 40
0.0625
  9
$DIMDLI
 40
0.38
  9
$DIMRND
 40
0.0
  9
$DIMDLE
 40
0.0
  9
$DIMEXE
 40
0.18
  9
$DIMTP
 40
0.0
  9
$DIMTM
 40
0.0
  9
$DIMTXT
 40
0.18
  9
$DIMCEN
 40
0.09
  9
$DIMTSZ
 40
0.0
  9
$DIMTOL
 70
     0
  9
$DIMLIM
 70
     0
  9
$DIMTIH
 70
     1
  9
$DIMTOH
 70
     1
  9
$DIMSE1
 70
     0
  9
$DIMSE2
 70
     0
  9
$DIMTAD
 70
     0
  9
$DIMZIN
 70
     0
  9
$DIMBLK
  1

  9
$DIMASO
 70
     1
  9
$DIMSHO
 70
     1
  9
$DIMPOST
  1

  9
$DIMAPOST
  1

  9
$DIMALT
 70
     0
  9
$DIMALTD
 70
     2
  9
$DIMALTF
 40
25.399999999999999
  9
$DIMLFAC
 40
1.0
  9
$DIMTOFL
 70
     0
  9
$DIMTVP
 40
0.0
  9
$DIMTIX
 70
     0
  9
$DIMSOXD
 70
     0
  9
$DIMSAH
 70
     0
  9
$DIMBLK1
  1

  9
$DIMBLK2
  1

  9
$DIMSTYLE
  2
STANDARD
  9
$DIMCLRD
 70
     0
  9
$DIMCLRE
 70
     0
  9
$DIMCLRT
 70
     0
  9
$DIMTFAC
 40
1.0
  9
$DIMGAP
 40
0.09
  9
$LUNITS
 70
     2
  9
$LUPREC
 70
     4
  9
$SKETCHINC
 40
0.1
  9
$FILLETRAD
 40
0.5
  9
$AUNITS
 70
     0
  9
$AUPREC
 70
     0
  9
$MENU
  1
.
  9
$ELEVATION
 40
0.0
  9
$PELEVATION
 40
0.0
  9
$THICKNESS
 40
0.0
  9
$LIMCHECK
 70
     0
  9
$BLIPMODE
 70
     0
  9
$CHAMFERA
 40
0.5
  9
$CHAMFERB
 40
0.5
  9
$SKPOLY
 70
     0
  9
$TDCREATE
 40
2455959.7770924768
  9
$TDUPDATE
 40
2457976.5960976742
  9
$TDINDWG
 40
9.6286810069000008
  9
$TDUSRTIMER
 40
9.6286810069000008
  9
$USRTIMER
 70
     1
  9
$ANGBASE
 50
0.0
  9
$ANGDIR
 70
     0
  9
$PDMODE
 70
     3
  9
$PDSIZE
 40
0.0
  9
$PLINEWID
 40
0.0
  9
$COORDS
 70
     1
  9
$SPLFRAME
 70
     0
  9
$SPLINETYPE
 70
     6
  9
$SPLINESEGS
 70
     8
  9
$ATTDIA
 70
     1
  9
$ATTREQ
 70
     1
  9
$HANDLING
 70
     1
  9
$HANDSEED
  5
DD7
  9
$SURFTAB1
 70
     6
  9
$SURFTAB2
 70
     6
  9
$SURFTYPE
 70
     6
  9
$SURFU
 70
     6
  9
$SURFV
 70
     6
  9
$UCSNAME
  2

  9
$UCSORG
 10
0.0
 20
0.0
 30
0.0
  9
$UCSXDIR
 10
1.0
 20
0.0
 30
0.0
  9
$UCSYDIR
 10
0.0
 20
1.0
 30
0.0
  9
$PUCSNAME
  2

  9
$PUCSORG
 10
0.0
 20
0.0
 30
0.0
  9
$PUCSXDIR
 10
1.0
 20
0.0
 30
0.0
  9
$PUCSYDIR
 10
0.0
 20
1.0
 30
0.0
  9
$USERI1
 70
     0
  9
$USERI2
 70
     0
  9
$USERI3
 70
     0
  9
$USERI4
 70
     0
  9
$USERI5
 70
     0
  9
$USERR1
 40
0.0
  9
$USERR2
 40
0.0
  9
$USERR3
 40
0.0
  9
$USERR4
 40
0.0
  9
$USERR5
 40
0.0
  9
$WORLDVIEW
 70
     1
  9
$SHADEDGE
 70
     3
  9
$SHADEDIF
 70
    70
  9
$TILEMODE
 70
     1
  9
$MAXACTVP
 70
    64
  9
$PLIMCHECK
 70
     0
  9
$PEXTMIN
 10
1.0000000000000000E+020
 20
1.0000000000000000E+020
 30
1.0000000000000000E+020
  9
$PEXTMAX
 10
-1.0000000000000000E+020
 20
-1.0000000000000000E+020
 30
-1.0000000000000000E+020
  9
$PLIMMIN
 10
0.0
 20
0.0
  9
$PLIMMAX
 10
12.0
 20
9.0
  9
$UNITMODE
 70
     0
  9
$VISRETAIN
 70
     1
  9
$PLINEGEN
 70
     0
  9
$PSLTSCALE
 70
     1
  0
ENDSEC
  0
SECTION
  2
TABLES
  0
TABLE
  2
VPORT
 70
     1
  0
VPORT
  2
*ACTIVE
 70
     0
 10
0.0
 20
0.0
 11
1.0
 21
1.0
 12
-359883.33422610332
 22
229781.21794931029
 13
0.0
 23
0.0
 14
10.0
 24
10.0
 15
0.1
 25
0.1
 16
0.0
 26
0.0
 36
1.0
 17
949850.74678859755
 27
1537997.59960491
 37
161744.97060287729
 40
46613.986203486849
 41
1.942465753424657
 42
50.0
 43
0.0
 44
0.0
 50
0.0
 51
0.0
 71
     0
 72
   100
 73
     1
 74
     3
 75
     0
 76
     0
 77
     0
 78
     0
  0
ENDTAB
  0
TABLE
  2
LTYPE
 70
     1
  0
LTYPE
  2
CONTINUOUS
 70
     0
  3
Solid line
 72
    65
 73
     0
 40
0.0
  0
ENDTAB
  0
TABLE
  2
LAYER
 70
    18
  0
LAYER
  2
0
 70
     0
 62
    -7
  6
CONTINUOUS
  0
LAYER
  2
CIVIC_PLATFORM_LARGE_BASE
 70
     0
 62
    94
  6
CONTINUOUS
  0
LAYER
  2
CIVIC_MISCELANEOUS
 70
     0
 62
     4
  6
CONTINUOUS
  0
LAYER
  2
CIVIC_ID
 70
     0
 62
   151
  6
CONTINUOUS
  0
LAYER
  2
CIVIC_PYRAMIDS
 70
     0
 62
   120
  6
CONTINUOUS
  0
LAYER
  2
CIVIC_BALL_COURTS
 70
     0
 62
   140
  6
CONTINUOUS
  0
LAYER
  2
CIVIC_PYRAMID_ANNEX
 70
     0
 62
    71
  6
CONTINUOUS
  0
LAYER
  2
CIVIC_ALTARS
 70
     0
 62
   190
  6
CONTINUOUS
  0
LAYER
  2
CIVIC_PLATFORM_HIGH
 70
     0
 62
    64
  6
CONTINUOUS
  0
LAYER
  2
CIVIC_ACROPOLIS
 70
     0
 62
   170
  6
CONTINUOUS
  0
LAYER
  2
CIVIC_PLATFORM_SMALLISH_AT
 70
     0
 62
    21
  6
CONTINUOUS
  0
LAYER
  2
CIVIC_RANGE
 70
     0
 62
   160
  6
CONTINUOUS
  0
LAYER
  2
CIVIC_PLATFORM_LONG
 70
     0
 62
    74
  6
CONTINUOUS
  0
LAYER
  2
CIVIC_TOMB
 70
     0
 62
   190
  6
CONTINUOUS
  0
LAYER
  2
CIVIC_PLATFORM_HIGH_BASAL
 70
     0
 62
    64
  6
CONTINUOUS
  0
LAYER
  2
CIVIC_PLATFORM_LOW_CRUCIFO
 70
     0
 62
    64
  6
CONTINUOUS
  0
LAYER
  2
CIVIC_PLATFORM_SQUARISH
 70
     0
 62
    64
  6
CONTINUOUS
  0
LAYER
  2
CIVIC_NLTC
 70
     0
 62
   150
  6
CONTINUOUS
  0
ENDTAB
  0
TABLE
  2
STYLE
 70
     1
  0
STYLE
  2
STANDARD
 70
     0
 40
0.0
 41
1.0
 50
0.0
 71
     0
 42
1.0
  3
txt
  4

  0
ENDTAB
  0
TABLE
  2
VIEW
 70
     0
  0
ENDTAB
  0
TABLE
  2
UCS
 70
     0
  0
ENDTAB
  0
TABLE
  2
APPID
 70
     7
  0
APPID
  2
ACAD
 70
     0
  0
APPID
  2
ACAECLAYERSTANDARD
 70
     0
  0
APPID
  2
ADE
 70
     0
  0
APPID
  2
ADE_PROJECTION
 70
     0
  0
APPID
  2
ACAD_PSEXT
 70
     0
  0
APPID
  2
ACAD_NAV_VCDISPLAY
 70
     0
  0
APPID
  2
ACCMTRANSPARENCY
 70
     0
  0
ENDTAB
  0
TABLE
  2
DIMSTYLE
 70
     1
  0
DIMSTYLE
  2
STANDARD
 70
     0
  3

  4

  5

  6

  7

 40
1.0
 41
0.18
 42
0.0625
 43
0.38
 44
0.18
 45
0.0
 46
0.0
 47
0.0
 48
0.0
140
0.18
141
0.09
142
0.0
143
25.399999999999999
144
1.0
145
0.0
146
1.0
147
0.09
 71
     0
 72
     0
 73
     1
 74
     1
 75
     0
 76
     0
 77
     0
 78
     0
170
     0
171
     2
172
     0
173
     0
174
     0
175
     0
176
     0
177
     0
178
     0
  0
ENDTAB
  0
ENDSEC
  0
SECTION
  2
BLOCKS
  0
BLOCK
  8
0
  2
$MODEL_SPACE
 70
     0
 10
0.0
 20
0.0
 30
0.0
  3
$MODEL_SPACE
  1

  0
ENDBLK
  5
15
  8
0
  0
BLOCK
 67
     1
  8
0
  2
$PAPER_SPACE
 70
     0
 10
0.0
 20
0.0
 30
0.0
  3
$PAPER_SPACE
  1

  0
ENDBLK
  5
1C
 67
     1
  8
0
  0
ENDSEC
  0
SECTION
  2
ENTITIES
  0
TEXT
  5
68
  8
CIVIC_ID
 10
608062.97850634367
 20
1769022.7363796381
 30
0.0
 40
1.0
  1
RV162-4
  0
TEXT
  5
69
  8
CIVIC_ID
 10
608024.65078916657
 20
1769055.982224067
 30
0.0
 40
1.0
  1
RV162-3
  0
TEXT
  5
6A
  8
CIVIC_ID
 10
608098.1201329024
 20
1769109.6193561759
 30
0.0
 40
1.0
  1
RV162-2
  0
TEXT
  5
6B
  8
CIVIC_ID
 10
608029.06706662464
 20
1769130.8577957831
 30
0.0
 40
1.0
  1
RV162-1
  0
TEXT
  5
6C
  8
CIVIC_ID
 10
608155.6157071084
 20
1769033.3089817429
 30
0.0
 40
1.0
  1
RV162-VII
  0
TEXT
  5
6D
  8
CIVIC_ID
 10
608079.63800840755
 20
1769001.9928422919
 30
0.0
 40
1.0
  1
RV162-VI
  0
TEXT
  5
6E
  8
CIVIC_ID
 10
608068.80856569845
 20
1769137.7367668001
 30
0.0
 40
1.0
  1
RV162-V
  0
TEXT
  5
6F
  8
CIVIC_ID
 10
607995.84535788058
 20
1769124.578403844
 30
0.0
 40
1.0
  1
RV162-IV
  0
TEXT
  5
70
  8
CIVIC_ID
 10
608106.29760999454
 20
1769204.5259325691
 30
0.0
 40
1.0
  1
RV162-III
  0
TEXT
  5
71
  8
CIVIC_ID
 10
608057.17810208886
 20
1769205.963899934
 30
0.0
 40
1.0
  1
RV162-II
  0
TEXT
  5
72
  8
CIVIC_ID
 10
608021.95683992479
 20
1769178.818523115
 30
0.0
 40
1.0
  1
RV162-I
  0
POLYLINE
  5
73
  8
CIVIC_NLTC
 66
     1
 10
0.0
 20
0.0
 30
0.0
 70
     1
  0
VERTEX
  5
434
  8
CIVIC_NLTC
 10
608065.75275759737
 20
1769228.8834979329
 30
0.0
  0
VERTEX
  5
435
  8
CIVIC_NLTC
 10
608069.14376828796
 20
1769229.1021020799
 30
0.0
  0
VERTEX
  5
436
  8
CIVIC_NLTC
 10
608073.30048032128
 20
1769227.899292405
 30
0.0
  0
VERTEX
  5
437
  8
CIVIC_NLTC
 10
608075.05046441755
 20
1769226.0406702899
 30
0.0
  0
VERTEX
  5
438
  8
CIVIC_NLTC
 10
608077.89468837879
 20
1769221.776428825
 30
0.0
  0
VERTEX
  5
439
  8
CIVIC_NLTC
 10
608079.4260910647
 20
1769217.8403370141
 30
0.0
  0
VERTEX
  5
43A
  8
CIVIC_NLTC
 10
608081.17607516085
 20
1769214.669603151
 30
0.0
  0
VERTEX
  5
43B
  8
CIVIC_NLTC
 10
608082.05140041234
 20
1769210.1865141061
 30
0.0
  0
VERTEX
  5
43C
  8
CIVIC_NLTC
 10
608082.2699818227
 20
1769205.157158128
 30
0.0
  0
VERTEX
  5
43D
  8
CIVIC_NLTC
 10
608081.61357118492
 20
1769200.8929166631
 30
0.0
  0
VERTEX
  5
43E
  8
CIVIC_NLTC
 10
608079.09788574581
 20
1769198.37799524
 30
0.0
  0
VERTEX
  5
43F
  8
CIVIC_NLTC
 10
608075.16008832608
 20
1769195.426108957
 30
0.0
  0
VERTEX
  5
440
  8
CIVIC_NLTC
 10
608071.44087231671
 20
1769194.6605075761
 30
0.0
  0
VERTEX
  5
441
  8
CIVIC_NLTC
 10
608066.08096291625
 20
1769193.3486392619
 30
0.0
  0
VERTEX
  5
442
  8
CIVIC_NLTC
 10
608061.81496017764
 20
1769192.801885461
 30
0.0
  0
VERTEX
  5
443
  8
CIVIC_NLTC
 10
608058.09574416815
 20
1769191.5990757861
 30
0.0
  0
VERTEX
  5
444
  8
CIVIC_NLTC
 10
608053.17333079176
 20
1769191.7083778591
 30
0.0
  0
VERTEX
  5
445
  8
CIVIC_NLTC
 10
608047.26663466217
 20
1769194.7700530831
 30
0.0
  0
VERTEX
  5
446
  8
CIVIC_NLTC
 10
608043.65704256145
 20
1769198.37799524
 30
0.0
  0
VERTEX
  5
447
  8
CIVIC_NLTC
 10
608041.68814385147
 20
1769205.8132140019
 30
0.0
  0
VERTEX
  5
448
  8
CIVIC_NLTC
 10
608040.92244250863
 20
1769212.8107376019
 30
0.0
  0
VERTEX
  5
449
  8
CIVIC_NLTC
 10
608043.00063192355
 20
1769219.8082612019
 30
0.0
  0
VERTEX
  5
44A
  8
CIVIC_NLTC
 10
608047.37592536735
 20
1769223.6352943741
 30
0.0
  0
VERTEX
  5
44B
  8
CIVIC_NLTC
 10
608052.62654406263
 20
1769226.2592744371
 30
0.0
  0
VERTEX
  5
44C
  8
CIVIC_NLTC
 10
608059.18965083
 20
1769227.571386185
 30
0.0
  0
SEQEND
  5
44D
  8
CIVIC_NLTC
  0
POLYLINE
  5
75
  8
CIVIC_NLTC
 66
     1
 10
0.0
 20
0.0
 30
0.0
 70
     1
  0
VERTEX
  5
44E
  8
CIVIC_NLTC
 10
608021.13915885636
 20
1769131.2616535551
 30
0.0
  0
VERTEX
  5
44F
  8
CIVIC_NLTC
 10
608029.72014522878
 20
1769138.916693636
 30
0.0
  0
VERTEX
  5
450
  8
CIVIC_NLTC
 10
608037.37849147164
 20
1769130.1547570571
 30
0.0
  0
VERTEX
  5
451
  8
CIVIC_NLTC
 10
608028.70520776557
 20
1769122.499716976
 30
0.0
  0
SEQEND
  5
452
  8
CIVIC_NLTC
  0
POLYLINE
  5
76
  8
CIVIC_NLTC
 66
     1
 10
0.0
 20
0.0
 30
0.0
 70
     1
  0
VERTEX
  5
453
  8
CIVIC_NLTC
 10
608098.02683595894
 20
1769117.5351145649
 30
0.0
  0
VERTEX
  5
454
  8
CIVIC_NLTC
 10
608105.74049396103
 20
1769108.3077312959
 30
0.0
  0
VERTEX
  5
455
  8
CIVIC_NLTC
 10
608098.02683595894
 20
1769101.482072426
 30
0.0
  0
VERTEX
  5
456
  8
CIVIC_NLTC
 10
608090.43946203403
 20
1769110.5831132091
 30
0.0
  0
SEQEND
  5
457
  8
CIVIC_NLTC
  0
POLYLINE
  5
77
  8
CIVIC_NLTC
 66
     1
 10
0.0
 20
0.0
 30
0.0
 70
     1
  0
VERTEX
  5
458
  8
CIVIC_NLTC
 10
608030.76140575833
 20
1769055.0075124821
 30
0.0
  0
VERTEX
  5
459
  8
CIVIC_NLTC
 10
608024.36323465873
 20
1769049.8398857301
 30
0.0
  0
VERTEX
  5
45A
  8
CIVIC_NLTC
 10
608018.93768419453
 20
1769057.00270133
 30
0.0
  0
VERTEX
  5
45B
  8
CIVIC_NLTC
 10
608025.37417368137
 20
1769061.6790773389
 30
0.0
  0
SEQEND
  5
45C
  8
CIVIC_NLTC
  0
POLYLINE
  5
78
  8
CIVIC_NLTC
 66
     1
 10
0.0
 20
0.0
 30
0.0
 70
     1
  0
VERTEX
  5
45D
  8
CIVIC_NLTC
 10
608064.31531826174
 20
1769015.85570458
 30
0.0
  0
VERTEX
  5
45E
  8
CIVIC_NLTC
 10
608070.95139656705
 20
1769020.485584606
 30
0.0
  0
VERTEX
  5
45F
  8
CIVIC_NLTC
 10
608065.69611302461
 20
1769027.252332337
 30
0.0
  0
VERTEX
  5
460
  8
CIVIC_NLTC
 10
608059.19364927046
 20
1769022.6670008169
 30
0.0
  0
SEQEND
  5
461
  8
CIVIC_NLTC
  0
POLYLINE
  5
79
  8
CIVIC_NLTC
 66
     1
 10
0.0
 20
0.0
 30
0.0
 70
     1
  0
VERTEX
  5
462
  8
CIVIC_NLTC
 10
608067.87626267073
 20
1769005.4296500219
 30
0.0
  0
VERTEX
  5
463
  8
CIVIC_NLTC
 10
608081.21339393826
 20
1769015.7244934051
 30
0.0
  0
VERTEX
  5
464
  8
CIVIC_NLTC
 10
608092.54997217585
 20
1769000.7637416951
 30
0.0
  0
VERTEX
  5
465
  8
CIVIC_NLTC
 10
608078.99059426086
 20
1768990.617149899
 30
0.0
  0
SEQEND
  5
466
  8
CIVIC_NLTC
  0
POLYLINE
  5
7A
  8
CIVIC_NLTC
 66
     1
 10
0.0
 20
0.0
 30
0.0
 70
     1
  0
VERTEX
  5
467
  8
CIVIC_NLTC
 10
608174.52633113624
 20
1769032.4102217101
 30
0.0
  0
VERTEX
  5
468
  8
CIVIC_NLTC
 10
608151.67091241782
 20
1769015.2398153921
 30
0.0
  0
VERTEX
  5
469
  8
CIVIC_NLTC
 10
608135.07538540079
 20
1769036.484340861
 30
0.0
  0
VERTEX
  5
46A
  8
CIVIC_NLTC
 10
608158.36730053287
 20
1769053.8003209869
 30
0.0
  0
SEQEND
  5
46B
  8
CIVIC_NLTC
  0
POLYLINE
  5
7B
  8
CIVIC_NLTC
 66
     1
 10
0.0
 20
0.0
 30
0.0
 70
     1
  0
VERTEX
  5
46C
  8
CIVIC_NLTC
 10
608068.36074036977
 20
1769119.1493284809
 30
0.0
  0
VERTEX
  5
46D
  8
CIVIC_NLTC
 10
608085.25448440248
 20
1769134.1312589881
 30
0.0
  0
VERTEX
  5
46E
  8
CIVIC_NLTC
 10
608071.15531702887
 20
1769150.890747936
 30
0.0
  0
VERTEX
  5
46F
  8
CIVIC_NLTC
 10
608054.26157299639
 20
1769136.4166217151
 30
0.0
  0
SEQEND
  5
470
  8
CIVIC_NLTC
  0
POLYLINE
  5
7C
  8
CIVIC_NLTC
 66
     1
 10
0.0
 20
0.0
 30
0.0
 70
     1
  0
VERTEX
  5
471
  8
CIVIC_NLTC
 10
607997.03422750265
 20
1769110.1042776229
 30
0.0
  0
VERTEX
  5
472
  8
CIVIC_NLTC
 10
608014.09557283018
 20
1769127.297810215
 30
0.0
  0
VERTEX
  5
473
  8
CIVIC_NLTC
 10
607998.85218508635
 20
1769143.373248325
 30
0.0
  0
VERTEX
  5
474
  8
CIVIC_NLTC
 10
607982.35028821602
 20
1769126.179715733
 30
0.0
  0
SEQEND
  5
475
  8
CIVIC_NLTC
  0
POLYLINE
  5
7D
  8
CIVIC_NLTC
 66
     1
 10
0.0
 20
0.0
 30
0.0
 70
     1
  0
VERTEX
  5
476
  8
CIVIC_NLTC
 10
608003.02055923746
 20
1769181.053494907
 30
0.0
  0
VERTEX
  5
477
  8
CIVIC_NLTC
 10
608024.79206739517
 20
1769197.9381091669
 30
0.0
  0
VERTEX
  5
478
  8
CIVIC_NLTC
 10
608040.18273102841
 20
1769179.365033481
 30
0.0
  0
VERTEX
  5
479
  8
CIVIC_NLTC
 10
608018.22296296712
 20
1769162.2927312511
 30
0.0
  0
SEQEND
  5
47A
  8
CIVIC_NLTC
  0
POLYLINE
  5
7E
  8
CIVIC_NLTC
 66
     1
 10
0.0
 20
0.0
 30
0.0
 70
     1
  0
VERTEX
  5
47B
  8
CIVIC_NLTC
 10
608094.70813039946
 20
1769207.576896677
 30
0.0
  0
VERTEX
  5
47C
  8
CIVIC_NLTC
 10
608109.00855260808
 20
1769217.7415026231
 30
0.0
  0
VERTEX
  5
47D
  8
CIVIC_NLTC
 10
608119.1775862393
 20
1769203.923919145
 30
0.0
  0
VERTEX
  5
47E
  8
CIVIC_NLTC
 10
608104.28472843987
 20
1769193.273418013
 30
0.0
  0
SEQEND
  5
47F
  8
CIVIC_NLTC
  0
TEXT
  5
7F
  8
CIVIC_ID
 10
610656.54583941493
 20
1760387.5836130481
 30
0.0
 40
1.0
  1
RV264-CC_XV
  0
TEXT
  5
80
  8
CIVIC_ID
 10
590606.6929069059
 20
1776900.995880533
 30
0.0
 40
1.0
  1
RV330-EX_XXV
  0
TEXT
  5
81
  8
CIVIC_ID
 10
590610.42493816745
 20
1776099.8381079519
 30
0.0
 40
1.0
  1
RV330-EX_III
  0
TEXT
  5
82
  8
CIVIC_ID
 10
590742.77589512384
 20
1775899.3334784431
 30
0.0
 40
1.0
  1
RV330-EX_II
  0
TEXT
  5
83
  8
CIVIC_ID
 10
590706.55084890325
 20
1775930.0058606351
 30
0.0
 40
1.0
  1
RV330-EX_I
  0
TEXT
  5
84
  8
CIVIC_ID
 10
589836.63534717425
 20
1776358.751917517
 30
0.0
 40
1.0
  1
RV330-CC_XIVd
  0
TEXT
  5
85
  8
CIVIC_ID
 10
589847.78208346025
 20
1776371.7546139511
 30
0.0
 40
1.0
  1
RV330-CC_XIVc
  0
TEXT
  5
86
  8
CIVIC_ID
 10
589859.6940288553
 20
1776385.413164869
 30
0.0
 40
1.0
  1
RV330-CC_XIVb
  0
TEXT
  5
87
  8
CIVIC_ID
 10
589876.41413328436
 20
1776403.1143723149
 30
0.0
 40
1.0
  1
RV330-CC_XIVa
  0
POLYLINE
  5
88
  8
CIVIC_PLATFORM_SMALLISH_AT
 66
     1
 10
0.0
 20
0.0
 30
0.0
 70
     1
  0
VERTEX
  5
480
  8
CIVIC_PLATFORM_SMALLISH_AT
 10
589839.36746938527
 20
1776363.7781015621
 30
0.0
  0
VERTEX
  5
481
  8
CIVIC_PLATFORM_SMALLISH_AT
 10
589842.32354704849
 20
1776361.3725391689
 30
0.0
  0
VERTEX
  5
482
  8
CIVIC_PLATFORM_SMALLISH_AT
 10
589835.67002194899
 20
1776353.360691984
 30
0.0
  0
VERTEX
  5
483
  8
CIVIC_PLATFORM_SMALLISH_AT
 10
589832.39563878567
 20
1776355.7616786479
 30
0.0
  0
SEQEND
  5
484
  8
CIVIC_PLATFORM_SMALLISH_AT
  0
POLYLINE
  5
8A
  8
CIVIC_PLATFORM_SMALLISH_AT
 66
     1
 10
0.0
 20
0.0
 30
0.0
 70
     1
  0
VERTEX
  5
485
  8
CIVIC_PLATFORM_SMALLISH_AT
 10
589850.73312464415
 20
1776377.589176778
 30
0.0
  0
VERTEX
  5
486
  8
CIVIC_PLATFORM_SMALLISH_AT
 10
589854.00750780758
 20
1776374.8607712879
 30
0.0
  0
VERTEX
  5
487
  8
CIVIC_PLATFORM_SMALLISH_AT
 10
589843.85631562327
 20
1776363.619476292
 30
0.0
  0
VERTEX
  5
488
  8
CIVIC_PLATFORM_SMALLISH_AT
 10
589840.69105618075
 20
1776366.2388269079
 30
0.0
  0
SEQEND
  5
489
  8
CIVIC_PLATFORM_SMALLISH_AT
  0
POLYLINE
  5
8B
  8
CIVIC_PLATFORM_SMALLISH_AT
 66
     1
 10
0.0
 20
0.0
 30
0.0
 70
     1
  0
VERTEX
  5
48A
  8
CIVIC_PLATFORM_SMALLISH_AT
 10
589863.06712701567
 20
1776391.7772412179
 30
0.0
  0
VERTEX
  5
48B
  8
CIVIC_PLATFORM_SMALLISH_AT
 10
589866.34184594452
 20
1776389.048581521
 30
0.0
  0
VERTEX
  5
48C
  8
CIVIC_PLATFORM_SMALLISH_AT
 10
589857.39135045744
 20
1776379.3353257871
 30
0.0
  0
VERTEX
  5
48D
  8
CIVIC_PLATFORM_SMALLISH_AT
 10
589854.22575524985
 20
1776381.9546764039
 30
0.0
  0
SEQEND
  5
48E
  8
CIVIC_PLATFORM_SMALLISH_AT
  0
POLYLINE
  5
8C
  8
CIVIC_PLATFORM_SMALLISH_AT
 66
     1
 10
0.0
 20
0.0
 30
0.0
 70
     1
  0
VERTEX
  5
48F
  8
CIVIC_PLATFORM_SMALLISH_AT
 10
589880.31303989806
 20
1776411.8585903391
 30
0.0
  0
VERTEX
  5
490
  8
CIVIC_PLATFORM_SMALLISH_AT
 10
589884.02425371122
 20
1776408.802766022
 30
0.0
  0
VERTEX
  5
491
  8
CIVIC_PLATFORM_SMALLISH_AT
 10
589872.56357687362
 20
1776396.1427408441
 30
0.0
  0
VERTEX
  5
492
  8
CIVIC_PLATFORM_SMALLISH_AT
 10
589868.96148678148
 20
1776398.652782381
 30
0.0
  0
SEQEND
  5
493
  8
CIVIC_PLATFORM_SMALLISH_AT
  0
POLYLINE
  5
8D
  8
CIVIC_BALL_COURTS
 66
     1
 10
0.0
 20
0.0
 30
0.0
 70
     1
  0
VERTEX
  5
494
  8
CIVIC_BALL_COURTS
 10
607298.3107534782
 20
1771897.545632961
 30
0.0
  0
VERTEX
  5
495
  8
CIVIC_BALL_COURTS
 10
607302.39299662481
 20
1771893.735971129
 30
0.0
  0
VERTEX
  5
496
  8
CIVIC_BALL_COURTS
 10
607291.77936429228
 20
1771881.944409481
 30
0.0
  0
VERTEX
  5
497
  8
CIVIC_BALL_COURTS
 10
607287.51559189346
 20
1771885.753897164
 30
0.0
  0
SEQEND
  5
498
  8
CIVIC_BALL_COURTS
  0
TEXT
  5
8F
  8
CIVIC_ID
 10
601994.70183499379
 20
1771470.8282421399
 30
0.0
 40
1.0
  1
RV217-II
 50
1.348800546640994
  0
TEXT
  5
90
  8
CIVIC_ID
 10
601997.83146272635
 20
1771431.8880826889
 30
0.0
 40
1.0
  1
RV217-I
 50
1.348800546640994
  0
TEXT
  5
91
  8
CIVIC_ID
 10
608834.0935021051
 20
1769266.354845861
 30
0.0
 40
1.0
  1
RV164-CC_XVIp
  0
POLYLINE
  5
92
  8
CIVIC_RANGE
 66
     1
 10
0.0
 20
0.0
 30
0.0
 70
     1
  0
VERTEX
  5
499
  8
CIVIC_RANGE
 10
608820.57126973779
 20
1769281.349922023
 30
0.0
  0
VERTEX
  5
49A
  8
CIVIC_RANGE
 10
608817.95776826038
 20
1769278.737185197
 30
0.0
  0
VERTEX
  5
49B
  8
CIVIC_RANGE
 10
608842.83676478849
 20
1769255.897908713
 30
0.0
  0
VERTEX
  5
49C
  8
CIVIC_RANGE
 10
608845.3494237652
 20
1769258.46222763
 30
0.0
  0
SEQEND
  5
49D
  8
CIVIC_RANGE
  0
POLYLINE
  5
94
  8
CIVIC_PLATFORM_HIGH
 66
     1
 10
0.0
 20
0.0
 30
0.0
 70
     1
  0
VERTEX
  5
49E
  8
CIVIC_PLATFORM_HIGH
 10
594810.57308588643
 20
1770634.763633623
 30
0.0
  0
VERTEX
  5
49F
  8
CIVIC_PLATFORM_HIGH
 10
594814.46414042625
 20
1770640.0756384649
 30
0.0
  0
VERTEX
  5
4A0
  8
CIVIC_PLATFORM_HIGH
 10
594819.44670204748
 20
1770636.7546855099
 30
0.0
  0
VERTEX
  5
4A1
  8
CIVIC_PLATFORM_HIGH
 10
594826.34581287461
 20
1770645.184629838
 30
0.0
  0
VERTEX
  5
4A2
  8
CIVIC_PLATFORM_HIGH
 10
594841.93268055492
 20
1770633.6892183111
 30
0.0
  0
VERTEX
  5
4A3
  8
CIVIC_PLATFORM_HIGH
 10
594830.6898578417
 20
1770619.383825341
 30
0.0
  0
SEQEND
  5
4A4
  8
CIVIC_PLATFORM_HIGH
  0
TEXT
  5
96
  8
CIVIC_ID
 10
594818.50224870245
 20
1770610.7642134989
 30
0.0
 40
1.0
  1
RV227-CC_XIII
  0
TEXT
  5
97
  8
CIVIC_ID
 10
594846.61488598445
 20
1770602.1215067541
 30
0.0
 40
1.0
  1
RV227-CC_XII
  0
POLYLINE
  5
98
  8
CIVIC_PLATFORM_HIGH
 66
     1
 10
0.0
 20
0.0
 30
0.0
 70
     1
  0
VERTEX
  5
4A5
  8
CIVIC_PLATFORM_HIGH
 10
594811.23691671144
 20
1770633.66243935
 30
0.0
  0
VERTEX
  5
4A6
  8
CIVIC_PLATFORM_HIGH
 10
594830.1575940894
 20
1770619.3291817871
 30
0.0
  0
VERTEX
  5
4A7
  8
CIVIC_PLATFORM_HIGH
 10
594809.35367562529
 20
1770591.0285251581
 30
0.0
  0
VERTEX
  5
4A8
  8
CIVIC_PLATFORM_HIGH
 10
594790.95832068904
 20
1770604.6337541819
 30
0.0
  0
SEQEND
  5
4A9
  8
CIVIC_PLATFORM_HIGH
  0
POLYLINE
  5
99
  8
CIVIC_PLATFORM_HIGH
 66
     1
 10
0.0
 20
0.0
 30
0.0
 70
     1
  0
VERTEX
  5
4AA
  8
CIVIC_PLATFORM_HIGH
 10
594830.50266620924
 20
1770619.172488681
 30
0.0
  0
VERTEX
  5
4AB
  8
CIVIC_PLATFORM_HIGH
 10
594822.34584078356
 20
1770608.2264077179
 30
0.0
  0
VERTEX
  5
4AC
  8
CIVIC_PLATFORM_HIGH
 10
594858.4338561201
 20
1770579.0297415529
 30
0.0
  0
VERTEX
  5
4AD
  8
CIVIC_PLATFORM_HIGH
 10
594827.12888676801
 20
1770539.5694960339
 30
0.0
  0
VERTEX
  5
4AE
  8
CIVIC_PLATFORM_HIGH
 10
594781.09522929857
 20
1770573.6276909951
 30
0.0
  0
VERTEX
  5
4AF
  8
CIVIC_PLATFORM_HIGH
 10
594772.70710212295
 20
1770562.8422014629
 30
0.0
  0
VERTEX
  5
4B0
  8
CIVIC_PLATFORM_HIGH
 10
594830.92687354516
 20
1770521.3750749531
 30
0.0
  0
VERTEX
  5
4B1
  8
CIVIC_PLATFORM_HIGH
 10
594878.33845535317
 20
1770581.3254945821
 30
0.0
  0
SEQEND
  5
4B2
  8
CIVIC_PLATFORM_HIGH
  0
TEXT
  5
9A
  8
CIVIC_ID
 10
594459.58246957685
 20
1770402.3356981911
 30
0.0
 40
1.0
  1
RV227-CCC_IIa
  0
POLYLINE
  5
9B
  8
CIVIC_PYRAMID_ANNEX
 66
     1
 10
0.0
 20
0.0
 30
0.0
 70
     1
  0
VERTEX
  5
4B3
  8
CIVIC_PYRAMID_ANNEX
 10
594472.05158755649
 20
1770399.552098888
 30
0.0
  0
VERTEX
  5
4B4
  8
CIVIC_PYRAMID_ANNEX
 10
594478.40708089946
 20
1770394.8322208079
 30
0.0
  0
VERTEX
  5
4B5
  8
CIVIC_PYRAMID_ANNEX
 10
594475.86461593444
 20
1770391.2620374521
 30
0.0
  0
VERTEX
  5
4B6
  8
CIVIC_PYRAMID_ANNEX
 10
594469.44857178105
 20
1770396.2239270189
 30
0.0
  0
SEQEND
  5
4B7
  8
CIVIC_PYRAMID_ANNEX
  0
TEXT
  5
9D
  8
CIVIC_ID
 10
597399.23484752723
 20
1770917.3040726869
 30
0.0
 40
1.0
  1
RV242-C_XXIXf
  0
TEXT
  5
9E
  8
CIVIC_ID
 10
597348.27442367701
 20
1770964.7301385689
 30
0.0
 40
1.0
  1
RV242-C_XXIXe
  0
TEXT
  5
9F
  8
CIVIC_ID
 10
597415.3083468359
 20
1770933.3820401479
 30
0.0
 40
1.0
  1
RV242-C_XXIXd
  0
TEXT
  5
A0
  8
CIVIC_ID
 10
597352.71772684075
 20
1770979.636772824
 30
0.0
 40
1.0
  1
RV242-C_XXIXc1
  0
TEXT
  5
A1
  8
CIVIC_ID
 10
597360.59976027929
 20
1770978.4773283091
 30
0.0
 40
1.0
  1
RV242-C_XXIXc2
  0
TEXT
  5
A2
  8
CIVIC_ID
 10
597399.89234980941
 20
1770944.163001674
 30
0.0
 40
1.0
  1
RV242-C_XXIXb
  0
TEXT
  5
A3
  8
CIVIC_ID
 10
597378.86726543074
 20
1770963.174206234
 30
0.0
 40
1.0
  1
RV242-C_XXIXa
  0
POLYLINE
  5
A4
  8
CIVIC_RANGE
 66
     1
 10
0.0
 20
0.0
 30
0.0
 70
     1
  0
VERTEX
  5
4B8
  8
CIVIC_RANGE
 10
597411.56051721063
 20
1770937.9675079731
 30
0.0
  0
VERTEX
  5
4B9
  8
CIVIC_RANGE
 10
597419.46553325164
 20
1770930.4146230649
 30
0.0
  0
VERTEX
  5
4BA
  8
CIVIC_RANGE
 10
597417.10265524255
 20
1770928.004191119
 30
0.0
  0
VERTEX
  5
4BB
  8
CIVIC_RANGE
 10
597409.11237041489
 20
1770935.565398111
 30
0.0
  0
SEQEND
  5
4BC
  8
CIVIC_RANGE
  0
POLYLINE
  5
A5
  8
CIVIC_RANGE
 66
     1
 10
0.0
 20
0.0
 30
0.0
 70
     1
  0
VERTEX
  5
4BD
  8
CIVIC_RANGE
 10
597350.42046582722
 20
1770969.277265368
 30
0.0
  0
VERTEX
  5
4BE
  8
CIVIC_RANGE
 10
597343.76916741056
 20
1770962.8184371791
 30
0.0
  0
VERTEX
  5
4BF
  8
CIVIC_RANGE
 10
597345.86191656929
 20
1770960.4941982371
 30
0.0
  0
VERTEX
  5
4C0
  8
CIVIC_RANGE
 10
597352.71372986655
 20
1770966.955701381
 30
0.0
  0
SEQEND
  5
4C1
  8
CIVIC_RANGE
  0
POLYLINE
  5
A6
  8
CIVIC_RANGE
 66
     1
 10
0.0
 20
0.0
 30
0.0
 70
     1
  0
VERTEX
  5
4C2
  8
CIVIC_RANGE
 10
597361.39748974552
 20
1770983.6334532651
 30
0.0
  0
VERTEX
  5
4C3
  8
CIVIC_RANGE
 10
597350.54936825053
 20
1770973.737307511
 30
0.0
  0
VERTEX
  5
4C4
  8
CIVIC_RANGE
 10
597345.96583790274
 20
1770978.583732086
 30
0.0
  0
VERTEX
  5
4C5
  8
CIVIC_RANGE
 10
597356.96651058586
 20
1770988.3639631111
 30
0.0
  0
SEQEND
  5
4C6
  8
CIVIC_RANGE
  0
POLYLINE
  5
A7
  8
CIVIC_RANGE
 66
     1
 10
0.0
 20
0.0
 30
0.0
 70
     1
  0
VERTEX
  5
4C7
  8
CIVIC_RANGE
 10
597368.53308822215
 20
1770976.338552935
 30
0.0
  0
VERTEX
  5
4C8
  8
CIVIC_RANGE
 10
597361.39748974552
 20
1770983.4720642951
 30
0.0
  0
VERTEX
  5
4C9
  8
CIVIC_RANGE
 10
597356.16844803875
 20
1770978.496647431
 30
0.0
  0
VERTEX
  5
4CA
  8
CIVIC_RANGE
 10
597363.3130397076
 20
1770971.1333871309
 30
0.0
  0
SEQEND
  5
4CB
  8
CIVIC_RANGE
  0
POLYLINE
  5
A8
  8
CIVIC_RANGE
 66
     1
 10
0.0
 20
0.0
 30
0.0
 70
     1
  0
VERTEX
  5
4CC
  8
CIVIC_RANGE
 10
597392.18451783666
 20
1770955.8492869609
 30
0.0
  0
VERTEX
  5
4CD
  8
CIVIC_RANGE
 10
597408.91551942786
 20
1770940.0061211321
 30
0.0
  0
VERTEX
  5
4CE
  8
CIVIC_RANGE
 10
597403.74943006714
 20
1770934.7004958959
 30
0.0
  0
VERTEX
  5
4CF
  8
CIVIC_RANGE
 10
597387.25724769407
 20
1770950.3739506721
 30
0.0
  0
SEQEND
  5
4D0
  8
CIVIC_RANGE
  0
POLYLINE
  5
A9
  8
CIVIC_RANGE
 66
     1
 10
0.0
 20
0.0
 30
0.0
 70
     1
  0
VERTEX
  5
4D1
  8
CIVIC_RANGE
 10
597374.19313699752
 20
1770973.638928599
 30
0.0
  0
VERTEX
  5
4D2
  8
CIVIC_RANGE
 10
597388.88401625876
 20
1770958.9168662601
 30
0.0
  0
VERTEX
  5
4D3
  8
CIVIC_RANGE
 10
597382.04319464113
 20
1770951.475735039
 30
0.0
  0
VERTEX
  5
4D4
  8
CIVIC_RANGE
 10
597367.37130100804
 20
1770966.20195842
 30
0.0
  0
SEQEND
  5
4D5
  8
CIVIC_RANGE
  0
TEXT
  5
AA
  8
CIVIC_ID
 10
605826.2753918427
 20
1766711.4919559071
 30
0.0
 40
1.0
  1
RV200-IIa
  0
TEXT
  5
AB
  8
CIVIC_ID
 10
605816.59871691652
 20
1766715.8641158061
 30
0.0
 40
1.0
  1
RV200-II
  0
TEXT
  5
AC
  8
CIVIC_ID
 10
609922.2203369718
 20
1768025.314434431
 30
0.0
 40
1.0
  1
RV163-A_IIIb
  0
TEXT
  5
AD
  8
CIVIC_ID
 10
609911.83877957519
 20
1768017.3508333969
 30
0.0
 40
1.0
  1
RV163-A_IIIa
  0
TEXT
  5
AE
  8
CIVIC_ID
 10
609869.37367590144
 20
1767866.123891202
 30
0.0
 40
1.0
  1
RV163-A_II
  0
TEXT
  5
AF
  8
CIVIC_ID
 10
609956.89078688156
 20
1767911.539905471
 30
0.0
 40
1.0
  1
RV163-A_I
  0
TEXT
  5
B0
  8
CIVIC_ID
 10
611388.66078201693
 20
1759514.51006718
 30
0.0
 40
1.0
  1
RV264-EX_I
  0
TEXT
  5
B1
  8
CIVIC_ID
 10
611461.47109079175
 20
1759175.2766480199
 30
0.0
 40
1.0
  1
RV264-EX_II
  0
TEXT
  5
B2
  8
CIVIC_ID
 10
615976.25563718844
 20
1766158.0680294691
 30
0.0
 40
1.0
  1
RV278-W_XXVIb
  0
TEXT
  5
B3
  8
CIVIC_ID
 10
615988.53524757735
 20
1766171.2672848131
 30
0.0
 40
1.0
  1
RV278-W_XXVIa
  0
TEXT
  5
B4
  8
CIVIC_ID
 10
615992.80539475603
 20
1766152.5210499151
 30
0.0
 40
1.0
  1
RV278-W_XXIVb
  0
TEXT
  5
B5
  8
CIVIC_ID
 10
615989.29121200112
 20
1766150.2891263729
 30
0.0
 40
1.0
  1
RV278-W_XXIVa
  0
TEXT
  5
B6
  8
CIVIC_ID
 10
615993.66631694033
 20
1766148.6603240061
 30
0.0
 40
1.0
  1
RV278-W_XXIV
  0
TEXT
  5
B7
  8
CIVIC_ID
 10
615981.71388831164
 20
1766164.06054955
 30
0.0
 40
1.0
  1
RV278-W_XXIII
  0
TEXT
  5
B8
  8
CIVIC_ID
 10
615933.26502803236
 20
1766188.0507964441
 30
0.0
 40
1.0
  1
RV278-W_XXV
  0
TEXT
  5
B9
  8
CIVIC_ID
 10
615952.46938891406
 20
1766215.3516439439
 30
0.0
 40
1.0
  1
RV278-W_XXII
  0
TEXT
  5
BA
  8
CIVIC_ID
 10
615935.96483703412
 20
1766214.491985223
 30
0.0
 40
1.0
  1
RV278-W_XXI
  0
TEXT
  5
BB
  8
CIVIC_ID
 10
615974.66180100525
 20
1766184.4463735849
 30
0.0
 40
1.0
  1
RV278-W_XXb
  0
TEXT
  5
BC
  8
CIVIC_ID
 10
615954.37272740551
 20
1766177.224161651
 30
0.0
 40
1.0
  1
RV278-W_XXa
  0
TEXT
  5
BD
  8
CIVIC_ID
 10
615914.01792315871
 20
1766253.36094075
 30
0.0
 40
1.0
  1
RV278-W_XVII
  0
POLYLINE
  5
BE
  8
CIVIC_PLATFORM_SMALLISH_AT
 66
     1
 10
0.0
 20
0.0
 30
0.0
 70
     1
  0
VERTEX
  5
4D6
  8
CIVIC_PLATFORM_SMALLISH_AT
 10
615989.52954891976
 20
1766151.144329688
 30
0.0
  0
VERTEX
  5
4D7
  8
CIVIC_PLATFORM_SMALLISH_AT
 10
615990.63194109011
 20
1766149.946529157
 30
0.0
  0
VERTEX
  5
4D8
  8
CIVIC_PLATFORM_SMALLISH_AT
 10
615988.64311461477
 20
1766148.4612377391
 30
0.0
  0
VERTEX
  5
4D9
  8
CIVIC_PLATFORM_SMALLISH_AT
 10
615987.58861361875
 20
1766149.8027837139
 30
0.0
  0
SEQEND
  5
4DA
  8
CIVIC_PLATFORM_SMALLISH_AT
  0
POLYLINE
  5
BF
  8
CIVIC_PLATFORM_SMALLISH_AT
 66
     1
 10
0.0
 20
0.0
 30
0.0
 70
     1
  0
VERTEX
  5
4DB
  8
CIVIC_PLATFORM_SMALLISH_AT
 10
615991.42259304668
 20
1766152.6296211069
 30
0.0
  0
VERTEX
  5
4DC
  8
CIVIC_PLATFORM_SMALLISH_AT
 10
615992.5010396298
 20
1766151.2880751321
 30
0.0
  0
VERTEX
  5
4DD
  8
CIVIC_PLATFORM_SMALLISH_AT
 10
615994.46592051804
 20
1766152.7255295671
 30
0.0
  0
VERTEX
  5
4DE
  8
CIVIC_PLATFORM_SMALLISH_AT
 10
615993.3395827607
 20
1766153.971167082
 30
0.0
  0
SEQEND
  5
4DF
  8
CIVIC_PLATFORM_SMALLISH_AT
  0
POLYLINE
  5
C0
  8
CIVIC_PYRAMIDS
 66
     1
 10
0.0
 20
0.0
 30
0.0
 70
     1
  0
VERTEX
  5
4E0
  8
CIVIC_PYRAMIDS
 10
615987.25717983802
 20
1766141.097390817
 30
0.0
  0
VERTEX
  5
4E1
  8
CIVIC_PYRAMIDS
 10
616001.22976561659
 20
1766151.9540409709
 30
0.0
  0
VERTEX
  5
4E2
  8
CIVIC_PYRAMIDS
 10
615994.28151711798
 20
1766160.4952873581
 30
0.0
  0
VERTEX
  5
4E3
  8
CIVIC_PYRAMIDS
 10
615980.68848008511
 20
1766149.8283436699
 30
0.0
  0
SEQEND
  5
4E4
  8
CIVIC_PYRAMIDS
  0
POLYLINE
  5
C2
  8
CIVIC_PLATFORM_LONG
 66
     1
 10
0.0
 20
0.0
 30
0.0
 70
     1
  0
VERTEX
  5
4E5
  8
CIVIC_PLATFORM_LONG
 10
615978.54165749263
 20
1766159.106607886
 30
0.0
  0
VERTEX
  5
4E6
  8
CIVIC_PLATFORM_LONG
 10
615976.045945458
 20
1766161.389885836
 30
0.0
  0
VERTEX
  5
4E7
  8
CIVIC_PLATFORM_LONG
 10
615969.68895155005
 20
1766154.4694689859
 30
0.0
  0
VERTEX
  5
4E8
  8
CIVIC_PLATFORM_LONG
 10
615971.97273394919
 20
1766152.445073531
 30
0.0
  0
SEQEND
  5
4E9
  8
CIVIC_PLATFORM_LONG
  0
POLYLINE
  5
C4
  8
CIVIC_ALTARS
 66
     1
 10
0.0
 20
0.0
 30
0.0
 70
     1
  0
VERTEX
  5
4EA
  8
CIVIC_ALTARS
 10
615988.22954970796
 20
1766164.454501173
 30
0.0
  0
VERTEX
  5
4EB
  8
CIVIC_ALTARS
 10
615983.45430729433
 20
1766168.930307504
 30
0.0
  0
VERTEX
  5
4EC
  8
CIVIC_ALTARS
 10
615976.70187551295
 20
1766161.69449486
 30
0.0
  0
VERTEX
  5
4ED
  8
CIVIC_ALTARS
 10
615981.40259567881
 20
1766157.5169661869
 30
0.0
  0
SEQEND
  5
4EE
  8
CIVIC_ALTARS
  0
POLYLINE
  5
C6
  8
CIVIC_PLATFORM_LONG
 66
     1
 10
0.0
 20
0.0
 30
0.0
 70
     1
  0
VERTEX
  5
4EF
  8
CIVIC_PLATFORM_LONG
 10
615990.65454393416
 20
1766176.4646323009
 30
0.0
  0
VERTEX
  5
4F0
  8
CIVIC_PLATFORM_LONG
 10
615993.15406040801
 20
1766174.4130354249
 30
0.0
  0
VERTEX
  5
4F1
  8
CIVIC_PLATFORM_LONG
 10
615986.10309205425
 20
1766167.1026533649
 30
0.0
  0
VERTEX
  5
4F2
  8
CIVIC_PLATFORM_LONG
 10
615983.67832161894
 20
1766169.228585162
 30
0.0
  0
SEQEND
  5
4F3
  8
CIVIC_PLATFORM_LONG
  0
POLYLINE
  5
C7
  8
CIVIC_BALL_COURTS
 66
     1
 10
0.0
 20
0.0
 30
0.0
 70
     1
  0
VERTEX
  5
4F4
  8
CIVIC_BALL_COURTS
 10
615960.08453320386
 20
1766204.6985354619
 30
0.0
  0
VERTEX
  5
4F5
  8
CIVIC_BALL_COURTS
 10
615982.34162075934
 20
1766185.084200023
 30
0.0
  0
VERTEX
  5
4F6
  8
CIVIC_BALL_COURTS
 10
615973.22931779735
 20
1766175.786003731
 30
0.0
  0
VERTEX
  5
4F7
  8
CIVIC_BALL_COURTS
 10
615951.34081325145
 20
1766195.6034118519
 30
0.0
  0
SEQEND
  5
4F8
  8
CIVIC_BALL_COURTS
  0
POLYLINE
  5
C8
  8
CIVIC_BALL_COURTS
 66
     1
 10
0.0
 20
0.0
 30
0.0
 70
     1
  0
VERTEX
  5
4F9
  8
CIVIC_BALL_COURTS
 10
615960.90718720667
 20
1766162.572209697
 30
0.0
  0
VERTEX
  5
4FA
  8
CIVIC_BALL_COURTS
 10
615970.13362334098
 20
1766172.207844313
 30
0.0
  0
VERTEX
  5
4FB
  8
CIVIC_BALL_COURTS
 10
615947.44954344677
 20
1766192.0665235571
 30
0.0
  0
VERTEX
  5
4FC
  8
CIVIC_BALL_COURTS
 10
615938.57580119395
 20
1766182.6072291911
 30
0.0
  0
SEQEND
  5
4FD
  8
CIVIC_BALL_COURTS
  0
POLYLINE
  5
C9
  8
CIVIC_PLATFORM_LONG
 66
     1
 10
0.0
 20
0.0
 30
0.0
 70
     1
  0
VERTEX
  5
4FE
  8
CIVIC_PLATFORM_LONG
 10
615922.8337036632
 20
1766193.584175287
 30
0.0
  0
VERTEX
  5
4FF
  8
CIVIC_PLATFORM_LONG
 10
615925.82869237941
 20
1766196.738602214
 30
0.0
  0
VERTEX
  5
500
  8
CIVIC_PLATFORM_LONG
 10
615938.81480948417
 20
1766185.6296354251
 30
0.0
  0
VERTEX
  5
501
  8
CIVIC_PLATFORM_LONG
 10
615936.00288142497
 20
1766182.498189009
 30
0.0
  0
SEQEND
  5
502
  8
CIVIC_PLATFORM_LONG
  0
POLYLINE
  5
CA
  8
CIVIC_PLATFORM_LONG
 66
     1
 10
0.0
 20
0.0
 30
0.0
 70
     1
  0
VERTEX
  5
503
  8
CIVIC_PLATFORM_LONG
 10
615946.69872620539
 20
1766218.3362964811
 30
0.0
  0
VERTEX
  5
504
  8
CIVIC_PLATFORM_LONG
 10
615949.13088172826
 20
1766221.231137428
 30
0.0
  0
VERTEX
  5
505
  8
CIVIC_PLATFORM_LONG
 10
615965.63520981779
 20
1766206.641092157
 30
0.0
  0
VERTEX
  5
506
  8
CIVIC_PLATFORM_LONG
 10
615962.73980788933
 20
1766203.8041714779
 30
0.0
  0
SEQEND
  5
507
  8
CIVIC_PLATFORM_LONG
  0
POLYLINE
  5
CB
  8
CIVIC_PLATFORM_LONG
 66
     1
 10
0.0
 20
0.0
 30
0.0
 70
     1
  0
VERTEX
  5
508
  8
CIVIC_PLATFORM_LONG
 10
615948.2222921605
 20
1766222.5086662639
 30
0.0
  0
VERTEX
  5
509
  8
CIVIC_PLATFORM_LONG
 10
615942.0434355177
 20
1766227.8037981731
 30
0.0
  0
VERTEX
  5
50A
  8
CIVIC_PLATFORM_LONG
 10
615916.4453790806
 20
1766199.8580893839
 30
0.0
  0
VERTEX
  5
50B
  8
CIVIC_PLATFORM_LONG
 10
615922.18269699998
 20
1766194.857248717
 30
0.0
  0
SEQEND
  5
50C
  8
CIVIC_PLATFORM_LONG
  0
TEXT
  5
CC
  8
CIVIC_ID
 10
615831.25548409706
 20
1766272.5531851631
 30
0.0
 40
1.0
  1
RV278-W_XVI
  0
TEXT
  5
CD
  8
CIVIC_ID
 10
615822.82462331105
 20
1766282.4948357739
 30
0.0
 40
1.0
  1
RV278-W_XV
  0
POLYLINE
  5
CE
  8
CIVIC_PLATFORM_HIGH
 66
     1
 10
0.0
 20
0.0
 30
0.0
 70
     1
  0
VERTEX
  5
50D
  8
CIVIC_PLATFORM_HIGH
 10
615830.93389709981
 20
1766278.2575108721
 30
0.0
  0
VERTEX
  5
50E
  8
CIVIC_PLATFORM_HIGH
 10
615838.58081964543
 20
1766270.1967447691
 30
0.0
  0
VERTEX
  5
50F
  8
CIVIC_PLATFORM_HIGH
 10
615833.3859699805
 20
1766265.917210765
 30
0.0
  0
VERTEX
  5
510
  8
CIVIC_PLATFORM_HIGH
 10
615826.15462645655
 20
1766274.060988103
 30
0.0
  0
SEQEND
  5
511
  8
CIVIC_PLATFORM_HIGH
  0
POLYLINE
  5
CF
  8
CIVIC_PLATFORM_HIGH
 66
     1
 10
0.0
 20
0.0
 30
0.0
 70
     1
  0
VERTEX
  5
512
  8
CIVIC_PLATFORM_HIGH
 10
615822.29983450891
 20
1766289.6898462849
 30
0.0
  0
VERTEX
  5
513
  8
CIVIC_PLATFORM_HIGH
 10
615828.44310845679
 20
1766282.319667998
 30
0.0
  0
VERTEX
  5
514
  8
CIVIC_PLATFORM_HIGH
 10
615822.87318585697
 20
1766277.5699714909
 30
0.0
  0
VERTEX
  5
515
  8
CIVIC_PLATFORM_HIGH
 10
615816.93490403821
 20
1766284.858311018
 30
0.0
  0
SEQEND
  5
516
  8
CIVIC_PLATFORM_HIGH
  0
TEXT
  5
D0
  8
CIVIC_ID
 10
615909.02358981234
 20
1766297.3299283341
 30
0.0
 40
1.0
  1
RV278-W_XVIII
  0
TEXT
  5
D1
  8
CIVIC_ID
 10
615908.46209936251
 20
1766318.42580327
 30
0.0
 40
1.0
  1
RV278-W_XIX
  0
POLYLINE
  5
D2
  8
CIVIC_RANGE
 66
     1
 10
0.0
 20
0.0
 30
0.0
 70
     1
  0
VERTEX
  5
517
  8
CIVIC_RANGE
 10
615927.09579438251
 20
1766268.1962678051
 30
0.0
  0
VERTEX
  5
518
  8
CIVIC_RANGE
 10
615931.66201643774
 20
1766262.837118757
 30
0.0
  0
VERTEX
  5
519
  8
CIVIC_RANGE
 10
615894.4836950301
 20
1766234.200587657
 30
0.0
  0
VERTEX
  5
51A
  8
CIVIC_RANGE
 10
615890.42346337228
 20
1766239.3214897709
 30
0.0
  0
SEQEND
  5
51B
  8
CIVIC_RANGE
  0
POLYLINE
  5
D3
  8
CIVIC_RANGE
 66
     1
 10
0.0
 20
0.0
 30
0.0
 70
     1
  0
VERTEX
  5
51C
  8
CIVIC_RANGE
 10
615899.02731424104
 20
1766315.5267414129
 30
0.0
  0
VERTEX
  5
51D
  8
CIVIC_RANGE
 10
615922.18739660108
 20
1766284.7525537671
 30
0.0
  0
VERTEX
  5
51E
  8
CIVIC_RANGE
 10
615916.54586103035
 20
1766280.6955555319
 30
0.0
  0
VERTEX
  5
51F
  8
CIVIC_RANGE
 10
615893.38577867032
 20
1766311.667656969
 30
0.0
  0
SEQEND
  5
520
  8
CIVIC_RANGE
  0
POLYLINE
  5
D4
  8
CIVIC_RANGE
 66
     1
 10
0.0
 20
0.0
 30
0.0
 70
     1
  0
VERTEX
  5
521
  8
CIVIC_RANGE
 10
615898.03748870932
 20
1766324.8284551301
 30
0.0
  0
VERTEX
  5
522
  8
CIVIC_RANGE
 10
615904.66884981177
 20
1766329.677108533
 30
0.0
  0
VERTEX
  5
523
  8
CIVIC_RANGE
 10
615922.3854512237
 20
1766307.7096156301
 30
0.0
  0
VERTEX
  5
524
  8
CIVIC_RANGE
 10
615915.25906546006
 20
1766302.762005331
 30
0.0
  0
SEQEND
  5
525
  8
CIVIC_RANGE
  0
TEXT
  5
D5
  8
CIVIC_ID
 10
616055.0236390091
 20
1766360.327717307
 30
0.0
 40
1.0
  1
RV278-E_XXIX
  0
TEXT
  5
D6
  8
CIVIC_ID
 10
616036.04687310045
 20
1766365.366311671
 30
0.0
 40
1.0
  1
RV278-E_XXVIII
  0
TEXT
  5
D7
  8
CIVIC_ID
 10
616023.50967980654
 20
1766354.4639349889
 30
0.0
 40
1.0
  1
RV278-E_XXVII
  0
TEXT
  5
D8
  8
CIVIC_ID
 10
615988.27565055806
 20
1766445.044434469
 30
0.0
 40
1.0
  1
RV278-E_XXXVIb
  0
TEXT
  5
D9
  8
CIVIC_ID
 10
615984.41302594182
 20
1766449.5061710989
 30
0.0
 40
1.0
  1
RV278-E_XXXVIa
  0
TEXT
  5
DA
  8
CIVIC_ID
 10
615993.15338903654
 20
1766441.781201856
 30
0.0
 40
1.0
  1
RV278-E_XXXVI
  0
TEXT
  5
DB
  8
CIVIC_ID
 10
615996.98960636964
 20
1766415.587639811
 30
0.0
 40
1.0
  1
RV278-E_XXXV
  0
TEXT
  5
DC
  8
CIVIC_ID
 10
616032.73454940715
 20
1766440.771466326
 30
0.0
 40
1.0
  1
RV278-E_XXXIV
  0
TEXT
  5
DD
  8
CIVIC_ID
 10
615982.06121122045
 20
1766403.1378305331
 30
0.0
 40
1.0
  1
RV278-E_XXXIII
  0
TEXT
  5
DE
  8
CIVIC_ID
 10
616071.62464460905
 20
1766289.3615532659
 30
0.0
 40
1.0
  1
RV278-E_XXXII
  0
TEXT
  5
DF
  8
CIVIC_ID
 10
616080.9103852351
 20
1766320.876745156
 30
0.0
 40
1.0
  1
RV278-E_XXXI
  0
TEXT
  5
E0
  8
CIVIC_ID
 10
616071.16139820381
 20
1766347.349121772
 30
0.0
 40
1.0
  1
RV278-E_XXX
  0
POLYLINE
  5
E1
  8
CIVIC_PLATFORM_SMALLISH_AT
 66
     1
 10
0.0
 20
0.0
 30
0.0
 70
     1
  0
VERTEX
  5
526
  8
CIVIC_PLATFORM_SMALLISH_AT
 10
615985.47245032957
 20
1766446.0998965269
 30
0.0
  0
VERTEX
  5
527
  8
CIVIC_PLATFORM_SMALLISH_AT
 10
615987.10947808553
 20
1766448.024162611
 30
0.0
  0
VERTEX
  5
528
  8
CIVIC_PLATFORM_SMALLISH_AT
 10
615991.31248810387
 20
1766444.28631209
 30
0.0
  0
VERTEX
  5
529
  8
CIVIC_PLATFORM_SMALLISH_AT
 10
615989.67546034791
 20
1766442.4950046779
 30
0.0
  0
SEQEND
  5
52A
  8
CIVIC_PLATFORM_SMALLISH_AT
  0
POLYLINE
  5
E2
  8
CIVIC_PLATFORM_SMALLISH_AT
 66
     1
 10
0.0
 20
0.0
 30
0.0
 70
     1
  0
VERTEX
  5
52B
  8
CIVIC_PLATFORM_SMALLISH_AT
 10
615980.9818694751
 20
1766449.8818321121
 30
0.0
  0
VERTEX
  5
52C
  8
CIVIC_PLATFORM_SMALLISH_AT
 10
615982.66298396618
 20
1766451.78382117
 30
0.0
  0
VERTEX
  5
52D
  8
CIVIC_PLATFORM_SMALLISH_AT
 10
615985.87057368946
 20
1766449.0857215391
 30
0.0
  0
VERTEX
  5
52E
  8
CIVIC_PLATFORM_SMALLISH_AT
 10
615984.07890667452
 20
1766447.1394129239
 30
0.0
  0
SEQEND
  5
52F
  8
CIVIC_PLATFORM_SMALLISH_AT
  0
POLYLINE
  5
E3
  8
CIVIC_RANGE
 66
     1
 10
0.0
 20
0.0
 30
0.0
 70
     1
  0
VERTEX
  5
530
  8
CIVIC_RANGE
 10
615994.3385837042
 20
1766438.3109101451
 30
0.0
  0
VERTEX
  5
531
  8
CIVIC_RANGE
 10
615996.40931751498
 20
1766440.5294674721
 30
0.0
  0
VERTEX
  5
532
  8
CIVIC_RANGE
 10
615981.65615035384
 20
1766453.05736359
 30
0.0
  0
VERTEX
  5
533
  8
CIVIC_RANGE
 10
615979.47732571512
 20
1766450.4880017231
 30
0.0
  0
SEQEND
  5
534
  8
CIVIC_RANGE
  0
POLYLINE
  5
E4
  8
CIVIC_PYRAMIDS
 66
     1
 10
0.0
 20
0.0
 30
0.0
 70
     1
  0
VERTEX
  5
535
  8
CIVIC_PYRAMIDS
 10
615983.06804483267
 20
1766391.830011972
 30
0.0
  0
VERTEX
  5
536
  8
CIVIC_PYRAMIDS
 10
615972.77882745257
 20
1766402.013192446
 30
0.0
  0
VERTEX
  5
537
  8
CIVIC_PYRAMIDS
 10
615982.7909921516
 20
1766412.0922571339
 30
0.0
  0
VERTEX
  5
538
  8
CIVIC_PYRAMIDS
 10
615993.253423405
 20
1766401.770724602
 30
0.0
  0
SEQEND
  5
539
  8
CIVIC_PYRAMIDS
  0
POLYLINE
  5
E5
  8
CIVIC_RANGE
 66
     1
 10
0.0
 20
0.0
 30
0.0
 70
     1
  0
VERTEX
  5
53A
  8
CIVIC_RANGE
 10
616002.29814162583
 20
1766421.868119769
 30
0.0
  0
VERTEX
  5
53B
  8
CIVIC_RANGE
 10
616005.7767416857
 20
1766417.736083129
 30
0.0
  0
VERTEX
  5
53C
  8
CIVIC_RANGE
 10
615991.17373797286
 20
1766405.9599780249
 30
0.0
  0
VERTEX
  5
53D
  8
CIVIC_RANGE
 10
615988.10847902915
 20
1766410.2296632379
 30
0.0
  0
SEQEND
  5
53E
  8
CIVIC_RANGE
  0
POLYLINE
  5
E6
  8
CIVIC_RANGE
 66
     1
 10
0.0
 20
0.0
 30
0.0
 70
     1
  0
VERTEX
  5
53F
  8
CIVIC_RANGE
 10
616028.88669496612
 20
1766450.2997022271
 30
0.0
  0
VERTEX
  5
540
  8
CIVIC_RANGE
 10
616039.98357238341
 20
1766434.27079555
 30
0.0
  0
VERTEX
  5
541
  8
CIVIC_RANGE
 10
616035.62659447757
 20
1766431.2418234551
 30
0.0
  0
VERTEX
  5
542
  8
CIVIC_RANGE
 10
616024.73403781792
 20
1766447.2027265781
 30
0.0
  0
SEQEND
  5
543
  8
CIVIC_RANGE
  0
POLYLINE
  5
E7
  8
CIVIC_PYRAMIDS
 66
     1
 10
0.0
 20
0.0
 30
0.0
 70
     1
  0
VERTEX
  5
544
  8
CIVIC_PYRAMIDS
 10
616081.82009375549
 20
1766292.829031036
 30
0.0
  0
VERTEX
  5
545
  8
CIVIC_PYRAMIDS
 10
616065.36276167817
 20
1766299.0846545231
 30
0.0
  0
VERTEX
  5
546
  8
CIVIC_PYRAMIDS
 10
616060.73410206428
 20
1766287.0015954459
 30
0.0
  0
VERTEX
  5
547
  8
CIVIC_PYRAMIDS
 10
616077.02001059253
 20
1766280.574321609
 30
0.0
  0
SEQEND
  5
548
  8
CIVIC_PYRAMIDS
  0
POLYLINE
  5
E8
  8
CIVIC_MISCELANEOUS
 66
     1
 10
0.0
 20
0.0
 30
0.0
 70
     1
  0
VERTEX
  5
549
  8
CIVIC_MISCELANEOUS
 10
616076.42002817092
 20
1766329.7641061831
 30
0.0
  0
VERTEX
  5
54A
  8
CIVIC_MISCELANEOUS
 10
616089.62008902628
 20
1766320.7658290139
 30
0.0
  0
VERTEX
  5
54B
  8
CIVIC_MISCELANEOUS
 10
616080.3629935889
 20
1766307.3116775909
 30
0.0
  0
VERTEX
  5
54C
  8
CIVIC_MISCELANEOUS
 10
616067.76269136439
 20
1766316.0527137299
 30
0.0
  0
SEQEND
  5
54D
  8
CIVIC_MISCELANEOUS
  0
POLYLINE
  5
EA
  8
CIVIC_RANGE
 66
     1
 10
0.0
 20
0.0
 30
0.0
 70
     1
  0
VERTEX
  5
54E
  8
CIVIC_RANGE
 10
616012.73013736657
 20
1766349.112758772
 30
0.0
  0
VERTEX
  5
54F
  8
CIVIC_RANGE
 10
616016.50369335024
 20
1766344.7021420549
 30
0.0
  0
VERTEX
  5
550
  8
CIVIC_RANGE
 10
616028.19697254046
 20
1766355.4361513171
 30
0.0
  0
VERTEX
  5
551
  8
CIVIC_RANGE
 10
616024.26385390596
 20
1766359.9529942749
 30
0.0
  0
SEQEND
  5
552
  8
CIVIC_RANGE
  0
POLYLINE
  5
EB
  8
CIVIC_RANGE
 66
     1
 10
0.0
 20
0.0
 30
0.0
 70
     1
  0
VERTEX
  5
553
  8
CIVIC_RANGE
 10
616036.35279476037
 20
1766372.007444961
 30
0.0
  0
VERTEX
  5
554
  8
CIVIC_RANGE
 10
616041.58389849169
 20
1766365.8793867619
 30
0.0
  0
VERTEX
  5
555
  8
CIVIC_RANGE
 10
616029.74784094095
 20
1766356.5818939549
 30
0.0
  0
VERTEX
  5
556
  8
CIVIC_RANGE
 10
616024.83384839608
 20
1766362.2343962649
 30
0.0
  0
SEQEND
  5
557
  8
CIVIC_RANGE
  0
POLYLINE
  5
EC
  8
CIVIC_RANGE
 66
     1
 10
0.0
 20
0.0
 30
0.0
 70
     1
  0
VERTEX
  5
558
  8
CIVIC_RANGE
 10
616060.61101727048
 20
1766357.740299324
 30
0.0
  0
VERTEX
  5
559
  8
CIVIC_RANGE
 10
616056.49774725619
 20
1766353.8359573421
 30
0.0
  0
VERTEX
  5
55A
  8
CIVIC_RANGE
 10
616043.53244267101
 20
1766366.9545464001
 30
0.0
  0
VERTEX
  5
55B
  8
CIVIC_RANGE
 10
616047.66518246173
 20
1766371.2469776301
 30
0.0
  0
SEQEND
  5
55C
  8
CIVIC_RANGE
  0
POLYLINE
  5
ED
  8
CIVIC_PYRAMIDS
 66
     1
 10
0.0
 20
0.0
 30
0.0
 70
     1
  0
VERTEX
  5
55D
  8
CIVIC_PYRAMIDS
 10
616084.77099573635
 20
1766345.9754499809
 30
0.0
  0
VERTEX
  5
55E
  8
CIVIC_PYRAMIDS
 10
616068.26510111324
 20
1766361.38435184
 30
0.0
  0
VERTEX
  5
55F
  8
CIVIC_PYRAMIDS
 10
616056.81015884166
 20
1766348.422170955
 30
0.0
  0
VERTEX
  5
560
  8
CIVIC_PYRAMIDS
 10
616072.84721229621
 20
1766333.6377293181
 30
0.0
  0
SEQEND
  5
561
  8
CIVIC_PYRAMIDS
  0
TEXT
  5
EE
  8
CIVIC_ID
 10
615798.98622410872
 20
1766315.828216047
 30
0.0
 40
1.0
  1
RV278-W_XIV
  0
TEXT
  5
EF
  8
CIVIC_ID
 10
615756.14065745345
 20
1766352.1699272329
 30
0.0
 40
1.0
  1
RV278-W_XIII
  0
TEXT
  5
F0
  8
CIVIC_ID
 10
615822.08473893686
 20
1766359.68278821
 30
0.0
 40
1.0
  1
RV278-W_XII
  0
TEXT
  5
F1
  8
CIVIC_ID
 10
615835.10021977872
 20
1766355.3829439641
 30
0.0
 40
1.0
  1
RV278-W_XI
  0
TEXT
  5
F2
  8
CIVIC_ID
 10
615869.73200412351
 20
1766326.7537293809
 30
0.0
 40
1.0
  1
RV278-W_X
  0
TEXT
  5
F3
  8
CIVIC_ID
 10
615850.8316446984
 20
1766310.7982359109
 30
0.0
 40
1.0
  1
RV278-W_IX
  0
TEXT
  5
F4
  8
CIVIC_ID
 10
615852.63428013504
 20
1766349.7100812709
 30
0.0
 40
1.0
  1
RV278-W_VIII
  0
TEXT
  5
F5
  8
CIVIC_ID
 10
615811.68427857023
 20
1766333.921416173
 30
0.0
 40
1.0
  1
RV278-W_VIIb
  0
TEXT
  5
F6
  8
CIVIC_ID
 10
615803.60106408875
 20
1766341.7225621629
 30
0.0
 40
1.0
  1
RV278-W_VIIa
  0
TEXT
  5
F7
  8
CIVIC_ID
 10
615809.50526138139
 20
1766339.4033685741
 30
0.0
 40
1.0
  1
RV278-W_VII
  0
POLYLINE
  5
F8
  8
CIVIC_RANGE
 66
     1
 10
0.0
 20
0.0
 30
0.0
 70
     1
  0
VERTEX
  5
562
  8
CIVIC_RANGE
 10
615820.33006719267
 20
1766334.062068546
 30
0.0
  0
VERTEX
  5
563
  8
CIVIC_RANGE
 10
615802.54652902007
 20
1766350.0154679359
 30
0.0
  0
VERTEX
  5
564
  8
CIVIC_RANGE
 10
615795.02555559878
 20
1766342.144170267
 30
0.0
  0
VERTEX
  5
565
  8
CIVIC_RANGE
 10
615812.87937390397
 20
1766326.050118505
 30
0.0
  0
SEQEND
  5
566
  8
CIVIC_RANGE
  0
TEXT
  5
F9
  8
CIVIC_ID
 10
615791.62279809325
 20
1766359.160664266
 30
0.0
 40
1.0
  1
RV278-W_VIa
  0
TEXT
  5
FA
  8
CIVIC_ID
 10
615793.58398017951
 20
1766356.8512430501
 30
0.0
 40
1.0
  1
RV278-W_VI
  0
TEXT
  5
FB
  8
CIVIC_ID
 10
615822.61666960781
 20
1766316.9625093751
 30
0.0
 40
1.0
  1
RV278-W_V
  0
TEXT
  5
FC
  8
CIVIC_ID
 10
615794.02331427787
 20
1766403.100395682
 30
0.0
 40
1.0
  1
RV278-W_IV
  0
TEXT
  5
FD
  8
CIVIC_ID
 10
615806.55083116668
 20
1766372.024946657
 30
0.0
 40
1.0
  1
RV278-W_IIIa
  0
TEXT
  5
FE
  8
CIVIC_ID
 10
615811.53439203161
 20
1766375.346855548
 30
0.0
 40
1.0
  1
RV278-W_IIIb
  0
TEXT
  5
FF
  8
CIVIC_ID
 10
615808.69221018022
 20
1766377.8601005501
 30
0.0
 40
1.0
  1
RV278-W_III
  0
POLYLINE
  5
100
  8
CIVIC_PYRAMIDS
 66
     1
 10
0.0
 20
0.0
 30
0.0
 70
     1
  0
VERTEX
  5
567
  8
CIVIC_PYRAMIDS
 10
615813.39698208356
 20
1766382.9047392451
 30
0.0
  0
VERTEX
  5
568
  8
CIVIC_PYRAMIDS
 10
615818.85151976044
 20
1766375.678418213
 30
0.0
  0
VERTEX
  5
569
  8
CIVIC_PYRAMIDS
 10
615802.76036714844
 20
1766363.8849087229
 30
0.0
  0
VERTEX
  5
56A
  8
CIVIC_PYRAMIDS
 10
615798.05592832621
 20
1766371.0428231419
 30
0.0
  0
SEQEND
  5
56B
  8
CIVIC_PYRAMIDS
  0
TEXT
  5
101
  8
CIVIC_ID
 10
615846.21913628664
 20
1766377.037476127
 30
0.0
 40
1.0
  1
RV278-W_IIf
  0
TEXT
  5
102
  8
CIVIC_ID
 10
615835.8719689115
 20
1766386.9114122931
 30
0.0
 40
1.0
  1
RV278-W_IIe
  0
TEXT
  5
103
  8
CIVIC_ID
 10
615827.45733863942
 20
1766394.4902367899
 30
0.0
 40
1.0
  1
RV278-W_IId
  0
TEXT
  5
104
  8
CIVIC_ID
 10
615819.80846203875
 20
1766403.0634002681
 30
0.0
 40
1.0
  1
RV278-W_IIc
  0
TEXT
  5
105
  8
CIVIC_ID
 10
615812.11961569404
 20
1766409.75433485
 30
0.0
 40
1.0
  1
RV278-W_IIb
  0
TEXT
  5
106
  8
CIVIC_ID
 10
615805.46898343985
 20
1766415.36507317
 30
0.0
 40
1.0
  1
RV278-W_IIa
  0
TEXT
  5
107
  8
CIVIC_ID
 10
615818.41651571775
 20
1766396.8083833391
 30
0.0
 40
1.0
  1
RV278-W_II
  0
POLYLINE
  5
108
  8
CIVIC_RANGE
 66
     1
 10
0.0
 20
0.0
 30
0.0
 70
     1
  0
VERTEX
  5
56C
  8
CIVIC_RANGE
 10
615805.98126232042
 20
1766418.5484237671
 30
0.0
  0
VERTEX
  5
56D
  8
CIVIC_RANGE
 10
615799.50016839511
 20
1766410.9584308439
 30
0.0
  0
VERTEX
  5
56E
  8
CIVIC_RANGE
 10
615859.6949353423
 20
1766356.3706516919
 30
0.0
  0
VERTEX
  5
56F
  8
CIVIC_RANGE
 10
615866.7302763788
 20
1766362.8877776349
 30
0.0
  0
VERTEX
  5
570
  8
CIVIC_RANGE
 10
615825.75929069868
 20
1766401.059714732
 30
0.0
  0
VERTEX
  5
571
  8
CIVIC_RANGE
 10
615819.17793933325
 20
1766407.2026983821
 30
0.0
  0
VERTEX
  5
572
  8
CIVIC_RANGE
 10
615806.3196728162
 20
1766418.902672299
 30
0.0
  0
SEQEND
  5
573
  8
CIVIC_RANGE
  0
TEXT
  5
109
  8
CIVIC_ID
 10
615781.41019552166
 20
1766400.138668549
 30
0.0
 40
1.0
  1
RV278-W_I
  0
POLYLINE
  5
10A
  8
CIVIC_ACROPOLIS
 66
     1
 10
0.0
 20
0.0
 30
0.0
 70
     1
  0
VERTEX
  5
574
  8
CIVIC_ACROPOLIS
 10
615803.88618159306
 20
1766430.2187315519
 30
0.0
  0
VERTEX
  5
575
  8
CIVIC_ACROPOLIS
 10
615741.38715892727
 20
1766356.730833451
 30
0.0
  0
VERTEX
  5
576
  8
CIVIC_ACROPOLIS
 10
615741.30288938445
 20
1766355.6663427891
 30
0.0
  0
VERTEX
  5
577
  8
CIVIC_ACROPOLIS
 10
615739.90095062775
 20
1766353.4235831201
 30
0.0
  0
VERTEX
  5
578
  8
CIVIC_ACROPOLIS
 10
615738.87272897351
 20
1766342.1162492009
 30
0.0
  0
VERTEX
  5
579
  8
CIVIC_ACROPOLIS
 10
615739.99421336269
 20
1766339.5932318261
 30
0.0
  0
VERTEX
  5
57A
  8
CIVIC_ACROPOLIS
 10
615748.12539153639
 20
1766332.3040883939
 30
0.0
  0
VERTEX
  5
57B
  8
CIVIC_ACROPOLIS
 10
615762.84091880615
 20
1766308.8517885599
 30
0.0
  0
VERTEX
  5
57C
  8
CIVIC_ACROPOLIS
 10
615773.22772284364
 20
1766294.4448672431
 30
0.0
  0
VERTEX
  5
57D
  8
CIVIC_ACROPOLIS
 10
615788.97979879763
 20
1766275.243898801
 30
0.0
  0
VERTEX
  5
57E
  8
CIVIC_ACROPOLIS
 10
615798.08290790336
 20
1766263.657354217
 30
0.0
  0
VERTEX
  5
57F
  8
CIVIC_ACROPOLIS
 10
615810.69469433464
 20
1766247.703605813
 30
0.0
  0
VERTEX
  5
580
  8
CIVIC_ACROPOLIS
 10
615817.49154923449
 20
1766246.237749821
 30
0.0
  0
VERTEX
  5
581
  8
CIVIC_ACROPOLIS
 10
615831.84301875625
 20
1766233.784605134
 30
0.0
  0
VERTEX
  5
582
  8
CIVIC_ACROPOLIS
 10
615851.28663361305
 20
1766211.280574522
 30
0.0
  0
VERTEX
  5
583
  8
CIVIC_ACROPOLIS
 10
615860.91867565899
 20
1766208.015205791
 30
0.0
  0
VERTEX
  5
584
  8
CIVIC_ACROPOLIS
 10
615872.03459443618
 20
1766196.705777792
 30
0.0
  0
VERTEX
  5
585
  8
CIVIC_ACROPOLIS
 10
615883.12053590571
 20
1766187.0953466911
 30
0.0
  0
VERTEX
  5
586
  8
CIVIC_ACROPOLIS
 10
615942.79169921158
 20
1766267.4333294521
 30
0.0
  0
VERTEX
  5
587
  8
CIVIC_ACROPOLIS
 10
615937.00241493201
 20
1766274.034218594
 30
0.0
  0
VERTEX
  5
588
  8
CIVIC_ACROPOLIS
 10
615934.14591058926
 20
1766277.9738810819
 30
0.0
  0
VERTEX
  5
589
  8
CIVIC_ACROPOLIS
 10
615933.16098949057
 20
1766279.254061982
 30
0.0
  0
VERTEX
  5
58A
  8
CIVIC_ACROPOLIS
 10
615929.31923096802
 20
1766293.7321820201
 30
0.0
  0
VERTEX
  5
58B
  8
CIVIC_ACROPOLIS
 10
615931.78170025523
 20
1766300.3309770811
 30
0.0
  0
VERTEX
  5
58C
  8
CIVIC_ACROPOLIS
 10
615929.91011701094
 20
1766301.7099287549
 30
0.0
  0
VERTEX
  5
58D
  8
CIVIC_ACROPOLIS
 10
615934.34309465776
 20
1766314.611904586
 30
0.0
  0
VERTEX
  5
58E
  8
CIVIC_ACROPOLIS
 10
615930.1073010792
 20
1766313.3317236849
 30
0.0
  0
VERTEX
  5
58F
  8
CIVIC_ACROPOLIS
 10
615897.26682741032
 20
1766343.836535912
 30
0.0
  0
VERTEX
  5
590
  8
CIVIC_ACROPOLIS
 10
615888.36989556556
 20
1766353.208590908
 30
0.0
  0
VERTEX
  5
591
  8
CIVIC_ACROPOLIS
 10
615808.31283069716
 20
1766425.419449229
 30
0.0
  0
SEQEND
  5
592
  8
CIVIC_ACROPOLIS
  0
POLYLINE
  5
10C
  8
CIVIC_RANGE
 66
     1
 10
0.0
 20
0.0
 30
0.0
 70
     1
  0
VERTEX
  5
593
  8
CIVIC_RANGE
 10
615797.98198430066
 20
1766409.3655339989
 30
0.0
  0
VERTEX
  5
594
  8
CIVIC_RANGE
 10
615800.11536936543
 20
1766407.3419547011
 30
0.0
  0
VERTEX
  5
595
  8
CIVIC_RANGE
 10
615780.14881702978
 20
1766385.7373314451
 30
0.0
  0
VERTEX
  5
596
  8
CIVIC_RANGE
 10
615778.34351694374
 20
1766387.5968744759
 30
0.0
  0
SEQEND
  5
597
  8
CIVIC_RANGE
  0
POLYLINE
  5
10D
  8
CIVIC_RANGE
 66
     1
 10
0.0
 20
0.0
 30
0.0
 70
     1
  0
VERTEX
  5
598
  8
CIVIC_RANGE
 10
615758.18311135168
 20
1766358.178191737
 30
0.0
  0
VERTEX
  5
599
  8
CIVIC_RANGE
 10
615761.72076674155
 20
1766354.6412906339
 30
0.0
  0
VERTEX
  5
59A
  8
CIVIC_RANGE
 10
615749.58362101554
 20
1766343.59432066
 30
0.0
  0
VERTEX
  5
59B
  8
CIVIC_RANGE
 10
615746.31809296319
 20
1766346.9137864581
 30
0.0
  0
SEQEND
  5
59C
  8
CIVIC_RANGE
  0
POLYLINE
  5
10E
  8
CIVIC_PLATFORM_SMALLISH_AT
 66
     1
 10
0.0
 20
0.0
 30
0.0
 70
     1
  0
VERTEX
  5
59D
  8
CIVIC_PLATFORM_SMALLISH_AT
 10
615789.03542335751
 20
1766358.8050196811
 30
0.0
  0
VERTEX
  5
59E
  8
CIVIC_PLATFORM_SMALLISH_AT
 10
615790.98161678971
 20
1766357.237600808
 30
0.0
  0
VERTEX
  5
59F
  8
CIVIC_PLATFORM_SMALLISH_AT
 10
615793.09002076485
 20
1766359.5620295969
 30
0.0
  0
VERTEX
  5
5A0
  8
CIVIC_PLATFORM_SMALLISH_AT
 10
615791.14382733265
 20
1766361.12944847
 30
0.0
  0
SEQEND
  5
5A1
  8
CIVIC_PLATFORM_SMALLISH_AT
  0
POLYLINE
  5
10F
  8
CIVIC_PLATFORM_HIGH
 66
     1
 10
0.0
 20
0.0
 30
0.0
 70
     1
  0
VERTEX
  5
5A2
  8
CIVIC_PLATFORM_HIGH
 10
615791.18912637536
 20
1766367.9030992109
 30
0.0
  0
VERTEX
  5
5A3
  8
CIVIC_PLATFORM_HIGH
 10
615800.51040366478
 20
1766359.6189187709
 30
0.0
  0
VERTEX
  5
5A4
  8
CIVIC_PLATFORM_HIGH
 10
615787.82300780155
 20
1766346.0705702479
 30
0.0
  0
VERTEX
  5
5A5
  8
CIVIC_PLATFORM_HIGH
 10
615779.45101192268
 20
1766353.837163918
 30
0.0
  0
SEQEND
  5
5A6
  8
CIVIC_PLATFORM_HIGH
  0
POLYLINE
  5
110
  8
CIVIC_RANGE
 66
     1
 10
0.0
 20
0.0
 30
0.0
 70
     1
  0
VERTEX
  5
5A7
  8
CIVIC_RANGE
 10
615800.66961647675
 20
1766320.5856167709
 30
0.0
  0
VERTEX
  5
5A8
  8
CIVIC_RANGE
 10
615804.20227564895
 20
1766317.0532528411
 30
0.0
  0
VERTEX
  5
5A9
  8
CIVIC_RANGE
 10
615791.88126910198
 20
1766305.0786054321
 30
0.0
  0
VERTEX
  5
5AA
  8
CIVIC_RANGE
 10
615788.60708093864
 20
1766308.26614419
 30
0.0
  0
SEQEND
  5
5AB
  8
CIVIC_RANGE
  0
POLYLINE
  5
111
  8
CIVIC_PYRAMIDS
 66
     1
 10
0.0
 20
0.0
 30
0.0
 70
     1
  0
VERTEX
  5
5AC
  8
CIVIC_PYRAMIDS
 10
615826.2599117374
 20
1766301.2021143569
 30
0.0
  0
VERTEX
  5
5AD
  8
CIVIC_PYRAMIDS
 10
615840.04580938723
 20
1766316.1918879391
 30
0.0
  0
VERTEX
  5
5AE
  8
CIVIC_PYRAMIDS
 10
615821.77930347947
 20
1766332.732327753
 30
0.0
  0
VERTEX
  5
5AF
  8
CIVIC_PYRAMIDS
 10
615807.99340582965
 20
1766318.7763316589
 30
0.0
  0
SEQEND
  5
5B0
  8
CIVIC_PYRAMIDS
  0
POLYLINE
  5
112
  8
CIVIC_PLATFORM_SMALLISH_AT
 66
     1
 10
0.0
 20
0.0
 30
0.0
 70
     1
  0
VERTEX
  5
5B1
  8
CIVIC_PLATFORM_SMALLISH_AT
 10
615807.86450340645
 20
1766334.898653503
 30
0.0
  0
VERTEX
  5
5B2
  8
CIVIC_PLATFORM_SMALLISH_AT
 10
615810.43755565095
 20
1766337.9535671941
 30
0.0
  0
VERTEX
  5
5B3
  8
CIVIC_PLATFORM_SMALLISH_AT
 10
615815.20827763109
 20
1766333.7196864679
 30
0.0
  0
VERTEX
  5
5B4
  8
CIVIC_PLATFORM_SMALLISH_AT
 10
615812.42072109599
 20
1766330.8256679219
 30
0.0
  0
SEQEND
  5
5B5
  8
CIVIC_PLATFORM_SMALLISH_AT
  0
POLYLINE
  5
113
  8
CIVIC_PLATFORM_SMALLISH_AT
 66
     1
 10
0.0
 20
0.0
 30
0.0
 70
     1
  0
VERTEX
  5
5B6
  8
CIVIC_PLATFORM_SMALLISH_AT
 10
615799.98480153631
 20
1766342.0269017881
 30
0.0
  0
VERTEX
  5
5B7
  8
CIVIC_PLATFORM_SMALLISH_AT
 10
615802.50422770809
 20
1766345.1355635331
 30
0.0
  0
VERTEX
  5
5B8
  8
CIVIC_PLATFORM_SMALLISH_AT
 10
615807.32857576094
 20
1766341.0088298989
 30
0.0
  0
VERTEX
  5
5B9
  8
CIVIC_PLATFORM_SMALLISH_AT
 10
615804.27322194376
 20
1766337.9535671941
 30
0.0
  0
SEQEND
  5
5BA
  8
CIVIC_PLATFORM_SMALLISH_AT
  0
POLYLINE
  5
114
  8
CIVIC_ALTARS
 66
     1
 10
0.0
 20
0.0
 30
0.0
 70
     1
  0
VERTEX
  5
5BB
  8
CIVIC_ALTARS
 10
615835.60517087288
 20
1766357.8448840049
 30
0.0
  0
VERTEX
  5
5BC
  8
CIVIC_ALTARS
 10
615838.47799619415
 20
1766355.039514845
 30
0.0
  0
VERTEX
  5
5BD
  8
CIVIC_ALTARS
 10
615835.30439855228
 20
1766351.6659519819
 30
0.0
  0
VERTEX
  5
5BE
  8
CIVIC_ALTARS
 10
615832.46521443164
 20
1766354.4046595951
 30
0.0
  0
SEQEND
  5
5BF
  8
CIVIC_ALTARS
  0
POLYLINE
  5
115
  8
CIVIC_ALTARS
 66
     1
 10
0.0
 20
0.0
 30
0.0
 70
     1
  0
VERTEX
  5
5C0
  8
CIVIC_ALTARS
 10
615822.36419406079
 20
1766361.4795088409
 30
0.0
  0
VERTEX
  5
5C1
  8
CIVIC_ALTARS
 10
615824.1751565272
 20
1766359.710360263
 30
0.0
  0
VERTEX
  5
5C2
  8
CIVIC_ALTARS
 10
615821.92719153082
 20
1766357.3374186209
 30
0.0
  0
VERTEX
  5
5C3
  8
CIVIC_ALTARS
 10
615820.28243658144
 20
1766359.085975413
 30
0.0
  0
SEQEND
  5
5C4
  8
CIVIC_ALTARS
  0
POLYLINE
  5
116
  8
CIVIC_PLATFORM_SMALLISH_AT
 66
     1
 10
0.0
 20
0.0
 30
0.0
 70
     1
  0
VERTEX
  5
5C5
  8
CIVIC_PLATFORM_SMALLISH_AT
 10
615809.45929617633
 20
1766375.154549202
 30
0.0
  0
VERTEX
  5
5C6
  8
CIVIC_PLATFORM_SMALLISH_AT
 10
615810.48252161243
 20
1766373.702304729
 30
0.0
  0
VERTEX
  5
5C7
  8
CIVIC_PLATFORM_SMALLISH_AT
 10
615813.4206308485
 20
1766375.880845946
 30
0.0
  0
VERTEX
  5
5C8
  8
CIVIC_PLATFORM_SMALLISH_AT
 10
615812.31713284389
 20
1766377.331694365
 30
0.0
  0
SEQEND
  5
5C9
  8
CIVIC_PLATFORM_SMALLISH_AT
  0
POLYLINE
  5
117
  8
CIVIC_PLATFORM_SMALLISH_AT
 66
     1
 10
0.0
 20
0.0
 30
0.0
 70
     1
  0
VERTEX
  5
5CA
  8
CIVIC_PLATFORM_SMALLISH_AT
 10
615803.88051921281
 20
1766371.094826129
 30
0.0
  0
VERTEX
  5
5CB
  8
CIVIC_PLATFORM_SMALLISH_AT
 10
615804.97002780717
 20
1766369.444691096
 30
0.0
  0
VERTEX
  5
5CC
  8
CIVIC_PLATFORM_SMALLISH_AT
 10
615807.86417032522
 20
1766371.5335358861
 30
0.0
  0
VERTEX
  5
5CD
  8
CIVIC_PLATFORM_SMALLISH_AT
 10
615806.71937025222
 20
1766373.141091292
 30
0.0
  0
SEQEND
  5
5CE
  8
CIVIC_PLATFORM_SMALLISH_AT
  0
POLYLINE
  5
118
  8
CIVIC_RANGE
 66
     1
 10
0.0
 20
0.0
 30
0.0
 70
     1
  0
VERTEX
  5
5CF
  8
CIVIC_RANGE
 10
615855.23231346905
 20
1766356.2006822
 30
0.0
  0
VERTEX
  5
5D0
  8
CIVIC_RANGE
 10
615858.92185388494
 20
1766351.6729322481
 30
0.0
  0
VERTEX
  5
5D1
  8
CIVIC_RANGE
 10
615846.59485187649
 20
1766342.7015445579
 30
0.0
  0
VERTEX
  5
5D2
  8
CIVIC_RANGE
 10
615843.24039114453
 20
1766347.6484595209
 30
0.0
  0
SEQEND
  5
5D3
  8
CIVIC_RANGE
  0
POLYLINE
  5
119
  8
CIVIC_PLATFORM_HIGH
 66
     1
 10
0.0
 20
0.0
 30
0.0
 70
     1
  0
VERTEX
  5
5D4
  8
CIVIC_PLATFORM_HIGH
 10
615855.39985331101
 20
1766312.684652969
 30
0.0
  0
VERTEX
  5
5D5
  8
CIVIC_PLATFORM_HIGH
 10
615852.38113842532
 20
1766316.3737238841
 30
0.0
  0
VERTEX
  5
5D6
  8
CIVIC_PLATFORM_HIGH
 10
615845.00139143155
 20
1766309.9176752749
 30
0.0
  0
VERTEX
  5
5D7
  8
CIVIC_PLATFORM_HIGH
 10
615848.10404277872
 20
1766306.3123675589
 30
0.0
  0
SEQEND
  5
5D8
  8
CIVIC_PLATFORM_HIGH
  0
POLYLINE
  5
11A
  8
CIVIC_RANGE
 66
     1
 10
0.0
 20
0.0
 30
0.0
 70
     1
  0
VERTEX
  5
5D9
  8
CIVIC_RANGE
 10
615867.89472824254
 20
1766320.2306702121
 30
0.0
  0
VERTEX
  5
5DA
  8
CIVIC_RANGE
 10
615886.67917541112
 20
1766335.3230537139
 30
0.0
  0
VERTEX
  5
5DB
  8
CIVIC_RANGE
 10
615882.40241284552
 20
1766340.9407722999
 30
0.0
  0
VERTEX
  5
5DC
  8
CIVIC_RANGE
 10
615863.2825529119
 20
1766325.3454605881
 30
0.0
  0
SEQEND
  5
5DD
  8
CIVIC_RANGE
  0
POLYLINE
  5
11B
  8
CIVIC_PLATFORM_SMALLISH_AT
 66
     1
 10
0.0
 20
0.0
 30
0.0
 70
     1
  0
VERTEX
  5
5DE
  8
CIVIC_PLATFORM_SMALLISH_AT
 10
615859.89978027833
 20
1766366.975770788
 30
0.0
  0
VERTEX
  5
5DF
  8
CIVIC_PLATFORM_SMALLISH_AT
 10
615843.41392644809
 20
1766382.311416582
 30
0.0
  0
VERTEX
  5
5E0
  8
CIVIC_PLATFORM_SMALLISH_AT
 10
615840.96178267803
 20
1766379.9119499261
 30
0.0
  0
VERTEX
  5
5E1
  8
CIVIC_PLATFORM_SMALLISH_AT
 10
615857.44763650827
 20
1766364.6283071199
 30
0.0
  0
SEQEND
  5
5E2
  8
CIVIC_PLATFORM_SMALLISH_AT
  0
POLYLINE
  5
11C
  8
CIVIC_PLATFORM_SMALLISH_AT
 66
     1
 10
0.0
 20
0.0
 30
0.0
 70
     1
  0
VERTEX
  5
5E3
  8
CIVIC_PLATFORM_SMALLISH_AT
 10
615834.24719883397
 20
1766390.18062017
 30
0.0
  0
VERTEX
  5
5E4
  8
CIVIC_PLATFORM_SMALLISH_AT
 10
615837.72589885211
 20
1766386.962368239
 30
0.0
  0
VERTEX
  5
5E5
  8
CIVIC_PLATFORM_SMALLISH_AT
 10
615835.84032619779
 20
1766384.9468162491
 30
0.0
  0
VERTEX
  5
5E6
  8
CIVIC_PLATFORM_SMALLISH_AT
 10
615832.32898422214
 20
1766388.19752642
 30
0.0
  0
SEQEND
  5
5E7
  8
CIVIC_PLATFORM_SMALLISH_AT
  0
POLYLINE
  5
11D
  8
CIVIC_PLATFORM_SMALLISH_AT
 66
     1
 10
0.0
 20
0.0
 30
0.0
 70
     1
  0
VERTEX
  5
5E8
  8
CIVIC_PLATFORM_SMALLISH_AT
 10
615830.76849881571
 20
1766393.073591677
 30
0.0
  0
VERTEX
  5
5E9
  8
CIVIC_PLATFORM_SMALLISH_AT
 10
615825.37158418575
 20
1766398.079489893
 30
0.0
  0
VERTEX
  5
5EA
  8
CIVIC_PLATFORM_SMALLISH_AT
 10
615823.16059120209
 20
1766395.9341049429
 30
0.0
  0
VERTEX
  5
5EB
  8
CIVIC_PLATFORM_SMALLISH_AT
 10
615828.65509862255
 20
1766390.9282067269
 30
0.0
  0
SEQEND
  5
5EC
  8
CIVIC_PLATFORM_SMALLISH_AT
  0
POLYLINE
  5
11E
  8
CIVIC_PLATFORM_SMALLISH_AT
 66
     1
 10
0.0
 20
0.0
 30
0.0
 70
     1
  0
VERTEX
  5
5ED
  8
CIVIC_PLATFORM_SMALLISH_AT
 10
615822.74057581299
 20
1766403.292353014
 30
0.0
  0
VERTEX
  5
5EE
  8
CIVIC_PLATFORM_SMALLISH_AT
 10
615819.41775779484
 20
1766406.5943681451
 30
0.0
  0
VERTEX
  5
5EF
  8
CIVIC_PLATFORM_SMALLISH_AT
 10
615816.2571503194
 20
1766403.272110241
 30
0.0
  0
VERTEX
  5
5F0
  8
CIVIC_PLATFORM_SMALLISH_AT
 10
615819.3368190641
 20
1766400.132037296
 30
0.0
  0
SEQEND
  5
5F1
  8
CIVIC_PLATFORM_SMALLISH_AT
  0
POLYLINE
  5
11F
  8
CIVIC_PLATFORM_SMALLISH_AT
 66
     1
 10
0.0
 20
0.0
 30
0.0
 70
     1
  0
VERTEX
  5
5F2
  8
CIVIC_PLATFORM_SMALLISH_AT
 10
615808.62892475282
 20
1766410.260404181
 30
0.0
  0
VERTEX
  5
5F3
  8
CIVIC_PLATFORM_SMALLISH_AT
 10
615811.72724604455
 20
1766413.461903472
 30
0.0
  0
VERTEX
  5
5F4
  8
CIVIC_PLATFORM_SMALLISH_AT
 10
615817.45990652079
 20
1766408.246597257
 30
0.0
  0
VERTEX
  5
5F5
  8
CIVIC_PLATFORM_SMALLISH_AT
 10
615814.10311422055
 20
1766404.8904850599
 30
0.0
  0
SEQEND
  5
5F6
  8
CIVIC_PLATFORM_SMALLISH_AT
  0
POLYLINE
  5
120
  8
CIVIC_PLATFORM_SMALLISH_AT
 66
     1
 10
0.0
 20
0.0
 30
0.0
 70
     1
  0
VERTEX
  5
5F7
  8
CIVIC_PLATFORM_SMALLISH_AT
 10
615803.06713493052
 20
1766414.9277594651
 30
0.0
  0
VERTEX
  5
5F8
  8
CIVIC_PLATFORM_SMALLISH_AT
 10
615806.58080847445
 20
1766412.0606149449
 30
0.0
  0
VERTEX
  5
5F9
  8
CIVIC_PLATFORM_SMALLISH_AT
 10
615809.6211736378
 20
1766415.3469244761
 30
0.0
  0
VERTEX
  5
5FA
  8
CIVIC_PLATFORM_SMALLISH_AT
 10
615806.17011935893
 20
1766418.3048124621
 30
0.0
  0
SEQEND
  5
5FB
  8
CIVIC_PLATFORM_SMALLISH_AT
  0
TEXT
  5
121
  8
CIVIC_ID
 10
610415.63499353267
 20
1760425.360116025
 30
0.0
 40
1.0
  1
RV264-CC_X
  0
POLYLINE
  5
122
  8
CIVIC_RANGE
 66
     1
 10
0.0
 20
0.0
 30
0.0
 70
     1
  0
VERTEX
  5
5FC
  8
CIVIC_RANGE
 10
610415.10705983592
 20
1760429.888206698
 30
0.0
  0
VERTEX
  5
5FD
  8
CIVIC_RANGE
 10
610419.06006747833
 20
1760426.5769868121
 30
0.0
  0
VERTEX
  5
5FE
  8
CIVIC_RANGE
 10
610411.64368155284
 20
1760418.4300545449
 30
0.0
  0
VERTEX
  5
5FF
  8
CIVIC_RANGE
 10
610407.89118879079
 20
1760421.584942088
 30
0.0
  0
SEQEND
  5
600
  8
CIVIC_RANGE
  0
TEXT
  5
123
  8
CIVIC_ID
 10
610504.30287349795
 20
1760377.095530882
 30
0.0
 40
1.0
  1
RV264-CC_XIV
  0
TEXT
  5
124
  8
CIVIC_ID
 10
610517.13349427562
 20
1760381.079484141
 30
0.0
 40
1.0
  1
RV264-CC_XIII
  0
TEXT
  5
125
  8
CIVIC_ID
 10
610494.46432111005
 20
1760389.0009952551
 30
0.0
 40
1.0
  1
RV264-CC_XIIb
  0
TEXT
  5
126
  8
CIVIC_ID
 10
610485.07942531211
 20
1760381.243128804
 30
0.0
 40
1.0
  1
RV264-CC_XIIa
  0
TEXT
  5
127
  8
CIVIC_ID
 10
610495.02789449482
 20
1760402.559548083
 30
0.0
 40
1.0
  1
RV264-CC_XI
  0
TEXT
  5
128
  8
CIVIC_ID
 10
610414.40325926745
 20
1760450.5656805621
 30
0.0
 40
1.0
  1
RV264-CC_IX
  0
TEXT
  5
129
  8
CIVIC_ID
 10
610435.00166663318
 20
1760491.8263245861
 30
0.0
 40
1.0
  1
RV264-CC_VIII
  0
TEXT
  5
12A
  8
CIVIC_ID
 10
610548.04442857206
 20
1760456.0057939531
 30
0.0
 40
1.0
  1
RV264-CC_VII
  0
TEXT
  5
12B
  8
CIVIC_ID
 10
610437.04012355697
 20
1760426.891920838
 30
0.0
 40
1.0
  1
RV264-CC_VI
  0
TEXT
  5
12C
  8
CIVIC_ID
 10
610477.0271873821
 20
1760454.8875134019
 30
0.0
 40
1.0
  1
RV264-CC_V
  0
TEXT
  5
12D
  8
CIVIC_ID
 10
610484.95285445731
 20
1760418.114364072
 30
0.0
 40
1.0
  1
RV264-CC_IV
  0
TEXT
  5
12E
  8
CIVIC_ID
 10
610507.11907501589
 20
1760454.763708272
 30
0.0
 40
1.0
  1
RV264-CC_III
  0
TEXT
  5
12F
  8
CIVIC_ID
 10
610521.60777399095
 20
1760440.8962729929
 30
0.0
 40
1.0
  1
RV264-CC_II
  0
TEXT
  5
130
  8
CIVIC_ID
 10
610524.45595130371
 20
1760409.94246906
 30
0.0
 40
1.0
  1
RV264-CC_I
  0
TEXT
  5
131
  8
CIVIC_ID
 10
609966.88663179288
 20
1763805.370778942
 30
0.0
 40
1.0
  1
RV253-II
  0
TEXT
  5
132
  8
CIVIC_ID
 10
609995.24661177315
 20
1763807.2930770649
 30
0.0
 40
1.0
  1
RV253-I
  0
TEXT
  5
133
  8
CIVIC_ID
 10
608330.9024329643
 20
1763416.7919082411
 30
0.0
 40
1.0
  1
RV250-B_II
  0
TEXT
  5
134
  8
CIVIC_ID
 10
608140.75670329039
 20
1763632.9489560809
 30
0.0
 40
1.0
  1
RV250-A_I
  0
POLYLINE
  5
135
  8
CIVIC_PYRAMIDS
 66
     1
 10
0.0
 20
0.0
 30
0.0
 70
     1
  0
VERTEX
  5
601
  8
CIVIC_PYRAMIDS
 10
608331.54727816128
 20
1763425.8499762081
 30
0.0
  0
VERTEX
  5
602
  8
CIVIC_PYRAMIDS
 10
608339.33604886464
 20
1763415.5378219259
 30
0.0
  0
VERTEX
  5
603
  8
CIVIC_PYRAMIDS
 10
608329.32196268602
 20
1763407.579230889
 30
0.0
  0
VERTEX
  5
604
  8
CIVIC_PYRAMIDS
 10
608321.44759011513
 20
1763417.891385172
 30
0.0
  0
SEQEND
  5
605
  8
CIVIC_PYRAMIDS
  0
POLYLINE
  5
136
  8
CIVIC_PYRAMIDS
 66
     1
 10
0.0
 20
0.0
 30
0.0
 70
     1
  0
VERTEX
  5
606
  8
CIVIC_PYRAMIDS
 10
608143.54592523165
 20
1763642.9160105479
 30
0.0
  0
VERTEX
  5
607
  8
CIVIC_PYRAMIDS
 10
608153.1869604697
 20
1763632.0828518081
 30
0.0
  0
VERTEX
  5
608
  8
CIVIC_PYRAMIDS
 10
608137.66937367828
 20
1763619.2301444381
 30
0.0
  0
VERTEX
  5
609
  8
CIVIC_PYRAMIDS
 10
608128.67085206846
 20
1763630.063303177
 30
0.0
  0
SEQEND
  5
60A
  8
CIVIC_PYRAMIDS
  0
TEXT
  5
137
  8
CIVIC_ID
 10
607600.85473297548
 20
1765706.6711308369
 30
0.0
 40
1.0
  1
RV244-I
  0
POLYLINE
  5
138
  8
CIVIC_PYRAMIDS
 66
     1
 10
0.0
 20
0.0
 30
0.0
 70
     1
  0
VERTEX
  5
60B
  8
CIVIC_PYRAMIDS
 10
607602.74282807077
 20
1765694.0497310851
 30
0.0
  0
VERTEX
  5
60C
  8
CIVIC_PYRAMIDS
 10
607612.50040481321
 20
1765707.3504113341
 30
0.0
  0
VERTEX
  5
60D
  8
CIVIC_PYRAMIDS
 10
607598.40233123349
 20
1765717.4069290189
 30
0.0
  0
VERTEX
  5
60E
  8
CIVIC_PYRAMIDS
 10
607588.57381213317
 20
1765703.881332099
 30
0.0
  0
SEQEND
  5
60F
  8
CIVIC_PYRAMIDS
  0
TEXT
  5
139
  8
CIVIC_ID
 10
591911.4034774286
 20
1768548.7571714669
 30
0.0
 40
0.9999999999999998
  1
RV302-EX_XXII
 50
1.000000000077641
  0
TEXT
  5
13A
  8
CIVIC_ID
 10
592042.723331235
 20
1769106.382095342
 30
0.0
 40
0.9999999999999998
  1
RV302-EX_XXI
 50
1.000000000077641
  0
TEXT
  5
13B
  8
CIVIC_ID
 10
591659.83534189768
 20
1769142.3856083499
 30
0.0
 40
0.9999999999999998
  1
RV302-CC_VIII
 50
1.000000000077641
  0
TEXT
  5
13C
  8
CIVIC_ID
 10
591720.37088912306
 20
1769061.248651596
 30
0.0
 40
0.9999999999999998
  1
RV302-CC_XII
 50
1.000000000077641
  0
TEXT
  5
13D
  8
CIVIC_ID
 10
591703.41900847421
 20
1769046.0763916001
 30
0.0
 40
0.9999999999999998
  1
RV302-CC_XIII
 50
1.000000000077641
  0
TEXT
  5
13E
  8
CIVIC_ID
 10
591670.51755310572
 20
1769053.640442614
 30
0.0
 40
0.9999999999999998
  1
RV302-CC_XIV
 50
1.000000000077641
  0
TEXT
  5
13F
  8
CIVIC_ID
 10
591653.7598250322
 20
1769071.6258468551
 30
0.0
 40
0.9999999999999998
  1
RV302-CC_XV
 50
1.000000000077641
  0
TEXT
  5
140
  8
CIVIC_ID
 10
591684.33726480009
 20
1769069.8996695559
 30
0.0
 40
0.9999999999999998
  1
RV302-CC_XVI
 50
1.000000000077641
  0
TEXT
  5
141
  8
CIVIC_ID
 10
591677.36268496024
 20
1769076.796304093
 30
0.0
 40
0.9999999999999998
  1
RV302-CC_XVII
 50
1.000000000077641
  0
TEXT
  5
142
  8
CIVIC_ID
 10
591662.66509650415
 20
1769095.2915649179
 30
0.0
 40
0.9999999999999998
  1
RV302-CC_VIIb
 50
1.000000000077641
  0
TEXT
  5
143
  8
CIVIC_ID
 10
591652.6768811699
 20
1769104.2699112829
 30
0.0
 40
0.9999999999999998
  1
RV302-CC_VIIa
 50
1.000000000077641
  0
TEXT
  5
144
  8
CIVIC_ID
 10
591687.0402408787
 20
1769107.243852539
 30
0.0
 40
0.9999999999999998
  1
RV302-CC_V
 50
1.000000000077641
  0
TEXT
  5
145
  8
CIVIC_ID
 10
591710.64810836629
 20
1769096.14830262
 30
0.0
 40
0.9999999999999998
  1
RV302-CC_IV
 50
1.000000000077641
  0
TEXT
  5
146
  8
CIVIC_ID
 10
591712.46615450014
 20
1769120.8417021891
 30
0.0
 40
0.9999999999999998
  1
RV302-CC_VI
 50
1.000000000077641
  0
TEXT
  5
147
  8
CIVIC_ID
 10
591735.10556365026
 20
1769103.7130655339
 30
0.0
 40
0.9999999999999998
  1
RV302-CC_III
 50
1.000000000077641
  0
TEXT
  5
148
  8
CIVIC_ID
 10
591777.20597134135
 20
1769114.039928474
 30
0.0
 40
0.9999999999999998
  1
RV302-CC_II
 50
1.000000000077641
  0
TEXT
  5
149
  8
CIVIC_ID
 10
591779.30083472433
 20
1769144.4386947369
 30
0.0
 40
0.9999999999999998
  1
RV302-CC_I
 50
1.000000000077641
  0
TEXT
  5
14A
  8
CIVIC_ID
 10
591690.03687628545
 20
1769187.3759592669
 30
0.0
 40
0.9999999999999998
  1
RV302-CC_IX
 50
1.000000000077641
  0
TEXT
  5
14B
  8
CIVIC_ID
 10
591703.54973407334
 20
1769201.643008024
 30
0.0
 40
0.9999999999999998
  1
RV302-CC_X
 50
1.000000000077641
  0
TEXT
  5
14C
  8
CIVIC_ID
 10
591723.85136867361
 20
1769200.4623173671
 30
0.0
 40
0.9999999999999998
  1
RV302-CC_XI
 50
1.000000000077641
  0
TEXT
  5
14D
  8
CIVIC_ID
 10
591757.56855624891
 20
1769235.2224121899
 30
0.0
 40
0.9999999999999998
  1
RV302-EX_XVIII
 50
1.000000000077641
  0
TEXT
  5
14E
  8
CIVIC_ID
 10
591734.00546815118
 20
1769348.1089565379
 30
0.0
 40
0.9999999999999998
  1
RV302-EX_XIX
 50
1.000000000077641
  0
TEXT
  5
14F
  8
CIVIC_ID
 10
591664.11962613231
 20
1769342.466239196
 30
0.0
 40
0.9999999999999998
  1
RV302-EX_XX
 50
1.000000000077641
  0
TEXT
  5
150
  8
CIVIC_ID
 10
589218.89481769735
 20
1775733.0349224361
 30
0.0
 40
1.0
  1
RV330-EX_XIX
 50
359.00000000002291
  0
TEXT
  5
151
  8
CIVIC_ID
 10
589765.20687567024
 20
1776443.5274228191
 30
0.0
 40
1.0
  1
RV330-EX_XV
 50
359.00000000002291
  0
TEXT
  5
152
  8
CIVIC_ID
 10
589854.66258589947
 20
1776377.916595605
 30
0.0
 40
1.0
  1
RV330-CC_XIV
 50
359.00000000002291
  0
TEXT
  5
153
  8
CIVIC_ID
 10
589808.34504399379
 20
1776286.5708211949
 30
0.0
 40
1.0
  1
RV330-CC_XVI
 50
359.00000000002291
  0
TEXT
  5
154
  8
CIVIC_ID
 10
589842.34460697928
 20
1776318.0779578241
 30
0.0
 40
1.0
  1
RV330-CC_XVII
 50
359.00000000002291
  0
TEXT
  5
155
  8
CIVIC_ID
 10
589858.85263331851
 20
1776300.722919371
 30
0.0
 40
1.0
  1
RV330-CC_XVIII
 50
359.00000000002291
  0
TEXT
  5
156
  8
CIVIC_ID
 10
589870.63777613663
 20
1776298.171233915
 30
0.0
 40
1.0
  1
RV330-CC_XXIV
 50
359.00000000002291
  0
TEXT
  5
157
  8
CIVIC_ID
 10
589885.26912739826
 20
1776331.057843291
 30
0.0
 40
1.0
  1
RV330-CC_XXIII
 50
359.00000000002291
  0
TEXT
  5
158
  8
CIVIC_ID
 10
589899.14620315959
 20
1776346.45105478
 30
0.0
 40
1.0
  1
RV330-CC_XXII
 50
359.00000000002291
  0
TEXT
  5
159
  8
CIVIC_ID
 10
589914.60666822561
 20
1776366.956417561
 30
0.0
 40
1.0
  1
RV330-CC_XXI
 50
359.00000000002291
  0
TEXT
  5
15A
  8
CIVIC_ID
 10
589929.45192804385
 20
1776389.171544878
 30
0.0
 40
1.0
  1
RV330-CC_XIII
 50
359.00000000002291
  0
TEXT
  5
15B
  8
CIVIC_ID
 10
589902.71113719209
 20
1776402.931537478
 30
0.0
 40
1.0
  1
RV330-CC_XII
 50
359.00000000002291
  0
TEXT
  5
15C
  8
CIVIC_ID
 10
589896.96276017197
 20
1776427.503504388
 30
0.0
 40
1.0
  1
RV330-CC_VI
 50
359.00000000002291
  0
TEXT
  5
15D
  8
CIVIC_ID
 10
589911.15910899686
 20
1776415.0754792499
 30
0.0
 40
1.0
  1
RV330-CC_XI
 50
359.00000000002291
  0
TEXT
  5
15E
  8
CIVIC_ID
 10
589954.3080522723
 20
1776412.9203795809
 30
0.0
 40
1.0
  1
RV330-CC_XX
 50
359.00000000002291
  0
TEXT
  5
15F
  8
CIVIC_ID
 10
589921.93429501506
 20
1776435.067807724
 30
0.0
 40
1.0
  1
RV330-CC_VII
 50
359.00000000002291
  0
TEXT
  5
160
  8
CIVIC_ID
 10
589932.64544447255
 20
1776451.3265370959
 30
0.0
 40
1.0
  1
RV330-CC_VIII
 50
359.00000000002291
  0
TEXT
  5
161
  8
CIVIC_ID
 10
589950.12265853188
 20
1776451.4372772051
 30
0.0
 40
1.0
  1
RV330-CC_IX
 50
359.00000000002291
  0
TEXT
  5
162
  8
CIVIC_ID
 10
589964.0090505156
 20
1776458.141739066
 30
0.0
 40
1.0
  1
RV330-CC_X
 50
359.00000000002291
  0
TEXT
  5
163
  8
CIVIC_ID
 10
589951.62525707937
 20
1776704.6946980089
 30
0.0
 40
1.0
  1
RV330-EX_IV
 50
359.00000000002291
  0
TEXT
  5
164
  8
CIVIC_ID
 10
589846.31897195324
 20
1776712.0984712159
 30
0.0
 40
1.0
  1
RV330-EX_V
 50
359.00000000002291
  0
POLYLINE
  5
165
  8
CIVIC_PYRAMIDS
 66
     1
 10
0.0
 20
0.0
 30
0.0
 70
     1
  0
VERTEX
  5
610
  8
CIVIC_PYRAMIDS
 10
589214.06625296629
 20
1775734.3409265911
 30
0.0
  0
VERTEX
  5
611
  8
CIVIC_PYRAMIDS
 10
589218.26398826111
 20
1775738.80666812
 30
0.0
  0
VERTEX
  5
612
  8
CIVIC_PYRAMIDS
 10
589226.6978517645
 20
1775731.7980838739
 30
0.0
  0
VERTEX
  5
613
  8
CIVIC_PYRAMIDS
 10
589222.3918408039
 20
1775727.1757655679
 30
0.0
  0
SEQEND
  5
614
  8
CIVIC_PYRAMIDS
  0
POLYLINE
  5
166
  8
CIVIC_PLATFORM_LONG
 66
     1
 10
0.0
 20
0.0
 30
0.0
 70
     1
  0
VERTEX
  5
615
  8
CIVIC_PLATFORM_LONG
 10
589829.84186236851
 20
1776355.392271081
 30
0.0
  0
VERTEX
  5
616
  8
CIVIC_PLATFORM_LONG
 10
589881.26329092903
 20
1776416.0339845661
 30
0.0
  0
VERTEX
  5
617
  8
CIVIC_PLATFORM_LONG
 10
589887.85296715959
 20
1776410.671412878
 30
0.0
  0
VERTEX
  5
618
  8
CIVIC_PLATFORM_LONG
 10
589835.48558315251
 20
1776350.5232719739
 30
0.0
  0
SEQEND
  5
619
  8
CIVIC_PLATFORM_LONG
  0
POLYLINE
  5
167
  8
CIVIC_PYRAMIDS
 66
     1
 10
0.0
 20
0.0
 30
0.0
 70
     1
  0
VERTEX
  5
61A
  8
CIVIC_PYRAMIDS
 10
589943.84983237775
 20
1776704.192891204
 30
0.0
  0
VERTEX
  5
61B
  8
CIVIC_PYRAMIDS
 10
589951.9372370377
 20
1776712.6036755361
 30
0.0
  0
VERTEX
  5
61C
  8
CIVIC_PYRAMIDS
 10
589959.72410540225
 20
1776705.0033267241
 30
0.0
  0
VERTEX
  5
61D
  8
CIVIC_PYRAMIDS
 10
589951.93107490696
 20
1776696.775533133
 30
0.0
  0
SEQEND
  5
61E
  8
CIVIC_PYRAMIDS
  0
POLYLINE
  5
168
  8
CIVIC_PYRAMIDS
 66
     1
 10
0.0
 20
0.0
 30
0.0
 70
     1
  0
VERTEX
  5
61F
  8
CIVIC_PYRAMIDS
 10
589839.73487213906
 20
1776711.1336833001
 30
0.0
  0
VERTEX
  5
620
  8
CIVIC_PYRAMIDS
 10
589846.88712029264
 20
1776718.522135552
 30
0.0
  0
VERTEX
  5
621
  8
CIVIC_PYRAMIDS
 10
589852.71296745865
 20
1776713.2122480171
 30
0.0
  0
VERTEX
  5
622
  8
CIVIC_PYRAMIDS
 10
589845.87522839895
 20
1776706.09298956
 30
0.0
  0
SEQEND
  5
623
  8
CIVIC_PYRAMIDS
  0
TEXT
  5
169
  8
CIVIC_ID
 10
597784.4688346266
 20
1771316.8158734229
 30
0.0
 40
0.9999999999999998
  1
RV242-B_I
 50
353.99999999979269
  0
TEXT
  5
16A
  8
CIVIC_ID
 10
590889.75427278318
 20
1772721.780842111
 30
0.0
 40
1.0
  1
RV335-B_II
 50
4.9999999998730882
  0
TEXT
  5
16B
  8
CIVIC_ID
 10
591036.01616760774
 20
1773007.921526609
 30
0.0
 40
1.0
  1
RV335-A_I
 50
4.9999999998730882
  0
TEXT
  5
16C
  8
CIVIC_ID
 10
591520.67070465267
 20
1774978.3052294571
 30
0.0
 40
1.0
  1
RV328-I
 50
4.9999999998730882
  0
TEXT
  5
16D
  8
CIVIC_ID
 10
592617.00032380479
 20
1774788.616106618
 30
0.0
 40
0.9999999999999998
  1
RV320-I
 50
5.9999999999999671
  0
POLYLINE
  5
16E
  8
CIVIC_PYRAMIDS
 66
     1
 10
0.0
 20
0.0
 30
0.0
 70
     1
  0
VERTEX
  5
624
  8
CIVIC_PYRAMIDS
 10
591490.50994074089
 20
1771734.329143828
 30
0.0
  0
VERTEX
  5
625
  8
CIVIC_PYRAMIDS
 10
591503.50315109093
 20
1771739.172204681
 30
0.0
  0
VERTEX
  5
626
  8
CIVIC_PYRAMIDS
 10
591506.52444105665
 20
1771730.4496258099
 30
0.0
  0
VERTEX
  5
627
  8
CIVIC_PYRAMIDS
 10
591493.41174013051
 20
1771725.786789475
 30
0.0
  0
SEQEND
  5
628
  8
CIVIC_PYRAMIDS
  0
TEXT
  5
16F
  8
CIVIC_ID
 10
591497.75846411567
 20
1771731.665091739
 30
0.0
 40
0.9999999999999998
  1
RV312-I
 50
6.9999999999425588
  0
TEXT
  5
170
  8
CIVIC_ID
 10
592667.1689986093
 20
1773765.5105116961
 30
0.0
 40
1.0
  1
RV309-C_III
 50
7.9999999998667057
  0
TEXT
  5
171
  8
CIVIC_ID
 10
592740.98717191466
 20
1773632.44886266
 30
0.0
 40
1.0
  1
RV309-B_II
 50
7.9999999998667057
  0
TEXT
  5
172
  8
CIVIC_ID
 10
592818.28239605494
 20
1773755.3731721439
 30
0.0
 40
1.0
  1
RV309-A_I
 50
7.9999999998667057
  0
TEXT
  5
173
  8
CIVIC_ID
 10
592016.98340369191
 20
1772910.117182249
 30
0.0
 40
1.0
  1
RV308-B_II
 50
357.99999999999608
  0
TEXT
  5
174
  8
CIVIC_ID
 10
592401.00546637096
 20
1772772.2125795039
 30
0.0
 40
1.0
  1
RV308-A_I
 50
357.99999999999608
  0
TEXT
  5
175
  8
CIVIC_ID
 10
593587.68277275353
 20
1772669.8053101769
 30
0.0
 40
1.0
  1
RV295-I
 50
2.0000000000039528
  0
TEXT
  5
176
  8
CIVIC_ID
 10
597446.74710803514
 20
1770991.5923831521
 30
0.0
 40
0.9999999999999998
  1
RV242-C_XXIV
 50
353.99999999979269
  0
TEXT
  5
177
  8
CIVIC_ID
 10
597344.54990973556
 20
1770956.461554508
 30
0.0
 40
0.9999999999999998
  1
RV242-C_XXIX
 50
353.99999999979269
  0
TEXT
  5
178
  8
CIVIC_ID
 10
597365.52863129729
 20
1770995.675169714
 30
0.0
 40
0.9999999999999998
  1
RV242-C_XXVIIIa
 50
353.99999999979269
  0
TEXT
  5
179
  8
CIVIC_ID
 10
597405.8405041513
 20
1770978.9386617639
 30
0.0
 40
0.9999999999999998
  1
RV242-C_XXVII
 50
353.99999999979269
  0
TEXT
  5
17A
  8
CIVIC_ID
 10
597445.01635715365
 20
1770966.6180900789
 30
0.0
 40
0.9999999999999998
  1
RV242-C_XXVI
 50
353.99999999979269
  0
TEXT
  5
17B
  8
CIVIC_ID
 10
597449.87201355805
 20
1770947.142346682
 30
0.0
 40
0.9999999999999998
  1
RV242-C_XXV
 50
353.99999999979269
  0
TEXT
  5
17C
  8
CIVIC_ID
 10
597390.58014546032
 20
1771008.143630625
 30
0.0
 40
0.9999999999999998
  1
RV242-C_XXIII
 50
353.99999999979269
  0
TEXT
  5
17D
  8
CIVIC_ID
 10
597366.20545853314
 20
1771019.1456216529
 30
0.0
 40
0.9999999999999998
  1
RV242-C_XXII
 50
353.99999999979269
  0
TEXT
  5
17E
  8
CIVIC_ID
 10
597378.76524029975
 20
1771028.7976932221
 30
0.0
 40
0.9999999999999998
  1
RV242-C_XXI
 50
353.99999999979269
  0
TEXT
  5
17F
  8
CIVIC_ID
 10
597405.16322615405
 20
1771054.906956862
 30
0.0
 40
0.9999999999999998
  1
RV242-C_XXa
 50
353.99999999979269
  0
TEXT
  5
180
  8
CIVIC_ID
 10
597393.27746949031
 20
1771046.309550391
 30
0.0
 40
0.9999999999999998
  1
RV242-C_XX
 50
353.99999999979269
  0
TEXT
  5
181
  8
CIVIC_ID
 10
597411.03790996491
 20
1771029.5319321109
 30
0.0
 40
0.9999999999999998
  1
RV242-C_XIX
 50
353.99999999979269
  0
TEXT
  5
182
  8
CIVIC_ID
 10
597427.6429505673
 20
1771010.704049591
 30
0.0
 40
0.9999999999999998
  1
RV242-C_XVIII
 50
353.99999999979269
  0
TEXT
  5
183
  8
CIVIC_ID
 10
597435.79143626685
 20
1771049.568461787
 30
0.0
 40
0.9999999999999998
  1
RV242-C_XVII
 50
353.99999999979269
  0
TEXT
  5
184
  8
CIVIC_ID
 10
597518.11958040926
 20
1770986.601767502
 30
0.0
 40
0.9999999999999998
  1
RV242-C_XVI
 50
353.99999999979269
  0
TEXT
  5
185
  8
CIVIC_ID
 10
597501.97372614092
 20
1771005.1970075469
 30
0.0
 40
0.9999999999999998
  1
RV242-C_XV
 50
353.99999999979269
  0
TEXT
  5
186
  8
CIVIC_ID
 10
597490.27924662596
 20
1771018.1030347641
 30
0.0
 40
0.9999999999999998
  1
RV242-C_XIVb
 50
353.99999999979269
  0
TEXT
  5
187
  8
CIVIC_ID
 10
597476.02910608344
 20
1771032.142233219
 30
0.0
 40
0.9999999999999998
  1
RV242-C_XIVa
 50
353.99999999979269
  0
TEXT
  5
188
  8
CIVIC_ID
 10
597537.82321700081
 20
1770926.759619137
 30
0.0
 40
0.9999999999999998
  1
RV242-C_VIII
 50
353.99999999979269
  0
TEXT
  5
189
  8
CIVIC_ID
 10
597491.07871002448
 20
1771047.6265976341
 30
0.0
 40
0.9999999999999998
  1
RV242-C_XII
 50
353.99999999979269
  0
TEXT
  5
18A
  8
CIVIC_ID
 10
597512.32486951107
 20
1771031.4122411739
 30
0.0
 40
0.9999999999999998
  1
RV242-C_XI
 50
353.99999999979269
  0
POLYLINE
  5
18B
  8
CIVIC_RANGE
 66
     1
 10
0.0
 20
0.0
 30
0.0
 70
     1
  0
VERTEX
  5
629
  8
CIVIC_RANGE
 10
597398.70158453123
 20
1770924.1326391429
 30
0.0
  0
VERTEX
  5
62A
  8
CIVIC_RANGE
 10
597386.31196325785
 20
1770911.3086061999
 30
0.0
  0
VERTEX
  5
62B
  8
CIVIC_RANGE
 10
597391.64226164855
 20
1770906.1212734319
 30
0.0
  0
VERTEX
  5
62C
  8
CIVIC_RANGE
 10
597403.98532686126
 20
1770919.27210882
 30
0.0
  0
SEQEND
  5
62D
  8
CIVIC_RANGE
  0
POLYLINE
  5
18C
  8
CIVIC_ACROPOLIS
 66
     1
 10
0.0
 20
0.0
 30
0.0
 70
     1
  0
VERTEX
  5
62E
  8
CIVIC_ACROPOLIS
 10
597355.85838427802
 20
1770999.5763974809
 30
0.0
  0
VERTEX
  5
62F
  8
CIVIC_ACROPOLIS
 10
597410.54212009825
 20
1770948.102653817
 30
0.0
  0
VERTEX
  5
630
  8
CIVIC_ACROPOLIS
 10
597410.73964297201
 20
1770945.7222064231
 30
0.0
  0
VERTEX
  5
631
  8
CIVIC_ACROPOLIS
 10
597425.48757791135
 20
1770930.7680156659
 30
0.0
  0
VERTEX
  5
632
  8
CIVIC_ACROPOLIS
 10
597409.8326423252
 20
1770914.0729230701
 30
0.0
  0
VERTEX
  5
633
  8
CIVIC_ACROPOLIS
 10
597397.95105587121
 20
1770925.5486403489
 30
0.0
  0
VERTEX
  5
634
  8
CIVIC_ACROPOLIS
 10
597394.15983082575
 20
1770925.654921571
 30
0.0
  0
VERTEX
  5
635
  8
CIVIC_ACROPOLIS
 10
597390.2692287548
 20
1770928.9859378729
 30
0.0
  0
VERTEX
  5
636
  8
CIVIC_ACROPOLIS
 10
597391.09046477382
 20
1770932.625163812
 30
0.0
  0
VERTEX
  5
637
  8
CIVIC_ACROPOLIS
 10
597388.63510910689
 20
1770935.0015425091
 30
0.0
  0
VERTEX
  5
638
  8
CIVIC_ACROPOLIS
 10
597385.63186360884
 20
1770934.9520414339
 30
0.0
  0
VERTEX
  5
639
  8
CIVIC_ACROPOLIS
 10
597383.19568442903
 20
1770936.815153413
 30
0.0
  0
VERTEX
  5
63A
  8
CIVIC_ACROPOLIS
 10
597383.3356289888
 20
1770940.2337933821
 30
0.0
  0
VERTEX
  5
63B
  8
CIVIC_ACROPOLIS
 10
597380.96737982181
 20
1770942.747284787
 30
0.0
  0
VERTEX
  5
63C
  8
CIVIC_ACROPOLIS
 10
597377.41995388514
 20
1770943.7776534359
 30
0.0
  0
VERTEX
  5
63D
  8
CIVIC_ACROPOLIS
 10
597359.72104527266
 20
1770961.124434154
 30
0.0
  0
VERTEX
  5
63E
  8
CIVIC_ACROPOLIS
 10
597351.25991282379
 20
1770953.221004264
 30
0.0
  0
VERTEX
  5
63F
  8
CIVIC_ACROPOLIS
 10
597344.65633731557
 20
1770950.923785036
 30
0.0
  0
VERTEX
  5
640
  8
CIVIC_ACROPOLIS
 10
597341.24622632598
 20
1770954.086529939
 30
0.0
  0
VERTEX
  5
641
  8
CIVIC_ACROPOLIS
 10
597338.96538039867
 20
1770960.8695163541
 30
0.0
  0
VERTEX
  5
642
  8
CIVIC_ACROPOLIS
 10
597340.47382439987
 20
1770966.3194564171
 30
0.0
  0
VERTEX
  5
643
  8
CIVIC_ACROPOLIS
 10
597337.862176936
 20
1770969.9591449811
 30
0.0
  0
VERTEX
  5
644
  8
CIVIC_ACROPOLIS
 10
597339.15061257302
 20
1770971.631473436
 30
0.0
  0
VERTEX
  5
645
  8
CIVIC_ACROPOLIS
 10
597339.63798880973
 20
1770976.268548575
 30
0.0
  0
VERTEX
  5
646
  8
CIVIC_ACROPOLIS
 10
597333.95542105299
 20
1770982.8765313451
 30
0.0
  0
VERTEX
  5
647
  8
CIVIC_ACROPOLIS
 10
597345.96583348385
 20
1770994.1164923289
 30
0.0
  0
VERTEX
  5
648
  8
CIVIC_ACROPOLIS
 10
597349.12897760118
 20
1770993.303167952
 30
0.0
  0
SEQEND
  5
649
  8
CIVIC_ACROPOLIS
  0
POLYLINE
  5
18D
  8
CIVIC_PYRAMID_ANNEX
 66
     1
 10
0.0
 20
0.0
 30
0.0
 70
     1
  0
VERTEX
  5
64A
  8
CIVIC_PYRAMID_ANNEX
 10
597359.3884797378
 20
1770997.3802817231
 30
0.0
  0
VERTEX
  5
64B
  8
CIVIC_PYRAMID_ANNEX
 10
597364.60069849866
 20
1771001.985482889
 30
0.0
  0
VERTEX
  5
64C
  8
CIVIC_PYRAMID_ANNEX
 10
597372.87553962448
 20
1770993.815582619
 30
0.0
  0
VERTEX
  5
64D
  8
CIVIC_PYRAMID_ANNEX
 10
597368.37421030726
 20
1770988.8134280699
 30
0.0
  0
SEQEND
  5
64E
  8
CIVIC_PYRAMID_ANNEX
  0
POLYLINE
  5
18E
  8
CIVIC_RANGE
 66
     1
 10
0.0
 20
0.0
 30
0.0
 70
     1
  0
VERTEX
  5
64F
  8
CIVIC_RANGE
 10
597355.39463977295
 20
1771013.663773899
 30
0.0
  0
VERTEX
  5
650
  8
CIVIC_RANGE
 10
597371.46243508905
 20
1771027.472174936
 30
0.0
  0
VERTEX
  5
651
  8
CIVIC_RANGE
 10
597375.55796685687
 20
1771023.3853613159
 30
0.0
  0
VERTEX
  5
652
  8
CIVIC_RANGE
 10
597359.86001012486
 20
1771008.8807411939
 30
0.0
  0
SEQEND
  5
653
  8
CIVIC_RANGE
  0
POLYLINE
  5
18F
  8
CIVIC_PYRAMIDS
 66
     1
 10
0.0
 20
0.0
 30
0.0
 70
     1
  0
VERTEX
  5
654
  8
CIVIC_PYRAMIDS
 10
597393.14086791745
 20
1771058.3709291869
 30
0.0
  0
VERTEX
  5
655
  8
CIVIC_PYRAMIDS
 10
597404.7502789686
 20
1771045.7011420759
 30
0.0
  0
VERTEX
  5
656
  8
CIVIC_PYRAMIDS
 10
597391.97711010301
 20
1771035.6584458901
 30
0.0
  0
VERTEX
  5
657
  8
CIVIC_PYRAMIDS
 10
597380.75305026455
 20
1771048.9310010041
 30
0.0
  0
SEQEND
  5
658
  8
CIVIC_PYRAMIDS
  0
POLYLINE
  5
190
  8
CIVIC_PYRAMID_ANNEX
 66
     1
 10
0.0
 20
0.0
 30
0.0
 70
     1
  0
VERTEX
  5
659
  8
CIVIC_PYRAMID_ANNEX
 10
597397.25403429091
 20
1771055.237124121
 30
0.0
  0
VERTEX
  5
65A
  8
CIVIC_PYRAMID_ANNEX
 10
597407.71159436775
 20
1771063.4648051111
 30
0.0
  0
VERTEX
  5
65B
  8
CIVIC_PYRAMID_ANNEX
 10
597414.62781401188
 20
1771055.147740914
 30
0.0
  0
VERTEX
  5
65C
  8
CIVIC_PYRAMID_ANNEX
 10
597404.28718271013
 20
1771047.4222832471
 30
0.0
  0
SEQEND
  5
65D
  8
CIVIC_PYRAMID_ANNEX
  0
POLYLINE
  5
191
  8
CIVIC_RANGE
 66
     1
 10
0.0
 20
0.0
 30
0.0
 70
     1
  0
VERTEX
  5
65E
  8
CIVIC_RANGE
 10
597509.79106109275
 20
1770979.1178813621
 30
0.0
  0
VERTEX
  5
65F
  8
CIVIC_RANGE
 10
597507.74784604274
 20
1770981.9206479271
 30
0.0
  0
VERTEX
  5
660
  8
CIVIC_RANGE
 10
597526.06913749164
 20
1770997.5430387179
 30
0.0
  0
VERTEX
  5
661
  8
CIVIC_RANGE
 10
597529.99393908773
 20
1770993.406357534
 30
0.0
  0
VERTEX
  5
662
  8
CIVIC_RANGE
 10
597523.40114822355
 20
1770988.986260856
 30
0.0
  0
VERTEX
  5
663
  8
CIVIC_RANGE
 10
597524.28661272826
 20
1770984.79030957
 30
0.0
  0
VERTEX
  5
664
  8
CIVIC_RANGE
 10
597520.76201471023
 20
1770981.3102382841
 30
0.0
  0
VERTEX
  5
665
  8
CIVIC_RANGE
 10
597516.41008664411
 20
1770983.787584414
 30
0.0
  0
SEQEND
  5
666
  8
CIVIC_RANGE
  0
POLYLINE
  5
192
  8
CIVIC_RANGE
 66
     1
 10
0.0
 20
0.0
 30
0.0
 70
     1
  0
VERTEX
  5
667
  8
CIVIC_RANGE
 10
597509.93968638754
 20
1771030.6318478431
 30
0.0
  0
VERTEX
  5
668
  8
CIVIC_RANGE
 10
597513.42715080141
 20
1771034.1410584031
 30
0.0
  0
VERTEX
  5
669
  8
CIVIC_RANGE
 10
597515.58985943801
 20
1771032.279907878
 30
0.0
  0
VERTEX
  5
66A
  8
CIVIC_RANGE
 10
597511.88319837884
 20
1771028.6014586701
 30
0.0
  0
SEQEND
  5
66B
  8
CIVIC_RANGE
  0
TEXT
  5
193
  8
CIVIC_ID
 10
597526.86132840707
 20
1771013.0871008979
 30
0.0
 40
0.9999999999999998
  1
RV242-C_X
 50
353.99999999979269
  0
TEXT
  5
194
  8
CIVIC_ID
 10
597471.22567287355
 20
1771108.1914104831
 30
0.0
 40
0.9999999999999998
  1
RV242-C_IXa
 50
353.99999999979269
  0
TEXT
  5
195
  8
CIVIC_ID
 10
597481.37169468659
 20
1771086.9810713939
 30
0.0
 40
0.9999999999999998
  1
RV242-C_IX
 50
353.99999999979269
  0
TEXT
  5
196
  8
CIVIC_ID
 10
597476.83229968871
 20
1771053.324181217
 30
0.0
 40
0.9999999999999998
  1
RV242-C_XIII
 50
353.99999999979269
  0
TEXT
  5
197
  8
CIVIC_ID
 10
597527.83829658851
 20
1771044.9219942151
 30
0.0
 40
0.9999999999999998
  1
RV242-C_VIIa
 50
353.99999999979269
  0
TEXT
  5
198
  8
CIVIC_ID
 10
597508.67365586245
 20
1771052.688799219
 30
0.0
 40
0.9999999999999998
  1
RV242-C_VII
 50
353.99999999979269
  0
TEXT
  5
199
  8
CIVIC_ID
 10
597542.63252155762
 20
1771043.065423745
 30
0.0
 40
0.9999999999999998
  1
RV242-C_VI
 50
353.99999999979269
  0
TEXT
  5
19A
  8
CIVIC_ID
 10
597567.20893621247
 20
1771049.17463875
 30
0.0
 40
0.9999999999999998
  1
RV242-C_V
 50
353.99999999979269
  0
TEXT
  5
19B
  8
CIVIC_ID
 10
597585.48187836725
 20
1771048.0669610959
 30
0.0
 40
0.9999999999999998
  1
RV242-C_IV
 50
353.99999999979269
  0
TEXT
  5
19C
  8
CIVIC_ID
 10
597558.605357414
 20
1771072.7001455219
 30
0.0
 40
0.9999999999999998
  1
RV242-C_III
 50
353.99999999979269
  0
TEXT
  5
19D
  8
CIVIC_ID
 10
597581.05694422068
 20
1771080.1602570361
 30
0.0
 40
0.9999999999999998
  1
RV242-C_II
 50
353.99999999979269
  0
TEXT
  5
19E
  8
CIVIC_ID
 10
597599.10478984821
 20
1771090.6015359459
 30
0.0
 40
0.9999999999999998
  1
RV242-C_I
 50
353.99999999979269
  0
POLYLINE
  5
19F
  8
CIVIC_PYRAMID_ANNEX
 66
     1
 10
0.0
 20
0.0
 30
0.0
 70
     1
  0
VERTEX
  5
66C
  8
CIVIC_PYRAMID_ANNEX
 10
597468.93857136881
 20
1771108.6249300609
 30
0.0
  0
VERTEX
  5
66D
  8
CIVIC_PYRAMID_ANNEX
 10
597471.77652783773
 20
1771111.1744106461
 30
0.0
  0
VERTEX
  5
66E
  8
CIVIC_PYRAMID_ANNEX
 10
597476.35279270797
 20
1771107.145397509
 30
0.0
  0
VERTEX
  5
66F
  8
CIVIC_PYRAMID_ANNEX
 10
597473.34700142138
 20
1771104.3335534851
 30
0.0
  0
SEQEND
  5
670
  8
CIVIC_PYRAMID_ANNEX
  0
POLYLINE
  5
1A0
  8
CIVIC_PYRAMID_ANNEX
 66
     1
 10
0.0
 20
0.0
 30
0.0
 70
     1
  0
VERTEX
  5
671
  8
CIVIC_PYRAMID_ANNEX
 10
597525.50642109918
 20
1771044.9051065971
 30
0.0
  0
VERTEX
  5
672
  8
CIVIC_PYRAMID_ANNEX
 10
597528.7090596729
 20
1771048.426227577
 30
0.0
  0
VERTEX
  5
673
  8
CIVIC_PYRAMID_ANNEX
 10
597532.34848925704
 20
1771045.382558119
 30
0.0
  0
VERTEX
  5
674
  8
CIVIC_PYRAMID_ANNEX
 10
597528.96155818854
 20
1771041.9266445581
 30
0.0
  0
SEQEND
  5
675
  8
CIVIC_PYRAMID_ANNEX
  0
POLYLINE
  5
1A1
  8
CIVIC_RANGE
 66
     1
 10
0.0
 20
0.0
 30
0.0
 70
     1
  0
VERTEX
  5
676
  8
CIVIC_RANGE
 10
597535.66375105223
 20
1771038.9169500989
 30
0.0
  0
VERTEX
  5
677
  8
CIVIC_RANGE
 10
597547.71771026403
 20
1771051.82840712
 30
0.0
  0
VERTEX
  5
678
  8
CIVIC_RANGE
 10
597551.44938289409
 20
1771048.6574444531
 30
0.0
  0
VERTEX
  5
679
  8
CIVIC_RANGE
 10
597538.79762916127
 20
1771036.1652175861
 30
0.0
  0
SEQEND
  5
67A
  8
CIVIC_RANGE
  0
POLYLINE
  5
1A2
  8
CIVIC_RANGE
 66
     1
 10
0.0
 20
0.0
 30
0.0
 70
     1
  0
VERTEX
  5
67B
  8
CIVIC_RANGE
 10
597587.64626683726
 20
1771053.276625948
 30
0.0
  0
VERTEX
  5
67C
  8
CIVIC_RANGE
 10
597581.1608763088
 20
1771046.688646869
 30
0.0
  0
VERTEX
  5
67D
  8
CIVIC_RANGE
 10
597583.92338726355
 20
1771044.0693383729
 30
0.0
  0
VERTEX
  5
67E
  8
CIVIC_RANGE
 10
597590.8279010012
 20
1771050.613094152
 30
0.0
  0
SEQEND
  5
67F
  8
CIVIC_RANGE
  0
POLYLINE
  5
1A3
  8
CIVIC_RANGE
 66
     1
 10
0.0
 20
0.0
 30
0.0
 70
     1
  0
VERTEX
  5
680
  8
CIVIC_RANGE
 10
597561.39840565925
 20
1771079.1146531501
 30
0.0
  0
VERTEX
  5
681
  8
CIVIC_RANGE
 10
597553.74397371628
 20
1771070.8145002909
 30
0.0
  0
VERTEX
  5
682
  8
CIVIC_RANGE
 10
597557.7791548752
 20
1771066.861413382
 30
0.0
  0
VERTEX
  5
683
  8
CIVIC_RANGE
 10
597566.34165528137
 20
1771075.0661243999
 30
0.0
  0
SEQEND
  5
684
  8
CIVIC_RANGE
  0
POLYLINE
  5
1A4
  8
CIVIC_PYRAMIDS
 66
     1
 10
0.0
 20
0.0
 30
0.0
 70
     1
  0
VERTEX
  5
685
  8
CIVIC_PYRAMIDS
 10
597567.98243836232
 20
1771083.2927487791
 30
0.0
  0
VERTEX
  5
686
  8
CIVIC_PYRAMIDS
 10
597578.6823848366
 20
1771094.0503514991
 30
0.0
  0
VERTEX
  5
687
  8
CIVIC_PYRAMIDS
 10
597580.99912601046
 20
1771092.0313787849
 30
0.0
  0
VERTEX
  5
688
  8
CIVIC_PYRAMIDS
 10
597585.9292954437
 20
1771097.317735028
 30
0.0
  0
VERTEX
  5
689
  8
CIVIC_PYRAMIDS
 10
597594.52369471453
 20
1771089.99528918
 30
0.0
  0
VERTEX
  5
68A
  8
CIVIC_PYRAMIDS
 10
597591.59265456104
 20
1771086.8205624849
 30
0.0
  0
VERTEX
  5
68B
  8
CIVIC_PYRAMIDS
 10
597605.22705825837
 20
1771072.82238929
 30
0.0
  0
VERTEX
  5
68C
  8
CIVIC_PYRAMIDS
 10
597591.86097407865
 20
1771059.1971574221
 30
0.0
  0
SEQEND
  5
68D
  8
CIVIC_PYRAMIDS
  0
POLYLINE
  5
1A5
  8
CIVIC_PLATFORM_HIGH
 66
     1
 10
0.0
 20
0.0
 30
0.0
 70
     1
  0
VERTEX
  5
68E
  8
CIVIC_PLATFORM_HIGH
 10
597593.06717598136
 20
1771092.0453954949
 30
0.0
  0
VERTEX
  5
68F
  8
CIVIC_PLATFORM_HIGH
 10
597600.53864733595
 20
1771098.7024393789
 30
0.0
  0
VERTEX
  5
690
  8
CIVIC_PLATFORM_HIGH
 10
597611.8950411015
 20
1771087.1487014841
 30
0.0
  0
VERTEX
  5
691
  8
CIVIC_PLATFORM_HIGH
 10
597604.41873865796
 20
1771080.4497613909
 30
0.0
  0
SEQEND
  5
692
  8
CIVIC_PLATFORM_HIGH
  0
POLYLINE
  5
1A6
  8
CIVIC_PYRAMID_ANNEX
 66
     1
 10
0.0
 20
0.0
 30
0.0
 70
     1
  0
VERTEX
  5
693
  8
CIVIC_PYRAMID_ANNEX
 10
597367.27577239706
 20
1771417.8571953659
 30
0.0
  0
VERTEX
  5
694
  8
CIVIC_PYRAMID_ANNEX
 10
597372.7152482518
 20
1771422.953328823
 30
0.0
  0
VERTEX
  5
695
  8
CIVIC_PYRAMID_ANNEX
 10
597380.35054614197
 20
1771415.0899275681
 30
0.0
  0
VERTEX
  5
696
  8
CIVIC_PYRAMID_ANNEX
 10
597374.82831070735
 20
1771409.6662262031
 30
0.0
  0
SEQEND
  5
697
  8
CIVIC_PYRAMID_ANNEX
  0
TEXT
  5
1A7
  8
CIVIC_ID
 10
597471.25776269985
 20
1771302.3887580279
 30
0.0
 40
0.9999999999999998
  1
RV242-A_VIII
 50
353.99999999979269
  0
TEXT
  5
1A8
  8
CIVIC_ID
 10
597262.22564061114
 20
1771417.051475751
 30
0.0
 40
0.9999999999999998
  1
RV242-A_VII
 50
353.99999999979269
  0
TEXT
  5
1A9
  8
CIVIC_ID
 10
597366.72775468288
 20
1771360.8293904981
 30
0.0
 40
0.9999999999999998
  1
RV242-A_VI
 50
353.99999999979269
  0
TEXT
  5
1AA
  8
CIVIC_ID
 10
597347.95924949297
 20
1771426.7156763689
 30
0.0
 40
0.9999999999999998
  1
RV242-A_V
 50
353.99999999979269
  0
TEXT
  5
1AB
  8
CIVIC_ID
 10
597336.52022912598
 20
1771435.040539772
 30
0.0
 40
0.9999999999999998
  1
RV242-A_IV
 50
353.99999999979269
  0
TEXT
  5
1AC
  8
CIVIC_ID
 10
597317.00896348897
 20
1771412.8095733209
 30
0.0
 40
0.9999999999999998
  1
RV242-A_III
 50
353.99999999979269
  0
TEXT
  5
1AD
  8
CIVIC_ID
 10
597373.25628983835
 20
1771416.124707917
 30
0.0
 40
0.9999999999999998
  1
RV242-A_IIa
 50
353.99999999979269
  0
TEXT
  5
1AE
  8
CIVIC_ID
 10
597365.05364682036
 20
1771401.2847119281
 30
0.0
 40
0.9999999999999998
  1
RV242-A_II
 50
353.99999999979269
  0
TEXT
  5
1AF
  8
CIVIC_ID
 10
597298.89570812357
 20
1771471.4060132441
 30
0.0
 40
0.9999999999999998
  1
RV242-A_I
 50
353.99999999979269
  0
TEXT
  5
1B0
  8
CIVIC_ID
 10
595750.33582111984
 20
1772782.6801188111
 30
0.0
 40
0.9999999999999998
  1
RV241-B_VII
 50
3.9999999999086309
  0
TEXT
  5
1B1
  8
CIVIC_ID
 10
595760.00422320794
 20
1772770.580259871
 30
0.0
 40
0.9999999999999998
  1
RV241-B_VI
 50
3.9999999999086309
  0
TEXT
  5
1B2
  8
CIVIC_ID
 10
595787.53756616451
 20
1772790.74796434
 30
0.0
 40
0.9999999999999998
  1
RV241-B_V
 50
3.9999999999086309
  0
TEXT
  5
1B3
  8
CIVIC_ID
 10
595804.25380873331
 20
1772802.381365607
 30
0.0
 40
0.9999999999999998
  1
RV241-B_IV
 50
3.9999999999086309
  0
TEXT
  5
1B4
  8
CIVIC_ID
 10
595787.74344022316
 20
1772840.2581368971
 30
0.0
 40
0.9999999999999998
  1
RV241-B_III
 50
3.9999999999086309
  0
TEXT
  5
1B5
  8
CIVIC_ID
 10
595596.75736276212
 20
1772661.828679991
 30
0.0
 40
0.9999999999999998
  1
RV241-A_II
 50
3.9999999999086309
  0
TEXT
  5
1B6
  8
CIVIC_ID
 10
595573.09177640534
 20
1772669.0729879751
 30
0.0
 40
0.9999999999999998
  1
RV241-A_I
 50
3.9999999999086309
  0
TEXT
  5
1B7
  8
CIVIC_ID
 10
594120.20444401156
 20
1770785.021246213
 30
0.0
 40
0.9999999999999998
  1
RV238-B_II
 50
3.0000000000251958
  0
TEXT
  5
1B8
  8
CIVIC_ID
 10
594062.22021878778
 20
1770648.5284336349
 30
0.0
 40
0.9999999999999998
  1
RV238-A_I
 50
3.0000000000251958
  0
TEXT
  5
1B9
  8
CIVIC_ID
 10
596919.49913881463
 20
1768722.360855472
 30
0.0
 40
1.0
  1
RV234-III
  0
TEXT
  5
1BA
  8
CIVIC_ID
 10
596958.67842875514
 20
1768689.291267724
 30
0.0
 40
1.0
  1
RV234-II
  0
TEXT
  5
1BB
  8
CIVIC_ID
 10
596955.76732547313
 20
1768725.6452786841
 30
0.0
 40
1.0
  1
RV234-I
  0
TEXT
  5
1BC
  8
CIVIC_ID
 10
599928.13762885507
 20
1770201.4987579109
 30
0.0
 40
0.9999999999999998
  1
RV233-VII
 50
4.9999999998730882
  0
TEXT
  5
1BD
  8
CIVIC_ID
 10
599941.49775127636
 20
1770384.1090271
 30
0.0
 40
0.9999999999999998
  1
RV233-VI
 50
4.9999999998730882
  0
TEXT
  5
1BE
  8
CIVIC_ID
 10
599876.43025539746
 20
1770230.911548187
 30
0.0
 40
0.9999999999999998
  1
RV233-V
 50
4.9999999998730882
  0
TEXT
  5
1BF
  8
CIVIC_ID
 10
599779.06046690955
 20
1770157.5325460739
 30
0.0
 40
0.9999999999999998
  1
RV233-IV
 50
4.9999999998730882
  0
TEXT
  5
1C0
  8
CIVIC_ID
 10
599848.98987865762
 20
1770251.1386779901
 30
0.0
 40
0.9999999999999998
  1
RV233-III
 50
4.9999999998730882
  0
TEXT
  5
1C1
  8
CIVIC_ID
 10
599798.78339386964
 20
1770280.4528895461
 30
0.0
 40
0.9999999999999998
  1
RV233-II
 50
4.9999999998730882
  0
TEXT
  5
1C2
  8
CIVIC_ID
 10
599914.68419923354
 20
1770240.558987546
 30
0.0
 40
0.9999999999999998
  1
RV233-I
 50
4.9999999998730882
  0
TEXT
  5
1C3
  8
CIVIC_ID
 10
594858.00030930096
 20
1770978.8024965781
 30
0.0
 40
1.0
  1
RV232-C_III
 50
4.9999999998730882
  0
TEXT
  5
1C4
  8
CIVIC_ID
 10
595328.08406692476
 20
1770822.772321861
 30
0.0
 40
1.0
  1
RV232-B_II
 50
4.9999999998730882
  0
TEXT
  5
1C5
  8
CIVIC_ID
 10
595142.99487398681
 20
1770902.5354714319
 30
0.0
 40
1.0
  1
RV232-A_I
 50
4.9999999998730882
  0
TEXT
  5
1C6
  8
CIVIC_ID
 10
594829.37487121858
 20
1770633.0431785521
 30
0.0
 40
1.0
  1
RV227-CC_XIV
  0
TEXT
  5
1C7
  8
CIVIC_ID
 10
594784.55632820295
 20
1770630.741449916
 30
0.0
 40
1.0
  1
RV227-CC_XV
  0
TEXT
  5
1C8
  8
CIVIC_ID
 10
594800.50452599151
 20
1770588.8296572349
 30
0.0
 40
1.0
  1
RV227-CC_XI
  0
POLYLINE
  5
1C9
  8
CIVIC_PLATFORM_HIGH
 66
     1
 10
0.0
 20
0.0
 30
0.0
 70
     1
  0
VERTEX
  5
698
  8
CIVIC_PLATFORM_HIGH
 10
594803.95309710235
 20
1770624.860484601
 30
0.0
  0
VERTEX
  5
699
  8
CIVIC_PLATFORM_HIGH
 10
594789.91283217259
 20
1770604.2832349541
 30
0.0
  0
VERTEX
  5
69A
  8
CIVIC_PLATFORM_HIGH
 10
594759.75821356894
 20
1770629.138964409
 30
0.0
  0
VERTEX
  5
69B
  8
CIVIC_PLATFORM_HIGH
 10
594785.21337652125
 20
1770662.2146960991
 30
0.0
  0
VERTEX
  5
69C
  8
CIVIC_PLATFORM_HIGH
 10
594807.1440216772
 20
1770645.5789688809
 30
0.0
  0
VERTEX
  5
69D
  8
CIVIC_PLATFORM_HIGH
 10
594803.61945458583
 20
1770640.881821593
 30
0.0
  0
VERTEX
  5
69E
  8
CIVIC_PLATFORM_HIGH
 10
594810.90583400195
 20
1770633.9591791809
 30
0.0
  0
SEQEND
  5
69F
  8
CIVIC_PLATFORM_HIGH
  0
TEXT
  5
1CA
  8
CIVIC_ID
 10
594474.10931150382
 20
1770395.800453637
 30
0.0
 40
1.0
  1
RV227-CCC_IIb
  0
POLYLINE
  5
1CB
  8
CIVIC_PYRAMID_ANNEX
 66
     1
 10
0.0
 20
0.0
 30
0.0
 70
     1
  0
VERTEX
  5
6A0
  8
CIVIC_PYRAMID_ANNEX
 10
594453.94878019113
 20
1770399.7994674321
 30
0.0
  0
VERTEX
  5
6A1
  8
CIVIC_PYRAMID_ANNEX
 10
594458.57690649177
 20
1770396.1750653069
 30
0.0
  0
VERTEX
  5
6A2
  8
CIVIC_PYRAMID_ANNEX
 10
594465.49526198208
 20
1770404.949946386
 30
0.0
  0
VERTEX
  5
6A3
  8
CIVIC_PYRAMID_ANNEX
 10
594460.80906658992
 20
1770408.3786036931
 30
0.0
  0
SEQEND
  5
6A4
  8
CIVIC_PYRAMID_ANNEX
  0
POLYLINE
  5
1CC
  8
CIVIC_PYRAMIDS
 66
     1
 10
0.0
 20
0.0
 30
0.0
 70
     1
  0
VERTEX
  5
6A5
  8
CIVIC_PYRAMIDS
 10
594456.90214194066
 20
1770393.4756004449
 30
0.0
  0
VERTEX
  5
6A6
  8
CIVIC_PYRAMIDS
 10
594465.59064711945
 20
1770404.8545569291
 30
0.0
  0
VERTEX
  5
6A7
  8
CIVIC_PYRAMIDS
 10
594471.84101088007
 20
1770399.7517727029
 30
0.0
  0
VERTEX
  5
6A8
  8
CIVIC_PYRAMIDS
 10
594463.38256970351
 20
1770388.3691107701
 30
0.0
  0
SEQEND
  5
6A9
  8
CIVIC_PYRAMIDS
  0
TEXT
  5
1CD
  8
CIVIC_ID
 10
595162.1341014069
 20
1769419.4344153949
 30
0.0
 40
0.9999999999999998
  1
RV230-IV
 50
6.0000000002072671
  0
TEXT
  5
1CE
  8
CIVIC_ID
 10
595136.37034418876
 20
1769469.0116691911
 30
0.0
 40
0.9999999999999998
  1
RV230-III
 50
6.0000000002072671
  0
TEXT
  5
1CF
  8
CIVIC_ID
 10
595035.41035919788
 20
1769507.7252713479
 30
0.0
 40
0.9999999999999998
  1
RV230-II
 50
6.0000000002072671
  0
TEXT
  5
1D0
  8
CIVIC_ID
 10
595098.32488731609
 20
1769494.764899933
 30
0.0
 40
0.9999999999999998
  1
RV230-I
 50
6.0000000002072671
  0
TEXT
  5
1D1
  8
CIVIC_ID
 10
595271.01776455448
 20
1768055.781946179
 30
0.0
 40
1.0
  1
RV219-EX_IX
  0
TEXT
  5
1D2
  8
CIVIC_ID
 10
594722.86671225436
 20
1770569.787280652
 30
0.0
 40
1.0
  1
RV227-CC_XVIb
  0
TEXT
  5
1D3
  8
CIVIC_ID
 10
594736.9315377383
 20
1770581.969604427
 30
0.0
 40
1.0
  1
RV227-CC_XVIa
  0
TEXT
  5
1D4
  8
CIVIC_ID
 10
594738.33828722185
 20
1770621.3279075029
 30
0.0
 40
1.0
  1
RV227-CC_XVII
  0
TEXT
  5
1D5
  8
CIVIC_ID
 10
594698.63851262012
 20
1770726.0244903511
 30
0.0
 40
1.0
  1
RV227-EX_X
  0
TEXT
  5
1D6
  8
CIVIC_ID
 10
594571.10631863738
 20
1770300.9183821571
 30
0.0
 40
1.0
  1
RV227-CCC_IX
  0
TEXT
  5
1D7
  8
CIVIC_ID
 10
594536.23426115816
 20
1770209.452268695
 30
0.0
 40
1.0
  1
RV227-CCC_VIII
  0
TEXT
  5
1D8
  8
CIVIC_ID
 10
594503.55641255074
 20
1770282.4459895659
 30
0.0
 40
1.0
  1
RV227-CCC_VII
  0
TEXT
  5
1D9
  8
CIVIC_ID
 10
594456.15631473786
 20
1770318.151405307
 30
0.0
 40
1.0
  1
RV227-CCC_VI
  0
TEXT
  5
1DA
  8
CIVIC_ID
 10
594549.36481279111
 20
1770298.707868844
 30
0.0
 40
1.0
  1
RV227-CCC_V
  0
TEXT
  5
1DB
  8
CIVIC_ID
 10
594502.29609619314
 20
1770339.6668178081
 30
0.0
 40
1.0
  1
RV227-CCC_IV
  0
TEXT
  5
1DC
  8
CIVIC_ID
 10
594454.78121616424
 20
1770369.455221934
 30
0.0
 40
1.0
  1
RV227-CCC_III
  0
TEXT
  5
1DD
  8
CIVIC_ID
 10
594465.20694966544
 20
1770398.085697484
 30
0.0
 40
1.0
  1
RV227-CCC_II
  0
TEXT
  5
1DE
  8
CIVIC_ID
 10
594499.52683223225
 20
1770425.7672247831
 30
0.0
 40
1.0
  1
RV227-CCC_I
  0
TEXT
  5
1DF
  8
CIVIC_ID
 10
595159.35925959598
 20
1768286.4020606361
 30
0.0
 40
1.0
  1
RV219-CC_VIII
  0
TEXT
  5
1E0
  8
CIVIC_ID
 10
595062.39858534385
 20
1768338.3781930381
 30
0.0
 40
1.0
  1
RV219-CC_VII
  0
TEXT
  5
1E1
  8
CIVIC_ID
 10
595112.99896190618
 20
1768327.7852399631
 30
0.0
 40
1.0
  1
RV219-CC_VI
  0
TEXT
  5
1E2
  8
CIVIC_ID
 10
595107.44274166285
 20
1768275.319312932
 30
0.0
 40
1.0
  1
RV219-CC_V
  0
TEXT
  5
1E3
  8
CIVIC_ID
 10
595184.45955105464
 20
1768234.301521942
 30
0.0
 40
1.0
  1
RV219-CC_IV
  0
TEXT
  5
1E4
  8
CIVIC_ID
 10
595150.46477473387
 20
1768208.084109213
 30
0.0
 40
1.0
  1
RV219-CC_III
  0
TEXT
  5
1E5
  8
CIVIC_ID
 10
595118.29610979569
 20
1768234.1287281311
 30
0.0
 40
1.0
  1
RV219-CC_IIb
  0
TEXT
  5
1E6
  8
CIVIC_ID
 10
595129.46725544962
 20
1768247.009189616
 30
0.0
 40
1.0
  1
RV219-CC_IIa
  0
TEXT
  5
1E7
  8
CIVIC_ID
 10
595420.63870406605
 20
1768159.5005557309
 30
0.0
 40
1.0
  1
RV219-EX_I
  0
POLYLINE
  5
1E8
  8
CIVIC_PYRAMIDS
 66
     1
 10
0.0
 20
0.0
 30
0.0
 70
     1
  0
VERTEX
  5
6AA
  8
CIVIC_PYRAMIDS
 10
609994.62100375385
 20
1763798.728822496
 30
0.0
  0
VERTEX
  5
6AB
  8
CIVIC_PYRAMIDS
 10
609986.85299102531
 20
1763808.6000395371
 30
0.0
  0
VERTEX
  5
6AC
  8
CIVIC_PYRAMIDS
 10
609996.40009510028
 20
1763816.231220318
 30
0.0
  0
VERTEX
  5
6AD
  8
CIVIC_PYRAMIDS
 10
610003.9839770206
 20
1763805.9426722859
 30
0.0
  0
SEQEND
  5
6AE
  8
CIVIC_PYRAMIDS
  0
POLYLINE
  5
1E9
  8
CIVIC_PYRAMIDS
 66
     1
 10
0.0
 20
0.0
 30
0.0
 70
     1
  0
VERTEX
  5
6AF
  8
CIVIC_PYRAMIDS
 10
609964.76629721816
 20
1763798.643870662
 30
0.0
  0
VERTEX
  5
6B0
  8
CIVIC_PYRAMIDS
 10
609959.87972218916
 20
1763805.4552199901
 30
0.0
  0
VERTEX
  5
6B1
  8
CIVIC_PYRAMIDS
 10
609967.90288300195
 20
1763811.4149339921
 30
0.0
  0
VERTEX
  5
6B2
  8
CIVIC_PYRAMIDS
 10
609972.99575334648
 20
1763804.523664515
 30
0.0
  0
SEQEND
  5
6B3
  8
CIVIC_PYRAMIDS
  0
POLYLINE
  5
1EA
  8
CIVIC_PLATFORM_HIGH
 66
     1
 10
0.0
 20
0.0
 30
0.0
 70
     1
  0
VERTEX
  5
6B4
  8
CIVIC_PLATFORM_HIGH
 10
610118.50769133354
 20
1761387.4083238191
 30
0.0
  0
VERTEX
  5
6B5
  8
CIVIC_PLATFORM_HIGH
 10
610110.97862599604
 20
1761393.7168521441
 30
0.0
  0
VERTEX
  5
6B6
  8
CIVIC_PLATFORM_HIGH
 10
610119.87641290121
 20
1761404.1879213301
 30
0.0
  0
VERTEX
  5
6B7
  8
CIVIC_PLATFORM_HIGH
 10
610127.31125984062
 20
1761397.937510191
 30
0.0
  0
SEQEND
  5
6B8
  8
CIVIC_PLATFORM_HIGH
  0
POLYLINE
  5
1EB
  8
CIVIC_RANGE
 66
     1
 10
0.0
 20
0.0
 30
0.0
 70
     1
  0
VERTEX
  5
6B9
  8
CIVIC_RANGE
 10
610513.97767732001
 20
1760375.8091791449
 30
0.0
  0
VERTEX
  5
6BA
  8
CIVIC_RANGE
 10
610510.86271884444
 20
1760379.115144968
 30
0.0
  0
VERTEX
  5
6BB
  8
CIVIC_RANGE
 10
610518.9459235383
 20
1760386.2269018339
 30
0.0
  0
VERTEX
  5
6BC
  8
CIVIC_RANGE
 10
610521.89143774984
 20
1760382.998217789
 30
0.0
  0
SEQEND
  5
6BD
  8
CIVIC_RANGE
  0
POLYLINE
  5
1EC
  8
CIVIC_RANGE
 66
     1
 10
0.0
 20
0.0
 30
0.0
 70
     1
  0
VERTEX
  5
6BE
  8
CIVIC_RANGE
 10
610502.47001097945
 20
1760370.6799143101
 30
0.0
  0
VERTEX
  5
6BF
  8
CIVIC_RANGE
 10
610498.7923366758
 20
1760373.8728233881
 30
0.0
  0
VERTEX
  5
6C0
  8
CIVIC_RANGE
 10
610504.94040409115
 20
1760380.6742941961
 30
0.0
  0
VERTEX
  5
6C1
  8
CIVIC_RANGE
 10
610508.69347527623
 20
1760377.186345635
 30
0.0
  0
SEQEND
  5
6C2
  8
CIVIC_RANGE
  0
POLYLINE
  5
1ED
  8
CIVIC_BALL_COURTS
 66
     1
 10
0.0
 20
0.0
 30
0.0
 70
     1
  0
VERTEX
  5
6C3
  8
CIVIC_BALL_COURTS
 10
610490.22322784865
 20
1760371.3151453789
 30
0.0
  0
VERTEX
  5
6C4
  8
CIVIC_BALL_COURTS
 10
610475.03825762705
 20
1760383.8607691471
 30
0.0
  0
VERTEX
  5
6C5
  8
CIVIC_BALL_COURTS
 10
610480.43042151711
 20
1760389.2960652851
 30
0.0
  0
VERTEX
  5
6C6
  8
CIVIC_BALL_COURTS
 10
610495.51488221262
 20
1760377.2466375709
 30
0.0
  0
SEQEND
  5
6C7
  8
CIVIC_BALL_COURTS
  0
POLYLINE
  5
1EE
  8
CIVIC_BALL_COURTS
 66
     1
 10
0.0
 20
0.0
 30
0.0
 70
     1
  0
VERTEX
  5
6C8
  8
CIVIC_BALL_COURTS
 10
610498.89631499955
 20
1760380.6128937339
 30
0.0
  0
VERTEX
  5
6C9
  8
CIVIC_BALL_COURTS
 10
610483.28975073097
 20
1760393.3103637551
 30
0.0
  0
VERTEX
  5
6CA
  8
CIVIC_BALL_COURTS
 10
610489.5828052751
 20
1760399.193455871
 30
0.0
  0
VERTEX
  5
6CB
  8
CIVIC_BALL_COURTS
 10
610504.10779648868
 20
1760386.458216487
 30
0.0
  0
SEQEND
  5
6CC
  8
CIVIC_BALL_COURTS
  0
POLYLINE
  5
1EF
  8
CIVIC_PLATFORM_HIGH
 66
     1
 10
0.0
 20
0.0
 30
0.0
 70
     1
  0
VERTEX
  5
6CD
  8
CIVIC_PLATFORM_HIGH
 10
610494.17881740548
 20
1760397.7834234119
 30
0.0
  0
VERTEX
  5
6CE
  8
CIVIC_PLATFORM_HIGH
 10
610487.82492255338
 20
1760404.9817853631
 30
0.0
  0
VERTEX
  5
6CF
  8
CIVIC_PLATFORM_HIGH
 10
610493.56033978285
 20
1760409.5209226829
 30
0.0
  0
VERTEX
  5
6D0
  8
CIVIC_PLATFORM_HIGH
 10
610499.77382516395
 20
1760402.1945111279
 30
0.0
  0
SEQEND
  5
6D1
  8
CIVIC_PLATFORM_HIGH
  0
POLYLINE
  5
1F0
  8
CIVIC_PYRAMIDS
 66
     1
 10
0.0
 20
0.0
 30
0.0
 70
     1
  0
VERTEX
  5
6D2
  8
CIVIC_PYRAMIDS
 10
610521.99814610207
 20
1760402.396855057
 30
0.0
  0
VERTEX
  5
6D3
  8
CIVIC_PYRAMIDS
 10
610514.91274528136
 20
1760408.7467414869
 30
0.0
  0
VERTEX
  5
6D4
  8
CIVIC_PYRAMIDS
 10
610524.71867351164
 20
1760418.9852285839
 30
0.0
  0
VERTEX
  5
6D5
  8
CIVIC_PYRAMIDS
 10
610531.67681834626
 20
1760412.4988392419
 30
0.0
  0
SEQEND
  5
6D6
  8
CIVIC_PYRAMIDS
  0
POLYLINE
  5
1F1
  8
CIVIC_RANGE
 66
     1
 10
0.0
 20
0.0
 30
0.0
 70
     1
  0
VERTEX
  5
6D7
  8
CIVIC_RANGE
 10
610545.22238566994
 20
1760447.937608408
 30
0.0
  0
VERTEX
  5
6D8
  8
CIVIC_RANGE
 10
610540.1927635927
 20
1760452.1163306821
 30
0.0
  0
VERTEX
  5
6D9
  8
CIVIC_RANGE
 10
610548.96719516371
 20
1760461.658843623
 30
0.0
  0
VERTEX
  5
6DA
  8
CIVIC_RANGE
 10
610553.60122536612
 20
1760457.466477816
 30
0.0
  0
SEQEND
  5
6DB
  8
CIVIC_RANGE
  0
POLYLINE
  5
1F2
  8
CIVIC_PYRAMIDS
 66
     1
 10
0.0
 20
0.0
 30
0.0
 70
     1
  0
VERTEX
  5
6DC
  8
CIVIC_PYRAMIDS
 10
610485.62530247774
 20
1760408.608609064
 30
0.0
  0
VERTEX
  5
6DD
  8
CIVIC_PYRAMIDS
 10
610473.05803228356
 20
1760419.804819884
 30
0.0
  0
VERTEX
  5
6DE
  8
CIVIC_PYRAMIDS
 10
610483.55795231892
 20
1760430.200076852
 30
0.0
  0
VERTEX
  5
6DF
  8
CIVIC_PYRAMIDS
 10
610496.16541373974
 20
1760418.9550791001
 30
0.0
  0
SEQEND
  5
6E0
  8
CIVIC_PYRAMIDS
  0
POLYLINE
  5
1F3
  8
CIVIC_PYRAMIDS
 66
     1
 10
0.0
 20
0.0
 30
0.0
 70
     1
  0
VERTEX
  5
6E1
  8
CIVIC_PYRAMIDS
 10
610518.36245946621
 20
1760429.954111971
 30
0.0
  0
VERTEX
  5
6E2
  8
CIVIC_PYRAMIDS
 10
610507.25268252904
 20
1760439.9554234061
 30
0.0
  0
VERTEX
  5
6E3
  8
CIVIC_PYRAMIDS
 10
610519.41084567388
 20
1760452.8529973689
 30
0.0
  0
VERTEX
  5
6E4
  8
CIVIC_PYRAMIDS
 10
610530.53880813986
 20
1760442.606827274
 30
0.0
  0
SEQEND
  5
6E5
  8
CIVIC_PYRAMIDS
  0
POLYLINE
  5
1F4
  8
CIVIC_PYRAMIDS
 66
     1
 10
0.0
 20
0.0
 30
0.0
 70
     1
  0
VERTEX
  5
6E6
  8
CIVIC_PYRAMIDS
 10
610503.67848074157
 20
1760442.7649510531
 30
0.0
  0
VERTEX
  5
6E7
  8
CIVIC_PYRAMIDS
 10
610490.69753323414
 20
1760453.8046738419
 30
0.0
  0
VERTEX
  5
6E8
  8
CIVIC_PYRAMIDS
 10
610504.76625813544
 20
1760467.7564571211
 30
0.0
  0
VERTEX
  5
6E9
  8
CIVIC_PYRAMIDS
 10
610517.30693281023
 20
1760456.6975632389
 30
0.0
  0
SEQEND
  5
6EA
  8
CIVIC_PYRAMIDS
  0
POLYLINE
  5
1F5
  8
CIVIC_PYRAMIDS
 66
     1
 10
0.0
 20
0.0
 30
0.0
 70
     1
  0
VERTEX
  5
6EB
  8
CIVIC_PYRAMIDS
 10
610472.78663072479
 20
1760445.5416926991
 30
0.0
  0
VERTEX
  5
6EC
  8
CIVIC_PYRAMIDS
 10
610466.10159536451
 20
1760452.795634683
 30
0.0
  0
VERTEX
  5
6ED
  8
CIVIC_PYRAMIDS
 10
610477.81249755505
 20
1760462.482547147
 30
0.0
  0
VERTEX
  5
6EE
  8
CIVIC_PYRAMIDS
 10
610484.16355530999
 20
1760455.4610722431
 30
0.0
  0
SEQEND
  5
6EF
  8
CIVIC_PYRAMIDS
  0
POLYLINE
  5
1F6
  8
CIVIC_PYRAMIDS
 66
     1
 10
0.0
 20
0.0
 30
0.0
 70
     1
  0
VERTEX
  5
6F0
  8
CIVIC_PYRAMIDS
 10
610435.43793838134
 20
1760416.2795418049
 30
0.0
  0
VERTEX
  5
6F1
  8
CIVIC_PYRAMIDS
 10
610425.25632403512
 20
1760424.3714992939
 30
0.0
  0
VERTEX
  5
6F2
  8
CIVIC_PYRAMIDS
 10
610437.92374337395
 20
1760437.283952601
 30
0.0
  0
VERTEX
  5
6F3
  8
CIVIC_PYRAMIDS
 10
610447.29318997555
 20
1760429.4050299909
 30
0.0
  0
SEQEND
  5
6F4
  8
CIVIC_PYRAMIDS
  0
POLYLINE
  5
1F7
  8
CIVIC_RANGE
 66
     1
 10
0.0
 20
0.0
 30
0.0
 70
     1
  0
VERTEX
  5
6F5
  8
CIVIC_RANGE
 10
610417.4579940323
 20
1760444.876008325
 30
0.0
  0
VERTEX
  5
6F6
  8
CIVIC_RANGE
 10
610409.74271882814
 20
1760450.622190109
 30
0.0
  0
VERTEX
  5
6F7
  8
CIVIC_RANGE
 10
610413.17132564471
 20
1760454.232856743
 30
0.0
  0
VERTEX
  5
6F8
  8
CIVIC_RANGE
 10
610420.8575252071
 20
1760448.4233031489
 30
0.0
  0
SEQEND
  5
6F9
  8
CIVIC_RANGE
  0
POLYLINE
  5
1F8
  8
CIVIC_RANGE
 66
     1
 10
0.0
 20
0.0
 30
0.0
 70
     1
  0
VERTEX
  5
6FA
  8
CIVIC_RANGE
 10
610433.14533216867
 20
1760483.471858422
 30
0.0
  0
VERTEX
  5
6FB
  8
CIVIC_RANGE
 10
610427.50374817476
 20
1760488.347762008
 30
0.0
  0
VERTEX
  5
6FC
  8
CIVIC_RANGE
 10
610436.1684518198
 20
1760496.8147661521
 30
0.0
  0
VERTEX
  5
6FD
  8
CIVIC_RANGE
 10
610442.21706196829
 20
1760491.6359978749
 30
0.0
  0
SEQEND
  5
6FE
  8
CIVIC_RANGE
  0
POLYLINE
  5
1F9
  8
CIVIC_PYRAMIDS
 66
     1
 10
0.0
 20
0.0
 30
0.0
 70
     1
  0
VERTEX
  5
6FF
  8
CIVIC_PYRAMIDS
 10
611461.22253811092
 20
1759169.1145668779
 30
0.0
  0
VERTEX
  5
700
  8
CIVIC_PYRAMIDS
 10
611454.70117488666
 20
1759174.5224936439
 30
0.0
  0
VERTEX
  5
701
  8
CIVIC_PYRAMIDS
 10
611461.1219490259
 20
1759180.845686889
 30
0.0
  0
VERTEX
  5
702
  8
CIVIC_PYRAMIDS
 10
611466.80036138324
 20
1759175.2538846021
 30
0.0
  0
SEQEND
  5
703
  8
CIVIC_PYRAMIDS
  0
POLYLINE
  5
1FA
  8
CIVIC_RANGE
 66
     1
 10
0.0
 20
0.0
 30
0.0
 70
     1
  0
VERTEX
  5
704
  8
CIVIC_RANGE
 10
611391.62458835065
 20
1759502.417344017
 30
0.0
  0
VERTEX
  5
705
  8
CIVIC_RANGE
 10
611381.09046727512
 20
1759519.401836691
 30
0.0
  0
VERTEX
  5
706
  8
CIVIC_RANGE
 10
611386.19349820726
 20
1759522.1791926229
 30
0.0
  0
VERTEX
  5
707
  8
CIVIC_RANGE
 10
611396.80650952167
 20
1759505.1209187021
 30
0.0
  0
SEQEND
  5
708
  8
CIVIC_RANGE
  0
POLYLINE
  5
1FB
  8
CIVIC_RANGE
 66
     1
 10
0.0
 20
0.0
 30
0.0
 70
     1
  0
VERTEX
  5
709
  8
CIVIC_RANGE
 10
596959.82871854119
 20
1768717.882330918
 30
0.0
  0
VERTEX
  5
70A
  8
CIVIC_RANGE
 10
596948.74136661913
 20
1768728.9659713551
 30
0.0
  0
VERTEX
  5
70B
  8
CIVIC_RANGE
 10
596952.17301167315
 20
1768732.132774547
 30
0.0
  0
VERTEX
  5
70C
  8
CIVIC_RANGE
 10
596962.86453655164
 20
1768720.917155521
 30
0.0
  0
SEQEND
  5
70D
  8
CIVIC_RANGE
  0
POLYLINE
  5
1FC
  8
CIVIC_PYRAMIDS
 66
     1
 10
0.0
 20
0.0
 30
0.0
 70
     1
  0
VERTEX
  5
70E
  8
CIVIC_PYRAMIDS
 10
596921.19401612913
 20
1768713.479572997
 30
0.0
  0
VERTEX
  5
70F
  8
CIVIC_PYRAMIDS
 10
596912.04537778138
 20
1768721.4817780231
 30
0.0
  0
VERTEX
  5
710
  8
CIVIC_PYRAMIDS
 10
596921.43921534787
 20
1768732.5054902779
 30
0.0
  0
VERTEX
  5
711
  8
CIVIC_PYRAMIDS
 10
596930.50624773488
 20
1768724.0132741909
 30
0.0
  0
SEQEND
  5
712
  8
CIVIC_PYRAMIDS
  0
POLYLINE
  5
1FD
  8
CIVIC_PLATFORM_HIGH
 66
     1
 10
0.0
 20
0.0
 30
0.0
 70
     1
  0
VERTEX
  5
713
  8
CIVIC_PLATFORM_HIGH
 10
596957.08462277392
 20
1768680.728223939
 30
0.0
  0
VERTEX
  5
714
  8
CIVIC_PLATFORM_HIGH
 10
596949.40107835864
 20
1768689.1369503359
 30
0.0
  0
VERTEX
  5
715
  8
CIVIC_PLATFORM_HIGH
 10
596962.34210586781
 20
1768701.1032936249
 30
0.0
  0
VERTEX
  5
716
  8
CIVIC_PLATFORM_HIGH
 10
596969.78312041808
 20
1768692.2902654191
 30
0.0
  0
SEQEND
  5
717
  8
CIVIC_PLATFORM_HIGH
  0
POLYLINE
  5
1FE
  8
CIVIC_NLTC
 66
     1
 10
0.0
 20
0.0
 30
0.0
 70
     1
  0
VERTEX
  5
718
  8
CIVIC_NLTC
 10
599941.07101078017
 20
1770378.371872498
 30
0.0
  0
VERTEX
  5
719
  8
CIVIC_NLTC
 10
599935.69959471514
 20
1770382.5554544961
 30
0.0
  0
VERTEX
  5
71A
  8
CIVIC_NLTC
 10
599941.16708575457
 20
1770389.28842229
 30
0.0
  0
VERTEX
  5
71B
  8
CIVIC_NLTC
 10
599946.85842244781
 20
1770384.8827750031
 30
0.0
  0
SEQEND
  5
71C
  8
CIVIC_NLTC
  0
POLYLINE
  5
1FF
  8
CIVIC_NLTC
 66
     1
 10
0.0
 20
0.0
 30
0.0
 70
     1
  0
VERTEX
  5
71D
  8
CIVIC_NLTC
 10
599798.58994643833
 20
1770267.1615175889
 30
0.0
  0
VERTEX
  5
71E
  8
CIVIC_NLTC
 10
599783.89571245667
 20
1770279.342045089
 30
0.0
  0
VERTEX
  5
71F
  8
CIVIC_NLTC
 10
599796.42175466812
 20
1770293.746704225
 30
0.0
  0
VERTEX
  5
720
  8
CIVIC_NLTC
 10
599810.64684535062
 20
1770281.5249606171
 30
0.0
  0
SEQEND
  5
721
  8
CIVIC_NLTC
  0
POLYLINE
  5
200
  8
CIVIC_NLTC
 66
     1
 10
0.0
 20
0.0
 30
0.0
 70
     1
  0
VERTEX
  5
722
  8
CIVIC_NLTC
 10
599851.17777559184
 20
1770238.1472214139
 30
0.0
  0
VERTEX
  5
723
  8
CIVIC_NLTC
 10
599836.52378987672
 20
1770250.510884536
 30
0.0
  0
VERTEX
  5
724
  8
CIVIC_NLTC
 10
599849.30969318689
 20
1770265.7431154151
 30
0.0
  0
VERTEX
  5
725
  8
CIVIC_NLTC
 10
599863.97722023388
 20
1770253.2246741599
 30
0.0
  0
SEQEND
  5
726
  8
CIVIC_NLTC
  0
POLYLINE
  5
201
  8
CIVIC_NLTC
 66
     1
 10
0.0
 20
0.0
 30
0.0
 70
     1
  0
VERTEX
  5
727
  8
CIVIC_NLTC
 10
599875.86785016395
 20
1770228.320978425
 30
0.0
  0
VERTEX
  5
728
  8
CIVIC_NLTC
 10
599873.06477188691
 20
1770230.244824134
 30
0.0
  0
VERTEX
  5
729
  8
CIVIC_NLTC
 10
599876.72753669624
 20
1770234.4384661471
 30
0.0
  0
VERTEX
  5
72A
  8
CIVIC_NLTC
 10
599879.3332749136
 20
1770232.1100191199
 30
0.0
  0
SEQEND
  5
72B
  8
CIVIC_NLTC
  0
POLYLINE
  5
202
  8
CIVIC_NLTC
 66
     1
 10
0.0
 20
0.0
 30
0.0
 70
     1
  0
VERTEX
  5
72C
  8
CIVIC_NLTC
 10
599916.65551903984
 20
1770226.234669856
 30
0.0
  0
VERTEX
  5
72D
  8
CIVIC_NLTC
 10
599899.86667823885
 20
1770240.103668551
 30
0.0
  0
VERTEX
  5
72E
  8
CIVIC_NLTC
 10
599912.32427750574
 20
1770255.3693902991
 30
0.0
  0
VERTEX
  5
72F
  8
CIVIC_NLTC
 10
599929.01658331533
 20
1770241.7243476671
 30
0.0
  0
SEQEND
  5
730
  8
CIVIC_NLTC
  0
POLYLINE
  5
203
  8
CIVIC_NLTC
 66
     1
 10
0.0
 20
0.0
 30
0.0
 70
     1
  0
VERTEX
  5
731
  8
CIVIC_NLTC
 10
599928.53078723175
 20
1770196.6893069891
 30
0.0
  0
VERTEX
  5
732
  8
CIVIC_NLTC
 10
599922.19788596733
 20
1770201.436272827
 30
0.0
  0
VERTEX
  5
733
  8
CIVIC_NLTC
 10
599929.1511070932
 20
1770209.8043523231
 30
0.0
  0
VERTEX
  5
734
  8
CIVIC_NLTC
 10
599935.36503667699
 20
1770204.6627264919
 30
0.0
  0
SEQEND
  5
735
  8
CIVIC_NLTC
  0
POLYLINE
  5
204
  8
CIVIC_NLTC
 66
     1
 10
0.0
 20
0.0
 30
0.0
 70
     1
  0
VERTEX
  5
736
  8
CIVIC_NLTC
 10
599782.50517805514
 20
1770135.859683312
 30
0.0
  0
VERTEX
  5
737
  8
CIVIC_NLTC
 10
599761.56059313565
 20
1770152.451794768
 30
0.0
  0
VERTEX
  5
738
  8
CIVIC_NLTC
 10
599779.14499732445
 20
1770173.4004069001
 30
0.0
  0
VERTEX
  5
739
  8
CIVIC_NLTC
 10
599800.20050881733
 20
1770157.2730347209
 30
0.0
  0
SEQEND
  5
73A
  8
CIVIC_NLTC
  0
POLYLINE
  5
205
  8
CIVIC_PYRAMIDS
 66
     1
 10
0.0
 20
0.0
 30
0.0
 70
     1
  0
VERTEX
  5
73B
  8
CIVIC_PYRAMIDS
 10
595067.97374459601
 20
1768322.703434862
 30
0.0
  0
VERTEX
  5
73C
  8
CIVIC_PYRAMIDS
 10
595046.62387109431
 20
1768336.7600936289
 30
0.0
  0
VERTEX
  5
73D
  8
CIVIC_PYRAMIDS
 10
595059.87568765995
 20
1768356.557052704
 30
0.0
  0
VERTEX
  5
73E
  8
CIVIC_PYRAMIDS
 10
595080.63677796745
 20
1768342.500564673
 30
0.0
  0
SEQEND
  5
73F
  8
CIVIC_PYRAMIDS
  0
POLYLINE
  5
206
  8
CIVIC_PYRAMIDS
 66
     1
 10
0.0
 20
0.0
 30
0.0
 70
     1
  0
VERTEX
  5
740
  8
CIVIC_PYRAMIDS
 10
595117.74880467099
 20
1768316.8279119891
 30
0.0
  0
VERTEX
  5
741
  8
CIVIC_PYRAMIDS
 10
595102.58649341483
 20
1768325.605597934
 30
0.0
  0
VERTEX
  5
742
  8
CIVIC_PYRAMIDS
 10
595112.99659212923
 20
1768341.6677166049
 30
0.0
  0
VERTEX
  5
743
  8
CIVIC_PYRAMIDS
 10
595127.75163625367
 20
1768332.573316193
 30
0.0
  0
SEQEND
  5
744
  8
CIVIC_PYRAMIDS
  0
POLYLINE
  5
207
  8
CIVIC_PYRAMIDS
 66
     1
 10
0.0
 20
0.0
 30
0.0
 70
     1
  0
VERTEX
  5
745
  8
CIVIC_PYRAMIDS
 10
595108.26764109964
 20
1768261.8380853271
 30
0.0
  0
VERTEX
  5
746
  8
CIVIC_PYRAMIDS
 10
595095.89747398009
 20
1768275.921208106
 30
0.0
  0
VERTEX
  5
747
  8
CIVIC_PYRAMIDS
 10
595109.52757612115
 20
1768288.401465435
 30
0.0
  0
VERTEX
  5
748
  8
CIVIC_PYRAMIDS
 10
595122.81371295056
 20
1768273.860259145
 30
0.0
  0
SEQEND
  5
749
  8
CIVIC_PYRAMIDS
  0
POLYLINE
  5
208
  8
CIVIC_RANGE
 66
     1
 10
0.0
 20
0.0
 30
0.0
 70
     1
  0
VERTEX
  5
74A
  8
CIVIC_RANGE
 10
595151.7117564932
 20
1768279.2117945801
 30
0.0
  0
VERTEX
  5
74B
  8
CIVIC_RANGE
 10
595148.79567807016
 20
1768282.908560955
 30
0.0
  0
VERTEX
  5
74C
  8
CIVIC_RANGE
 10
595165.29495427362
 20
1768294.7096322209
 30
0.0
  0
VERTEX
  5
74D
  8
CIVIC_RANGE
 10
595168.35288978729
 20
1768290.657565143
 30
0.0
  0
SEQEND
  5
74E
  8
CIVIC_RANGE
  0
POLYLINE
  5
209
  8
CIVIC_BALL_COURTS
 66
     1
 10
0.0
 20
0.0
 30
0.0
 70
     1
  0
VERTEX
  5
74F
  8
CIVIC_BALL_COURTS
 10
595137.93026385491
 20
1768233.3021972789
 30
0.0
  0
VERTEX
  5
750
  8
CIVIC_BALL_COURTS
 10
595120.6500109795
 20
1768249.7305437289
 30
0.0
  0
VERTEX
  5
751
  8
CIVIC_BALL_COURTS
 10
595126.08100207406
 20
1768254.736681124
 30
0.0
  0
VERTEX
  5
752
  8
CIVIC_BALL_COURTS
 10
595143.36163628555
 20
1768238.519876034
 30
0.0
  0
SEQEND
  5
753
  8
CIVIC_BALL_COURTS
  0
POLYLINE
  5
20A
  8
CIVIC_BALL_COURTS
 66
     1
 10
0.0
 20
0.0
 30
0.0
 70
     1
  0
VERTEX
  5
754
  8
CIVIC_BALL_COURTS
 10
595126.92718724743
 20
1768222.796496717
 30
0.0
  0
VERTEX
  5
755
  8
CIVIC_BALL_COURTS
 10
595109.78764745418
 20
1768239.577412101
 30
0.0
  0
VERTEX
  5
756
  8
CIVIC_BALL_COURTS
 10
595116.20629947679
 20
1768245.570571776
 30
0.0
  0
VERTEX
  5
757
  8
CIVIC_BALL_COURTS
 10
595133.41638647893
 20
1768228.7896563921
 30
0.0
  0
SEQEND
  5
758
  8
CIVIC_BALL_COURTS
  0
POLYLINE
  5
20B
  8
CIVIC_PLATFORM_HIGH
 66
     1
 10
0.0
 20
0.0
 30
0.0
 70
     1
  0
VERTEX
  5
759
  8
CIVIC_PLATFORM_HIGH
 10
595182.67587992281
 20
1768227.395771269
 30
0.0
  0
VERTEX
  5
75A
  8
CIVIC_PLATFORM_HIGH
 10
595177.52745900117
 20
1768233.9970910139
 30
0.0
  0
VERTEX
  5
75B
  8
CIVIC_PLATFORM_HIGH
 10
595186.70546024153
 20
1768239.9270785309
 30
0.0
  0
VERTEX
  5
75C
  8
CIVIC_PLATFORM_HIGH
 10
595191.96599402523
 20
1768233.437590579
 30
0.0
  0
SEQEND
  5
75D
  8
CIVIC_PLATFORM_HIGH
  0
POLYLINE
  5
20C
  8
CIVIC_PYRAMIDS
 66
     1
 10
0.0
 20
0.0
 30
0.0
 70
     1
  0
VERTEX
  5
75E
  8
CIVIC_PYRAMIDS
 10
595151.44863447011
 20
1768196.8506671351
 30
0.0
  0
VERTEX
  5
75F
  8
CIVIC_PYRAMIDS
 10
595140.92756690236
 20
1768208.374976055
 30
0.0
  0
VERTEX
  5
760
  8
CIVIC_PYRAMIDS
 10
595152.79170079739
 20
1768218.4447887291
 30
0.0
  0
VERTEX
  5
761
  8
CIVIC_PYRAMIDS
 10
595163.648725615
 20
1768206.6966454871
 30
0.0
  0
SEQEND
  5
762
  8
CIVIC_PYRAMIDS
  0
POLYLINE
  5
20D
  8
CIVIC_PYRAMIDS
 66
     1
 10
0.0
 20
0.0
 30
0.0
 70
     1
  0
VERTEX
  5
763
  8
CIVIC_PYRAMIDS
 10
595422.1806042433
 20
1768152.0739002831
 30
0.0
  0
VERTEX
  5
764
  8
CIVIC_PYRAMIDS
 10
595413.73019259784
 20
1768161.352353629
 30
0.0
  0
VERTEX
  5
765
  8
CIVIC_PYRAMIDS
 10
595420.17172479606
 20
1768167.1686312631
 30
0.0
  0
VERTEX
  5
766
  8
CIVIC_PYRAMIDS
 10
595428.62213644176
 20
1768158.4442148129
 30
0.0
  0
SEQEND
  5
767
  8
CIVIC_PYRAMIDS
  0
POLYLINE
  5
20E
  8
CIVIC_PLATFORM_HIGH
 66
     1
 10
0.0
 20
0.0
 30
0.0
 70
     1
  0
VERTEX
  5
768
  8
CIVIC_PLATFORM_HIGH
 10
595271.80102924409
 20
1768046.5238103641
 30
0.0
  0
VERTEX
  5
769
  8
CIVIC_PLATFORM_HIGH
 10
595261.06488802272
 20
1768055.613600916
 30
0.0
  0
VERTEX
  5
76A
  8
CIVIC_PLATFORM_HIGH
 10
595271.03416201402
 20
1768065.3603819071
 30
0.0
  0
VERTEX
  5
76B
  8
CIVIC_PLATFORM_HIGH
 10
595281.22270435805
 20
1768055.613600916
 30
0.0
  0
SEQEND
  5
76C
  8
CIVIC_PLATFORM_HIGH
  0
POLYLINE
  5
20F
  8
CIVIC_PLATFORM_HIGH
 66
     1
 10
0.0
 20
0.0
 30
0.0
 70
     1
  0
VERTEX
  5
76D
  8
CIVIC_PLATFORM_HIGH
 10
595032.10717740597
 20
1769495.6486721991
 30
0.0
  0
VERTEX
  5
76E
  8
CIVIC_PLATFORM_HIGH
 10
595024.36558829737
 20
1769504.9989055181
 30
0.0
  0
VERTEX
  5
76F
  8
CIVIC_PLATFORM_HIGH
 10
595040.83687808528
 20
1769518.8327522569
 30
0.0
  0
VERTEX
  5
770
  8
CIVIC_PLATFORM_HIGH
 10
595048.77428859309
 20
1769509.8557231431
 30
0.0
  0
SEQEND
  5
771
  8
CIVIC_PLATFORM_HIGH
  0
POLYLINE
  5
210
  8
CIVIC_PYRAMIDS
 66
     1
 10
0.0
 20
0.0
 30
0.0
 70
     1
  0
VERTEX
  5
772
  8
CIVIC_PYRAMIDS
 10
597370.18728940049
 20
1771030.0520664139
 30
0.0
  0
VERTEX
  5
773
  8
CIVIC_PYRAMIDS
 10
597378.96058486134
 20
1771037.5369306309
 30
0.0
  0
VERTEX
  5
774
  8
CIVIC_PYRAMIDS
 10
597387.80656466854
 20
1771027.727925228
 30
0.0
  0
VERTEX
  5
775
  8
CIVIC_PYRAMIDS
 10
597379.0234356618
 20
1771020.1495010711
 30
0.0
  0
SEQEND
  5
776
  8
CIVIC_PYRAMIDS
  0
POLYLINE
  5
211
  8
CIVIC_PYRAMIDS
 66
     1
 10
0.0
 20
0.0
 30
0.0
 70
     1
  0
VERTEX
  5
777
  8
CIVIC_PYRAMIDS
 10
595097.02032201726
 20
1769483.9491927631
 30
0.0
  0
VERTEX
  5
778
  8
CIVIC_PYRAMIDS
 10
595085.66172744858
 20
1769497.2070437791
 30
0.0
  0
VERTEX
  5
779
  8
CIVIC_PYRAMIDS
 10
595097.4620651775
 20
1769506.8338545321
 30
0.0
  0
VERTEX
  5
77A
  8
CIVIC_PYRAMIDS
 10
595108.65681172034
 20
1769493.708483885
 30
0.0
  0
SEQEND
  5
77B
  8
CIVIC_PYRAMIDS
  0
POLYLINE
  5
212
  8
CIVIC_PLATFORM_HIGH
 66
     1
 10
0.0
 20
0.0
 30
0.0
 70
     1
  0
VERTEX
  5
77C
  8
CIVIC_PLATFORM_HIGH
 10
595128.49576554308
 20
1769471.962435161
 30
0.0
  0
VERTEX
  5
77D
  8
CIVIC_PLATFORM_HIGH
 10
595134.30750103865
 20
1769478.977990475
 30
0.0
  0
VERTEX
  5
77E
  8
CIVIC_PLATFORM_HIGH
 10
595146.65037912491
 20
1769468.3540963689
 30
0.0
  0
VERTEX
  5
77F
  8
CIVIC_PLATFORM_HIGH
 10
595141.09719679086
 20
1769461.552671273
 30
0.0
  0
SEQEND
  5
780
  8
CIVIC_PLATFORM_HIGH
  0
POLYLINE
  5
213
  8
CIVIC_PYRAMIDS
 66
     1
 10
0.0
 20
0.0
 30
0.0
 70
     1
  0
VERTEX
  5
781
  8
CIVIC_PYRAMIDS
 10
595159.26065098203
 20
1769399.5663158461
 30
0.0
  0
VERTEX
  5
782
  8
CIVIC_PYRAMIDS
 10
595131.96967819973
 20
1769426.309629105
 30
0.0
  0
VERTEX
  5
783
  8
CIVIC_PYRAMIDS
 10
595155.25396304345
 20
1769449.0806000759
 30
0.0
  0
VERTEX
  5
784
  8
CIVIC_PYRAMIDS
 10
595182.01094351069
 20
1769423.3064111569
 30
0.0
  0
SEQEND
  5
785
  8
CIVIC_PYRAMIDS
  0
POLYLINE
  5
214
  8
CIVIC_PLATFORM_HIGH
 66
     1
 10
0.0
 20
0.0
 30
0.0
 70
     1
  0
VERTEX
  5
786
  8
CIVIC_PLATFORM_HIGH
 10
597428.49435511138
 20
1771051.635861777
 30
0.0
  0
VERTEX
  5
787
  8
CIVIC_PLATFORM_HIGH
 10
597435.97812518838
 20
1771059.1788346879
 30
0.0
  0
VERTEX
  5
788
  8
CIVIC_PLATFORM_HIGH
 10
597446.94905939931
 20
1771048.5229602719
 30
0.0
  0
VERTEX
  5
789
  8
CIVIC_PLATFORM_HIGH
 10
597439.11676108523
 20
1771041.016619154
 30
0.0
  0
SEQEND
  5
78A
  8
CIVIC_PLATFORM_HIGH
  0
POLYLINE
  5
215
  8
CIVIC_ALTARS
 66
     1
 10
0.0
 20
0.0
 30
0.0
 70
     1
  0
VERTEX
  5
78B
  8
CIVIC_ALTARS
 10
597405.88309941534
 20
1771030.097244147
 30
0.0
  0
VERTEX
  5
78C
  8
CIVIC_ALTARS
 10
597410.12666567112
 20
1771034.194804921
 30
0.0
  0
VERTEX
  5
78D
  8
CIVIC_ALTARS
 10
597415.65126441629
 20
1771028.8506516521
 30
0.0
  0
VERTEX
  5
78E
  8
CIVIC_ALTARS
 10
597411.33488268545
 20
1771024.760744093
 30
0.0
  0
SEQEND
  5
78F
  8
CIVIC_ALTARS
  0
POLYLINE
  5
216
  8
CIVIC_PYRAMIDS
 66
     1
 10
0.0
 20
0.0
 30
0.0
 70
     1
  0
VERTEX
  5
790
  8
CIVIC_PYRAMIDS
 10
597370.49213357701
 20
1771006.8827336789
 30
0.0
  0
VERTEX
  5
791
  8
CIVIC_PYRAMIDS
 10
597389.36006838945
 20
1771023.950350146
 30
0.0
  0
VERTEX
  5
792
  8
CIVIC_PYRAMIDS
 10
597406.29924129962
 20
1771007.093039854
 30
0.0
  0
VERTEX
  5
793
  8
CIVIC_PYRAMIDS
 10
597387.51089528971
 20
1770989.666324157
 30
0.0
  0
SEQEND
  5
794
  8
CIVIC_PYRAMIDS
  0
POLYLINE
  5
217
  8
CIVIC_ALTARS
 66
     1
 10
0.0
 20
0.0
 30
0.0
 70
     1
  0
VERTEX
  5
795
  8
CIVIC_ALTARS
 10
597400.8946405726
 20
1770978.914108312
 30
0.0
  0
VERTEX
  5
796
  8
CIVIC_ALTARS
 10
597406.88978710514
 20
1770984.6938606
 30
0.0
  0
VERTEX
  5
797
  8
CIVIC_ALTARS
 10
597411.97748342587
 20
1770979.9427591041
 30
0.0
  0
VERTEX
  5
798
  8
CIVIC_ALTARS
 10
597406.27324239688
 20
1770973.676631581
 30
0.0
  0
SEQEND
  5
799
  8
CIVIC_ALTARS
  0
POLYLINE
  5
218
  8
CIVIC_PYRAMIDS
 66
     1
 10
0.0
 20
0.0
 30
0.0
 70
     1
  0
VERTEX
  5
79A
  8
CIVIC_PYRAMIDS
 10
597413.33607681072
 20
1771009.551934578
 30
0.0
  0
VERTEX
  5
79B
  8
CIVIC_PYRAMIDS
 10
597434.53432284528
 20
1771028.5619496431
 30
0.0
  0
VERTEX
  5
79C
  8
CIVIC_PYRAMIDS
 10
597449.17080921587
 20
1771011.747002247
 30
0.0
  0
VERTEX
  5
79D
  8
CIVIC_PYRAMIDS
 10
597428.91389482864
 20
1770992.8244893961
 30
0.0
  0
SEQEND
  5
79E
  8
CIVIC_PYRAMIDS
  0
POLYLINE
  5
219
  8
CIVIC_PYRAMIDS
 66
     1
 10
0.0
 20
0.0
 30
0.0
 70
     1
  0
VERTEX
  5
79F
  8
CIVIC_PYRAMIDS
 10
597434.561983675
 20
1770992.6718870341
 30
0.0
  0
VERTEX
  5
7A0
  8
CIVIC_PYRAMIDS
 10
597447.00005605817
 20
1771004.3182354041
 30
0.0
  0
VERTEX
  5
7A1
  8
CIVIC_PYRAMIDS
 10
597459.34463962482
 20
1770991.5225942349
 30
0.0
  0
VERTEX
  5
7A2
  8
CIVIC_PYRAMIDS
 10
597446.9444023004
 20
1770980.2362224029
 30
0.0
  0
SEQEND
  5
7A3
  8
CIVIC_PYRAMIDS
  0
POLYLINE
  5
21A
  8
CIVIC_ALTARS
 66
     1
 10
0.0
 20
0.0
 30
0.0
 70
     1
  0
VERTEX
  5
7A4
  8
CIVIC_ALTARS
 10
597441.62805124605
 20
1770966.150685509
 30
0.0
  0
VERTEX
  5
7A5
  8
CIVIC_ALTARS
 10
597447.66263499367
 20
1770971.9590828989
 30
0.0
  0
VERTEX
  5
7A6
  8
CIVIC_ALTARS
 10
597451.57225009648
 20
1770968.0856321349
 30
0.0
  0
VERTEX
  5
7A7
  8
CIVIC_ALTARS
 10
597445.67209841765
 20
1770962.2064522789
 30
0.0
  0
SEQEND
  5
7A8
  8
CIVIC_ALTARS
  0
POLYLINE
  5
21B
  8
CIVIC_RANGE
 66
     1
 10
0.0
 20
0.0
 30
0.0
 70
     1
  0
VERTEX
  5
7A9
  8
CIVIC_RANGE
 10
597433.67847722257
 20
1770927.8799670071
 30
0.0
  0
VERTEX
  5
7AA
  8
CIVIC_RANGE
 10
597428.21062663465
 20
1770933.7385058231
 30
0.0
  0
VERTEX
  5
7AB
  8
CIVIC_RANGE
 10
597456.70293286955
 20
1770961.547328783
 30
0.0
  0
VERTEX
  5
7AC
  8
CIVIC_RANGE
 10
597488.2575030711
 20
1770986.581216173
 30
0.0
  0
VERTEX
  5
7AD
  8
CIVIC_RANGE
 10
597493.58625011006
 20
1770980.8329212731
 30
0.0
  0
VERTEX
  5
7AE
  8
CIVIC_RANGE
 10
597457.64218872332
 20
1770947.55143515
 30
0.0
  0
VERTEX
  5
7AF
  8
CIVIC_RANGE
 10
597460.57717411628
 20
1770943.722395601
 30
0.0
  0
VERTEX
  5
7B0
  8
CIVIC_RANGE
 10
597441.22035993112
 20
1770925.3742998601
 30
0.0
  0
VERTEX
  5
7B1
  8
CIVIC_RANGE
 10
597436.9827451742
 20
1770929.1550128451
 30
0.0
  0
SEQEND
  5
7B2
  8
CIVIC_RANGE
  0
POLYLINE
  5
21C
  8
CIVIC_PYRAMIDS
 66
     1
 10
0.0
 20
0.0
 30
0.0
 70
     1
  0
VERTEX
  5
7B3
  8
CIVIC_PYRAMIDS
 10
597540.55443594372
 20
1770911.8522831949
 30
0.0
  0
VERTEX
  5
7B4
  8
CIVIC_PYRAMIDS
 10
597526.5534072622
 20
1770924.9397935111
 30
0.0
  0
VERTEX
  5
7B5
  8
CIVIC_PYRAMIDS
 10
597539.99225607933
 20
1770939.4718956689
 30
0.0
  0
VERTEX
  5
7B6
  8
CIVIC_PYRAMIDS
 10
597553.57976229396
 20
1770926.572399525
 30
0.0
  0
SEQEND
  5
7B7
  8
CIVIC_PYRAMIDS
  0
POLYLINE
  5
21D
  8
CIVIC_ALTARS
 66
     1
 10
0.0
 20
0.0
 30
0.0
 70
     1
  0
VERTEX
  5
7B8
  8
CIVIC_ALTARS
 10
597498.04903282446
 20
1771005.2058991131
 30
0.0
  0
VERTEX
  5
7B9
  8
CIVIC_ALTARS
 10
597501.37305081473
 20
1771008.0828381979
 30
0.0
  0
VERTEX
  5
7BA
  8
CIVIC_ALTARS
 10
597505.43868241622
 20
1771003.7603658671
 30
0.0
  0
VERTEX
  5
7BB
  8
CIVIC_ALTARS
 10
597502.14948998531
 20
1771000.9994246541
 30
0.0
  0
SEQEND
  5
7BC
  8
CIVIC_ALTARS
  0
POLYLINE
  5
21E
  8
CIVIC_BALL_COURTS
 66
     1
 10
0.0
 20
0.0
 30
0.0
 70
     1
  0
VERTEX
  5
7BD
  8
CIVIC_BALL_COURTS
 10
597475.39922289667
 20
1770999.005779204
 30
0.0
  0
VERTEX
  5
7BE
  8
CIVIC_BALL_COURTS
 10
597472.66263326223
 20
1771002.511645047
 30
0.0
  0
VERTEX
  5
7BF
  8
CIVIC_BALL_COURTS
 10
597478.73205044668
 20
1771007.7357729929
 30
0.0
  0
VERTEX
  5
7C0
  8
CIVIC_BALL_COURTS
 10
597473.4439921017
 20
1771015.4180136111
 30
0.0
  0
VERTEX
  5
7C1
  8
CIVIC_BALL_COURTS
 10
597494.73554795922
 20
1771033.0648993489
 30
0.0
  0
VERTEX
  5
7C2
  8
CIVIC_BALL_COURTS
 10
597500.33324178797
 20
1771032.706432211
 30
0.0
  0
VERTEX
  5
7C3
  8
CIVIC_BALL_COURTS
 10
597506.65684580908
 20
1771025.0303742909
 30
0.0
  0
SEQEND
  5
7C4
  8
CIVIC_BALL_COURTS
  0
POLYLINE
  5
21F
  8
CIVIC_PYRAMIDS
 66
     1
 10
0.0
 20
0.0
 30
0.0
 70
     1
  0
VERTEX
  5
7C5
  8
CIVIC_PYRAMIDS
 10
597526.85046683985
 20
1770998.3105423211
 30
0.0
  0
VERTEX
  5
7C6
  8
CIVIC_PYRAMIDS
 10
597513.53167161904
 20
1771016.0321584099
 30
0.0
  0
VERTEX
  5
7C7
  8
CIVIC_PYRAMIDS
 10
597529.07710447465
 20
1771027.1567143991
 30
0.0
  0
VERTEX
  5
7C8
  8
CIVIC_PYRAMIDS
 10
597541.64727396937
 20
1771009.9735304259
 30
0.0
  0
SEQEND
  5
7C9
  8
CIVIC_PYRAMIDS
  0
POLYLINE
  5
220
  8
CIVIC_BALL_COURTS
 66
     1
 10
0.0
 20
0.0
 30
0.0
 70
     1
  0
VERTEX
  5
7CA
  8
CIVIC_BALL_COURTS
 10
597456.49546028476
 20
1771019.508933591
 30
0.0
  0
VERTEX
  5
7CB
  8
CIVIC_BALL_COURTS
 10
597467.2585459681
 20
1771030.293033585
 30
0.0
  0
VERTEX
  5
7CC
  8
CIVIC_BALL_COURTS
 10
597469.87754641811
 20
1771034.4859773321
 30
0.0
  0
VERTEX
  5
7CD
  8
CIVIC_BALL_COURTS
 10
597484.43563265179
 20
1771046.475175756
 30
0.0
  0
VERTEX
  5
7CE
  8
CIVIC_BALL_COURTS
 10
597491.93234145292
 20
1771039.27136367
 30
0.0
  0
VERTEX
  5
7CF
  8
CIVIC_BALL_COURTS
 10
597471.00266639586
 20
1771019.0152509669
 30
0.0
  0
VERTEX
  5
7D0
  8
CIVIC_BALL_COURTS
 10
597465.15987403132
 20
1771021.233493926
 30
0.0
  0
VERTEX
  5
7D1
  8
CIVIC_BALL_COURTS
 10
597458.78196357726
 20
1771016.175182197
 30
0.0
  0
SEQEND
  5
7D2
  8
CIVIC_BALL_COURTS
  0
POLYLINE
  5
221
  8
CIVIC_PYRAMIDS
 66
     1
 10
0.0
 20
0.0
 30
0.0
 70
     1
  0
VERTEX
  5
7D3
  8
CIVIC_PYRAMIDS
 10
597478.58141205506
 20
1771046.403088348
 30
0.0
  0
VERTEX
  5
7D4
  8
CIVIC_PYRAMIDS
 10
597470.95940455527
 20
1771053.505561952
 30
0.0
  0
VERTEX
  5
7D5
  8
CIVIC_PYRAMIDS
 10
597479.96250510926
 20
1771061.7249090159
 30
0.0
  0
VERTEX
  5
7D6
  8
CIVIC_PYRAMIDS
 10
597486.64200325194
 20
1771054.3778017431
 30
0.0
  0
SEQEND
  5
7D7
  8
CIVIC_PYRAMIDS
  0
POLYLINE
  5
222
  8
CIVIC_PYRAMIDS
 66
     1
 10
0.0
 20
0.0
 30
0.0
 70
     1
  0
VERTEX
  5
7D8
  8
CIVIC_PYRAMIDS
 10
597483.00629227201
 20
1771074.5962361619
 30
0.0
  0
VERTEX
  5
7D9
  8
CIVIC_PYRAMIDS
 10
597467.88413383078
 20
1771090.704795148
 30
0.0
  0
VERTEX
  5
7DA
  8
CIVIC_PYRAMIDS
 10
597479.15970657684
 20
1771102.2096327851
 30
0.0
  0
VERTEX
  5
7DB
  8
CIVIC_PYRAMIDS
 10
597495.30014392617
 20
1771085.9940483731
 30
0.0
  0
SEQEND
  5
7DC
  8
CIVIC_PYRAMIDS
  0
POLYLINE
  5
223
  8
CIVIC_ALTARS
 66
     1
 10
0.0
 20
0.0
 30
0.0
 70
     1
  0
VERTEX
  5
7DD
  8
CIVIC_ALTARS
 10
597491.08063490293
 20
1771044.760950862
 30
0.0
  0
VERTEX
  5
7DE
  8
CIVIC_ALTARS
 10
597488.33595206507
 20
1771047.9490366401
 30
0.0
  0
VERTEX
  5
7DF
  8
CIVIC_ALTARS
 10
597490.56823435111
 20
1771050.0787364731
 30
0.0
  0
VERTEX
  5
7E0
  8
CIVIC_ALTARS
 10
597493.53137205972
 20
1771047.2690686979
 30
0.0
  0
SEQEND
  5
7E1
  8
CIVIC_ALTARS
  0
POLYLINE
  5
224
  8
CIVIC_PYRAMIDS
 66
     1
 10
0.0
 20
0.0
 30
0.0
 70
     1
  0
VERTEX
  5
7E2
  8
CIVIC_PYRAMIDS
 10
597514.32494323584
 20
1771040.226174976
 30
0.0
  0
VERTEX
  5
7E3
  8
CIVIC_PYRAMIDS
 10
597501.1759532463
 20
1771053.6643097331
 30
0.0
  0
VERTEX
  5
7E4
  8
CIVIC_PYRAMIDS
 10
597513.80290352344
 20
1771065.8199117321
 30
0.0
  0
VERTEX
  5
7E5
  8
CIVIC_PYRAMIDS
 10
597527.35688884289
 20
1771052.838615794
 30
0.0
  0
SEQEND
  5
7E6
  8
CIVIC_PYRAMIDS
  0
POLYLINE
  5
225
  8
CIVIC_ALTARS
 66
     1
 10
0.0
 20
0.0
 30
0.0
 70
     1
  0
VERTEX
  5
7E7
  8
CIVIC_ALTARS
 10
597559.28472726943
 20
1771051.8555990329
 30
0.0
  0
VERTEX
  5
7E8
  8
CIVIC_ALTARS
 10
597565.87195825193
 20
1771058.2816276739
 30
0.0
  0
VERTEX
  5
7E9
  8
CIVIC_ALTARS
 10
597575.71816044254
 20
1771048.2777081041
 30
0.0
  0
VERTEX
  5
7EA
  8
CIVIC_ALTARS
 10
597569.51284004166
 20
1771042.0961778851
 30
0.0
  0
SEQEND
  5
7EB
  8
CIVIC_ALTARS
  0
POLYLINE
  5
226
  8
CIVIC_PYRAMIDS
 66
     1
 10
0.0
 20
0.0
 30
0.0
 70
     1
  0
VERTEX
  5
7EC
  8
CIVIC_PYRAMIDS
 10
597769.81121698604
 20
1771313.532011586
 30
0.0
  0
VERTEX
  5
7ED
  8
CIVIC_PYRAMIDS
 10
597785.34858578455
 20
1771329.8404858781
 30
0.0
  0
VERTEX
  5
7EE
  8
CIVIC_PYRAMIDS
 10
597802.25683228427
 20
1771314.786620833
 30
0.0
  0
VERTEX
  5
7EF
  8
CIVIC_PYRAMIDS
 10
597786.71984273277
 20
1771298.478106681
 30
0.0
  0
SEQEND
  5
7F0
  8
CIVIC_PYRAMIDS
  0
POLYLINE
  5
227
  8
CIVIC_PYRAMIDS
 66
     1
 10
0.0
 20
0.0
 30
0.0
 70
     1
  0
VERTEX
  5
7F1
  8
CIVIC_PYRAMIDS
 10
597450.76123723562
 20
1771305.0071224689
 30
0.0
  0
VERTEX
  5
7F2
  8
CIVIC_PYRAMIDS
 10
597468.64487367042
 20
1771322.1986223101
 30
0.0
  0
VERTEX
  5
7F3
  8
CIVIC_PYRAMIDS
 10
597491.25651731587
 20
1771298.9306161781
 30
0.0
  0
VERTEX
  5
7F4
  8
CIVIC_PYRAMIDS
 10
597472.77038240654
 20
1771281.3804618199
 30
0.0
  0
SEQEND
  5
7F5
  8
CIVIC_PYRAMIDS
  0
POLYLINE
  5
228
  8
CIVIC_RANGE
 66
     1
 10
0.0
 20
0.0
 30
0.0
 70
     1
  0
VERTEX
  5
7F6
  8
CIVIC_RANGE
 10
597361.08341255307
 20
1771358.5655679349
 30
0.0
  0
VERTEX
  5
7F7
  8
CIVIC_RANGE
 10
597370.48646123777
 20
1771368.0656424949
 30
0.0
  0
VERTEX
  5
7F8
  8
CIVIC_RANGE
 10
597374.47449577425
 20
1771364.164893477
 30
0.0
  0
VERTEX
  5
7F9
  8
CIVIC_RANGE
 10
597364.66148453206
 20
1771355.317185916
 30
0.0
  0
SEQEND
  5
7FA
  8
CIVIC_RANGE
  0
POLYLINE
  5
229
  8
CIVIC_PYRAMIDS
 66
     1
 10
0.0
 20
0.0
 30
0.0
 70
     1
  0
VERTEX
  5
7FB
  8
CIVIC_PYRAMIDS
 10
597343.15537297796
 20
1771401.350490992
 30
0.0
  0
VERTEX
  5
7FC
  8
CIVIC_PYRAMIDS
 10
597364.09779640019
 20
1771420.6006157161
 30
0.0
  0
VERTEX
  5
7FD
  8
CIVIC_PYRAMIDS
 10
597383.11519045255
 20
1771400.0549598511
 30
0.0
  0
VERTEX
  5
7FE
  8
CIVIC_PYRAMIDS
 10
597362.41876885225
 20
1771381.0002696849
 30
0.0
  0
SEQEND
  5
7FF
  8
CIVIC_PYRAMIDS
  0
POLYLINE
  5
22A
  8
CIVIC_RANGE
 66
     1
 10
0.0
 20
0.0
 30
0.0
 70
     1
  0
VERTEX
  5
800
  8
CIVIC_RANGE
 10
597339.29912663798
 20
1771422.3016416039
 30
0.0
  0
VERTEX
  5
801
  8
CIVIC_RANGE
 10
597352.53280235117
 20
1771433.3859076251
 30
0.0
  0
VERTEX
  5
802
  8
CIVIC_RANGE
 10
597355.28678805951
 20
1771430.06379516
 30
0.0
  0
VERTEX
  5
803
  8
CIVIC_RANGE
 10
597341.48500809306
 20
1771419.688689688
 30
0.0
  0
SEQEND
  5
804
  8
CIVIC_RANGE
  0
POLYLINE
  5
22B
  8
CIVIC_PLATFORM_HIGH
 66
     1
 10
0.0
 20
0.0
 30
0.0
 70
     1
  0
VERTEX
  5
805
  8
CIVIC_PLATFORM_HIGH
 10
597329.64659266733
 20
1771434.137246734
 30
0.0
  0
VERTEX
  5
806
  8
CIVIC_PLATFORM_HIGH
 10
597337.37429490162
 20
1771441.388998538
 30
0.0
  0
VERTEX
  5
807
  8
CIVIC_PLATFORM_HIGH
 10
597342.89319219918
 20
1771435.501746559
 30
0.0
  0
VERTEX
  5
808
  8
CIVIC_PLATFORM_HIGH
 10
597335.37028348877
 20
1771428.2284700871
 30
0.0
  0
SEQEND
  5
809
  8
CIVIC_PLATFORM_HIGH
  0
POLYLINE
  5
22C
  8
CIVIC_PYRAMIDS
 66
     1
 10
0.0
 20
0.0
 30
0.0
 70
     1
  0
VERTEX
  5
80A
  8
CIVIC_PYRAMIDS
 10
597301.34824147436
 20
1771414.590891242
 30
0.0
  0
VERTEX
  5
80B
  8
CIVIC_PYRAMIDS
 10
597316.89744883741
 20
1771429.563683542
 30
0.0
  0
VERTEX
  5
80C
  8
CIVIC_PYRAMIDS
 10
597334.88918301475
 20
1771410.1857566249
 30
0.0
  0
VERTEX
  5
80D
  8
CIVIC_PYRAMIDS
 10
597319.02216136944
 20
1771395.760709309
 30
0.0
  0
SEQEND
  5
80E
  8
CIVIC_PYRAMIDS
  0
POLYLINE
  5
22D
  8
CIVIC_PYRAMIDS
 66
     1
 10
0.0
 20
0.0
 30
0.0
 70
     1
  0
VERTEX
  5
80F
  8
CIVIC_PYRAMIDS
 10
597255.22165159509
 20
1771418.35296869
 30
0.0
  0
VERTEX
  5
810
  8
CIVIC_PYRAMIDS
 10
597262.07226681523
 20
1771425.3878892169
 30
0.0
  0
VERTEX
  5
811
  8
CIVIC_PYRAMIDS
 10
597271.84033103578
 20
1771415.0965561711
 30
0.0
  0
VERTEX
  5
812
  8
CIVIC_PYRAMIDS
 10
597264.78200804617
 20
1771408.7011569319
 30
0.0
  0
SEQEND
  5
813
  8
CIVIC_PYRAMIDS
  0
POLYLINE
  5
22E
  8
CIVIC_PYRAMIDS
 66
     1
 10
0.0
 20
0.0
 30
0.0
 70
     1
  0
VERTEX
  5
814
  8
CIVIC_PYRAMIDS
 10
597276.98191312584
 20
1771476.6307696339
 30
0.0
  0
VERTEX
  5
815
  8
CIVIC_PYRAMIDS
 10
597300.13146840071
 20
1771497.716581444
 30
0.0
  0
VERTEX
  5
816
  8
CIVIC_PYRAMIDS
 10
597323.86774320574
 20
1771472.318157177
 30
0.0
  0
VERTEX
  5
817
  8
CIVIC_PYRAMIDS
 10
597300.59801207623
 20
1771450.4793013069
 30
0.0
  0
SEQEND
  5
818
  8
CIVIC_PYRAMIDS
  0
POLYLINE
  5
22F
  8
CIVIC_MISCELANEOUS
 66
     1
 10
0.0
 20
0.0
 30
0.0
 70
     1
  0
VERTEX
  5
819
  8
CIVIC_MISCELANEOUS
 10
615245.2190823704
 20
1760182.0274017521
 30
0.0
  0
VERTEX
  5
81A
  8
CIVIC_MISCELANEOUS
 10
615236.17627942923
 20
1760192.1625224061
 30
0.0
  0
VERTEX
  5
81B
  8
CIVIC_MISCELANEOUS
 10
615245.26016912318
 20
1760199.946814134
 30
0.0
  0
VERTEX
  5
81C
  8
CIVIC_MISCELANEOUS
 10
615254.14136754174
 20
1760189.507697134
 30
0.0
  0
SEQEND
  5
81D
  8
CIVIC_MISCELANEOUS
  0
POLYLINE
  5
230
  8
CIVIC_MISCELANEOUS
 66
     1
 10
0.0
 20
0.0
 30
0.0
 70
     1
  0
VERTEX
  5
81E
  8
CIVIC_MISCELANEOUS
 10
615863.90041588538
 20
1760188.673169466
 30
0.0
  0
VERTEX
  5
81F
  8
CIVIC_MISCELANEOUS
 10
615865.35836641886
 20
1760211.080347881
 30
0.0
  0
VERTEX
  5
820
  8
CIVIC_MISCELANEOUS
 10
615876.7515489948
 20
1760210.43066925
 30
0.0
  0
VERTEX
  5
821
  8
CIVIC_MISCELANEOUS
 10
615875.13519526203
 20
1760187.940567716
 30
0.0
  0
SEQEND
  5
822
  8
CIVIC_MISCELANEOUS
  0
POLYLINE
  5
231
  8
CIVIC_MISCELANEOUS
 66
     1
 10
0.0
 20
0.0
 30
0.0
 70
     1
  0
VERTEX
  5
823
  8
CIVIC_MISCELANEOUS
 10
615848.3089270792
 20
1760189.8222897069
 30
0.0
  0
VERTEX
  5
824
  8
CIVIC_MISCELANEOUS
 10
615849.58009262476
 20
1760212.3084602249
 30
0.0
  0
VERTEX
  5
825
  8
CIVIC_MISCELANEOUS
 10
615860.77043531567
 20
1760211.57876141
 30
0.0
  0
VERTEX
  5
826
  8
CIVIC_MISCELANEOUS
 10
615859.34156328579
 20
1760189.010036431
 30
0.0
  0
SEQEND
  5
827
  8
CIVIC_MISCELANEOUS
  0
POLYLINE
  5
232
  8
CIVIC_MISCELANEOUS
 66
     1
 10
0.0
 20
0.0
 30
0.0
 70
     1
  0
VERTEX
  5
828
  8
CIVIC_MISCELANEOUS
 10
615863.24960861262
 20
1760222.5617207361
 30
0.0
  0
VERTEX
  5
829
  8
CIVIC_MISCELANEOUS
 10
615863.25977310783
 20
1760225.04980427
 30
0.0
  0
VERTEX
  5
82A
  8
CIVIC_MISCELANEOUS
 10
615865.61304539884
 20
1760224.993949936
 30
0.0
  0
VERTEX
  5
82B
  8
CIVIC_MISCELANEOUS
 10
615865.55113244243
 20
1760222.5831857389
 30
0.0
  0
SEQEND
  5
82C
  8
CIVIC_MISCELANEOUS
  0
POLYLINE
  5
233
  8
CIVIC_MISCELANEOUS
 66
     1
 10
0.0
 20
0.0
 30
0.0
 70
     1
  0
VERTEX
  5
82D
  8
CIVIC_MISCELANEOUS
 10
615860.15564222401
 20
1760226.7227871481
 30
0.0
  0
VERTEX
  5
82E
  8
CIVIC_MISCELANEOUS
 10
615860.7158298092
 20
1760241.680716722
 30
0.0
  0
VERTEX
  5
82F
  8
CIVIC_MISCELANEOUS
 10
615872.0227382062
 20
1760241.1147848479
 30
0.0
  0
VERTEX
  5
830
  8
CIVIC_MISCELANEOUS
 10
615871.16281725862
 20
1760226.2661307061
 30
0.0
  0
SEQEND
  5
831
  8
CIVIC_MISCELANEOUS
  0
POLYLINE
  5
234
  8
CIVIC_MISCELANEOUS
 66
     1
 10
0.0
 20
0.0
 30
0.0
 70
     1
  0
VERTEX
  5
832
  8
CIVIC_MISCELANEOUS
 10
615858.28515619901
 20
1760252.055560142
 30
0.0
  0
VERTEX
  5
833
  8
CIVIC_MISCELANEOUS
 10
615859.13240979542
 20
1760270.2392917071
 30
0.0
  0
VERTEX
  5
834
  8
CIVIC_MISCELANEOUS
 10
615878.90820137528
 20
1760268.78928347
 30
0.0
  0
VERTEX
  5
835
  8
CIVIC_MISCELANEOUS
 10
615877.75659746455
 20
1760250.9275658601
 30
0.0
  0
SEQEND
  5
836
  8
CIVIC_MISCELANEOUS
  0
POLYLINE
  5
235
  8
CIVIC_MISCELANEOUS
 66
     1
 10
0.0
 20
0.0
 30
0.0
 70
     1
  0
VERTEX
  5
837
  8
CIVIC_MISCELANEOUS
 10
615370.61267213279
 20
1759287.6727432399
 30
0.0
  0
VERTEX
  5
838
  8
CIVIC_MISCELANEOUS
 10
615362.97134608182
 20
1759295.6100981501
 30
0.0
  0
VERTEX
  5
839
  8
CIVIC_MISCELANEOUS
 10
615375.42584051366
 20
1759307.3356561831
 30
0.0
  0
VERTEX
  5
83A
  8
CIVIC_MISCELANEOUS
 10
615383.12736797729
 20
1759299.2780338801
 30
0.0
  0
SEQEND
  5
83B
  8
CIVIC_MISCELANEOUS
  0
POLYLINE
  5
236
  8
CIVIC_MISCELANEOUS
 66
     1
 10
0.0
 20
0.0
 30
0.0
 70
     1
  0
VERTEX
  5
83C
  8
CIVIC_MISCELANEOUS
 10
615413.47738669463
 20
1759251.0576945699
 30
0.0
  0
VERTEX
  5
83D
  8
CIVIC_MISCELANEOUS
 10
615407.05644797685
 20
1759260.327073107
 30
0.0
  0
VERTEX
  5
83E
  8
CIVIC_MISCELANEOUS
 10
615417.69868357782
 20
1759266.8037871311
 30
0.0
  0
VERTEX
  5
83F
  8
CIVIC_MISCELANEOUS
 10
615424.00085537799
 20
1759257.653211097
 30
0.0
  0
SEQEND
  5
840
  8
CIVIC_MISCELANEOUS
  0
POLYLINE
  5
237
  8
CIVIC_PLATFORM_HIGH
 66
     1
 10
0.0
 20
0.0
 30
0.0
 70
     1
  0
VERTEX
  5
841
  8
CIVIC_PLATFORM_HIGH
 10
594535.97558698768
 20
1770202.6310420979
 30
0.0
  0
VERTEX
  5
842
  8
CIVIC_PLATFORM_HIGH
 10
594530.93110122206
 20
1770206.2475602219
 30
0.0
  0
VERTEX
  5
843
  8
CIVIC_PLATFORM_HIGH
 10
594537.69329033885
 20
1770214.9418233109
 30
0.0
  0
VERTEX
  5
844
  8
CIVIC_PLATFORM_HIGH
 10
594542.44527576235
 20
1770211.2522072231
 30
0.0
  0
SEQEND
  5
845
  8
CIVIC_PLATFORM_HIGH
  0
POLYLINE
  5
238
  8
CIVIC_PLATFORM_HIGH
 66
     1
 10
0.0
 20
0.0
 30
0.0
 70
     1
  0
VERTEX
  5
846
  8
CIVIC_PLATFORM_HIGH
 10
594457.51384253858
 20
1770311.931249375
 30
0.0
  0
VERTEX
  5
847
  8
CIVIC_PLATFORM_HIGH
 10
594449.31107287796
 20
1770318.7267232579
 30
0.0
  0
VERTEX
  5
848
  8
CIVIC_PLATFORM_HIGH
 10
594454.45600339188
 20
1770325.01886126
 30
0.0
  0
VERTEX
  5
849
  8
CIVIC_PLATFORM_HIGH
 10
594462.29887330264
 20
1770318.0795352689
 30
0.0
  0
SEQEND
  5
84A
  8
CIVIC_PLATFORM_HIGH
  0
POLYLINE
  5
239
  8
CIVIC_PLATFORM_HIGH
 66
     1
 10
0.0
 20
0.0
 30
0.0
 70
     1
  0
VERTEX
  5
84B
  8
CIVIC_PLATFORM_HIGH
 10
594506.85119050951
 20
1770273.2665279249
 30
0.0
  0
VERTEX
  5
84C
  8
CIVIC_PLATFORM_HIGH
 10
594493.85651927115
 20
1770286.8229043109
 30
0.0
  0
VERTEX
  5
84D
  8
CIVIC_PLATFORM_HIGH
 10
594500.98089840892
 20
1770293.1455120039
 30
0.0
  0
VERTEX
  5
84E
  8
CIVIC_PLATFORM_HIGH
 10
594513.57640810625
 20
1770279.646119803
 30
0.0
  0
SEQEND
  5
84F
  8
CIVIC_PLATFORM_HIGH
  0
POLYLINE
  5
23A
  8
CIVIC_PLATFORM_HIGH
 66
     1
 10
0.0
 20
0.0
 30
0.0
 70
     1
  0
VERTEX
  5
850
  8
CIVIC_PLATFORM_HIGH
 10
594572.59505934594
 20
1770295.362914582
 30
0.0
  0
VERTEX
  5
851
  8
CIVIC_PLATFORM_HIGH
 10
594563.39667610475
 20
1770302.5253431769
 30
0.0
  0
VERTEX
  5
852
  8
CIVIC_PLATFORM_HIGH
 10
594568.24976063985
 20
1770308.5034089619
 30
0.0
  0
VERTEX
  5
853
  8
CIVIC_PLATFORM_HIGH
 10
594576.82748040336
 20
1770300.8335427961
 30
0.0
  0
SEQEND
  5
854
  8
CIVIC_PLATFORM_HIGH
  0
POLYLINE
  5
23B
  8
CIVIC_PYRAMIDS
 66
     1
 10
0.0
 20
0.0
 30
0.0
 70
     1
  0
VERTEX
  5
855
  8
CIVIC_PYRAMIDS
 10
594545.90325799445
 20
1770287.636650187
 30
0.0
  0
VERTEX
  5
856
  8
CIVIC_PYRAMIDS
 10
594536.08421127591
 20
1770295.0809234369
 30
0.0
  0
VERTEX
  5
857
  8
CIVIC_PYRAMIDS
 10
594550.248229519
 20
1770312.5640814509
 30
0.0
  0
VERTEX
  5
858
  8
CIVIC_PYRAMIDS
 10
594560.01100100414
 20
1770305.1760599399
 30
0.0
  0
SEQEND
  5
859
  8
CIVIC_PYRAMIDS
  0
POLYLINE
  5
23C
  8
CIVIC_PYRAMIDS
 66
     1
 10
0.0
 20
0.0
 30
0.0
 70
     1
  0
VERTEX
  5
85A
  8
CIVIC_PYRAMIDS
 10
594504.62995469
 20
1770328.216421111
 30
0.0
  0
VERTEX
  5
85B
  8
CIVIC_PYRAMIDS
 10
594490.80162475875
 20
1770338.7352035311
 30
0.0
  0
VERTEX
  5
85C
  8
CIVIC_PYRAMIDS
 10
594501.94248510385
 20
1770352.4991546969
 30
0.0
  0
VERTEX
  5
85D
  8
CIVIC_PYRAMIDS
 10
594515.49074759334
 20
1770341.7565372279
 30
0.0
  0
SEQEND
  5
85E
  8
CIVIC_PYRAMIDS
  0
POLYLINE
  5
23D
  8
CIVIC_PYRAMIDS
 66
     1
 10
0.0
 20
0.0
 30
0.0
 70
     1
  0
VERTEX
  5
85F
  8
CIVIC_PYRAMIDS
 10
594445.44116902316
 20
1770364.7535376819
 30
0.0
  0
VERTEX
  5
860
  8
CIVIC_PYRAMIDS
 10
594454.51391453343
 20
1770380.7870414769
 30
0.0
  0
VERTEX
  5
861
  8
CIVIC_PYRAMIDS
 10
594463.03339597385
 20
1770375.479455417
 30
0.0
  0
VERTEX
  5
862
  8
CIVIC_PYRAMIDS
 10
594453.57326746022
 20
1770359.556550747
 30
0.0
  0
SEQEND
  5
863
  8
CIVIC_PYRAMIDS
  0
POLYLINE
  5
23E
  8
CIVIC_PYRAMIDS
 66
     1
 10
0.0
 20
0.0
 30
0.0
 70
     1
  0
VERTEX
  5
864
  8
CIVIC_PYRAMIDS
 10
594501.77398658462
 20
1770411.5398970861
 30
0.0
  0
VERTEX
  5
865
  8
CIVIC_PYRAMIDS
 10
594487.04754318693
 20
1770423.270728719
 30
0.0
  0
VERTEX
  5
866
  8
CIVIC_PYRAMIDS
 10
594498.67416434234
 20
1770437.8626441569
 30
0.0
  0
VERTEX
  5
867
  8
CIVIC_PYRAMIDS
 10
594513.86583849113
 20
1770425.7050770391
 30
0.0
  0
SEQEND
  5
868
  8
CIVIC_PYRAMIDS
  0
POLYLINE
  5
23F
  8
CIVIC_BALL_COURTS
 66
     1
 10
0.0
 20
0.0
 30
0.0
 70
     1
  0
VERTEX
  5
869
  8
CIVIC_BALL_COURTS
 10
594728.96427683765
 20
1770561.1548456049
 30
0.0
  0
VERTEX
  5
86A
  8
CIVIC_BALL_COURTS
 10
594711.30700445757
 20
1770579.893648217
 30
0.0
  0
VERTEX
  5
86B
  8
CIVIC_BALL_COURTS
 10
594718.22453441599
 20
1770586.6248945319
 30
0.0
  0
VERTEX
  5
86C
  8
CIVIC_BALL_COURTS
 10
594736.06379201123
 20
1770567.5224749059
 30
0.0
  0
SEQEND
  5
86D
  8
CIVIC_BALL_COURTS
  0
POLYLINE
  5
240
  8
CIVIC_BALL_COURTS
 66
     1
 10
0.0
 20
0.0
 30
0.0
 70
     1
  0
VERTEX
  5
86E
  8
CIVIC_BALL_COURTS
 10
594740.34201340447
 20
1770571.6156832981
 30
0.0
  0
VERTEX
  5
86F
  8
CIVIC_BALL_COURTS
 10
594722.59322547063
 20
1770590.263406053
 30
0.0
  0
VERTEX
  5
870
  8
CIVIC_BALL_COURTS
 10
594729.60174803657
 20
1770596.539955497
 30
0.0
  0
VERTEX
  5
871
  8
CIVIC_BALL_COURTS
 10
594747.25902041665
 20
1770577.52838159
 30
0.0
  0
SEQEND
  5
872
  8
CIVIC_BALL_COURTS
  0
POLYLINE
  5
241
  8
CIVIC_RANGE
 66
     1
 10
0.0
 20
0.0
 30
0.0
 70
     1
  0
VERTEX
  5
873
  8
CIVIC_RANGE
 10
594735.37298031815
 20
1770615.7713854089
 30
0.0
  0
VERTEX
  5
874
  8
CIVIC_RANGE
 10
594733.02861330844
 20
1770617.652453721
 30
0.0
  0
VERTEX
  5
875
  8
CIVIC_RANGE
 10
594739.70558809745
 20
1770625.85174812
 30
0.0
  0
VERTEX
  5
876
  8
CIVIC_RANGE
 10
594741.97883444838
 20
1770624.0060347151
 30
0.0
  0
SEQEND
  5
877
  8
CIVIC_RANGE
  0
POLYLINE
  5
242
  8
CIVIC_PYRAMIDS
 66
     1
 10
0.0
 20
0.0
 30
0.0
 70
     1
  0
VERTEX
  5
878
  8
CIVIC_PYRAMIDS
 10
594812.91384739045
 20
1770586.9079679181
 30
0.0
  0
VERTEX
  5
879
  8
CIVIC_PYRAMIDS
 10
594795.56040664832
 20
1770563.205196016
 30
0.0
  0
VERTEX
  5
87A
  8
CIVIC_PYRAMIDS
 10
594771.9880918311
 20
1770580.5485334629
 30
0.0
  0
VERTEX
  5
87B
  8
CIVIC_PYRAMIDS
 10
594790.35447901487
 20
1770604.684929776
 30
0.0
  0
SEQEND
  5
87C
  8
CIVIC_PYRAMIDS
  0
POLYLINE
  5
243
  8
CIVIC_RANGE
 66
     1
 10
0.0
 20
0.0
 30
0.0
 70
     1
  0
VERTEX
  5
87D
  8
CIVIC_RANGE
 10
594707.82156923146
 20
1770716.372014486
 30
0.0
  0
VERTEX
  5
87E
  8
CIVIC_RANGE
 10
594691.99879149115
 20
1770728.63993274
 30
0.0
  0
VERTEX
  5
87F
  8
CIVIC_RANGE
 10
594694.53246496001
 20
1770731.9600159689
 30
0.0
  0
VERTEX
  5
880
  8
CIVIC_RANGE
 10
594710.35524270043
 20
1770719.3544700691
 30
0.0
  0
SEQEND
  5
881
  8
CIVIC_RANGE
  0
POLYLINE
  5
244
  8
CIVIC_PYRAMIDS
 66
     1
 10
0.0
 20
0.0
 30
0.0
 70
     1
  0
VERTEX
  5
882
  8
CIVIC_PYRAMIDS
 10
595330.2378721867
 20
1770816.856170326
 30
0.0
  0
VERTEX
  5
883
  8
CIVIC_PYRAMIDS
 10
595321.74901033915
 20
1770821.22771877
 30
0.0
  0
VERTEX
  5
884
  8
CIVIC_PYRAMIDS
 10
595326.9274840533
 20
1770829.329602032
 30
0.0
  0
VERTEX
  5
885
  8
CIVIC_PYRAMIDS
 10
595334.99614831305
 20
1770825.1023083429
 30
0.0
  0
SEQEND
  5
886
  8
CIVIC_PYRAMIDS
  0
POLYLINE
  5
245
  8
CIVIC_PYRAMIDS
 66
     1
 10
0.0
 20
0.0
 30
0.0
 70
     1
  0
VERTEX
  5
887
  8
CIVIC_PYRAMIDS
 10
595144.89214489027
 20
1770896.9570203009
 30
0.0
  0
VERTEX
  5
888
  8
CIVIC_PYRAMIDS
 10
595137.10739400564
 20
1770901.1723089679
 30
0.0
  0
VERTEX
  5
889
  8
CIVIC_PYRAMIDS
 10
595141.00211245765
 20
1770908.0264708961
 30
0.0
  0
VERTEX
  5
88A
  8
CIVIC_PYRAMIDS
 10
595148.96571093844
 20
1770903.8268293671
 30
0.0
  0
SEQEND
  5
88B
  8
CIVIC_PYRAMIDS
  0
POLYLINE
  5
246
  8
CIVIC_PYRAMIDS
 66
     1
 10
0.0
 20
0.0
 30
0.0
 70
     1
  0
VERTEX
  5
88C
  8
CIVIC_PYRAMIDS
 10
594857.53450864961
 20
1770972.6436433981
 30
0.0
  0
VERTEX
  5
88D
  8
CIVIC_PYRAMIDS
 10
594851.62540542381
 20
1770977.9069353889
 30
0.0
  0
VERTEX
  5
88E
  8
CIVIC_PYRAMIDS
 10
594859.16252789798
 20
1770985.1649632149
 30
0.0
  0
VERTEX
  5
88F
  8
CIVIC_PYRAMIDS
 10
594864.70884732145
 20
1770979.5503967369
 30
0.0
  0
SEQEND
  5
890
  8
CIVIC_PYRAMIDS
  0
POLYLINE
  5
247
  8
CIVIC_PYRAMIDS
 66
     1
 10
0.0
 20
0.0
 30
0.0
 70
     1
  0
VERTEX
  5
891
  8
CIVIC_PYRAMIDS
 10
594062.96651332988
 20
1770641.6797375069
 30
0.0
  0
VERTEX
  5
892
  8
CIVIC_PYRAMIDS
 10
594055.27822102001
 20
1770647.927580602
 30
0.0
  0
VERTEX
  5
893
  8
CIVIC_PYRAMIDS
 10
594063.49098516279
 20
1770657.5876071651
 30
0.0
  0
VERTEX
  5
894
  8
CIVIC_PYRAMIDS
 10
594070.80010080955
 20
1770650.8040878689
 30
0.0
  0
SEQEND
  5
895
  8
CIVIC_PYRAMIDS
  0
POLYLINE
  5
248
  8
CIVIC_PYRAMIDS
 66
     1
 10
0.0
 20
0.0
 30
0.0
 70
     1
  0
VERTEX
  5
896
  8
CIVIC_PYRAMIDS
 10
594120.28146466077
 20
1770776.7414854879
 30
0.0
  0
VERTEX
  5
897
  8
CIVIC_PYRAMIDS
 10
594112.00229987002
 20
1770783.6163901801
 30
0.0
  0
VERTEX
  5
898
  8
CIVIC_PYRAMIDS
 10
594119.17704525962
 20
1770792.0362878309
 30
0.0
  0
VERTEX
  5
899
  8
CIVIC_PYRAMIDS
 10
594127.46298437985
 20
1770785.0321212269
 30
0.0
  0
SEQEND
  5
89A
  8
CIVIC_PYRAMIDS
  0
POLYLINE
  5
249
  8
CIVIC_PYRAMIDS
 66
     1
 10
0.0
 20
0.0
 30
0.0
 70
     1
  0
VERTEX
  5
89B
  8
CIVIC_PYRAMIDS
 10
595576.41489306372
 20
1772659.0091195051
 30
0.0
  0
VERTEX
  5
89C
  8
CIVIC_PYRAMIDS
 10
595562.84497995186
 20
1772670.4656384329
 30
0.0
  0
VERTEX
  5
89D
  8
CIVIC_PYRAMIDS
 10
595571.78229820612
 20
1772679.4286832679
 30
0.0
  0
VERTEX
  5
89E
  8
CIVIC_PYRAMIDS
 10
595585.30844544573
 20
1772667.8674835579
 30
0.0
  0
SEQEND
  5
89F
  8
CIVIC_PYRAMIDS
  0
POLYLINE
  5
24A
  8
CIVIC_PLATFORM_HIGH
 66
     1
 10
0.0
 20
0.0
 30
0.0
 70
     1
  0
VERTEX
  5
8A0
  8
CIVIC_PLATFORM_HIGH
 10
595597.59311030817
 20
1772655.1516476399
 30
0.0
  0
VERTEX
  5
8A1
  8
CIVIC_PLATFORM_HIGH
 10
595588.64226312074
 20
1772663.118150821
 30
0.0
  0
VERTEX
  5
8A2
  8
CIVIC_PLATFORM_HIGH
 10
595593.9325833075
 20
1772668.216401157
 30
0.0
  0
VERTEX
  5
8A3
  8
CIVIC_PLATFORM_HIGH
 10
595602.30884896184
 20
1772660.464040048
 30
0.0
  0
SEQEND
  5
8A4
  8
CIVIC_PLATFORM_HIGH
  0
POLYLINE
  5
24B
  8
CIVIC_RANGE
 66
     1
 10
0.0
 20
0.0
 30
0.0
 70
     1
  0
VERTEX
  5
8A5
  8
CIVIC_RANGE
 10
595753.66885224637
 20
1772776.3522311561
 30
0.0
  0
VERTEX
  5
8A6
  8
CIVIC_RANGE
 10
595742.7926114545
 20
1772785.9492346209
 30
0.0
  0
VERTEX
  5
8A7
  8
CIVIC_RANGE
 10
595746.1838341956
 20
1772789.575456487
 30
0.0
  0
VERTEX
  5
8A8
  8
CIVIC_RANGE
 10
595757.11146560428
 20
1772779.697149836
 30
0.0
  0
SEQEND
  5
8A9
  8
CIVIC_RANGE
  0
POLYLINE
  5
24C
  8
CIVIC_RANGE
 66
     1
 10
0.0
 20
0.0
 30
0.0
 70
     1
  0
VERTEX
  5
8AA
  8
CIVIC_RANGE
 10
595764.35179480677
 20
1772763.07816155
 30
0.0
  0
VERTEX
  5
8AB
  8
CIVIC_RANGE
 10
595753.51237962279
 20
1772771.9336631361
 30
0.0
  0
VERTEX
  5
8AC
  8
CIVIC_RANGE
 10
595759.37122350652
 20
1772778.1936294059
 30
0.0
  0
VERTEX
  5
8AD
  8
CIVIC_RANGE
 10
595769.64996264421
 20
1772768.7613227679
 30
0.0
  0
SEQEND
  5
8AE
  8
CIVIC_RANGE
  0
POLYLINE
  5
24D
  8
CIVIC_RANGE
 66
     1
 10
0.0
 20
0.0
 30
0.0
 70
     1
  0
VERTEX
  5
8AF
  8
CIVIC_RANGE
 10
595793.35821963241
 20
1772784.140254389
 30
0.0
  0
VERTEX
  5
8B0
  8
CIVIC_RANGE
 10
595780.35968400142
 20
1772794.9318602229
 30
0.0
  0
VERTEX
  5
8B1
  8
CIVIC_RANGE
 10
595784.01738234388
 20
1772799.035176649
 30
0.0
  0
VERTEX
  5
8B2
  8
CIVIC_RANGE
 10
595796.74851320439
 20
1772788.004184972
 30
0.0
  0
SEQEND
  5
8B3
  8
CIVIC_RANGE
  0
POLYLINE
  5
24E
  8
CIVIC_PYRAMIDS
 66
     1
 10
0.0
 20
0.0
 30
0.0
 70
     1
  0
VERTEX
  5
8B4
  8
CIVIC_PYRAMIDS
 10
595804.25430271833
 20
1772793.908265993
 30
0.0
  0
VERTEX
  5
8B5
  8
CIVIC_PYRAMIDS
 10
595795.80197419156
 20
1772804.4004972661
 30
0.0
  0
VERTEX
  5
8B6
  8
CIVIC_PYRAMIDS
 10
595804.36381664826
 20
1772811.265129921
 30
0.0
  0
VERTEX
  5
8B7
  8
CIVIC_PYRAMIDS
 10
595812.9711185433
 20
1772800.815210779
 30
0.0
  0
SEQEND
  5
8B8
  8
CIVIC_PYRAMIDS
  0
POLYLINE
  5
24F
  8
CIVIC_RANGE
 66
     1
 10
0.0
 20
0.0
 30
0.0
 70
     1
  0
VERTEX
  5
8B9
  8
CIVIC_RANGE
 10
595779.654519403
 20
1772841.797350053
 30
0.0
  0
VERTEX
  5
8BA
  8
CIVIC_RANGE
 10
595785.51078815549
 20
1772847.7216990839
 30
0.0
  0
VERTEX
  5
8BB
  8
CIVIC_RANGE
 10
595796.30869773112
 20
1772837.4972655009
 30
0.0
  0
VERTEX
  5
8BC
  8
CIVIC_RANGE
 10
595790.79500555201
 20
1772831.697053259
 30
0.0
  0
SEQEND
  5
8BD
  8
CIVIC_RANGE
  0
POLYLINE
  5
250
  8
CIVIC_PYRAMIDS
 66
     1
 10
0.0
 20
0.0
 30
0.0
 70
     1
  0
VERTEX
  5
8BE
  8
CIVIC_PYRAMIDS
 10
591903.38488247944
 20
1768549.1700389639
 30
0.0
  0
VERTEX
  5
8BF
  8
CIVIC_PYRAMIDS
 10
591910.82296123181
 20
1768556.9438419931
 30
0.0
  0
VERTEX
  5
8C0
  8
CIVIC_PYRAMIDS
 10
591922.82252037362
 20
1768547.048479222
 30
0.0
  0
VERTEX
  5
8C1
  8
CIVIC_PYRAMIDS
 10
591915.57312376495
 20
1768539.166120823
 30
0.0
  0
SEQEND
  5
8C2
  8
CIVIC_PYRAMIDS
  0
POLYLINE
  5
251
  8
CIVIC_PYRAMIDS
 66
     1
 10
0.0
 20
0.0
 30
0.0
 70
     1
  0
VERTEX
  5
8C3
  8
CIVIC_PYRAMIDS
 10
592046.61516689125
 20
1769098.2927668081
 30
0.0
  0
VERTEX
  5
8C4
  8
CIVIC_PYRAMIDS
 10
592036.82111977565
 20
1769100.2388098219
 30
0.0
  0
VERTEX
  5
8C5
  8
CIVIC_PYRAMIDS
 10
592039.42150096036
 20
1769111.7969283459
 30
0.0
  0
VERTEX
  5
8C6
  8
CIVIC_PYRAMIDS
 10
592049.49857109936
 20
1769109.7171480721
 30
0.0
  0
SEQEND
  5
8C7
  8
CIVIC_PYRAMIDS
  0
POLYLINE
  5
252
  8
CIVIC_RANGE
 66
     1
 10
0.0
 20
0.0
 30
0.0
 70
     1
  0
VERTEX
  5
8C8
  8
CIVIC_RANGE
 10
591719.35498800152
 20
1769054.035554149
 30
0.0
  0
VERTEX
  5
8C9
  8
CIVIC_RANGE
 10
591714.12376595836
 20
1769059.5647991761
 30
0.0
  0
VERTEX
  5
8CA
  8
CIVIC_RANGE
 10
591724.34620878706
 20
1769069.273480264
 30
0.0
  0
VERTEX
  5
8CB
  8
CIVIC_RANGE
 10
591729.59022232261
 20
1769063.0114111269
 30
0.0
  0
SEQEND
  5
8CC
  8
CIVIC_RANGE
  0
POLYLINE
  5
253
  8
CIVIC_RANGE
 66
     1
 10
0.0
 20
0.0
 30
0.0
 70
     1
  0
VERTEX
  5
8CD
  8
CIVIC_RANGE
 10
591698.04459985951
 20
1769035.2139047571
 30
0.0
  0
VERTEX
  5
8CE
  8
CIVIC_RANGE
 10
591691.68591066322
 20
1769042.3117917459
 30
0.0
  0
VERTEX
  5
8CF
  8
CIVIC_RANGE
 10
591710.23201629205
 20
1769058.397139438
 30
0.0
  0
VERTEX
  5
8D0
  8
CIVIC_RANGE
 10
591716.2159791165
 20
1769051.781620387
 30
0.0
  0
SEQEND
  5
8D1
  8
CIVIC_RANGE
  0
POLYLINE
  5
254
  8
CIVIC_PLATFORM_SQUARISH
 66
     1
 10
0.0
 20
0.0
 30
0.0
 70
     1
  0
VERTEX
  5
8D2
  8
CIVIC_PLATFORM_SQUARISH
 10
591684.00485122309
 20
1769066.5887332261
 30
0.0
  0
VERTEX
  5
8D3
  8
CIVIC_PLATFORM_SQUARISH
 10
591680.92561700265
 20
1769068.9637374261
 30
0.0
  0
VERTEX
  5
8D4
  8
CIVIC_PLATFORM_SQUARISH
 10
591685.17476165085
 20
1769073.515780645
 30
0.0
  0
VERTEX
  5
8D5
  8
CIVIC_PLATFORM_SQUARISH
 10
591688.10636003572
 20
1769070.910484171
 30
0.0
  0
SEQEND
  5
8D6
  8
CIVIC_PLATFORM_SQUARISH
  0
POLYLINE
  5
256
  8
CIVIC_PLATFORM_SQUARISH
 66
     1
 10
0.0
 20
0.0
 30
0.0
 70
     1
  0
VERTEX
  5
8D7
  8
CIVIC_PLATFORM_SQUARISH
 10
591676.51622322714
 20
1769073.5923605741
 30
0.0
  0
VERTEX
  5
8D8
  8
CIVIC_PLATFORM_SQUARISH
 10
591673.89662947971
 20
1769077.2072745019
 30
0.0
  0
VERTEX
  5
8D9
  8
CIVIC_PLATFORM_SQUARISH
 10
591678.60416391422
 20
1769080.155801527
 30
0.0
  0
VERTEX
  5
8DA
  8
CIVIC_PLATFORM_SQUARISH
 10
591681.17411222088
 20
1769076.4817316751
 30
0.0
  0
SEQEND
  5
8DB
  8
CIVIC_PLATFORM_SQUARISH
  0
POLYLINE
  5
257
  8
CIVIC_RANGE
 66
     1
 10
0.0
 20
0.0
 30
0.0
 70
     1
  0
VERTEX
  5
8DC
  8
CIVIC_RANGE
 10
591674.90581610659
 20
1769046.5548814209
 30
0.0
  0
VERTEX
  5
8DD
  8
CIVIC_RANGE
 10
591660.84436037194
 20
1769057.5192830691
 30
0.0
  0
VERTEX
  5
8DE
  8
CIVIC_RANGE
 10
591665.69964884198
 20
1769062.6668284801
 30
0.0
  0
VERTEX
  5
8DF
  8
CIVIC_RANGE
 10
591679.87912611151
 20
1769051.8248191129
 30
0.0
  0
SEQEND
  5
8E0
  8
CIVIC_RANGE
  0
POLYLINE
  5
258
  8
CIVIC_RANGE
 66
     1
 10
0.0
 20
0.0
 30
0.0
 70
     1
  0
VERTEX
  5
8E1
  8
CIVIC_RANGE
 10
591774.61174773995
 20
1769106.84113772
 30
0.0
  0
VERTEX
  5
8E2
  8
CIVIC_RANGE
 10
591769.18014299602
 20
1769112.22128624
 30
0.0
  0
VERTEX
  5
8E3
  8
CIVIC_RANGE
 10
591782.69980088272
 20
1769123.6415355799
 30
0.0
  0
VERTEX
  5
8E4
  8
CIVIC_RANGE
 10
591787.98271328106
 20
1769118.7265396549
 30
0.0
  0
SEQEND
  5
8E5
  8
CIVIC_RANGE
  0
POLYLINE
  5
259
  8
CIVIC_PYRAMIDS
 66
     1
 10
0.0
 20
0.0
 30
0.0
 70
     1
  0
VERTEX
  5
8E6
  8
CIVIC_PYRAMIDS
 10
591784.1218642944
 20
1769133.2989352241
 30
0.0
  0
VERTEX
  5
8E7
  8
CIVIC_PYRAMIDS
 10
591768.21220751654
 20
1769138.6351549949
 30
0.0
  0
VERTEX
  5
8E8
  8
CIVIC_PYRAMIDS
 10
591776.42190322338
 20
1769159.4607513619
 30
0.0
  0
VERTEX
  5
8E9
  8
CIVIC_PYRAMIDS
 10
591791.95729091798
 20
1769154.4136179809
 30
0.0
  0
SEQEND
  5
8EA
  8
CIVIC_PYRAMIDS
  0
POLYLINE
  5
25A
  8
CIVIC_PYRAMIDS
 66
     1
 10
0.0
 20
0.0
 30
0.0
 70
     1
  0
VERTEX
  5
8EB
  8
CIVIC_PYRAMIDS
 10
591734.0660705528
 20
1769096.7474980911
 30
0.0
  0
VERTEX
  5
8EC
  8
CIVIC_PYRAMIDS
 10
591728.29248709464
 20
1769103.4740723991
 30
0.0
  0
VERTEX
  5
8ED
  8
CIVIC_PYRAMIDS
 10
591736.17389841971
 20
1769110.65944666
 30
0.0
  0
VERTEX
  5
8EE
  8
CIVIC_PYRAMIDS
 10
591742.09698909009
 20
1769103.7886198659
 30
0.0
  0
SEQEND
  5
8EF
  8
CIVIC_PYRAMIDS
  0
POLYLINE
  5
25B
  8
CIVIC_RANGE
 66
     1
 10
0.0
 20
0.0
 30
0.0
 70
     1
  0
VERTEX
  5
8F0
  8
CIVIC_RANGE
 10
591717.76661050599
 20
1769087.256154822
 30
0.0
  0
VERTEX
  5
8F1
  8
CIVIC_RANGE
 10
591704.33138253307
 20
1769099.002118777
 30
0.0
  0
VERTEX
  5
8F2
  8
CIVIC_RANGE
 10
591707.19844110694
 20
1769102.2663914971
 30
0.0
  0
VERTEX
  5
8F3
  8
CIVIC_RANGE
 10
591720.49113246019
 20
1769090.298751754
 30
0.0
  0
SEQEND
  5
8F4
  8
CIVIC_RANGE
  0
POLYLINE
  5
25C
  8
CIVIC_PLATFORM_HIGH
 66
     1
 10
0.0
 20
0.0
 30
0.0
 70
     1
  0
VERTEX
  5
8F5
  8
CIVIC_PLATFORM_HIGH
 10
591711.68298989639
 20
1769112.7472468179
 30
0.0
  0
VERTEX
  5
8F6
  8
CIVIC_PLATFORM_HIGH
 10
591703.69774846896
 20
1769122.9722254011
 30
0.0
  0
VERTEX
  5
8F7
  8
CIVIC_PLATFORM_HIGH
 10
591714.15126736299
 20
1769131.5394152191
 30
0.0
  0
VERTEX
  5
8F8
  8
CIVIC_PLATFORM_HIGH
 10
591722.71903879219
 20
1769121.3246047341
 30
0.0
  0
SEQEND
  5
8F9
  8
CIVIC_PLATFORM_HIGH
  0
POLYLINE
  5
25D
  8
CIVIC_PYRAMIDS
 66
     1
 10
0.0
 20
0.0
 30
0.0
 70
     1
  0
VERTEX
  5
8FA
  8
CIVIC_PYRAMIDS
 10
591686.11612718925
 20
1769098.8828289961
 30
0.0
  0
VERTEX
  5
8FB
  8
CIVIC_PYRAMIDS
 10
591677.5221250524
 20
1769108.461726499
 30
0.0
  0
VERTEX
  5
8FC
  8
CIVIC_PYRAMIDS
 10
591685.82347151055
 20
1769115.6490616
 30
0.0
  0
VERTEX
  5
8FD
  8
CIVIC_PYRAMIDS
 10
591695.01150766865
 20
1769105.3544339309
 30
0.0
  0
SEQEND
  5
8FE
  8
CIVIC_PYRAMIDS
  0
POLYLINE
  5
25E
  8
CIVIC_RANGE
 66
     1
 10
0.0
 20
0.0
 30
0.0
 70
     1
  0
VERTEX
  5
8FF
  8
CIVIC_RANGE
 10
591658.73414755089
 20
1769061.0204055731
 30
0.0
  0
VERTEX
  5
900
  8
CIVIC_RANGE
 10
591642.25583560346
 20
1769079.6868353609
 30
0.0
  0
VERTEX
  5
901
  8
CIVIC_RANGE
 10
591647.86751962826
 20
1769084.541226116
 30
0.0
  0
VERTEX
  5
902
  8
CIVIC_RANGE
 10
591664.42065070849
 20
1769065.732082651
 30
0.0
  0
SEQEND
  5
903
  8
CIVIC_RANGE
  0
POLYLINE
  5
25F
  8
CIVIC_BALL_COURTS
 66
     1
 10
0.0
 20
0.0
 30
0.0
 70
     1
  0
VERTEX
  5
904
  8
CIVIC_BALL_COURTS
 10
591661.36494428827
 20
1769088.179288775
 30
0.0
  0
VERTEX
  5
905
  8
CIVIC_BALL_COURTS
 10
591656.23836188274
 20
1769093.7621568351
 30
0.0
  0
VERTEX
  5
906
  8
CIVIC_BALL_COURTS
 10
591670.56511711096
 20
1769104.423967653
 30
0.0
  0
VERTEX
  5
907
  8
CIVIC_BALL_COURTS
 10
591675.55143472622
 20
1769098.6229376199
 30
0.0
  0
SEQEND
  5
908
  8
CIVIC_BALL_COURTS
  0
POLYLINE
  5
260
  8
CIVIC_BALL_COURTS
 66
     1
 10
0.0
 20
0.0
 30
0.0
 70
     1
  0
VERTEX
  5
909
  8
CIVIC_BALL_COURTS
 10
591652.20632603427
 20
1769098.35915105
 30
0.0
  0
VERTEX
  5
90A
  8
CIVIC_BALL_COURTS
 10
591646.65077591781
 20
1769104.1045656891
 30
0.0
  0
VERTEX
  5
90B
  8
CIVIC_BALL_COURTS
 10
591660.67973023746
 20
1769115.679997019
 30
0.0
  0
VERTEX
  5
90C
  8
CIVIC_BALL_COURTS
 10
591665.81926879007
 20
1769109.9193810951
 30
0.0
  0
SEQEND
  5
90D
  8
CIVIC_BALL_COURTS
  0
POLYLINE
  5
261
  8
CIVIC_PYRAMIDS
 66
     1
 10
0.0
 20
0.0
 30
0.0
 70
     1
  0
VERTEX
  5
90E
  8
CIVIC_PYRAMIDS
 10
591649.76396079035
 20
1769140.204129325
 30
0.0
  0
VERTEX
  5
90F
  8
CIVIC_PYRAMIDS
 10
591667.25686281105
 20
1769153.7706468529
 30
0.0
  0
VERTEX
  5
910
  8
CIVIC_PYRAMIDS
 10
591672.98027205945
 20
1769147.011297662
 30
0.0
  0
VERTEX
  5
911
  8
CIVIC_PYRAMIDS
 10
591655.83223560406
 20
1769133.3364683951
 30
0.0
  0
SEQEND
  5
912
  8
CIVIC_PYRAMIDS
  0
POLYLINE
  5
262
  8
CIVIC_RANGE
 66
     1
 10
0.0
 20
0.0
 30
0.0
 70
     1
  0
VERTEX
  5
913
  8
CIVIC_RANGE
 10
591725.10739918228
 20
1769189.941439647
 30
0.0
  0
VERTEX
  5
914
  8
CIVIC_RANGE
 10
591715.19010814757
 20
1769203.1514218459
 30
0.0
  0
VERTEX
  5
915
  8
CIVIC_RANGE
 10
591721.86784769711
 20
1769208.2511884519
 30
0.0
  0
VERTEX
  5
916
  8
CIVIC_RANGE
 10
591731.68130630173
 20
1769195.375755534
 30
0.0
  0
SEQEND
  5
917
  8
CIVIC_RANGE
  0
POLYLINE
  5
263
  8
CIVIC_RANGE
 66
     1
 10
0.0
 20
0.0
 30
0.0
 70
     1
  0
VERTEX
  5
918
  8
CIVIC_RANGE
 10
591704.24577249831
 20
1769193.5637372481
 30
0.0
  0
VERTEX
  5
919
  8
CIVIC_RANGE
 10
591695.78564741684
 20
1769200.819496399
 30
0.0
  0
VERTEX
  5
91A
  8
CIVIC_RANGE
 10
591705.63190976542
 20
1769212.0963524061
 30
0.0
  0
VERTEX
  5
91B
  8
CIVIC_RANGE
 10
591714.37965719961
 20
1769204.703489068
 30
0.0
  0
SEQEND
  5
91C
  8
CIVIC_RANGE
  0
POLYLINE
  5
264
  8
CIVIC_RANGE
 66
     1
 10
0.0
 20
0.0
 30
0.0
 70
     1
  0
VERTEX
  5
91D
  8
CIVIC_RANGE
 10
591688.74158487748
 20
1769179.9813996491
 30
0.0
  0
VERTEX
  5
91E
  8
CIVIC_RANGE
 10
591681.44819285721
 20
1769185.6913105049
 30
0.0
  0
VERTEX
  5
91F
  8
CIVIC_RANGE
 10
591693.96531888261
 20
1769199.0080059359
 30
0.0
  0
VERTEX
  5
920
  8
CIVIC_RANGE
 10
591700.90052635234
 20
1769193.4342834321
 30
0.0
  0
SEQEND
  5
921
  8
CIVIC_RANGE
  0
POLYLINE
  5
265
  8
CIVIC_PYRAMIDS
 66
     1
 10
0.0
 20
0.0
 30
0.0
 70
     1
  0
VERTEX
  5
922
  8
CIVIC_PYRAMIDS
 10
591660.6375878097
 20
1769341.4440974931
 30
0.0
  0
VERTEX
  5
923
  8
CIVIC_PYRAMIDS
 10
591665.934864857
 20
1769346.432914081
 30
0.0
  0
VERTEX
  5
924
  8
CIVIC_PYRAMIDS
 10
591670.5230811839
 20
1769341.484315576
 30
0.0
  0
VERTEX
  5
925
  8
CIVIC_PYRAMIDS
 10
591664.86935131776
 20
1769336.6661433191
 30
0.0
  0
SEQEND
  5
926
  8
CIVIC_PYRAMIDS
  0
POLYLINE
  5
266
  8
CIVIC_RANGE
 66
     1
 10
0.0
 20
0.0
 30
0.0
 70
     1
  0
VERTEX
  5
927
  8
CIVIC_RANGE
 10
591732.41082561004
 20
1769353.81452618
 30
0.0
  0
VERTEX
  5
928
  8
CIVIC_RANGE
 10
591740.75873222365
 20
1769347.139835166
 30
0.0
  0
VERTEX
  5
929
  8
CIVIC_RANGE
 10
591736.2865088518
 20
1769341.3663635519
 30
0.0
  0
VERTEX
  5
92A
  8
CIVIC_RANGE
 10
591727.71524736239
 20
1769348.740199184
 30
0.0
  0
SEQEND
  5
92B
  8
CIVIC_RANGE
  0
POLYLINE
  5
267
  8
CIVIC_RANGE
 66
     1
 10
0.0
 20
0.0
 30
0.0
 70
     1
  0
VERTEX
  5
92C
  8
CIVIC_RANGE
 10
591751.18854161748
 20
1769236.8654489729
 30
0.0
  0
VERTEX
  5
92D
  8
CIVIC_RANGE
 10
591754.94352491968
 20
1769241.4240265349
 30
0.0
  0
VERTEX
  5
92E
  8
CIVIC_RANGE
 10
591763.82696821901
 20
1769234.34399519
 30
0.0
  0
VERTEX
  5
92F
  8
CIVIC_RANGE
 10
591759.61303724977
 20
1769229.579063813
 30
0.0
  0
SEQEND
  5
930
  8
CIVIC_RANGE
  0
POLYLINE
  5
268
  8
CIVIC_PYRAMIDS
 66
     1
 10
0.0
 20
0.0
 30
0.0
 70
     1
  0
VERTEX
  5
931
  8
CIVIC_PYRAMIDS
 10
593588.7367430774
 20
1772676.1216679949
 30
0.0
  0
VERTEX
  5
932
  8
CIVIC_PYRAMIDS
 10
593594.49357972422
 20
1772671.8396983701
 30
0.0
  0
VERTEX
  5
933
  8
CIVIC_PYRAMIDS
 10
593589.62611258263
 20
1772665.250936009
 30
0.0
  0
VERTEX
  5
934
  8
CIVIC_PYRAMIDS
 10
593583.60565379437
 20
1772669.7784216369
 30
0.0
  0
SEQEND
  5
935
  8
CIVIC_PYRAMIDS
  0
POLYLINE
  5
269
  8
CIVIC_PYRAMIDS
 66
     1
 10
0.0
 20
0.0
 30
0.0
 70
     1
  0
VERTEX
  5
936
  8
CIVIC_PYRAMIDS
 10
592010.26156754384
 20
1772908.5375970451
 30
0.0
  0
VERTEX
  5
937
  8
CIVIC_PYRAMIDS
 10
592020.14632414363
 20
1772917.576634737
 30
0.0
  0
VERTEX
  5
938
  8
CIVIC_PYRAMIDS
 10
592025.77076162654
 20
1772910.900619481
 30
0.0
  0
VERTEX
  5
939
  8
CIVIC_PYRAMIDS
 10
592015.79844206129
 20
1772901.9093995369
 30
0.0
  0
SEQEND
  5
93A
  8
CIVIC_PYRAMIDS
  0
POLYLINE
  5
26A
  8
CIVIC_PYRAMIDS
 66
     1
 10
0.0
 20
0.0
 30
0.0
 70
     1
  0
VERTEX
  5
93B
  8
CIVIC_PYRAMIDS
 10
592401.27814309625
 20
1772778.142980597
 30
0.0
  0
VERTEX
  5
93C
  8
CIVIC_PYRAMIDS
 10
592394.53338354465
 20
1772770.5480782459
 30
0.0
  0
VERTEX
  5
93D
  8
CIVIC_PYRAMIDS
 10
592400.99770252337
 20
1772764.3145927461
 30
0.0
  0
VERTEX
  5
93E
  8
CIVIC_PYRAMIDS
 10
592407.8242884255
 20
1772772.3115275849
 30
0.0
  0
SEQEND
  5
93F
  8
CIVIC_PYRAMIDS
  0
POLYLINE
  5
26B
  8
CIVIC_PYRAMIDS
 66
     1
 10
0.0
 20
0.0
 30
0.0
 70
     1
  0
VERTEX
  5
940
  8
CIVIC_PYRAMIDS
 10
592741.72413588152
 20
1773625.0795188369
 30
0.0
  0
VERTEX
  5
941
  8
CIVIC_PYRAMIDS
 10
592733.41522029112
 20
1773634.361412948
 30
0.0
  0
VERTEX
  5
942
  8
CIVIC_PYRAMIDS
 10
592741.37842528569
 20
1773641.2631440449
 30
0.0
  0
VERTEX
  5
943
  8
CIVIC_PYRAMIDS
 10
592749.43049825111
 20
1773631.641015684
 30
0.0
  0
SEQEND
  5
944
  8
CIVIC_PYRAMIDS
  0
POLYLINE
  5
26C
  8
CIVIC_PYRAMIDS
 66
     1
 10
0.0
 20
0.0
 30
0.0
 70
     1
  0
VERTEX
  5
945
  8
CIVIC_PYRAMIDS
 10
592817.27830414474
 20
1773744.5824205531
 30
0.0
  0
VERTEX
  5
946
  8
CIVIC_PYRAMIDS
 10
592806.53626956255
 20
1773753.7763271411
 30
0.0
  0
VERTEX
  5
947
  8
CIVIC_PYRAMIDS
 10
592816.93159351696
 20
1773765.8777924089
 30
0.0
  0
VERTEX
  5
948
  8
CIVIC_PYRAMIDS
 10
592827.85053719569
 20
1773756.7718521049
 30
0.0
  0
SEQEND
  5
949
  8
CIVIC_PYRAMIDS
  0
POLYLINE
  5
26D
  8
CIVIC_PYRAMIDS
 66
     1
 10
0.0
 20
0.0
 30
0.0
 70
     1
  0
VERTEX
  5
94A
  8
CIVIC_PYRAMIDS
 10
592666.57512942085
 20
1773776.510304397
 30
0.0
  0
VERTEX
  5
94B
  8
CIVIC_PYRAMIDS
 10
592656.81195558747
 20
1773763.9088900089
 30
0.0
  0
VERTEX
  5
94C
  8
CIVIC_PYRAMIDS
 10
592668.68164050323
 20
1773754.4472582231
 30
0.0
  0
VERTEX
  5
94D
  8
CIVIC_PYRAMIDS
 10
592678.50122919935
 20
1773767.3547041051
 30
0.0
  0
SEQEND
  5
94E
  8
CIVIC_PYRAMIDS
  0
POLYLINE
  5
26E
  8
CIVIC_PYRAMIDS
 66
     1
 10
0.0
 20
0.0
 30
0.0
 70
     1
  0
VERTEX
  5
94F
  8
CIVIC_PYRAMIDS
 10
592615.31699054223
 20
1774779.8531483449
 30
0.0
  0
VERTEX
  5
950
  8
CIVIC_PYRAMIDS
 10
592608.8296391879
 20
1774787.614670286
 30
0.0
  0
VERTEX
  5
951
  8
CIVIC_PYRAMIDS
 10
592617.44540878071
 20
1774795.015243046
 30
0.0
  0
VERTEX
  5
952
  8
CIVIC_PYRAMIDS
 10
592623.90867005102
 20
1774787.487243664
 30
0.0
  0
SEQEND
  5
953
  8
CIVIC_PYRAMIDS
  0
POLYLINE
  5
26F
  8
CIVIC_PYRAMIDS
 66
     1
 10
0.0
 20
0.0
 30
0.0
 70
     1
  0
VERTEX
  5
954
  8
CIVIC_PYRAMIDS
 10
590890.3525353946
 20
1772712.8152744099
 30
0.0
  0
VERTEX
  5
955
  8
CIVIC_PYRAMIDS
 10
590881.40186352027
 20
1772719.5456593761
 30
0.0
  0
VERTEX
  5
956
  8
CIVIC_PYRAMIDS
 10
590891.72675632848
 20
1772732.179433163
 30
0.0
  0
VERTEX
  5
957
  8
CIVIC_PYRAMIDS
 10
590900.9525934835
 20
1772724.9363356261
 30
0.0
  0
SEQEND
  5
958
  8
CIVIC_PYRAMIDS
  0
POLYLINE
  5
270
  8
CIVIC_PYRAMIDS
 66
     1
 10
0.0
 20
0.0
 30
0.0
 70
     1
  0
VERTEX
  5
959
  8
CIVIC_PYRAMIDS
 10
591036.08574585931
 20
1773013.3031904921
 30
0.0
  0
VERTEX
  5
95A
  8
CIVIC_PYRAMIDS
 10
591029.61298397894
 20
1773006.697193125
 30
0.0
  0
VERTEX
  5
95B
  8
CIVIC_PYRAMIDS
 10
591036.29062603274
 20
1773001.478393499
 30
0.0
  0
VERTEX
  5
95C
  8
CIVIC_PYRAMIDS
 10
591042.57911524316
 20
1773008.8381428381
 30
0.0
  0
SEQEND
  5
95D
  8
CIVIC_PYRAMIDS
  0
POLYLINE
  5
271
  8
CIVIC_PYRAMIDS
 66
     1
 10
0.0
 20
0.0
 30
0.0
 70
     1
  0
VERTEX
  5
95E
  8
CIVIC_PYRAMIDS
 10
591522.48290360381
 20
1774964.646550921
 30
0.0
  0
VERTEX
  5
95F
  8
CIVIC_PYRAMIDS
 10
591507.75232472841
 20
1774977.4466957019
 30
0.0
  0
VERTEX
  5
960
  8
CIVIC_PYRAMIDS
 10
591520.21984643233
 20
1774991.307703523
 30
0.0
  0
VERTEX
  5
961
  8
CIVIC_PYRAMIDS
 10
591534.83073867811
 20
1774978.2888793941
 30
0.0
  0
SEQEND
  5
962
  8
CIVIC_PYRAMIDS
  0
POLYLINE
  5
272
  8
CIVIC_RANGE
 66
     1
 10
0.0
 20
0.0
 30
0.0
 70
     1
  0
VERTEX
  5
963
  8
CIVIC_RANGE
 10
590613.74161008245
 20
1776898.6161649739
 30
0.0
  0
VERTEX
  5
964
  8
CIVIC_RANGE
 10
590609.15037367609
 20
1776893.836455506
 30
0.0
  0
VERTEX
  5
965
  8
CIVIC_RANGE
 10
590598.79019046505
 20
1776905.159386233
 30
0.0
  0
VERTEX
  5
966
  8
CIVIC_RANGE
 10
590603.96615662775
 20
1776909.4547471099
 30
0.0
  0
SEQEND
  5
967
  8
CIVIC_RANGE
  0
POLYLINE
  5
273
  8
CIVIC_PYRAMIDS
 66
     1
 10
0.0
 20
0.0
 30
0.0
 70
     1
  0
VERTEX
  5
968
  8
CIVIC_PYRAMIDS
 10
590706.43493727781
 20
1775923.075014876
 30
0.0
  0
VERTEX
  5
969
  8
CIVIC_PYRAMIDS
 10
590698.68746121065
 20
1775930.117918557
 30
0.0
  0
VERTEX
  5
96A
  8
CIVIC_PYRAMIDS
 10
590705.51201304328
 20
1775937.225285664
 30
0.0
  0
VERTEX
  5
96B
  8
CIVIC_PYRAMIDS
 10
590713.46100264392
 20
1775929.541226313
 30
0.0
  0
SEQEND
  5
96C
  8
CIVIC_PYRAMIDS
  0
POLYLINE
  5
274
  8
CIVIC_PLATFORM_HIGH
 66
     1
 10
0.0
 20
0.0
 30
0.0
 70
     1
  0
VERTEX
  5
96D
  8
CIVIC_PLATFORM_HIGH
 10
590733.86534593755
 20
1775898.15368974
 30
0.0
  0
VERTEX
  5
96E
  8
CIVIC_PLATFORM_HIGH
 10
590741.34636281955
 20
1775906.3123395441
 30
0.0
  0
VERTEX
  5
96F
  8
CIVIC_PLATFORM_HIGH
 10
590751.93678720482
 20
1775897.6257164211
 30
0.0
  0
VERTEX
  5
970
  8
CIVIC_PLATFORM_HIGH
 10
590744.66655642737
 20
1775889.357136175
 30
0.0
  0
SEQEND
  5
971
  8
CIVIC_PLATFORM_HIGH
  0
POLYLINE
  5
275
  8
CIVIC_RANGE
 66
     1
 10
0.0
 20
0.0
 30
0.0
 70
     1
  0
VERTEX
  5
972
  8
CIVIC_RANGE
 10
590602.62969150546
 20
1776101.3480561641
 30
0.0
  0
VERTEX
  5
973
  8
CIVIC_RANGE
 10
590607.12955149566
 20
1776106.6176826579
 30
0.0
  0
VERTEX
  5
974
  8
CIVIC_RANGE
 10
590618.81876392046
 20
1776096.870835419
 30
0.0
  0
VERTEX
  5
975
  8
CIVIC_RANGE
 10
590614.00041540619
 20
1776091.3970230611
 30
0.0
  0
SEQEND
  5
976
  8
CIVIC_RANGE
  0
POLYLINE
  5
276
  8
CIVIC_PYRAMIDS
 66
     1
 10
0.0
 20
0.0
 30
0.0
 70
     1
  0
VERTEX
  5
977
  8
CIVIC_PYRAMIDS
 10
589890.31350569776
 20
1776427.1935765131
 30
0.0
  0
VERTEX
  5
978
  8
CIVIC_PYRAMIDS
 10
589896.53484533424
 20
1776434.307829268
 30
0.0
  0
VERTEX
  5
979
  8
CIVIC_PYRAMIDS
 10
589903.41675954161
 20
1776428.8490849379
 30
0.0
  0
VERTEX
  5
97A
  8
CIVIC_PYRAMIDS
 10
589896.81402770267
 20
1776421.490287646
 30
0.0
  0
SEQEND
  5
97B
  8
CIVIC_PYRAMIDS
  0
POLYLINE
  5
277
  8
CIVIC_PYRAMIDS
 66
     1
 10
0.0
 20
0.0
 30
0.0
 70
     1
  0
VERTEX
  5
97C
  8
CIVIC_PYRAMIDS
 10
589754.11729800235
 20
1776439.0618724071
 30
0.0
  0
VERTEX
  5
97D
  8
CIVIC_PYRAMIDS
 10
589761.23070136423
 20
1776454.7889883691
 30
0.0
  0
VERTEX
  5
97E
  8
CIVIC_PYRAMIDS
 10
589776.04523745982
 20
1776449.2653052779
 30
0.0
  0
VERTEX
  5
97F
  8
CIVIC_PYRAMIDS
 10
589769.36024089728
 20
1776432.6615561349
 30
0.0
  0
SEQEND
  5
980
  8
CIVIC_PYRAMIDS
  0
POLYLINE
  5
278
  8
CIVIC_PYRAMIDS
 66
     1
 10
0.0
 20
0.0
 30
0.0
 70
     1
  0
VERTEX
  5
981
  8
CIVIC_PYRAMIDS
 10
589912.26172269101
 20
1776433.6496691641
 30
0.0
  0
VERTEX
  5
982
  8
CIVIC_PYRAMIDS
 10
589924.61372079107
 20
1776447.924988938
 30
0.0
  0
VERTEX
  5
983
  8
CIVIC_PYRAMIDS
 10
589937.25188949483
 20
1776436.757992272
 30
0.0
  0
VERTEX
  5
984
  8
CIVIC_PYRAMIDS
 10
589924.65014043241
 20
1776423.112558115
 30
0.0
  0
SEQEND
  5
985
  8
CIVIC_PYRAMIDS
  0
POLYLINE
  5
279
  8
CIVIC_RANGE
 66
     1
 10
0.0
 20
0.0
 30
0.0
 70
     1
  0
VERTEX
  5
986
  8
CIVIC_RANGE
 10
589928.3654677606
 20
1776450.0764321759
 30
0.0
  0
VERTEX
  5
987
  8
CIVIC_RANGE
 10
589934.71790562256
 20
1776457.166601494
 30
0.0
  0
VERTEX
  5
988
  8
CIVIC_RANGE
 10
589939.73271503556
 20
1776452.5012413331
 30
0.0
  0
VERTEX
  5
989
  8
CIVIC_RANGE
 10
589933.22678763873
 20
1776445.4651863291
 30
0.0
  0
SEQEND
  5
98A
  8
CIVIC_RANGE
  0
POLYLINE
  5
27A
  8
CIVIC_PYRAMIDS
 66
     1
 10
0.0
 20
0.0
 30
0.0
 70
     1
  0
VERTEX
  5
98B
  8
CIVIC_PYRAMIDS
 10
589941.24038191931
 20
1776453.349355191
 30
0.0
  0
VERTEX
  5
98C
  8
CIVIC_PYRAMIDS
 10
589946.23692918767
 20
1776459.4344559531
 30
0.0
  0
VERTEX
  5
98D
  8
CIVIC_PYRAMIDS
 10
589961.22241342068
 20
1776447.959824896
 30
0.0
  0
VERTEX
  5
98E
  8
CIVIC_PYRAMIDS
 10
589956.16542792157
 20
1776441.3613948179
 30
0.0
  0
SEQEND
  5
98F
  8
CIVIC_PYRAMIDS
  0
POLYLINE
  5
27B
  8
CIVIC_RANGE
 66
     1
 10
0.0
 20
0.0
 30
0.0
 70
     1
  0
VERTEX
  5
990
  8
CIVIC_RANGE
 10
589957.6174288101
 20
1776456.715453686
 30
0.0
  0
VERTEX
  5
991
  8
CIVIC_RANGE
 10
589965.49368910189
 20
1776465.579287468
 30
0.0
  0
VERTEX
  5
992
  8
CIVIC_RANGE
 10
589970.06149343855
 20
1776461.847595236
 30
0.0
  0
VERTEX
  5
993
  8
CIVIC_RANGE
 10
589962.80367893702
 20
1776453.024401586
 30
0.0
  0
SEQEND
  5
994
  8
CIVIC_RANGE
  0
POLYLINE
  5
27C
  8
CIVIC_RANGE
 66
     1
 10
0.0
 20
0.0
 30
0.0
 70
     1
  0
VERTEX
  5
995
  8
CIVIC_RANGE
 10
589945.57244205545
 20
1776409.0816932691
 30
0.0
  0
VERTEX
  5
996
  8
CIVIC_RANGE
 10
589960.9206759599
 20
1776425.178173865
 30
0.0
  0
VERTEX
  5
997
  8
CIVIC_RANGE
 10
589967.77251189388
 20
1776419.3184518809
 30
0.0
  0
VERTEX
  5
998
  8
CIVIC_RANGE
 10
589952.61612623546
 20
1776402.664751068
 30
0.0
  0
SEQEND
  5
999
  8
CIVIC_RANGE
  0
POLYLINE
  5
27D
  8
CIVIC_PYRAMIDS
 66
     1
 10
0.0
 20
0.0
 30
0.0
 70
     1
  0
VERTEX
  5
99A
  8
CIVIC_PYRAMIDS
 10
589921.21550416423
 20
1776386.404259305
 30
0.0
  0
VERTEX
  5
99B
  8
CIVIC_PYRAMIDS
 10
589932.01448938297
 20
1776398.8558752381
 30
0.0
  0
VERTEX
  5
99C
  8
CIVIC_PYRAMIDS
 10
589939.15663733857
 20
1776393.2458982361
 30
0.0
  0
VERTEX
  5
99D
  8
CIVIC_PYRAMIDS
 10
589927.88041854801
 20
1776380.802612446
 30
0.0
  0
SEQEND
  5
99E
  8
CIVIC_PYRAMIDS
  0
POLYLINE
  5
27E
  8
CIVIC_PYRAMIDS
 66
     1
 10
0.0
 20
0.0
 30
0.0
 70
     1
  0
VERTEX
  5
99F
  8
CIVIC_PYRAMIDS
 10
589902.81715180387
 20
1776362.4786402639
 30
0.0
  0
VERTEX
  5
9A0
  8
CIVIC_PYRAMIDS
 10
589920.00210740406
 20
1776380.7016299891
 30
0.0
  0
VERTEX
  5
9A1
  8
CIVIC_PYRAMIDS
 10
589926.89319424506
 20
1776374.3805386049
 30
0.0
  0
VERTEX
  5
9A2
  8
CIVIC_PYRAMIDS
 10
589910.1840031523
 20
1776356.0697447499
 30
0.0
  0
SEQEND
  5
9A3
  8
CIVIC_PYRAMIDS
  0
POLYLINE
  5
27F
  8
CIVIC_PYRAMIDS
 66
     1
 10
0.0
 20
0.0
 30
0.0
 70
     1
  0
VERTEX
  5
9A4
  8
CIVIC_PYRAMIDS
 10
589891.25427536515
 20
1776346.178389498
 30
0.0
  0
VERTEX
  5
9A5
  8
CIVIC_PYRAMIDS
 10
589902.15814261406
 20
1776359.167012827
 30
0.0
  0
VERTEX
  5
9A6
  8
CIVIC_PYRAMIDS
 10
589910.20234200929
 20
1776352.2488470529
 30
0.0
  0
VERTEX
  5
9A7
  8
CIVIC_PYRAMIDS
 10
589899.04729976843
 20
1776339.2646408221
 30
0.0
  0
SEQEND
  5
9A8
  8
CIVIC_PYRAMIDS
  0
POLYLINE
  5
280
  8
CIVIC_PYRAMIDS
 66
     1
 10
0.0
 20
0.0
 30
0.0
 70
     1
  0
VERTEX
  5
9A9
  8
CIVIC_PYRAMIDS
 10
589875.74701981037
 20
1776326.9965080521
 30
0.0
  0
VERTEX
  5
9AA
  8
CIVIC_PYRAMIDS
 10
589889.19433700619
 20
1776342.6572790111
 30
0.0
  0
VERTEX
  5
9AB
  8
CIVIC_PYRAMIDS
 10
589895.93902109459
 20
1776337.448028808
 30
0.0
  0
VERTEX
  5
9AC
  8
CIVIC_PYRAMIDS
 10
589882.36959196336
 20
1776321.91356236
 30
0.0
  0
SEQEND
  5
9AD
  8
CIVIC_PYRAMIDS
  0
POLYLINE
  5
281
  8
CIVIC_RANGE
 66
     1
 10
0.0
 20
0.0
 30
0.0
 70
     1
  0
VERTEX
  5
9AE
  8
CIVIC_RANGE
 10
589864.43931195885
 20
1776298.631624097
 30
0.0
  0
VERTEX
  5
9AF
  8
CIVIC_RANGE
 10
589872.15622839925
 20
1776292.163541832
 30
0.0
  0
VERTEX
  5
9B0
  8
CIVIC_RANGE
 10
589877.98634527589
 20
1776298.6435386529
 30
0.0
  0
VERTEX
  5
9B1
  8
CIVIC_RANGE
 10
589870.39587434765
 20
1776305.233586842
 30
0.0
  0
SEQEND
  5
9B2
  8
CIVIC_RANGE
  0
POLYLINE
  5
282
  8
CIVIC_RANGE
 66
     1
 10
0.0
 20
0.0
 30
0.0
 70
     1
  0
VERTEX
  5
9B3
  8
CIVIC_RANGE
 10
589851.40006499155
 20
1776299.2317769399
 30
0.0
  0
VERTEX
  5
9B4
  8
CIVIC_RANGE
 10
589863.95817432925
 20
1776313.7904460819
 30
0.0
  0
VERTEX
  5
9B5
  8
CIVIC_RANGE
 10
589871.43094928737
 20
1776307.575004224
 30
0.0
  0
VERTEX
  5
9B6
  8
CIVIC_RANGE
 10
589858.74864304205
 20
1776293.018502946
 30
0.0
  0
SEQEND
  5
9B7
  8
CIVIC_RANGE
  0
POLYLINE
  5
283
  8
CIVIC_RANGE
 66
     1
 10
0.0
 20
0.0
 30
0.0
 70
     1
  0
VERTEX
  5
9B8
  8
CIVIC_RANGE
 10
589839.88357865135
 20
1776308.7465636451
 30
0.0
  0
VERTEX
  5
9B9
  8
CIVIC_RANGE
 10
589852.82094328187
 20
1776323.6711648011
 30
0.0
  0
VERTEX
  5
9BA
  8
CIVIC_RANGE
 10
589846.20270527841
 20
1776329.002413742
 30
0.0
  0
VERTEX
  5
9BB
  8
CIVIC_RANGE
 10
589833.51606488368
 20
1776314.197609216
 30
0.0
  0
SEQEND
  5
9BC
  8
CIVIC_RANGE
  0
POLYLINE
  5
284
  8
CIVIC_PYRAMIDS
 66
     1
 10
0.0
 20
0.0
 30
0.0
 70
     1
  0
VERTEX
  5
9BD
  8
CIVIC_PYRAMIDS
 10
589808.39228244196
 20
1776275.6118723
 30
0.0
  0
VERTEX
  5
9BE
  8
CIVIC_PYRAMIDS
 10
589823.55726030085
 20
1776292.8515934041
 30
0.0
  0
VERTEX
  5
9BF
  8
CIVIC_PYRAMIDS
 10
589806.86597840162
 20
1776305.147647527
 30
0.0
  0
VERTEX
  5
9C0
  8
CIVIC_PYRAMIDS
 10
589792.1348010503
 20
1776288.430822416
 30
0.0
  0
SEQEND
  5
9C1
  8
CIVIC_PYRAMIDS
  0
POLYLINE
  5
285
  8
CIVIC_ALTARS
 66
     1
 10
0.0
 20
0.0
 30
0.0
 70
     1
  0
VERTEX
  5
9C2
  8
CIVIC_ALTARS
 10
589900.7260926445
 20
1776403.1930493221
 30
0.0
  0
VERTEX
  5
9C3
  8
CIVIC_ALTARS
 10
589902.64165554265
 20
1776404.9329043231
 30
0.0
  0
VERTEX
  5
9C4
  8
CIVIC_ALTARS
 10
589904.52379035298
 20
1776403.154515716
 30
0.0
  0
VERTEX
  5
9C5
  8
CIVIC_ALTARS
 10
589902.82954141975
 20
1776401.3830422121
 30
0.0
  0
SEQEND
  5
9C6
  8
CIVIC_ALTARS
  0
POLYLINE
  5
286
  8
CIVIC_ALTARS
 66
     1
 10
0.0
 20
0.0
 30
0.0
 70
     1
  0
VERTEX
  5
9C7
  8
CIVIC_ALTARS
 10
589908.92141599569
 20
1776415.0608194759
 30
0.0
  0
VERTEX
  5
9C8
  8
CIVIC_ALTARS
 10
589911.3752300248
 20
1776417.482578255
 30
0.0
  0
VERTEX
  5
9C9
  8
CIVIC_ALTARS
 10
589913.42579045915
 20
1776415.5591262779
 30
0.0
  0
VERTEX
  5
9CA
  8
CIVIC_ALTARS
 10
589911.00856128288
 20
1776413.205095686
 30
0.0
  0
SEQEND
  5
9CB
  8
CIVIC_ALTARS
  0
TEXT
  5
287
  8
CIVIC_ID
 10
604306.67470299499
 20
1767600.2763416511
 30
0.0
 40
1.0
  1
RV194-I
  0
TEXT
  5
288
  8
CIVIC_ID
 10
608727.67075295013
 20
1772075.315985203
 30
0.0
 40
1.0
  1
RV145-III
  0
TEXT
  5
289
  8
CIVIC_ID
 10
608739.97710392415
 20
1772111.850123107
 30
0.0
 40
1.0
  1
RV145-II
  0
TEXT
  5
28A
  8
CIVIC_ID
 10
608741.1798601253
 20
1772090.4584386121
 30
0.0
 40
1.0
  1
RV145-I
  0
POLYLINE
  5
28B
  8
CIVIC_ALTARS
 66
     1
 10
0.0
 20
0.0
 30
0.0
 70
     1
  0
VERTEX
  5
9CC
  8
CIVIC_ALTARS
 10
608726.24016921013
 20
1772073.944365961
 30
0.0
  0
VERTEX
  5
9CD
  8
CIVIC_ALTARS
 10
608728.38254746725
 20
1772074.0572736419
 30
0.0
  0
VERTEX
  5
9CE
  8
CIVIC_ALTARS
 10
608728.26996602281
 20
1772076.452867981
 30
0.0
  0
VERTEX
  5
9CF
  8
CIVIC_ALTARS
 10
608726.15589966741
 20
1772076.2836458511
 30
0.0
  0
SEQEND
  5
9D0
  8
CIVIC_ALTARS
  0
POLYLINE
  5
28C
  8
CIVIC_PYRAMIDS
 66
     1
 10
0.0
 20
0.0
 30
0.0
 70
     1
  0
VERTEX
  5
9D1
  8
CIVIC_PYRAMIDS
 10
608741.88565918105
 20
1772080.9569087301
 30
0.0
  0
VERTEX
  5
9D2
  8
CIVIC_PYRAMIDS
 10
608750.21535374806
 20
1772089.116928085
 30
0.0
  0
VERTEX
  5
9D3
  8
CIVIC_PYRAMIDS
 10
608740.56765688595
 20
1772099.1272394951
 30
0.0
  0
VERTEX
  5
9D4
  8
CIVIC_PYRAMIDS
 10
608732.23829540017
 20
1772091.0516918129
 30
0.0
  0
SEQEND
  5
9D5
  8
CIVIC_PYRAMIDS
  0
POLYLINE
  5
28D
  8
CIVIC_ALTARS
 66
     1
 10
0.0
 20
0.0
 30
0.0
 70
     1
  0
VERTEX
  5
9D6
  8
CIVIC_ALTARS
 10
608740.00508274476
 20
1772114.315413546
 30
0.0
  0
VERTEX
  5
9D7
  8
CIVIC_ALTARS
 10
608744.06567561347
 20
1772110.1659865531
 30
0.0
  0
VERTEX
  5
9D8
  8
CIVIC_ALTARS
 10
608741.12057167245
 20
1772107.6229152661
 30
0.0
  0
VERTEX
  5
9D9
  8
CIVIC_ALTARS
 10
608737.23851032497
 20
1772111.727736755
 30
0.0
  0
SEQEND
  5
9DA
  8
CIVIC_ALTARS
  0
TEXT
  5
28E
  8
CIVIC_ID
 10
613326.68204847642
 20
1776153.662992574
 30
0.0
 40
1.0
  1
RV53-CCU_I
  0
TEXT
  5
28F
  8
CIVIC_ID
 10
613436.46461166232
 20
1775903.7129852909
 30
0.0
 40
1.0
  1
RV53-CCL_XII
  0
TEXT
  5
290
  8
CIVIC_ID
 10
613392.17580418172
 20
1775922.7743109949
 30
0.0
 40
1.0
  1
RV53-CCL_IX
  0
TEXT
  5
291
  8
CIVIC_ID
 10
613422.29067441821
 20
1775918.2800277011
 30
0.0
 40
1.0
  1
RV53-CCL_X
  0
TEXT
  5
292
  8
CIVIC_ID
 10
613431.13064937852
 20
1775924.421926792
 30
0.0
 40
1.0
  1
RV53-CCL_XI
  0
TEXT
  5
293
  8
CIVIC_ID
 10
613410.90396062832
 20
1775908.5429250021
 30
0.0
 40
1.0
  1
RV53-CCL_VIII
  0
TEXT
  5
294
  8
CIVIC_ID
 10
613382.28728961456
 20
1775899.8543304261
 30
0.0
 40
1.0
  1
RV53-CCL_VII
  0
TEXT
  5
295
  8
CIVIC_ID
 10
613430.76226157486
 20
1775887.462085112
 30
0.0
 40
1.0
  1
RV53-CCL_VI
  0
TEXT
  5
296
  8
CIVIC_ID
 10
613386.07275741477
 20
1775876.9167864399
 30
0.0
 40
1.0
  1
RV53-CCL_V
  0
TEXT
  5
297
  8
CIVIC_ID
 10
613405.46008154936
 20
1775857.830648924
 30
0.0
 40
1.0
  1
RV53-CCL_IV
  0
TEXT
  5
298
  8
CIVIC_ID
 10
613410.86032699153
 20
1775871.3455590131
 30
0.0
 40
1.0
  1
RV53-CCL_IIIb
  0
TEXT
  5
299
  8
CIVIC_ID
 10
613405.22459314344
 20
1775887.064259775
 30
0.0
 40
1.0
  1
RV53-CCL_IIIa
  0
TEXT
  5
29A
  8
CIVIC_ID
 10
613426.28465104778
 20
1775833.6806715869
 30
0.0
 40
1.0
  1
RV53-CCL_II
  0
TEXT
  5
29B
  8
CIVIC_ID
 10
613384.41101532453
 20
1775822.101082796
 30
0.0
 40
1.0
  1
RV53-CCL_I
  0
TEXT
  5
29C
  8
CIVIC_ID
 10
613349.67697505234
 20
1776204.780621168
 30
0.0
 40
1.0
  1
RV53-CCU_XII
  0
TEXT
  5
29D
  8
CIVIC_ID
 10
613351.09856559976
 20
1776213.5932748001
 30
0.0
 40
1.0
  1
RV53-CCU_XI
  0
TEXT
  5
29E
  8
CIVIC_ID
 10
613330.05915872974
 20
1776214.446076276
 30
0.0
 40
1.0
  1
RV53-CCU_VI
  0
TEXT
  5
29F
  8
CIVIC_ID
 10
613331.62297494814
 20
1776205.7756026869
 30
0.0
 40
1.0
  1
RV53-CCU_V
  0
TEXT
  5
2A0
  8
CIVIC_ID
 10
613320.67659450008
 20
1776140.6774940591
 30
0.0
 40
1.0
  1
RV53-CCU_X
  0
TEXT
  5
2A1
  8
CIVIC_ID
 10
613304.18641061429
 20
1776185.5924485619
 30
0.0
 40
1.0
  1
RV53-CCU_III
  0
TEXT
  5
2A2
  8
CIVIC_ID
 10
613308.93548231665
 20
1776219.2972036011
 30
0.0
 40
1.0
  1
RV53-CCU_IX
  0
TEXT
  5
2A3
  8
CIVIC_ID
 10
613336.4170126121
 20
1776224.361043422
 30
0.0
 40
1.0
  1
RV53-CCU_VIII
  0
TEXT
  5
2A4
  8
CIVIC_ID
 10
613320.15165853407
 20
1776220.260124915
 30
0.0
 40
1.0
  1
RV53-CCU_VII
  0
TEXT
  5
2A5
  8
CIVIC_ID
 10
613315.3429652974
 20
1776206.542817353
 30
0.0
 40
1.0
  1
RV53-CCU_IV
  0
TEXT
  5
2A6
  8
CIVIC_ID
 10
613323.68764851824
 20
1776191.552859009
 30
0.0
 40
1.0
  1
RV53-CCU_IIc
  0
TEXT
  5
2A7
  8
CIVIC_ID
 10
613326.65773354925
 20
1776180.5224754841
 30
0.0
 40
1.0
  1
RV53-CCU_IIb
  0
TEXT
  5
2A8
  8
CIVIC_ID
 10
613328.63790126331
 20
1776170.058024287
 30
0.0
 40
1.0
  1
RV53-CCU_IIa
  0
POLYLINE
  5
2A9
  8
CIVIC_MISCELANEOUS
 66
     1
 10
0.0
 20
0.0
 30
0.0
 70
     1
  0
VERTEX
  5
9DB
  8
CIVIC_MISCELANEOUS
 10
613346.72387716256
 20
1776205.7028399589
 30
0.0
  0
VERTEX
  5
9DC
  8
CIVIC_MISCELANEOUS
 10
613351.67146525811
 20
1776206.9531879879
 30
0.0
  0
VERTEX
  5
9DD
  8
CIVIC_MISCELANEOUS
 10
613352.43288887385
 20
1776203.691410521
 30
0.0
  0
VERTEX
  5
9DE
  8
CIVIC_MISCELANEOUS
 10
613347.59388524829
 20
1776202.7131560659
 30
0.0
  0
SEQEND
  5
9DF
  8
CIVIC_MISCELANEOUS
  0
POLYLINE
  5
2AA
  8
CIVIC_PYRAMIDS
 66
     1
 10
0.0
 20
0.0
 30
0.0
 70
     1
  0
VERTEX
  5
9E0
  8
CIVIC_PYRAMIDS
 10
613369.23117286654
 20
1775829.707715119
 30
0.0
  0
VERTEX
  5
9E1
  8
CIVIC_PYRAMIDS
 10
613393.05647086585
 20
1775836.1342530821
 30
0.0
  0
VERTEX
  5
9E2
  8
CIVIC_PYRAMIDS
 10
613399.07458192762
 20
1775814.3009740999
 30
0.0
  0
VERTEX
  5
9E3
  8
CIVIC_PYRAMIDS
 10
613375.33188806532
 20
1775807.956956319
 30
0.0
  0
SEQEND
  5
9E4
  8
CIVIC_PYRAMIDS
  0
POLYLINE
  5
2AB
  8
CIVIC_PYRAMIDS
 66
     1
 10
0.0
 20
0.0
 30
0.0
 70
     1
  0
VERTEX
  5
9E5
  8
CIVIC_PYRAMIDS
 10
613423.37751836306
 20
1775819.991242466
 30
0.0
  0
VERTEX
  5
9E6
  8
CIVIC_PYRAMIDS
 10
613442.18394889066
 20
1775825.1125118721
 30
0.0
  0
VERTEX
  5
9E7
  8
CIVIC_PYRAMIDS
 10
613436.03460383741
 20
1775846.006844999
 30
0.0
  0
VERTEX
  5
9E8
  8
CIVIC_PYRAMIDS
 10
613417.58723483991
 20
1775840.988168251
 30
0.0
  0
SEQEND
  5
9E9
  8
CIVIC_PYRAMIDS
  0
POLYLINE
  5
2AC
  8
CIVIC_PYRAMIDS
 66
     1
 10
0.0
 20
0.0
 30
0.0
 70
     1
  0
VERTEX
  5
9EA
  8
CIVIC_PYRAMIDS
 10
613411.69402922655
 20
1775854.761232692
 30
0.0
  0
VERTEX
  5
9EB
  8
CIVIC_PYRAMIDS
 10
613409.40742681141
 20
1775863.038341495
 30
0.0
  0
VERTEX
  5
9EC
  8
CIVIC_PYRAMIDS
 10
613399.44829903031
 20
1775860.296218148
 30
0.0
  0
VERTEX
  5
9ED
  8
CIVIC_PYRAMIDS
 10
613401.73490144568
 20
1775852.069848106
 30
0.0
  0
SEQEND
  5
9EE
  8
CIVIC_PYRAMIDS
  0
POLYLINE
  5
2AD
  8
CIVIC_BALL_COURTS
 66
     1
 10
0.0
 20
0.0
 30
0.0
 70
     1
  0
VERTEX
  5
9EF
  8
CIVIC_BALL_COURTS
 10
613400.32197100925
 20
1775875.2064441531
 30
0.0
  0
VERTEX
  5
9F0
  8
CIVIC_BALL_COURTS
 10
613415.41687776218
 20
1775879.2390604829
 30
0.0
  0
VERTEX
  5
9F1
  8
CIVIC_BALL_COURTS
 10
613417.95762113039
 20
1775869.181913293
 30
0.0
  0
VERTEX
  5
9F2
  8
CIVIC_BALL_COURTS
 10
613403.49423632654
 20
1775865.0932612999
 30
0.0
  0
SEQEND
  5
9F3
  8
CIVIC_BALL_COURTS
  0
POLYLINE
  5
2AE
  8
CIVIC_BALL_COURTS
 66
     1
 10
0.0
 20
0.0
 30
0.0
 70
     1
  0
VERTEX
  5
9F4
  8
CIVIC_BALL_COURTS
 10
613396.33632140968
 20
1775890.3915515749
 30
0.0
  0
VERTEX
  5
9F5
  8
CIVIC_BALL_COURTS
 10
613410.93327177339
 20
1775894.2752970359
 30
0.0
  0
VERTEX
  5
9F6
  8
CIVIC_BALL_COURTS
 10
613413.52397732146
 20
1775884.267773469
 30
0.0
  0
VERTEX
  5
9F7
  8
CIVIC_BALL_COURTS
 10
613398.8271025985
 20
1775880.3843067931
 30
0.0
  0
SEQEND
  5
9F8
  8
CIVIC_BALL_COURTS
  0
POLYLINE
  5
2AF
  8
CIVIC_RANGE
 66
     1
 10
0.0
 20
0.0
 30
0.0
 70
     1
  0
VERTEX
  5
9F9
  8
CIVIC_RANGE
 10
613387.02237190655
 20
1775888.0137994371
 30
0.0
  0
VERTEX
  5
9FA
  8
CIVIC_RANGE
 10
613392.50622072886
 20
1775867.6806593051
 30
0.0
  0
VERTEX
  5
9FB
  8
CIVIC_RANGE
 10
613386.30724657723
 20
1775866.1713205699
 30
0.0
  0
VERTEX
  5
9FC
  8
CIVIC_RANGE
 10
613381.06188389182
 20
1775886.4252859319
 30
0.0
  0
SEQEND
  5
9FD
  8
CIVIC_RANGE
  0
POLYLINE
  5
2B0
  8
CIVIC_PYRAMIDS
 66
     1
 10
0.0
 20
0.0
 30
0.0
 70
     1
  0
VERTEX
  5
9FE
  8
CIVIC_PYRAMIDS
 10
613427.78984497557
 20
1775882.5471161599
 30
0.0
  0
VERTEX
  5
9FF
  8
CIVIC_PYRAMIDS
 10
613434.76523139677
 20
1775884.3633965179
 30
0.0
  0
VERTEX
  5
A00
  8
CIVIC_PYRAMIDS
 10
613432.9476073063
 20
1775891.530943414
 30
0.0
  0
VERTEX
  5
A01
  8
CIVIC_PYRAMIDS
 10
613425.57918507315
 20
1775889.5671861081
 30
0.0
  0
SEQEND
  5
A02
  8
CIVIC_PYRAMIDS
  0
POLYLINE
  5
2B1
  8
CIVIC_RANGE
 66
     1
 10
0.0
 20
0.0
 30
0.0
 70
     1
  0
VERTEX
  5
A03
  8
CIVIC_RANGE
 10
613429.00825599302
 20
1775904.8688254091
 30
0.0
  0
VERTEX
  5
A04
  8
CIVIC_RANGE
 10
613430.43317735265
 20
1775899.5437646059
 30
0.0
  0
VERTEX
  5
A05
  8
CIVIC_RANGE
 10
613443.73077796795
 20
1775903.2348700471
 30
0.0
  0
VERTEX
  5
A06
  8
CIVIC_RANGE
 10
613442.30652277113
 20
1775908.4712774111
 30
0.0
  0
SEQEND
  5
A07
  8
CIVIC_RANGE
  0
POLYLINE
  5
2B2
  8
CIVIC_RANGE
 66
     1
 10
0.0
 20
0.0
 30
0.0
 70
     1
  0
VERTEX
  5
A08
  8
CIVIC_RANGE
 10
613417.85036898521
 20
1775920.2022461309
 30
0.0
  0
VERTEX
  5
A09
  8
CIVIC_RANGE
 10
613423.73224983749
 20
1775921.7260816549
 30
0.0
  0
VERTEX
  5
A0A
  8
CIVIC_RANGE
 10
613428.45534120675
 20
1775904.658343188
 30
0.0
  0
VERTEX
  5
A0B
  8
CIVIC_RANGE
 10
613422.77330907225
 20
1775903.2136824329
 30
0.0
  0
SEQEND
  5
A0C
  8
CIVIC_RANGE
  0
POLYLINE
  5
2B3
  8
CIVIC_RANGE
 66
     1
 10
0.0
 20
0.0
 30
0.0
 70
     1
  0
VERTEX
  5
A0D
  8
CIVIC_RANGE
 10
613436.79369588452
 20
1775928.3360597531
 30
0.0
  0
VERTEX
  5
A0E
  8
CIVIC_RANGE
 10
613438.29955597466
 20
1775923.3360615589
 30
0.0
  0
VERTEX
  5
A0F
  8
CIVIC_RANGE
 10
613424.69851838914
 20
1775919.549611853
 30
0.0
  0
VERTEX
  5
A10
  8
CIVIC_RANGE
 10
613423.43580757244
 20
1775924.3067888359
 30
0.0
  0
SEQEND
  5
A11
  8
CIVIC_RANGE
  0
POLYLINE
  5
2B4
  8
CIVIC_PYRAMIDS
 66
     1
 10
0.0
 20
0.0
 30
0.0
 70
     1
  0
VERTEX
  5
A12
  8
CIVIC_PYRAMIDS
 10
613417.5752439166
 20
1775902.3742626079
 30
0.0
  0
VERTEX
  5
A13
  8
CIVIC_PYRAMIDS
 10
613409.14629115327
 20
1775900.448698764
 30
0.0
  0
VERTEX
  5
A14
  8
CIVIC_PYRAMIDS
 10
613406.16021822486
 20
1775911.6162442151
 30
0.0
  0
VERTEX
  5
A15
  8
CIVIC_PYRAMIDS
 10
613414.54087421484
 20
1775913.6859395921
 30
0.0
  0
SEQEND
  5
A16
  8
CIVIC_PYRAMIDS
  0
POLYLINE
  5
2B5
  8
CIVIC_PYRAMIDS
 66
     1
 10
0.0
 20
0.0
 30
0.0
 70
     1
  0
VERTEX
  5
A17
  8
CIVIC_PYRAMIDS
 10
613385.19708694855
 20
1775906.1699121981
 30
0.0
  0
VERTEX
  5
A18
  8
CIVIC_PYRAMIDS
 10
613388.26243320189
 20
1775894.3948955431
 30
0.0
  0
VERTEX
  5
A19
  8
CIVIC_PYRAMIDS
 10
613378.97080013913
 20
1775892.145384229
 30
0.0
  0
VERTEX
  5
A1A
  8
CIVIC_PYRAMIDS
 10
613376.09730865515
 20
1775903.728597217
 30
0.0
  0
SEQEND
  5
A1B
  8
CIVIC_PYRAMIDS
  0
POLYLINE
  5
2B6
  8
CIVIC_RANGE
 66
     1
 10
0.0
 20
0.0
 30
0.0
 70
     1
  0
VERTEX
  5
A1C
  8
CIVIC_RANGE
 10
613370.82463331148
 20
1775920.860177313
 30
0.0
  0
VERTEX
  5
A1D
  8
CIVIC_RANGE
 10
613400.07815557334
 20
1775928.6563830271
 30
0.0
  0
VERTEX
  5
A1E
  8
CIVIC_RANGE
 10
613402.02834597998
 20
1775921.347492442
 30
0.0
  0
VERTEX
  5
A1F
  8
CIVIC_RANGE
 10
613372.53100828221
 20
1775913.551286727
 30
0.0
  0
SEQEND
  5
A20
  8
CIVIC_RANGE
  0
POLYLINE
  5
2B7
  8
CIVIC_PLATFORM_HIGH
 66
     1
 10
0.0
 20
0.0
 30
0.0
 70
     1
  0
VERTEX
  5
A21
  8
CIVIC_PLATFORM_HIGH
 10
613303.76306441345
 20
1776192.422945119
 30
0.0
  0
VERTEX
  5
A22
  8
CIVIC_PLATFORM_HIGH
 10
613306.22886451241
 20
1776183.8570156789
 30
0.0
  0
VERTEX
  5
A23
  8
CIVIC_PLATFORM_HIGH
 10
613301.0627751518
 20
1776182.536692766
 30
0.0
  0
VERTEX
  5
A24
  8
CIVIC_PLATFORM_HIGH
 10
613298.56766390731
 20
1776191.1614457141
 30
0.0
  0
SEQEND
  5
A25
  8
CIVIC_PLATFORM_HIGH
  0
POLYLINE
  5
2B8
  8
CIVIC_MISCELANEOUS
 66
     1
 10
0.0
 20
0.0
 30
0.0
 70
     1
  0
VERTEX
  5
A26
  8
CIVIC_MISCELANEOUS
 10
613322.27538424439
 20
1776142.9426173
 30
0.0
  0
VERTEX
  5
A27
  8
CIVIC_MISCELANEOUS
 10
613323.20168305223
 20
1776139.702863801
 30
0.0
  0
VERTEX
  5
A28
  8
CIVIC_MISCELANEOUS
 10
613318.33903066162
 20
1776138.458927813
 30
0.0
  0
VERTEX
  5
A29
  8
CIVIC_MISCELANEOUS
 10
613317.49966604612
 20
1776141.4672902611
 30
0.0
  0
SEQEND
  5
A2A
  8
CIVIC_MISCELANEOUS
  0
POLYLINE
  5
2B9
  8
CIVIC_PLATFORM_HIGH
 66
     1
 10
0.0
 20
0.0
 30
0.0
 70
     1
  0
VERTEX
  5
A2B
  8
CIVIC_PLATFORM_HIGH
 10
613327.60834728437
 20
1776160.107930308
 30
0.0
  0
VERTEX
  5
A2C
  8
CIVIC_PLATFORM_HIGH
 10
613330.26999912725
 20
1776150.7374290919
 30
0.0
  0
VERTEX
  5
A2D
  8
CIVIC_PLATFORM_HIGH
 10
613324.39278141165
 20
1776149.223351022
 30
0.0
  0
VERTEX
  5
A2E
  8
CIVIC_PLATFORM_HIGH
 10
613321.82139457308
 20
1776158.26321394
 30
0.0
  0
SEQEND
  5
A2F
  8
CIVIC_PLATFORM_HIGH
  0
POLYLINE
  5
2BA
  8
CIVIC_PLATFORM_HIGH
 66
     1
 10
0.0
 20
0.0
 30
0.0
 70
     1
  0
VERTEX
  5
A30
  8
CIVIC_PLATFORM_HIGH
 10
613327.23129936995
 20
1776186.807669756
 30
0.0
  0
VERTEX
  5
A31
  8
CIVIC_PLATFORM_HIGH
 10
613330.56177825551
 20
1776176.343776129
 30
0.0
  0
VERTEX
  5
A32
  8
CIVIC_PLATFORM_HIGH
 10
613323.33691401815
 20
1776174.256796119
 30
0.0
  0
VERTEX
  5
A33
  8
CIVIC_PLATFORM_HIGH
 10
613320.23259726504
 20
1776184.6359392889
 30
0.0
  0
SEQEND
  5
A34
  8
CIVIC_PLATFORM_HIGH
  0
POLYLINE
  5
2BB
  8
CIVIC_PLATFORM_HIGH
 66
     1
 10
0.0
 20
0.0
 30
0.0
 70
     1
  0
VERTEX
  5
A35
  8
CIVIC_PLATFORM_HIGH
 10
613333.64944094885
 20
1776166.2370053169
 30
0.0
  0
VERTEX
  5
A36
  8
CIVIC_PLATFORM_HIGH
 10
613330.51581305044
 20
1776176.214420168
 30
0.0
  0
VERTEX
  5
A37
  8
CIVIC_PLATFORM_HIGH
 10
613323.44183459505
 20
1776174.1115494471
 30
0.0
  0
VERTEX
  5
A38
  8
CIVIC_PLATFORM_HIGH
 10
613326.48619673285
 20
1776164.223624388
 30
0.0
  0
SEQEND
  5
A39
  8
CIVIC_PLATFORM_HIGH
  0
POLYLINE
  5
2BC
  8
CIVIC_PYRAMIDS
 66
     1
 10
0.0
 20
0.0
 30
0.0
 70
     1
  0
VERTEX
  5
A3A
  8
CIVIC_PYRAMIDS
 10
613330.16874244355
 20
1776187.8255115971
 30
0.0
  0
VERTEX
  5
A3B
  8
CIVIC_PYRAMIDS
 10
613326.5284980447
 20
1776200.203538907
 30
0.0
  0
VERTEX
  5
A3C
  8
CIVIC_PYRAMIDS
 10
613314.8973026562
 20
1776196.477027847
 30
0.0
  0
VERTEX
  5
A3D
  8
CIVIC_PYRAMIDS
 10
613318.40464765753
 20
1776184.2760286301
 30
0.0
  0
SEQEND
  5
A3E
  8
CIVIC_PYRAMIDS
  0
POLYLINE
  5
2BD
  8
CIVIC_PYRAMIDS
 66
     1
 10
0.0
 20
0.0
 30
0.0
 70
     1
  0
VERTEX
  5
A3F
  8
CIVIC_PYRAMIDS
 10
613306.72748706385
 20
1776210.903284136
 30
0.0
  0
VERTEX
  5
A40
  8
CIVIC_PYRAMIDS
 10
613318.47126389679
 20
1776214.188200708
 30
0.0
  0
VERTEX
  5
A41
  8
CIVIC_PYRAMIDS
 10
613321.31677656015
 20
1776204.0390546659
 30
0.0
  0
VERTEX
  5
A42
  8
CIVIC_PYRAMIDS
 10
613309.69190971437
 20
1776200.7630591949
 30
0.0
  0
SEQEND
  5
A43
  8
CIVIC_PYRAMIDS
  0
POLYLINE
  5
2BE
  8
CIVIC_PLATFORM_HIGH
 66
     1
 10
0.0
 20
0.0
 30
0.0
 70
     1
  0
VERTEX
  5
A44
  8
CIVIC_PLATFORM_HIGH
 10
613335.17395358614
 20
1776202.6852776259
 30
0.0
  0
VERTEX
  5
A45
  8
CIVIC_PLATFORM_HIGH
 10
613333.14482293581
 20
1776209.5263679889
 30
0.0
  0
VERTEX
  5
A46
  8
CIVIC_PLATFORM_HIGH
 10
613328.43672022072
 20
1776208.0934161791
 30
0.0
  0
VERTEX
  5
A47
  8
CIVIC_PLATFORM_HIGH
 10
613330.41189171711
 20
1776201.4416204221
 30
0.0
  0
SEQEND
  5
A48
  8
CIVIC_PLATFORM_HIGH
  0
POLYLINE
  5
2BF
  8
CIVIC_PLATFORM_HIGH
 66
     1
 10
0.0
 20
0.0
 30
0.0
 70
     1
  0
VERTEX
  5
A49
  8
CIVIC_PLATFORM_HIGH
 10
613325.57855047192
 20
1776218.1126486911
 30
0.0
  0
VERTEX
  5
A4A
  8
CIVIC_PLATFORM_HIGH
 10
613330.2073798622
 20
1776219.362160366
 30
0.0
  0
VERTEX
  5
A4B
  8
CIVIC_PLATFORM_HIGH
 10
613332.1495763202
 20
1776212.5826813551
 30
0.0
  0
VERTEX
  5
A4C
  8
CIVIC_PLATFORM_HIGH
 10
613327.33422145969
 20
1776211.306406376
 30
0.0
  0
SEQEND
  5
A4D
  8
CIVIC_PLATFORM_HIGH
  0
POLYLINE
  5
2C0
  8
CIVIC_MISCELANEOUS
 66
     1
 10
0.0
 20
0.0
 30
0.0
 70
     1
  0
VERTEX
  5
A4E
  8
CIVIC_MISCELANEOUS
 10
613348.51818556909
 20
1776215.773647584
 30
0.0
  0
VERTEX
  5
A4F
  8
CIVIC_MISCELANEOUS
 10
613352.75930844655
 20
1776217.1865269169
 30
0.0
  0
VERTEX
  5
A50
  8
CIVIC_MISCELANEOUS
 10
613354.71183042158
 20
1776210.391157195
 30
0.0
  0
VERTEX
  5
A51
  8
CIVIC_MISCELANEOUS
 10
613350.26852725784
 20
1776209.247304806
 30
0.0
  0
SEQEND
  5
A52
  8
CIVIC_MISCELANEOUS
  0
POLYLINE
  5
2C1
  8
CIVIC_RANGE
 66
     1
 10
0.0
 20
0.0
 30
0.0
 70
     1
  0
VERTEX
  5
A53
  8
CIVIC_RANGE
 10
613330.24068798195
 20
1776232.7566355951
 30
0.0
  0
VERTEX
  5
A54
  8
CIVIC_RANGE
 10
613336.55290974025
 20
1776234.775313427
 30
0.0
  0
VERTEX
  5
A55
  8
CIVIC_RANGE
 10
613345.21901631588
 20
1776206.01786633
 30
0.0
  0
VERTEX
  5
A56
  8
CIVIC_RANGE
 10
613339.02537146339
 20
1776204.066654322
 30
0.0
  0
SEQEND
  5
A57
  8
CIVIC_RANGE
  0
POLYLINE
  5
2C2
  8
CIVIC_PLATFORM_HIGH
 66
     1
 10
0.0
 20
0.0
 30
0.0
 70
     1
  0
VERTEX
  5
A58
  8
CIVIC_PLATFORM_HIGH
 10
613314.71377491695
 20
1776215.5556381841
 30
0.0
  0
VERTEX
  5
A59
  8
CIVIC_PLATFORM_HIGH
 10
613324.08568054822
 20
1776218.003643991
 30
0.0
  0
VERTEX
  5
A5A
  8
CIVIC_PLATFORM_HIGH
 10
613321.52994852606
 20
1776226.199068964
 30
0.0
  0
VERTEX
  5
A5B
  8
CIVIC_PLATFORM_HIGH
 10
613312.26429579651
 20
1776223.644846302
 30
0.0
  0
SEQEND
  5
A5C
  8
CIVIC_PLATFORM_HIGH
  0
POLYLINE
  5
2C3
  8
CIVIC_ALTARS
 66
     1
 10
0.0
 20
0.0
 30
0.0
 70
     1
  0
VERTEX
  5
A5D
  8
CIVIC_ALTARS
 10
613307.15083326492
 20
1776220.0253884511
 30
0.0
  0
VERTEX
  5
A5E
  8
CIVIC_ALTARS
 10
613309.88010059064
 20
1776220.890177656
 30
0.0
  0
VERTEX
  5
A5F
  8
CIVIC_ALTARS
 10
613310.67916238145
 20
1776218.0959216261
 30
0.0
  0
VERTEX
  5
A60
  8
CIVIC_ALTARS
 10
613307.9495619745
 20
1776217.297483108
 30
0.0
  0
SEQEND
  5
A61
  8
CIVIC_ALTARS
  0
TEXT
  5
2C4
  8
CIVIC_ID
 10
603213.55750693334
 20
1769959.4818629271
 30
0.0
 40
1.0
  1
RV204-III
  0
TEXT
  5
2C5
  8
CIVIC_ID
 10
603304.68585769855
 20
1769973.6513755149
 30
0.0
 40
1.0
  1
RV204-II
  0
TEXT
  5
2C6
  8
CIVIC_ID
 10
603289.42507650959
 20
1769915.229156269
 30
0.0
 40
1.0
  1
RV204-I
  0
POLYLINE
  5
2C7
  8
CIVIC_NLTC
 66
     1
 10
0.0
 20
0.0
 30
0.0
 70
     1
  0
VERTEX
  5
A62
  8
CIVIC_NLTC
 10
603304.4150626855
 20
1769968.1344459029
 30
0.0
  0
VERTEX
  5
A63
  8
CIVIC_NLTC
 10
603311.28019923065
 20
1769971.087776877
 30
0.0
  0
VERTEX
  5
A64
  8
CIVIC_NLTC
 10
603307.36849365663
 20
1769979.4690641391
 30
0.0
  0
VERTEX
  5
A65
  8
CIVIC_NLTC
 10
603301.0622673597
 20
1769976.595371583
 30
0.0
  0
SEQEND
  5
A66
  8
CIVIC_NLTC
  0
POLYLINE
  5
2C8
  8
CIVIC_NLTC
 66
     1
 10
0.0
 20
0.0
 30
0.0
 70
     1
  0
VERTEX
  5
A67
  8
CIVIC_NLTC
 10
603290.97090634354
 20
1769904.886080109
 30
0.0
  0
VERTEX
  5
A68
  8
CIVIC_NLTC
 10
603301.00597663736
 20
1769916.9949121349
 30
0.0
  0
VERTEX
  5
A69
  8
CIVIC_NLTC
 10
603290.35703769804
 20
1769925.3554875739
 30
0.0
  0
VERTEX
  5
A6A
  8
CIVIC_NLTC
 10
603280.33928762644
 20
1769913.129969219
 30
0.0
  0
SEQEND
  5
A6B
  8
CIVIC_NLTC
  0
POLYLINE
  5
2C9
  8
CIVIC_NLTC
 66
     1
 10
0.0
 20
0.0
 30
0.0
 70
     1
  0
VERTEX
  5
A6C
  8
CIVIC_NLTC
 10
603214.50112596364
 20
1769966.5084219149
 30
0.0
  0
VERTEX
  5
A6D
  8
CIVIC_NLTC
 10
603222.05907139764
 20
1769962.0028710549
 30
0.0
  0
VERTEX
  5
A6E
  8
CIVIC_NLTC
 10
603217.16577553714
 20
1769953.6218755089
 30
0.0
  0
VERTEX
  5
A6F
  8
CIVIC_NLTC
 10
603209.51090347464
 20
1769958.030285001
 30
0.0
  0
SEQEND
  5
A70
  8
CIVIC_NLTC
  0
TEXT
  5
2CA
  8
CIVIC_ID
 10
606994.45843104017
 20
1767423.1744073569
 30
0.0
 40
1.0
  1
RV180-I
  0
POLYLINE
  5
2CB
  8
CIVIC_PYRAMIDS
 66
     1
 10
0.0
 20
0.0
 30
0.0
 70
     1
  0
VERTEX
  5
A71
  8
CIVIC_PYRAMIDS
 10
607005.88911154831
 20
1767422.4392834881
 30
0.0
  0
VERTEX
  5
A72
  8
CIVIC_PYRAMIDS
 10
606994.97637230123
 20
1767434.8363307449
 30
0.0
  0
VERTEX
  5
A73
  8
CIVIC_PYRAMIDS
 10
606981.67410854879
 20
1767423.0203814041
 30
0.0
  0
VERTEX
  5
A74
  8
CIVIC_PYRAMIDS
 10
606992.6514655482
 20
1767410.6878033429
 30
0.0
  0
SEQEND
  5
A75
  8
CIVIC_PYRAMIDS
  0
TEXT
  5
2CC
  8
CIVIC_ID
 10
611600.96038959909
 20
1768020.849074916
 30
0.0
 40
1.0
  1
RV167-VIII
  0
TEXT
  5
2CD
  8
CIVIC_ID
 10
611687.13049367035
 20
1767908.247934761
 30
0.0
 40
1.0
  1
RV167-VII
  0
TEXT
  5
2CE
  8
CIVIC_ID
 10
611719.67952129222
 20
1767953.755602882
 30
0.0
 40
1.0
  1
RV167-VI
  0
TEXT
  5
2CF
  8
CIVIC_ID
 10
611755.48008755606
 20
1768011.2659184709
 30
0.0
 40
1.0
  1
RV167-V
  0
TEXT
  5
2D0
  8
CIVIC_ID
 10
611755.66727918852
 20
1767965.720327293
 30
0.0
 40
1.0
  1
RV167-IV
  0
TEXT
  5
2D1
  8
CIVIC_ID
 10
611797.56789448881
 20
1767974.487554586
 30
0.0
 40
1.0
  1
RV167-III
  0
TEXT
  5
2D2
  8
CIVIC_ID
 10
611709.45959093398
 20
1767968.2652561171
 30
0.0
 40
1.0
  1
RV167-II
  0
TEXT
  5
2D3
  8
CIVIC_ID
 10
611712.11025109736
 20
1768026.176097529
 30
0.0
 40
1.0
  1
RV167-I
  0
POLYLINE
  5
2D4
  8
CIVIC_PYRAMIDS
 66
     1
 10
0.0
 20
0.0
 30
0.0
 70
     1
  0
VERTEX
  5
A76
  8
CIVIC_PYRAMIDS
 10
611686.51729118708
 20
1767900.8377694681
 30
0.0
  0
VERTEX
  5
A77
  8
CIVIC_PYRAMIDS
 10
611693.72350287763
 20
1767908.1980513551
 30
0.0
  0
VERTEX
  5
A78
  8
CIVIC_PYRAMIDS
 10
611686.98060713173
 20
1767915.1977724871
 30
0.0
  0
VERTEX
  5
A79
  8
CIVIC_PYRAMIDS
 10
611680.08316171065
 20
1767907.889124301
 30
0.0
  0
SEQEND
  5
A7A
  8
CIVIC_PYRAMIDS
  0
POLYLINE
  5
2D5
  8
CIVIC_PLATFORM_HIGH
 66
     1
 10
0.0
 20
0.0
 30
0.0
 70
     1
  0
VERTEX
  5
A7B
  8
CIVIC_PLATFORM_HIGH
 10
611720.70541137783
 20
1767949.6672056471
 30
0.0
  0
VERTEX
  5
A7C
  8
CIVIC_PLATFORM_HIGH
 10
611725.62435449078
 20
1767954.3323250611
 30
0.0
  0
VERTEX
  5
A7D
  8
CIVIC_PLATFORM_HIGH
 10
611719.74180747592
 20
1767960.4679839299
 30
0.0
  0
VERTEX
  5
A7E
  8
CIVIC_PLATFORM_HIGH
 10
611714.87349270505
 20
1767955.70134741
 30
0.0
  0
SEQEND
  5
A7F
  8
CIVIC_PLATFORM_HIGH
  0
POLYLINE
  5
2D6
  8
CIVIC_PYRAMIDS
 66
     1
 10
0.0
 20
0.0
 30
0.0
 70
     1
  0
VERTEX
  5
A80
  8
CIVIC_PYRAMIDS
 10
611714.90846623061
 20
1767968.660822771
 30
0.0
  0
VERTEX
  5
A81
  8
CIVIC_PYRAMIDS
 10
611707.24593330093
 20
1767977.4315506539
 30
0.0
  0
VERTEX
  5
A82
  8
CIVIC_PYRAMIDS
 10
611698.17213534052
 20
1767969.2153745471
 30
0.0
  0
VERTEX
  5
A83
  8
CIVIC_PYRAMIDS
 10
611705.4313069412
 20
1767960.59575546
 30
0.0
  0
SEQEND
  5
A84
  8
CIVIC_PYRAMIDS
  0
POLYLINE
  5
2D7
  8
CIVIC_PLATFORM_HIGH
 66
     1
 10
0.0
 20
0.0
 30
0.0
 70
     1
  0
VERTEX
  5
A85
  8
CIVIC_PLATFORM_HIGH
 10
611754.62373579945
 20
1767959.7311097661
 30
0.0
  0
VERTEX
  5
A86
  8
CIVIC_PLATFORM_HIGH
 10
611761.34831207956
 20
1767965.4589499161
 30
0.0
  0
VERTEX
  5
A87
  8
CIVIC_PLATFORM_HIGH
 10
611756.21752932551
 20
1767971.187081784
 30
0.0
  0
VERTEX
  5
A88
  8
CIVIC_PLATFORM_HIGH
 10
611749.6425065028
 20
1767965.508833322
 30
0.0
  0
SEQEND
  5
A89
  8
CIVIC_PLATFORM_HIGH
  0
POLYLINE
  5
2D8
  8
CIVIC_PYRAMIDS
 66
     1
 10
0.0
 20
0.0
 30
0.0
 70
     1
  0
VERTEX
  5
A8A
  8
CIVIC_PYRAMIDS
 10
611805.60747533327
 20
1767973.0456032809
 30
0.0
  0
VERTEX
  5
A8B
  8
CIVIC_PYRAMIDS
 10
611797.87965848879
 20
1767982.2985374171
 30
0.0
  0
VERTEX
  5
A8C
  8
CIVIC_PYRAMIDS
 10
611788.97073572106
 20
1767974.276060615
 30
0.0
  0
VERTEX
  5
A8D
  8
CIVIC_PYRAMIDS
 10
611796.64925654815
 20
1767965.3186346069
 30
0.0
  0
SEQEND
  5
A8E
  8
CIVIC_PYRAMIDS
  0
POLYLINE
  5
2D9
  8
CIVIC_PYRAMIDS
 66
     1
 10
0.0
 20
0.0
 30
0.0
 70
     1
  0
VERTEX
  5
A8F
  8
CIVIC_PYRAMIDS
 10
611754.78694558586
 20
1768016.43191395
 30
0.0
  0
VERTEX
  5
A90
  8
CIVIC_PYRAMIDS
 10
611760.85401958355
 20
1768010.707866105
 30
0.0
  0
VERTEX
  5
A91
  8
CIVIC_PYRAMIDS
 10
611753.80835302989
 20
1768003.613920762
 30
0.0
  0
VERTEX
  5
A92
  8
CIVIC_PYRAMIDS
 10
611747.69231609628
 20
1768009.28896035
 30
0.0
  0
SEQEND
  5
A93
  8
CIVIC_PYRAMIDS
  0
POLYLINE
  5
2DA
  8
CIVIC_PYRAMIDS
 66
     1
 10
0.0
 20
0.0
 30
0.0
 70
     1
  0
VERTEX
  5
A94
  8
CIVIC_PYRAMIDS
 10
611710.86452742165
 20
1768036.39548618
 30
0.0
  0
VERTEX
  5
A95
  8
CIVIC_PYRAMIDS
 10
611687.74502847821
 20
1768021.08682331
 30
0.0
  0
VERTEX
  5
A96
  8
CIVIC_PYRAMIDS
 10
611700.8900779055
 20
1768000.521149626
 30
0.0
  0
VERTEX
  5
A97
  8
CIVIC_PYRAMIDS
 10
611724.70505038777
 20
1768015.4429973159
 30
0.0
  0
SEQEND
  5
A98
  8
CIVIC_PYRAMIDS
  0
POLYLINE
  5
2DB
  8
CIVIC_PLATFORM_HIGH
 66
     1
 10
0.0
 20
0.0
 30
0.0
 70
     1
  0
VERTEX
  5
A99
  8
CIVIC_PLATFORM_HIGH
 10
611594.14921220788
 20
1768021.854911068
 30
0.0
  0
VERTEX
  5
A9A
  8
CIVIC_PLATFORM_HIGH
 10
611599.75563491066
 20
1768026.7901593321
 30
0.0
  0
VERTEX
  5
A9B
  8
CIVIC_PLATFORM_HIGH
 10
611605.45798499801
 20
1768020.752808695
 30
0.0
  0
VERTEX
  5
A9C
  8
CIVIC_PLATFORM_HIGH
 10
611599.70767121832
 20
1768015.913534936
 30
0.0
  0
SEQEND
  5
A9D
  8
CIVIC_PLATFORM_HIGH
  0
TEXT
  5
2DC
  8
CIVIC_ID
 10
607865.27557102428
 20
1773160.590713694
 30
0.0
 40
1.0
  1
RV140-V
  0
TEXT
  5
2DD
  8
CIVIC_ID
 10
607900.00028502289
 20
1773159.5985881861
 30
0.0
 40
1.0
  1
RV140-IV
  0
TEXT
  5
2DE
  8
CIVIC_ID
 10
607912.89818820229
 20
1773153.646418568
 30
0.0
 40
1.0
  1
RV140-III
  0
TEXT
  5
2DF
  8
CIVIC_ID
 10
607910.08698290226
 20
1773125.207334866
 30
0.0
 40
1.0
  1
RV140-II
  0
TEXT
  5
2E0
  8
CIVIC_ID
 10
607896.80370477831
 20
1773119.027043476
 30
0.0
 40
1.0
  1
RV140-Ib
  0
TEXT
  5
2E1
  8
CIVIC_ID
 10
607891.13399664813
 20
1773106.6282459239
 30
0.0
 40
1.0
  1
RV140-Ia
  0
POLYLINE
  5
2E2
  8
CIVIC_NLTC
 66
     1
 10
0.0
 20
0.0
 30
0.0
 70
     1
  0
VERTEX
  5
A9E
  8
CIVIC_NLTC
 10
607892.75543591357
 20
1773104.3309838311
 30
0.0
  0
VERTEX
  5
A9F
  8
CIVIC_NLTC
 10
607894.54941123899
 20
1773107.6682128271
 30
0.0
  0
VERTEX
  5
AA0
  8
CIVIC_NLTC
 10
607874.73241236061
 20
1773117.2624544729
 30
0.0
  0
VERTEX
  5
AA1
  8
CIVIC_NLTC
 10
607873.23054924479
 20
1773113.925225477
 30
0.0
  0
SEQEND
  5
AA2
  8
CIVIC_NLTC
  0
POLYLINE
  5
2E3
  8
CIVIC_NLTC
 66
     1
 10
0.0
 20
0.0
 30
0.0
 70
     1
  0
VERTEX
  5
AA3
  8
CIVIC_NLTC
 10
607898.4964234198
 20
1773115.7175274829
 30
0.0
  0
VERTEX
  5
AA4
  8
CIVIC_NLTC
 10
607900.08022451005
 20
1773119.478327852
 30
0.0
  0
VERTEX
  5
AA5
  8
CIVIC_NLTC
 10
607879.68999289232
 20
1773128.5174342899
 30
0.0
  0
VERTEX
  5
AA6
  8
CIVIC_NLTC
 10
607878.23842503701
 20
1773124.8884894729
 30
0.0
  0
SEQEND
  5
AA7
  8
CIVIC_NLTC
  0
POLYLINE
  5
2E4
  8
CIVIC_NLTC
 66
     1
 10
0.0
 20
0.0
 30
0.0
 70
     1
  0
VERTEX
  5
AA8
  8
CIVIC_NLTC
 10
607908.64607364533
 20
1773117.373889917
 30
0.0
  0
VERTEX
  5
AA9
  8
CIVIC_NLTC
 10
607917.97234715265
 20
1773132.162423477
 30
0.0
  0
VERTEX
  5
AAA
  8
CIVIC_NLTC
 10
607912.75463020685
 20
1773135.325789843
 30
0.0
  0
VERTEX
  5
AAB
  8
CIVIC_NLTC
 10
607903.71580577199
 20
1773121.1530683821
 30
0.0
  0
SEQEND
  5
AAC
  8
CIVIC_NLTC
  0
POLYLINE
  5
2E5
  8
CIVIC_NLTC
 66
     1
 10
0.0
 20
0.0
 30
0.0
 70
     1
  0
VERTEX
  5
AAD
  8
CIVIC_NLTC
 10
607911.79069322324
 20
1773156.7432737269
 30
0.0
  0
VERTEX
  5
AAE
  8
CIVIC_NLTC
 10
607909.24661904306
 20
1773153.4941429091
 30
0.0
  0
VERTEX
  5
AAF
  8
CIVIC_NLTC
 10
607914.00934707443
 20
1773149.9404607741
 30
0.0
  0
VERTEX
  5
AB0
  8
CIVIC_NLTC
 10
607916.59872029757
 20
1773152.812694751
 30
0.0
  0
SEQEND
  5
AB1
  8
CIVIC_NLTC
  0
POLYLINE
  5
2E6
  8
CIVIC_NLTC
 66
     1
 10
0.0
 20
0.0
 30
0.0
 70
     1
  0
VERTEX
  5
AB2
  8
CIVIC_NLTC
 10
607876.7099154254
 20
1773167.0105037731
 30
0.0
  0
VERTEX
  5
AB3
  8
CIVIC_NLTC
 10
607878.99451935349
 20
1773172.484842875
 30
0.0
  0
VERTEX
  5
AB4
  8
CIVIC_NLTC
 10
607908.50684570521
 20
1773159.3258338929
 30
0.0
  0
VERTEX
  5
AB5
  8
CIVIC_NLTC
 10
607905.99841121281
 20
1773153.540817441
 30
0.0
  0
SEQEND
  5
AB6
  8
CIVIC_NLTC
  0
POLYLINE
  5
2E7
  8
CIVIC_NLTC
 66
     1
 10
0.0
 20
0.0
 30
0.0
 70
     1
  0
VERTEX
  5
AB7
  8
CIVIC_NLTC
 10
607859.72210823186
 20
1773155.937846344
 30
0.0
  0
VERTEX
  5
AB8
  8
CIVIC_NLTC
 10
607867.07054559316
 20
1773167.5061289531
 30
0.0
  0
VERTEX
  5
AB9
  8
CIVIC_NLTC
 10
607872.15203232993
 20
1773164.4576986211
 30
0.0
  0
VERTEX
  5
ABA
  8
CIVIC_NLTC
 10
607864.21737206227
 20
1773152.5376067311
 30
0.0
  0
SEQEND
  5
ABB
  8
CIVIC_NLTC
  0
POLYLINE
  5
2E8
  8
CIVIC_PYRAMIDS
 66
     1
 10
0.0
 20
0.0
 30
0.0
 70
     1
  0
VERTEX
  5
ABC
  8
CIVIC_PYRAMIDS
 10
601991.07343987934
 20
1771431.063178621
 30
0.0
  0
VERTEX
  5
ABD
  8
CIVIC_PYRAMIDS
 10
601998.81187210523
 20
1771440.8178953461
 30
0.0
  0
VERTEX
  5
ABE
  8
CIVIC_PYRAMIDS
 10
602008.07634912932
 20
1771433.925208224
 30
0.0
  0
VERTEX
  5
ABF
  8
CIVIC_PYRAMIDS
 10
601999.54074427998
 20
1771424.603970102
 30
0.0
  0
SEQEND
  5
AC0
  8
CIVIC_PYRAMIDS
  0
POLYLINE
  5
2E9
  8
CIVIC_PYRAMIDS
 66
     1
 10
0.0
 20
0.0
 30
0.0
 70
     1
  0
VERTEX
  5
AC1
  8
CIVIC_PYRAMIDS
 10
601992.35310281545
 20
1771477.8802784621
 30
0.0
  0
VERTEX
  5
AC2
  8
CIVIC_PYRAMIDS
 10
602002.94014288753
 20
1771473.3145584529
 30
0.0
  0
VERTEX
  5
AC3
  8
CIVIC_PYRAMIDS
 10
601998.32641008508
 20
1771463.658994009
 30
0.0
  0
VERTEX
  5
AC4
  8
CIVIC_PYRAMIDS
 10
601987.78926667455
 20
1771468.1875156621
 30
0.0
  0
SEQEND
  5
AC5
  8
CIVIC_PYRAMIDS
  0
TEXT
  5
2EA
  8
CIVIC_ID
 10
611771.67349609558
 20
1766639.0831199391
 30
0.0
 40
1.0
  1
RV175-V
  0
TEXT
  5
2EB
  8
CIVIC_ID
 10
611782.69248824462
 20
1766630.5352629439
 30
0.0
 40
1.0
  1
RV175-IV
  0
TEXT
  5
2EC
  8
CIVIC_ID
 10
611788.44846440444
 20
1766619.9687324651
 30
0.0
 40
1.0
  1
RV175-III
  0
TEXT
  5
2ED
  8
CIVIC_ID
 10
611805.22942817502
 20
1766585.932789016
 30
0.0
 40
1.0
  1
RV175-II
  0
TEXT
  5
2EE
  8
CIVIC_ID
 10
611790.23244729405
 20
1766570.9841034701
 30
0.0
 40
1.0
  1
RV175-I
  0
POLYLINE
  5
2EF
  8
CIVIC_PYRAMIDS
 66
     1
 10
0.0
 20
0.0
 30
0.0
 70
     1
  0
VERTEX
  5
AC6
  8
CIVIC_PYRAMIDS
 10
611772.11116478802
 20
1766646.2768320921
 30
0.0
  0
VERTEX
  5
AC7
  8
CIVIC_PYRAMIDS
 10
611778.37575593544
 20
1766638.8337029121
 30
0.0
  0
VERTEX
  5
AC8
  8
CIVIC_PYRAMIDS
 10
611769.42619726155
 20
1766631.9600030149
 30
0.0
  0
VERTEX
  5
AC9
  8
CIVIC_PYRAMIDS
 10
611763.48669336212
 20
1766639.4436806941
 30
0.0
  0
SEQEND
  5
ACA
  8
CIVIC_PYRAMIDS
  0
POLYLINE
  5
2F0
  8
CIVIC_PYRAMIDS
 66
     1
 10
0.0
 20
0.0
 30
0.0
 70
     1
  0
VERTEX
  5
ACB
  8
CIVIC_PYRAMIDS
 10
611783.26139092853
 20
1766638.9775188121
 30
0.0
  0
VERTEX
  5
ACC
  8
CIVIC_PYRAMIDS
 10
611790.15683786245
 20
1766630.3803618429
 30
0.0
  0
VERTEX
  5
ACD
  8
CIVIC_PYRAMIDS
 10
611781.07104897907
 20
1766623.1215970621
 30
0.0
  0
VERTEX
  5
ACE
  8
CIVIC_PYRAMIDS
 10
611774.45972030587
 20
1766631.7590108139
 30
0.0
  0
SEQEND
  5
ACF
  8
CIVIC_PYRAMIDS
  0
POLYLINE
  5
2F1
  8
CIVIC_PYRAMIDS
 66
     1
 10
0.0
 20
0.0
 30
0.0
 70
     1
  0
VERTEX
  5
AD0
  8
CIVIC_PYRAMIDS
 10
611788.89945634478
 20
1766627.2172871931
 30
0.0
  0
VERTEX
  5
AD1
  8
CIVIC_PYRAMIDS
 10
611795.26730266318
 20
1766619.187809211
 30
0.0
  0
VERTEX
  5
AD2
  8
CIVIC_PYRAMIDS
 10
611786.50626794668
 20
1766612.2128839239
 30
0.0
  0
VERTEX
  5
AD3
  8
CIVIC_PYRAMIDS
 10
611780.3006321711
 20
1766620.1612649071
 30
0.0
  0
SEQEND
  5
AD4
  8
CIVIC_PYRAMIDS
  0
POLYLINE
  5
2F2
  8
CIVIC_PYRAMIDS
 66
     1
 10
0.0
 20
0.0
 30
0.0
 70
     1
  0
VERTEX
  5
AD5
  8
CIVIC_PYRAMIDS
 10
611795.69298043265
 20
1766585.5100927909
 30
0.0
  0
VERTEX
  5
AD6
  8
CIVIC_PYRAMIDS
 10
611803.65462027711
 20
1766576.005407901
 30
0.0
  0
VERTEX
  5
AD7
  8
CIVIC_PYRAMIDS
 10
611817.73396246135
 20
1766587.962839416
 30
0.0
  0
VERTEX
  5
AD8
  8
CIVIC_PYRAMIDS
 10
611809.66840128333
 20
1766597.2968705499
 30
0.0
  0
SEQEND
  5
AD9
  8
CIVIC_PYRAMIDS
  0
POLYLINE
  5
2F3
  8
CIVIC_PYRAMIDS
 66
     1
 10
0.0
 20
0.0
 30
0.0
 70
     1
  0
VERTEX
  5
ADA
  8
CIVIC_PYRAMIDS
 10
611783.49288236035
 20
1766572.1640939671
 30
0.0
  0
VERTEX
  5
ADB
  8
CIVIC_PYRAMIDS
 10
611790.34536181972
 20
1766565.035726157
 30
0.0
  0
VERTEX
  5
ADC
  8
CIVIC_PYRAMIDS
 10
611797.55457124091
 20
1766571.966018924
 30
0.0
  0
VERTEX
  5
ADD
  8
CIVIC_PYRAMIDS
 10
611790.42463514465
 20
1766579.173733436
 30
0.0
  0
SEQEND
  5
ADE
  8
CIVIC_PYRAMIDS
  0
POLYLINE
  5
2F4
  8
CIVIC_PYRAMIDS
 66
     1
 10
0.0
 20
0.0
 30
0.0
 70
     1
  0
VERTEX
  5
ADF
  8
CIVIC_PYRAMIDS
 10
604305.29408143484
 20
1767610.741222658
 30
0.0
  0
VERTEX
  5
AE0
  8
CIVIC_PYRAMIDS
 10
604314.17302689492
 20
1767600.733764339
 30
0.0
  0
VERTEX
  5
AE1
  8
CIVIC_PYRAMIDS
 10
604305.50925188779
 20
1767592.985688858
 30
0.0
  0
VERTEX
  5
AE2
  8
CIVIC_PYRAMIDS
 10
604296.46876204736
 20
1767602.832048578
 30
0.0
  0
SEQEND
  5
AE3
  8
CIVIC_PYRAMIDS
  0
TEXT
  5
2F5
  8
CIVIC_ID
 10
607770.05964781344
 20
1767390.436311031
 30
0.0
 40
1.0
  1
RV158-I
  0
POLYLINE
  5
2F6
  8
CIVIC_PYRAMIDS
 66
     1
 10
0.0
 20
0.0
 30
0.0
 70
     1
  0
VERTEX
  5
AE4
  8
CIVIC_PYRAMIDS
 10
607768.24935150938
 20
1767405.6296353471
 30
0.0
  0
VERTEX
  5
AE5
  8
CIVIC_PYRAMIDS
 10
607784.88475879689
 20
1767388.700735942
 30
0.0
  0
VERTEX
  5
AE6
  8
CIVIC_PYRAMIDS
 10
607767.65979779116
 20
1767373.007980163
 30
0.0
  0
VERTEX
  5
AE7
  8
CIVIC_PYRAMIDS
 10
607751.57663912768
 20
1767389.5869222579
 30
0.0
  0
SEQEND
  5
AE8
  8
CIVIC_PYRAMIDS
  0
POLYLINE
  5
2F7
  8
CIVIC_PYRAMID_ANNEX
 66
     1
 10
0.0
 20
0.0
 30
0.0
 70
     1
  0
VERTEX
  5
AE9
  8
CIVIC_PYRAMID_ANNEX
 10
605825.87782812153
 20
1766714.4424931339
 30
0.0
  0
VERTEX
  5
AEA
  8
CIVIC_PYRAMID_ANNEX
 10
605821.73925863276
 20
1766709.839705572
 30
0.0
  0
VERTEX
  5
AEB
  8
CIVIC_PYRAMID_ANNEX
 10
605827.14868112619
 20
1766705.428049003
 30
0.0
  0
VERTEX
  5
AEC
  8
CIVIC_PYRAMID_ANNEX
 10
605830.86975635926
 20
1766709.917924196
 30
0.0
  0
SEQEND
  5
AED
  8
CIVIC_PYRAMID_ANNEX
  0
TEXT
  5
2F8
  8
CIVIC_ID
 10
605809.19287654618
 20
1766663.7551845291
 30
0.0
 40
1.0
  1
RV200-III
  0
TEXT
  5
2F9
  8
CIVIC_ID
 10
605821.62671031326
 20
1766682.1668394131
 30
0.0
 40
1.0
  1
RV200-I
  0
POLYLINE
  5
2FA
  8
CIVIC_PYRAMIDS
 66
     1
 10
0.0
 20
0.0
 30
0.0
 70
     1
  0
VERTEX
  5
AEE
  8
CIVIC_PYRAMIDS
 10
605823.10294256895
 20
1766664.86096879
 30
0.0
  0
VERTEX
  5
AEF
  8
CIVIC_PYRAMIDS
 10
605838.41918900993
 20
1766682.81794638
 30
0.0
  0
VERTEX
  5
AF0
  8
CIVIC_PYRAMIDS
 10
605820.07932400575
 20
1766698.8571799269
 30
0.0
  0
VERTEX
  5
AF1
  8
CIVIC_PYRAMIDS
 10
605804.75866870792
 20
1766680.893642064
 30
0.0
  0
SEQEND
  5
AF2
  8
CIVIC_PYRAMIDS
  0
POLYLINE
  5
2FB
  8
CIVIC_BALL_COURTS
 66
     1
 10
0.0
 20
0.0
 30
0.0
 70
     1
  0
VERTEX
  5
AF3
  8
CIVIC_BALL_COURTS
 10
605811.45890653029
 20
1766655.913767444
 30
0.0
  0
VERTEX
  5
AF4
  8
CIVIC_BALL_COURTS
 10
605816.63490454387
 20
1766661.8321418031
 30
0.0
  0
VERTEX
  5
AF5
  8
CIVIC_BALL_COURTS
 10
605802.87375991012
 20
1766673.9477020679
 30
0.0
  0
VERTEX
  5
AF6
  8
CIVIC_BALL_COURTS
 10
605797.69788436475
 20
1766668.2772302851
 30
0.0
  0
SEQEND
  5
AF7
  8
CIVIC_BALL_COURTS
  0
POLYLINE
  5
2FC
  8
CIVIC_PYRAMIDS
 66
     1
 10
0.0
 20
0.0
 30
0.0
 70
     1
  0
VERTEX
  5
AF8
  8
CIVIC_PYRAMIDS
 10
605817.06195132318
 20
1766726.8930057341
 30
0.0
  0
VERTEX
  5
AF9
  8
CIVIC_PYRAMIDS
 10
605828.34666552348
 20
1766717.4180809921
 30
0.0
  0
VERTEX
  5
AFA
  8
CIVIC_PYRAMIDS
 10
605819.16252670472
 20
1766707.1127772429
 30
0.0
  0
VERTEX
  5
AFB
  8
CIVIC_PYRAMIDS
 10
605808.26860868209
 20
1766716.441231302
 30
0.0
  0
SEQEND
  5
AFC
  8
CIVIC_PYRAMIDS
  0
TEXT
  5
2FD
  8
CIVIC_ID
 10
605059.96667419875
 20
1766526.205841335
 30
0.0
 40
1.0
  1
RV196-C_III
  0
TEXT
  5
2FE
  8
CIVIC_ID
 10
604928.97782081412
 20
1766584.9654381259
 30
0.0
 40
1.0
  1
RV196-B_II
  0
TEXT
  5
2FF
  8
CIVIC_ID
 10
604940.78645417746
 20
1766697.2129487491
 30
0.0
 40
1.0
  1
RV196-A_I
  0
POLYLINE
  5
300
  8
CIVIC_PYRAMIDS
 66
     1
 10
0.0
 20
0.0
 30
0.0
 70
     1
  0
VERTEX
  5
AFD
  8
CIVIC_PYRAMIDS
 10
605066.23905939097
 20
1766526.785414645
 30
0.0
  0
VERTEX
  5
AFE
  8
CIVIC_PYRAMIDS
 10
605058.51557260216
 20
1766534.8765099191
 30
0.0
  0
VERTEX
  5
AFF
  8
CIVIC_PYRAMIDS
 10
605050.42269876623
 20
1766527.689190777
 30
0.0
  0
VERTEX
  5
B00
  8
CIVIC_PYRAMIDS
 10
605057.86772967468
 20
1766519.418301011
 30
0.0
  0
SEQEND
  5
B01
  8
CIVIC_PYRAMIDS
  0
POLYLINE
  5
301
  8
CIVIC_PYRAMIDS
 66
     1
 10
0.0
 20
0.0
 30
0.0
 70
     1
  0
VERTEX
  5
B02
  8
CIVIC_PYRAMIDS
 10
604940.79601758055
 20
1766707.789059238
 30
0.0
  0
VERTEX
  5
B03
  8
CIVIC_PYRAMIDS
 10
604952.32862093463
 20
1766697.031927313
 30
0.0
  0
VERTEX
  5
B04
  8
CIVIC_PYRAMIDS
 10
604940.02293612296
 20
1766684.278184413
 30
0.0
  0
VERTEX
  5
B05
  8
CIVIC_PYRAMIDS
 10
604928.61890211049
 20
1766695.163986061
 30
0.0
  0
SEQEND
  5
B06
  8
CIVIC_PYRAMIDS
  0
POLYLINE
  5
302
  8
CIVIC_PLATFORM_HIGH
 66
     1
 10
0.0
 20
0.0
 30
0.0
 70
     1
  0
VERTEX
  5
B07
  8
CIVIC_PLATFORM_HIGH
 10
604930.67734390614
 20
1766573.98592943
 30
0.0
  0
VERTEX
  5
B08
  8
CIVIC_PLATFORM_HIGH
 10
604939.43038467399
 20
1766585.005890708
 30
0.0
  0
VERTEX
  5
B09
  8
CIVIC_PLATFORM_HIGH
 10
604924.51767333585
 20
1766596.5117088589
 30
0.0
  0
VERTEX
  5
B0A
  8
CIVIC_PLATFORM_HIGH
 10
604916.0887205723
 20
1766585.32979529
 30
0.0
  0
SEQEND
  5
B0B
  8
CIVIC_PLATFORM_HIGH
  0
TEXT
  5
303
  8
CIVIC_ID
 10
604270.98538585065
 20
1765974.528065325
 30
0.0
 40
1.0
  1
RV195-I
  0
POLYLINE
  5
304
  8
CIVIC_PYRAMIDS
 66
     1
 10
0.0
 20
0.0
 30
0.0
 70
     1
  0
VERTEX
  5
B0C
  8
CIVIC_PYRAMIDS
 10
604279.67414194765
 20
1765975.9771271411
 30
0.0
  0
VERTEX
  5
B0D
  8
CIVIC_PYRAMIDS
 10
604268.98756483314
 20
1765985.2460472379
 30
0.0
  0
VERTEX
  5
B0E
  8
CIVIC_PYRAMIDS
 10
604259.26659010758
 20
1765972.8876562919
 30
0.0
  0
VERTEX
  5
B0F
  8
CIVIC_PYRAMIDS
 10
604269.56712611532
 20
1765964.455436161
 30
0.0
  0
SEQEND
  5
B10
  8
CIVIC_PYRAMIDS
  0
TEXT
  5
305
  8
CIVIC_ID
 10
606554.58423970779
 20
1766080.0316520301
 30
0.0
 40
1.0
  1
RV192-I
  0
POLYLINE
  5
306
  8
CIVIC_PYRAMIDS
 66
     1
 10
0.0
 20
0.0
 30
0.0
 70
     1
  0
VERTEX
  5
B11
  8
CIVIC_PYRAMIDS
 10
606562.70682404703
 20
1766080.998886981
 30
0.0
  0
VERTEX
  5
B12
  8
CIVIC_PYRAMIDS
 10
606553.40255842241
 20
1766088.629904934
 30
0.0
  0
VERTEX
  5
B13
  8
CIVIC_PYRAMIDS
 10
606546.06706772489
 20
1766079.434918459
 30
0.0
  0
VERTEX
  5
B14
  8
CIVIC_PYRAMIDS
 10
606555.10164449073
 20
1766071.911834348
 30
0.0
  0
SEQEND
  5
B15
  8
CIVIC_PYRAMIDS
  0
TEXT
  5
307
  8
CIVIC_ID
 10
605095.17813317443
 20
1769495.747912317
 30
0.0
 40
1.0
  1
RV208-I
 50
6.9999999998372804
  0
POLYLINE
  5
308
  8
CIVIC_PYRAMIDS
 66
     1
 10
0.0
 20
0.0
 30
0.0
 70
     1
  0
VERTEX
  5
B16
  8
CIVIC_PYRAMIDS
 10
605107.13248415233
 20
1769494.3685695841
 30
0.0
  0
VERTEX
  5
B17
  8
CIVIC_PYRAMIDS
 10
605096.28565376578
 20
1769504.9521968991
 30
0.0
  0
VERTEX
  5
B18
  8
CIVIC_PYRAMIDS
 10
605087.26121633034
 20
1769495.1782273329
 30
0.0
  0
VERTEX
  5
B19
  8
CIVIC_PYRAMIDS
 10
605097.98393647734
 20
1769485.053310449
 30
0.0
  0
SEQEND
  5
B1A
  8
CIVIC_PYRAMIDS
  0
TEXT
  5
309
  8
CIVIC_ID
 10
603064.93326592445
 20
1769034.904120717
 30
0.0
 40
1.0
  1
RV203-I
  0
POLYLINE
  5
30A
  8
CIVIC_PYRAMIDS
 66
     1
 10
0.0
 20
0.0
 30
0.0
 70
     1
  0
VERTEX
  5
B1B
  8
CIVIC_PYRAMIDS
 10
603074.46700618346
 20
1769036.316994515
 30
0.0
  0
VERTEX
  5
B1C
  8
CIVIC_PYRAMIDS
 10
603064.02675827686
 20
1769046.470569087
 30
0.0
  0
VERTEX
  5
B1D
  8
CIVIC_PYRAMIDS
 10
603054.04311418545
 20
1769036.031849433
 30
0.0
  0
VERTEX
  5
B1E
  8
CIVIC_PYRAMIDS
 10
603064.59726179636
 20
1769026.049629651
 30
0.0
  0
SEQEND
  5
B1F
  8
CIVIC_PYRAMIDS
  0
TEXT
  5
30B
  8
CIVIC_ID
 10
602917.66597309709
 20
1769802.542524857
 30
0.0
 40
1.0
  1
RV205-I
  0
POLYLINE
  5
30C
  8
CIVIC_PYRAMIDS
 66
     1
 10
0.0
 20
0.0
 30
0.0
 70
     1
  0
VERTEX
  5
B20
  8
CIVIC_PYRAMIDS
 10
602918.12257691205
 20
1769811.8693125639
 30
0.0
  0
VERTEX
  5
B21
  8
CIVIC_PYRAMIDS
 10
602927.05398873426
 20
1769803.3398601171
 30
0.0
  0
VERTEX
  5
B22
  8
CIVIC_PYRAMIDS
 10
602916.0566372734
 20
1769791.678631128
 30
0.0
  0
VERTEX
  5
B23
  8
CIVIC_PYRAMIDS
 10
602906.85856614332
 20
1769800.4080867451
 30
0.0
  0
SEQEND
  5
B24
  8
CIVIC_PYRAMIDS
  0
TEXT
  5
30D
  8
CIVIC_ID
 10
606655.39537567366
 20
1768373.6419221959
 30
0.0
 40
1.0
  1
RV177-I
  0
POLYLINE
  5
30E
  8
CIVIC_PYRAMIDS
 66
     1
 10
0.0
 20
0.0
 30
0.0
 70
     1
  0
VERTEX
  5
B25
  8
CIVIC_PYRAMIDS
 10
606654.1693662355
 20
1768382.555017862
 30
0.0
  0
VERTEX
  5
B26
  8
CIVIC_PYRAMIDS
 10
606665.59113453887
 20
1768373.0191896069
 30
0.0
  0
VERTEX
  5
B27
  8
CIVIC_PYRAMIDS
 10
606654.75820605503
 20
1768361.0112690569
 30
0.0
  0
VERTEX
  5
B28
  8
CIVIC_PYRAMIDS
 10
606644.16039551166
 20
1768370.0761456999
 30
0.0
  0
SEQEND
  5
B29
  8
CIVIC_PYRAMIDS
  0
TEXT
  5
30F
  8
CIVIC_ID
 10
604470.34674244793
 20
1768439.274883854
 30
0.0
 40
1.0
  1
RV93b-B_VIII
  0
TEXT
  5
310
  8
CIVIC_ID
 10
604307.24651986733
 20
1768568.8584059291
 30
0.0
 40
1.0
  1
RV93b-C_VII
  0
TEXT
  5
311
  8
CIVIC_ID
 10
604028.71587275551
 20
1768350.568856702
 30
0.0
 40
1.0
  1
RV93b-B_VI
  0
TEXT
  5
312
  8
CIVIC_ID
 10
604001.79844478343
 20
1768606.584586978
 30
0.0
 40
1.0
  1
RV93b-A_I
  0
TEXT
  5
313
  8
CIVIC_ID
 10
603961.88969921484
 20
1769003.4682109579
 30
0.0
 40
1.0
  1
RV93a-EX_V
  0
TEXT
  5
314
  8
CIVIC_ID
 10
603914.41130619484
 20
1768904.170027127
 30
0.0
 40
1.0
  1
RV93a-EX_IV
  0
TEXT
  5
315
  8
CIVIC_ID
 10
603929.69673539232
 20
1768895.851151329
 30
0.0
 40
1.0
  1
RV93a-EX_III
  0
TEXT
  5
316
  8
CIVIC_ID
 10
604448.94533994398
 20
1769253.0010195309
 30
0.0
 40
1.0
  1
RV93a-CC_I
  0
POLYLINE
  5
317
  8
CIVIC_PYRAMIDS
 66
     1
 10
0.0
 20
0.0
 30
0.0
 70
     1
  0
VERTEX
  5
B2A
  8
CIVIC_PYRAMIDS
 10
604007.98872471449
 20
1768607.328835373
 30
0.0
  0
VERTEX
  5
B2B
  8
CIVIC_PYRAMIDS
 10
604003.08638491854
 20
1768613.0068172021
 30
0.0
  0
VERTEX
  5
B2C
  8
CIVIC_PYRAMIDS
 10
603995.43612213898
 20
1768606.3640087161
 30
0.0
  0
VERTEX
  5
B2D
  8
CIVIC_PYRAMIDS
 10
604000.37553400383
 20
1768600.9458864119
 30
0.0
  0
SEQEND
  5
B2E
  8
CIVIC_PYRAMIDS
  0
POLYLINE
  5
318
  8
CIVIC_RANGE
 66
     1
 10
0.0
 20
0.0
 30
0.0
 70
     1
  0
VERTEX
  5
B2F
  8
CIVIC_RANGE
 10
604020.26275717095
 20
1768360.988494199
 30
0.0
  0
VERTEX
  5
B30
  8
CIVIC_RANGE
 10
604039.83716268907
 20
1768346.7771490139
 30
0.0
  0
VERTEX
  5
B31
  8
CIVIC_RANGE
 10
604035.36415275943
 20
1768340.91050439
 30
0.0
  0
VERTEX
  5
B32
  8
CIVIC_RANGE
 10
604015.79433711665
 20
1768355.227705624
 30
0.0
  0
SEQEND
  5
B33
  8
CIVIC_RANGE
  0
POLYLINE
  5
319
  8
CIVIC_RANGE
 66
     1
 10
0.0
 20
0.0
 30
0.0
 70
     1
  0
VERTEX
  5
B34
  8
CIVIC_RANGE
 10
604477.12731132295
 20
1768442.9466938509
 30
0.0
  0
VERTEX
  5
B35
  8
CIVIC_RANGE
 10
604471.32557712647
 20
1768447.4312988881
 30
0.0
  0
VERTEX
  5
B36
  8
CIVIC_RANGE
 10
604462.11105810839
 20
1768435.2934650821
 30
0.0
  0
VERTEX
  5
B37
  8
CIVIC_RANGE
 10
604467.96147928119
 20
1768430.7113474121
 30
0.0
  0
SEQEND
  5
B38
  8
CIVIC_RANGE
  0
POLYLINE
  5
31A
  8
CIVIC_PYRAMIDS
 66
     1
 10
0.0
 20
0.0
 30
0.0
 70
     1
  0
VERTEX
  5
B39
  8
CIVIC_PYRAMIDS
 10
604306.47366767027
 20
1768579.399860333
 30
0.0
  0
VERTEX
  5
B3A
  8
CIVIC_PYRAMIDS
 10
604317.14284708095
 20
1768571.0513537989
 30
0.0
  0
VERTEX
  5
B3B
  8
CIVIC_PYRAMIDS
 10
604306.70567441825
 20
1768558.9924866811
 30
0.0
  0
VERTEX
  5
B3C
  8
CIVIC_PYRAMIDS
 10
604296.19116617274
 20
1768567.2635882921
 30
0.0
  0
SEQEND
  5
B3D
  8
CIVIC_PYRAMIDS
  0
POLYLINE
  5
31B
  8
CIVIC_PYRAMIDS
 66
     1
 10
0.0
 20
0.0
 30
0.0
 70
     1
  0
VERTEX
  5
B3E
  8
CIVIC_PYRAMIDS
 10
603911.85557417269
 20
1768909.298133591
 30
0.0
  0
VERTEX
  5
B3F
  8
CIVIC_PYRAMIDS
 10
603918.66475307685
 20
1768903.591107883
 30
0.0
  0
VERTEX
  5
B40
  8
CIVIC_PYRAMIDS
 10
603913.57593855367
 20
1768897.5547028901
 30
0.0
  0
VERTEX
  5
B41
  8
CIVIC_PYRAMIDS
 10
603906.87667644455
 20
1768903.1520739549
 30
0.0
  0
SEQEND
  5
B42
  8
CIVIC_PYRAMIDS
  0
POLYLINE
  5
31C
  8
CIVIC_RANGE
 66
     1
 10
0.0
 20
0.0
 30
0.0
 70
     1
  0
VERTEX
  5
B43
  8
CIVIC_RANGE
 10
603924.56628571963
 20
1768896.404782899
 30
0.0
  0
VERTEX
  5
B44
  8
CIVIC_RANGE
 10
603927.71223762236
 20
1768901.0470371069
 30
0.0
  0
VERTEX
  5
B45
  8
CIVIC_RANGE
 10
603935.21089460363
 20
1768895.67375195
 30
0.0
  0
VERTEX
  5
B46
  8
CIVIC_RANGE
 10
603931.91872005537
 20
1768891.1043931569
 30
0.0
  0
SEQEND
  5
B47
  8
CIVIC_RANGE
  0
POLYLINE
  5
31D
  8
CIVIC_PLATFORM_HIGH
 66
     1
 10
0.0
 20
0.0
 30
0.0
 70
     1
  0
VERTEX
  5
B48
  8
CIVIC_PLATFORM_HIGH
 10
603954.8770076998
 20
1769000.9893518579
 30
0.0
  0
VERTEX
  5
B49
  8
CIVIC_PLATFORM_HIGH
 10
603960.37751058186
 20
1769009.361940701
 30
0.0
  0
VERTEX
  5
B4A
  8
CIVIC_PLATFORM_HIGH
 10
603968.31849939225
 20
1769004.665897568
 30
0.0
  0
VERTEX
  5
B4B
  8
CIVIC_PLATFORM_HIGH
 10
603962.74505172786
 20
1768996.1113817049
 30
0.0
  0
SEQEND
  5
B4C
  8
CIVIC_PLATFORM_HIGH
  0
POLYLINE
  5
31E
  8
CIVIC_PYRAMIDS
 66
     1
 10
0.0
 20
0.0
 30
0.0
 70
     1
  0
VERTEX
  5
B4D
  8
CIVIC_PYRAMIDS
 10
604448.81810292695
 20
1769242.9180218771
 30
0.0
  0
VERTEX
  5
B4E
  8
CIVIC_PYRAMIDS
 10
604459.4747027338
 20
1769251.9929819331
 30
0.0
  0
VERTEX
  5
B4F
  8
CIVIC_PYRAMIDS
 10
604449.83766446996
 20
1769263.5684001241
 30
0.0
  0
VERTEX
  5
B50
  8
CIVIC_PYRAMIDS
 10
604438.81034529116
 20
1769254.585857332
 30
0.0
  0
SEQEND
  5
B51
  8
CIVIC_PYRAMIDS
  0
TEXT
  5
31F
  8
CIVIC_ID
 10
603246.35501312837
 20
1769335.358546868
 30
0.0
 40
1.0
  1
RV91-I
  0
POLYLINE
  5
320
  8
CIVIC_RANGE
 66
     1
 10
0.0
 20
0.0
 30
0.0
 70
     1
  0
VERTEX
  5
B52
  8
CIVIC_RANGE
 10
603239.8146307501
 20
1769336.5219660089
 30
0.0
  0
VERTEX
  5
B53
  8
CIVIC_RANGE
 10
603245.22919868352
 20
1769340.5704652511
 30
0.0
  0
VERTEX
  5
B54
  8
CIVIC_RANGE
 10
603253.00997543824
 20
1769330.426787789
 30
0.0
  0
VERTEX
  5
B55
  8
CIVIC_RANGE
 10
603247.73163771431
 20
1769326.4692520581
 30
0.0
  0
SEQEND
  5
B56
  8
CIVIC_RANGE
  0
TEXT
  5
321
  8
CIVIC_ID
 10
603885.06533034623
 20
1768145.8091998009
 30
0.0
 40
1.0
  1
RV89-C_V
  0
TEXT
  5
322
  8
CIVIC_ID
 10
603517.07471721375
 20
1768147.052510665
 30
0.0
 40
1.0
  1
RV89-B_IV
  0
TEXT
  5
323
  8
CIVIC_ID
 10
603174.60995816579
 20
1767976.118442683
 30
0.0
 40
1.0
  1
RV89-A_III
  0
TEXT
  5
324
  8
CIVIC_ID
 10
603158.09496985946
 20
1768010.600065934
 30
0.0
 40
1.0
  1
RV89-A_II
  0
TEXT
  5
325
  8
CIVIC_ID
 10
603145.44745833555
 20
1768001.4050132621
 30
0.0
 40
1.0
  1
RV89-A_I
  0
POLYLINE
  5
326
  8
CIVIC_ALTARS
 66
     1
 10
0.0
 20
0.0
 30
0.0
 70
     1
  0
VERTEX
  5
B57
  8
CIVIC_ALTARS
 10
603158.25233683689
 20
1768012.3195016789
 30
0.0
  0
VERTEX
  5
B58
  8
CIVIC_ALTARS
 10
603156.67959361803
 20
1768011.2981615509
 30
0.0
  0
VERTEX
  5
B59
  8
CIVIC_ALTARS
 10
603158.04105787724
 20
1768009.0867945601
 30
0.0
  0
VERTEX
  5
B5A
  8
CIVIC_ALTARS
 10
603159.60645806754
 20
1768010.1754044991
 30
0.0
  0
SEQEND
  5
B5B
  8
CIVIC_ALTARS
  0
POLYLINE
  5
327
  8
CIVIC_PLATFORM_HIGH
 66
     1
 10
0.0
 20
0.0
 30
0.0
 70
     1
  0
VERTEX
  5
B5C
  8
CIVIC_PLATFORM_HIGH
 10
603170.48482117965
 20
1767981.8814487411
 30
0.0
  0
VERTEX
  5
B5D
  8
CIVIC_PLATFORM_HIGH
 10
603180.60017686465
 20
1767976.782260465
 30
0.0
  0
VERTEX
  5
B5E
  8
CIVIC_PLATFORM_HIGH
 10
603175.58555587172
 20
1767966.1517522079
 30
0.0
  0
VERTEX
  5
B5F
  8
CIVIC_PLATFORM_HIGH
 10
603165.12474406813
 20
1767971.16454829
 30
0.0
  0
SEQEND
  5
B60
  8
CIVIC_PLATFORM_HIGH
  0
POLYLINE
  5
328
  8
CIVIC_PYRAMIDS
 66
     1
 10
0.0
 20
0.0
 30
0.0
 70
     1
  0
VERTEX
  5
B61
  8
CIVIC_PYRAMIDS
 10
603145.32660383836
 20
1768010.920665225
 30
0.0
  0
VERTEX
  5
B62
  8
CIVIC_PYRAMIDS
 10
603155.78741564194
 20
1768001.2408125731
 30
0.0
  0
VERTEX
  5
B63
  8
CIVIC_PYRAMIDS
 10
603142.90574081533
 20
1767987.4991609161
 30
0.0
  0
VERTEX
  5
B64
  8
CIVIC_PYRAMIDS
 10
603132.2717002912
 20
1767997.2652350271
 30
0.0
  0
SEQEND
  5
B65
  8
CIVIC_PYRAMIDS
  0
POLYLINE
  5
329
  8
CIVIC_RANGE
 66
     1
 10
0.0
 20
0.0
 30
0.0
 70
     1
  0
VERTEX
  5
B66
  8
CIVIC_RANGE
 10
603519.2743411113
 20
1768153.6562774661
 30
0.0
  0
VERTEX
  5
B67
  8
CIVIC_RANGE
 10
603524.37841354369
 20
1768149.183176494
 30
0.0
  0
VERTEX
  5
B68
  8
CIVIC_RANGE
 10
603514.26939956564
 20
1768139.110632051
 30
0.0
  0
VERTEX
  5
B69
  8
CIVIC_RANGE
 10
603509.56285200012
 20
1768143.948253447
 30
0.0
  0
SEQEND
  5
B6A
  8
CIVIC_RANGE
  0
POLYLINE
  5
32A
  8
CIVIC_PLATFORM_HIGH
 66
     1
 10
0.0
 20
0.0
 30
0.0
 70
     1
  0
VERTEX
  5
B6B
  8
CIVIC_PLATFORM_HIGH
 10
603885.16343825834
 20
1768137.07239092
 30
0.0
  0
VERTEX
  5
B6C
  8
CIVIC_PLATFORM_HIGH
 10
603875.89787124831
 20
1768144.350164958
 30
0.0
  0
VERTEX
  5
B6D
  8
CIVIC_PLATFORM_HIGH
 10
603884.00524238218
 20
1768154.3571469451
 30
0.0
  0
VERTEX
  5
B6E
  8
CIVIC_PLATFORM_HIGH
 10
603893.18803343363
 20
1768146.7486581239
 30
0.0
  0
SEQEND
  5
B6F
  8
CIVIC_PLATFORM_HIGH
  0
TEXT
  5
32B
  8
CIVIC_ID
 10
603899.51839164388
 20
1770291.8224451251
 30
0.0
 40
1.0
  1
RV86-B_II
  0
TEXT
  5
32C
  8
CIVIC_ID
 10
603735.13968958973
 20
1770483.6817516109
 30
0.0
 40
1.0
  1
RV86-A_Ib
  0
TEXT
  5
32D
  8
CIVIC_ID
 10
603745.87486364401
 20
1770490.3529022001
 30
0.0
 40
1.0
  1
RV86-A_Ia
  0
TEXT
  5
32E
  8
CIVIC_ID
 10
603745.68027338572
 20
1770480.4234341581
 30
0.0
 40
1.0
  1
RV86-A_I
  0
POLYLINE
  5
32F
  8
CIVIC_PYRAMID_ANNEX
 66
     1
 10
0.0
 20
0.0
 30
0.0
 70
     1
  0
VERTEX
  5
B70
  8
CIVIC_PYRAMID_ANNEX
 10
603737.80854671542
 20
1770483.0503715051
 30
0.0
  0
VERTEX
  5
B71
  8
CIVIC_PYRAMID_ANNEX
 10
603734.65938876371
 20
1770486.694209855
 30
0.0
  0
VERTEX
  5
B72
  8
CIVIC_PYRAMID_ANNEX
 10
603731.23386591685
 20
1770483.657677897
 30
0.0
  0
VERTEX
  5
B73
  8
CIVIC_PYRAMID_ANNEX
 10
603734.54890956054
 20
1770480.0688163971
 30
0.0
  0
SEQEND
  5
B74
  8
CIVIC_PYRAMID_ANNEX
  0
POLYLINE
  5
330
  8
CIVIC_PYRAMID_ANNEX
 66
     1
 10
0.0
 20
0.0
 30
0.0
 70
     1
  0
VERTEX
  5
B75
  8
CIVIC_PYRAMID_ANNEX
 10
603743.6095393179
 20
1770493.7061486249
 30
0.0
  0
VERTEX
  5
B76
  8
CIVIC_PYRAMID_ANNEX
 10
603746.92458296125
 20
1770490.006991952
 30
0.0
  0
VERTEX
  5
B77
  8
CIVIC_PYRAMID_ANNEX
 10
603744.54877943173
 20
1770488.0746068689
 30
0.0
  0
VERTEX
  5
B78
  8
CIVIC_PYRAMID_ANNEX
 10
603741.23373578815
 20
1770491.828911128
 30
0.0
  0
SEQEND
  5
B79
  8
CIVIC_PYRAMID_ANNEX
  0
POLYLINE
  5
331
  8
CIVIC_PYRAMIDS
 66
     1
 10
0.0
 20
0.0
 30
0.0
 70
     1
  0
VERTEX
  5
B7A
  8
CIVIC_PYRAMIDS
 10
603748.08478148165
 20
1770488.847526755
 30
0.0
  0
VERTEX
  5
B7B
  8
CIVIC_PYRAMIDS
 10
603735.26685749425
 20
1770477.8603519101
 30
0.0
  0
VERTEX
  5
B7C
  8
CIVIC_PYRAMIDS
 10
603743.44398739981
 20
1770468.6399486549
 30
0.0
  0
VERTEX
  5
B7D
  8
CIVIC_PYRAMIDS
 10
603755.93014000379
 20
1770479.130283016
 30
0.0
  0
SEQEND
  5
B7E
  8
CIVIC_PYRAMIDS
  0
POLYLINE
  5
332
  8
CIVIC_PYRAMIDS
 66
     1
 10
0.0
 20
0.0
 30
0.0
 70
     1
  0
VERTEX
  5
B7F
  8
CIVIC_PYRAMIDS
 10
603904.7482968847
 20
1770291.3927037171
 30
0.0
  0
VERTEX
  5
B80
  8
CIVIC_PYRAMIDS
 10
603898.36586992617
 20
1770298.26566374
 30
0.0
  0
VERTEX
  5
B81
  8
CIVIC_PYRAMIDS
 10
603893.08389593696
 20
1770293.4821655171
 30
0.0
  0
VERTEX
  5
B82
  8
CIVIC_PYRAMIDS
 10
603899.30110475165
 20
1770286.6092054939
 30
0.0
  0
SEQEND
  5
B83
  8
CIVIC_PYRAMIDS
  0
TEXT
  5
333
  8
CIVIC_ID
 10
611150.16313827282
 20
1767686.6427468541
 30
0.0
 40
1.0
  1
RV169-I
 50
2.0000000000039528
  0
POLYLINE
  5
334
  8
CIVIC_PYRAMIDS
 66
     1
 10
0.0
 20
0.0
 30
0.0
 70
     1
  0
VERTEX
  5
B84
  8
CIVIC_PYRAMIDS
 10
611149.73779434618
 20
1767697.9163221789
 30
0.0
  0
VERTEX
  5
B85
  8
CIVIC_PYRAMIDS
 10
611160.92963790405
 20
1767686.229890351
 30
0.0
  0
VERTEX
  5
B86
  8
CIVIC_PYRAMIDS
 10
611150.18003591534
 20
1767675.965857432
 30
0.0
  0
VERTEX
  5
B87
  8
CIVIC_PYRAMIDS
 10
611138.99384572043
 20
1767687.4903981281
 30
0.0
  0
SEQEND
  5
B88
  8
CIVIC_PYRAMIDS
  0
TEXT
  5
335
  8
CIVIC_ID
 10
610683.77787068905
 20
1767652.567677391
 30
0.0
 40
1.0
  1
RV166-I
  0
POLYLINE
  5
336
  8
CIVIC_PYRAMIDS
 66
     1
 10
0.0
 20
0.0
 30
0.0
 70
     1
  0
VERTEX
  5
B89
  8
CIVIC_PYRAMIDS
 10
610682.61789214681
 20
1767660.7742131371
 30
0.0
  0
VERTEX
  5
B8A
  8
CIVIC_PYRAMIDS
 10
610692.88911700936
 20
1767654.175342381
 30
0.0
  0
VERTEX
  5
B8B
  8
CIVIC_PYRAMIDS
 10
610686.07660729333
 20
1767644.0150789521
 30
0.0
  0
VERTEX
  5
B8C
  8
CIVIC_PYRAMIDS
 10
610675.6481681061
 20
1767650.4045590919
 30
0.0
  0
SEQEND
  5
B8D
  8
CIVIC_PYRAMIDS
  0
TEXT
  5
337
  8
CIVIC_ID
 10
609745.86666311545
 20
1767787.705589283
 30
0.0
 40
1.0
  1
RV163-F_VI
  0
TEXT
  5
338
  8
CIVIC_ID
 10
609744.09866812336
 20
1767761.838864957
 30
0.0
 40
1.0
  1
RV163-F_29
  0
TEXT
  5
339
  8
CIVIC_ID
 10
609722.57029805635
 20
1767789.031338325
 30
0.0
 40
1.0
  1
RV163-F_5
  0
POLYLINE
  5
33A
  8
CIVIC_PLATFORM_LOW_CRUCIFO
 66
     1
 10
0.0
 20
0.0
 30
0.0
 70
     1
  0
VERTEX
  5
B8E
  8
CIVIC_PLATFORM_LOW_CRUCIFO
 10
609745.0879192776
 20
1767795.5986188741
 30
0.0
  0
VERTEX
  5
B8F
  8
CIVIC_PLATFORM_LOW_CRUCIFO
 10
609746.77630786365
 20
1767792.936991781
 30
0.0
  0
VERTEX
  5
B90
  8
CIVIC_PLATFORM_LOW_CRUCIFO
 10
609749.50390978321
 20
1767794.5599351299
 30
0.0
  0
VERTEX
  5
B91
  8
CIVIC_PLATFORM_LOW_CRUCIFO
 10
609753.20544112218
 20
1767788.7175692781
 30
0.0
  0
VERTEX
  5
B92
  8
CIVIC_PLATFORM_LOW_CRUCIFO
 10
609750.8675442026
 20
1767787.2896093349
 30
0.0
  0
VERTEX
  5
B93
  8
CIVIC_PLATFORM_LOW_CRUCIFO
 10
609752.23151170299
 20
1767784.7578177101
 30
0.0
  0
VERTEX
  5
B94
  8
CIVIC_PLATFORM_LOW_CRUCIFO
 10
609745.67247677781
 20
1767780.603312941
 30
0.0
  0
VERTEX
  5
B95
  8
CIVIC_PLATFORM_LOW_CRUCIFO
 10
609744.38045481569
 20
1767782.4640577771
 30
0.0
  0
VERTEX
  5
B96
  8
CIVIC_PLATFORM_LOW_CRUCIFO
 10
609741.38638793875
 20
1767780.603312941
 30
0.0
  0
VERTEX
  5
B97
  8
CIVIC_PLATFORM_LOW_CRUCIFO
 10
609737.55495493335
 20
1767786.7053497289
 30
0.0
  0
VERTEX
  5
B98
  8
CIVIC_PLATFORM_LOW_CRUCIFO
 10
609740.15265518625
 20
1767788.5877338101
 30
0.0
  0
VERTEX
  5
B99
  8
CIVIC_PLATFORM_LOW_CRUCIFO
 10
609738.52921743342
 20
1767791.119525434
 30
0.0
  0
SEQEND
  5
B9A
  8
CIVIC_PLATFORM_LOW_CRUCIFO
  0
POLYLINE
  5
33C
  8
CIVIC_ALTARS
 66
     1
 10
0.0
 20
0.0
 30
0.0
 70
     1
  0
VERTEX
  5
B9B
  8
CIVIC_ALTARS
 10
609745.46130329906
 20
1767761.564000509
 30
0.0
  0
VERTEX
  5
B9C
  8
CIVIC_ALTARS
 10
609743.75792605919
 20
1767764.684886039
 30
0.0
  0
VERTEX
  5
B9D
  8
CIVIC_ALTARS
 10
609741.87768270378
 20
1767763.7629160939
 30
0.0
  0
VERTEX
  5
B9E
  8
CIVIC_ALTARS
 10
609743.47414087958
 20
1767760.5708973019
 30
0.0
  0
SEQEND
  5
B9F
  8
CIVIC_ALTARS
  0
POLYLINE
  5
33D
  8
CIVIC_ALTARS
 66
     1
 10
0.0
 20
0.0
 30
0.0
 70
     1
  0
VERTEX
  5
BA0
  8
CIVIC_ALTARS
 10
609724.59543173225
 20
1767788.6715283319
 30
0.0
  0
VERTEX
  5
BA1
  8
CIVIC_ALTARS
 10
609723.4659533943
 20
1767790.7558019611
 30
0.0
  0
VERTEX
  5
BA2
  8
CIVIC_ALTARS
 10
609720.72935828217
 20
1767789.1927118411
 30
0.0
  0
VERTEX
  5
BA3
  8
CIVIC_ALTARS
 10
609721.7935527059
 20
1767787.2603733339
 30
0.0
  0
SEQEND
  5
BA4
  8
CIVIC_ALTARS
  0
TEXT
  5
33E
  8
CIVIC_ID
 10
609552.23598903173
 20
1767715.1406407231
 30
0.0
 40
1.0
  1
RV163-C_V
  0
POLYLINE
  5
33F
  8
CIVIC_PYRAMIDS
 66
     1
 10
0.0
 20
0.0
 30
0.0
 70
     1
  0
VERTEX
  5
BA5
  8
CIVIC_PYRAMIDS
 10
609544.07430176204
 20
1767716.8452414749
 30
0.0
  0
VERTEX
  5
BA6
  8
CIVIC_PYRAMIDS
 10
609555.09048152971
 20
1767725.612048907
 30
0.0
  0
VERTEX
  5
BA7
  8
CIVIC_PYRAMIDS
 10
609562.47014361946
 20
1767716.8452414749
 30
0.0
  0
VERTEX
  5
BA8
  8
CIVIC_PYRAMIDS
 10
609551.34704971453
 20
1767707.7576823691
 30
0.0
  0
SEQEND
  5
BA9
  8
CIVIC_PYRAMIDS
  0
TEXT
  5
340
  8
CIVIC_ID
 10
610163.41591896245
 20
1767759.548188936
 30
0.0
 40
1.0
  1
RV163-B_IV
  0
TEXT
  5
341
  8
CIVIC_ID
 10
610135.89741665428
 20
1767780.987881575
 30
0.0
 40
1.0
  1
RV163-B_40
  0
TEXT
  5
342
  8
CIVIC_ID
 10
610149.30027092795
 20
1767777.219555039
 30
0.0
 40
1.0
  1
RV163-B_30
  0
POLYLINE
  5
343
  8
CIVIC_PYRAMIDS
 66
     1
 10
0.0
 20
0.0
 30
0.0
 70
     1
  0
VERTEX
  5
BAA
  8
CIVIC_PYRAMIDS
 10
610153.9211063697
 20
1767760.6441156799
 30
0.0
  0
VERTEX
  5
BAB
  8
CIVIC_PYRAMIDS
 10
610164.0457755056
 20
1767768.900310159
 30
0.0
  0
VERTEX
  5
BAC
  8
CIVIC_PYRAMIDS
 10
610172.3051899398
 20
1767758.1585240031
 30
0.0
  0
VERTEX
  5
BAD
  8
CIVIC_PYRAMIDS
 10
610162.62451803905
 20
1767750.6124985749
 30
0.0
  0
SEQEND
  5
BAE
  8
CIVIC_PYRAMIDS
  0
POLYLINE
  5
344
  8
CIVIC_ALTARS
 66
     1
 10
0.0
 20
0.0
 30
0.0
 70
     1
  0
VERTEX
  5
BAF
  8
CIVIC_ALTARS
 10
610136.09993002191
 20
1767782.960123698
 30
0.0
  0
VERTEX
  5
BB0
  8
CIVIC_ALTARS
 10
610137.74968118907
 20
1767780.107945058
 30
0.0
  0
VERTEX
  5
BB1
  8
CIVIC_ALTARS
 10
610135.50304851739
 20
1767778.784312641
 30
0.0
  0
VERTEX
  5
BB2
  8
CIVIC_ALTARS
 10
610133.98619674775
 20
1767781.6179595741
 30
0.0
  0
SEQEND
  5
BB3
  8
CIVIC_ALTARS
  0
POLYLINE
  5
345
  8
CIVIC_ALTARS
 66
     1
 10
0.0
 20
0.0
 30
0.0
 70
     1
  0
VERTEX
  5
BB4
  8
CIVIC_ALTARS
 10
610150.49336777464
 20
1767779.280408537
 30
0.0
  0
VERTEX
  5
BB5
  8
CIVIC_ALTARS
 10
610152.2527026555
 20
1767776.753919303
 30
0.0
  0
VERTEX
  5
BB6
  8
CIVIC_ALTARS
 10
610148.65975578676
 20
1767774.524789395
 30
0.0
  0
VERTEX
  5
BB7
  8
CIVIC_ALTARS
 10
610147.17321440589
 20
1767776.877890025
 30
0.0
  0
SEQEND
  5
BB8
  8
CIVIC_ALTARS
  0
POLYLINE
  5
346
  8
CIVIC_BALL_COURTS
 66
     1
 10
0.0
 20
0.0
 30
0.0
 70
     1
  0
VERTEX
  5
BB9
  8
CIVIC_BALL_COURTS
 10
609913.07409001689
 20
1768032.8032254661
 30
0.0
  0
VERTEX
  5
BBA
  8
CIVIC_BALL_COURTS
 10
609918.645872275
 20
1768036.833348233
 30
0.0
  0
VERTEX
  5
BBB
  8
CIVIC_BALL_COURTS
 10
609930.85662894568
 20
1768021.1871367481
 30
0.0
  0
VERTEX
  5
BBC
  8
CIVIC_BALL_COURTS
 10
609924.92911596945
 20
1768016.9199706269
 30
0.0
  0
SEQEND
  5
BBD
  8
CIVIC_BALL_COURTS
  0
POLYLINE
  5
347
  8
CIVIC_BALL_COURTS
 66
     1
 10
0.0
 20
0.0
 30
0.0
 70
     1
  0
VERTEX
  5
BBE
  8
CIVIC_BALL_COURTS
 10
609903.35311529145
 20
1768024.624554693
 30
0.0
  0
VERTEX
  5
BBF
  8
CIVIC_BALL_COURTS
 10
609908.33201301948
 20
1768028.7731026991
 30
0.0
  0
VERTEX
  5
BC0
  8
CIVIC_BALL_COURTS
 10
609921.13532113913
 20
1768014.0752575051
 30
0.0
  0
VERTEX
  5
BC1
  8
CIVIC_BALL_COURTS
 10
609914.97098743194
 20
1768009.689666145
 30
0.0
  0
SEQEND
  5
BC2
  8
CIVIC_BALL_COURTS
  0
POLYLINE
  5
348
  8
CIVIC_PYRAMIDS
 66
     1
 10
0.0
 20
0.0
 30
0.0
 70
     1
  0
VERTEX
  5
BC3
  8
CIVIC_PYRAMIDS
 10
609859.19087866566
 20
1767868.004282363
 30
0.0
  0
VERTEX
  5
BC4
  8
CIVIC_PYRAMIDS
 10
609869.92941644706
 20
1767877.0458758101
 30
0.0
  0
VERTEX
  5
BC5
  8
CIVIC_PYRAMIDS
 10
609880.66828730947
 20
1767864.4252941811
 30
0.0
  0
VERTEX
  5
BC6
  8
CIVIC_PYRAMIDS
 10
609869.74122557079
 20
1767855.94863156
 30
0.0
  0
SEQEND
  5
BC7
  8
CIVIC_PYRAMIDS
  0
POLYLINE
  5
349
  8
CIVIC_PYRAMIDS
 66
     1
 10
0.0
 20
0.0
 30
0.0
 70
     1
  0
VERTEX
  5
BC8
  8
CIVIC_PYRAMIDS
 10
609946.60770565597
 20
1767916.226499828
 30
0.0
  0
VERTEX
  5
BC9
  8
CIVIC_PYRAMIDS
 10
609957.34624343715
 20
1767923.949599891
 30
0.0
  0
VERTEX
  5
BCA
  8
CIVIC_PYRAMIDS
 10
609967.51987550908
 20
1767910.5754557049
 30
0.0
  0
VERTEX
  5
BCB
  8
CIVIC_PYRAMIDS
 10
609956.40428981325
 20
1767903.4174793409
 30
0.0
  0
SEQEND
  5
BCC
  8
CIVIC_PYRAMIDS
  0
TEXT
  5
34A
  8
CIVIC_ID
 10
609851.62127538957
 20
1767884.7068701291
 30
0.0
 40
1.0
  1
RV163-A_126
  0
POLYLINE
  5
34B
  8
CIVIC_ALTARS
 66
     1
 10
0.0
 20
0.0
 30
0.0
 70
     1
  0
VERTEX
  5
BCD
  8
CIVIC_ALTARS
 10
609851.00440901332
 20
1767882.8359827951
 30
0.0
  0
VERTEX
  5
BCE
  8
CIVIC_ALTARS
 10
609849.6471031371
 20
1767884.7028197539
 30
0.0
  0
VERTEX
  5
BCF
  8
CIVIC_ALTARS
 10
609852.04029153509
 20
1767886.4238432259
 30
0.0
  0
VERTEX
  5
BD0
  8
CIVIC_ALTARS
 10
609853.42657547572
 20
1767884.527882145
 30
0.0
  0
SEQEND
  5
BD1
  8
CIVIC_ALTARS
  0
TEXT
  5
34C
  8
CIVIC_ID
 10
609432.83939832239
 20
1766214.262269553
 30
0.0
 40
1.0
  1
RV157-I
 50
0.9999999999770746
  0
POLYLINE
  5
34D
  8
CIVIC_PYRAMIDS
 66
     1
 10
0.0
 20
0.0
 30
0.0
 70
     1
  0
VERTEX
  5
BD2
  8
CIVIC_PYRAMIDS
 10
609433.06622807565
 20
1766223.8258084951
 30
0.0
  0
VERTEX
  5
BD3
  8
CIVIC_PYRAMIDS
 10
609425.14230215119
 20
1766215.927419927
 30
0.0
  0
VERTEX
  5
BD4
  8
CIVIC_PYRAMIDS
 10
609433.98983491631
 20
1766206.5824893429
 30
0.0
  0
VERTEX
  5
BD5
  8
CIVIC_PYRAMIDS
 10
609442.30560661166
 20
1766214.4379746269
 30
0.0
  0
SEQEND
  5
BD6
  8
CIVIC_PYRAMIDS
  0
TEXT
  5
34E
  8
CIVIC_ID
 10
608765.73020998272
 20
1769296.4803118119
 30
0.0
 40
1.0
  1
RV164-CC_XIIIa
  0
TEXT
  5
34F
  8
CIVIC_ID
 10
608883.26319010323
 20
1769282.6377615519
 30
0.0
 40
1.0
  1
RV164-CC_XXXIII
  0
TEXT
  5
350
  8
CIVIC_ID
 10
609001.24593876081
 20
1769272.9266296141
 30
0.0
 40
1.0
  1
RV164-CC_XXIX
  0
TEXT
  5
351
  8
CIVIC_ID
 10
608956.2247325927
 20
1769270.763804442
 30
0.0
 40
1.0
  1
RV164-CC_XXVII
  0
TEXT
  5
352
  8
CIVIC_ID
 10
608940.93281764013
 20
1769256.401738259
 30
0.0
 40
1.0
  1
RV164-CC_XXVI
  0
TEXT
  5
353
  8
CIVIC_ID
 10
608994.10562102078
 20
1769232.8962231011
 30
0.0
 40
1.0
  1
RV164-CC_XXI
  0
TEXT
  5
354
  8
CIVIC_ID
 10
608794.95289259718
 20
1769331.7715820989
 30
0.0
 40
1.0
  1
RV164-CC_XV
  0
TEXT
  5
355
  8
CIVIC_ID
 10
609002.11511807318
 20
1769225.323676429
 30
0.0
 40
1.0
  1
RV164-CC_XIV
  0
TEXT
  5
356
  8
CIVIC_ID
 10
608753.81898702006
 20
1769319.796755702
 30
0.0
 40
1.0
  1
RV164-CC_VIIIb
  0
TEXT
  5
357
  8
CIVIC_ID
 10
608744.25392382138
 20
1769311.179234497
 30
0.0
 40
1.0
  1
RV164-CC_VIIIa
  0
TEXT
  5
358
  8
CIVIC_ID
 10
608904.79179495992
 20
1769245.5141107489
 30
0.0
 40
1.0
  1
RV164-CC_IIIb
  0
TEXT
  5
359
  8
CIVIC_ID
 10
608890.8031107178
 20
1769233.2803083239
 30
0.0
 40
1.0
  1
RV164-CC_IIIa
  0
TEXT
  5
35A
  8
CIVIC_ID
 10
609017.01970243815
 20
1769281.561666107
 30
0.0
 40
1.0
  1
RV164-CC_XXXI
  0
TEXT
  5
35B
  8
CIVIC_ID
 10
608985.73549098626
 20
1769198.575330992
 30
0.0
 40
1.0
  1
RV164-CC_XXII
  0
TEXT
  5
35C
  8
CIVIC_ID
 10
608927.39605496766
 20
1769238.68393075
 30
0.0
 40
1.0
  1
RV164-CC_XVIII
  0
TEXT
  5
35D
  8
CIVIC_ID
 10
608847.96314200666
 20
1769264.006969708
 30
0.0
 40
1.0
  1
RV164-CC_XVI
  0
TEXT
  5
35E
  8
CIVIC_ID
 10
608720.29863577685
 20
1769353.0273211959
 30
0.0
 40
1.0
  1
RV164-CC_XII
  0
TEXT
  5
35F
  8
CIVIC_ID
 10
608784.36600006581
 20
1769313.0424231519
 30
0.0
 40
1.0
  1
RV164-CC_XI
  0
TEXT
  5
360
  8
CIVIC_ID
 10
608914.37171408441
 20
1769314.186390334
 30
0.0
 40
1.0
  1
RV164-CC_Vd
  0
TEXT
  5
361
  8
CIVIC_ID
 10
608902.48546630156
 20
1769346.4895839361
 30
0.0
 40
1.0
  1
RV164-CC_Vc
  0
TEXT
  5
362
  8
CIVIC_ID
 10
608870.43262216565
 20
1769344.620921754
 30
0.0
 40
1.0
  1
RV164-CC_Vb
  0
TEXT
  5
363
  8
CIVIC_ID
 10
608878.04509998311
 20
1769313.2521374361
 30
0.0
 40
1.0
  1
RV164-CC_Va
  0
TEXT
  5
364
  8
CIVIC_ID
 10
608911.43368562334
 20
1769298.3019016599
 30
0.0
 40
1.0
  1
RV164-CC_V
  0
POLYLINE
  5
365
  8
CIVIC_ACROPOLIS
 66
     1
 10
0.0
 20
0.0
 30
0.0
 70
     1
  0
VERTEX
  5
BD7
  8
CIVIC_ACROPOLIS
 10
608845.19089706568
 20
1769335.143431233
 30
0.0
  0
VERTEX
  5
BD8
  8
CIVIC_ACROPOLIS
 10
608886.05847249436
 20
1769373.0529241541
 30
0.0
  0
VERTEX
  5
BD9
  8
CIVIC_ACROPOLIS
 10
608937.61004223058
 20
1769319.6592919771
 30
0.0
  0
VERTEX
  5
BDA
  8
CIVIC_ACROPOLIS
 10
608896.87617013452
 20
1769281.215895575
 30
0.0
  0
SEQEND
  5
BDB
  8
CIVIC_ACROPOLIS
  0
TEXT
  5
366
  8
CIVIC_ID
 10
608836.36217106017
 20
1769337.327994128
 30
0.0
 40
1.0
  1
RV164-CC_XXXII
  0
TEXT
  5
367
  8
CIVIC_ID
 10
608796.80213240744
 20
1769371.0729147899
 30
0.0
 40
1.0
  1
RV164-CC_XXX
  0
TEXT
  5
368
  8
CIVIC_ID
 10
608945.09850536287
 20
1769196.6680413459
 30
0.0
 40
1.0
  1
RV164-CC_XXVIII
  0
TEXT
  5
369
  8
CIVIC_ID
 10
608945.29270891484
 20
1769292.445540342
 30
0.0
 40
1.0
  1
RV164-CC_XXV
  0
TEXT
  5
36A
  8
CIVIC_ID
 10
608981.10926956288
 20
1769292.6014576729
 30
0.0
 40
1.0
  1
RV164-CC_XXIV
  0
TEXT
  5
36B
  8
CIVIC_ID
 10
608979.37780064286
 20
1769244.8275740531
 30
0.0
 40
1.0
  1
RV164-CC_XXIII
  0
TEXT
  5
36C
  8
CIVIC_ID
 10
608923.67776744592
 20
1769204.754474028
 30
0.0
 40
1.0
  1
RV164-CC_XX
  0
TEXT
  5
36D
  8
CIVIC_ID
 10
608934.62766129535
 20
1769218.3113061681
 30
0.0
 40
1.0
  1
RV164-CC_XIX
  0
TEXT
  5
36E
  8
CIVIC_ID
 10
608870.15208200109
 20
1769261.9235888741
 30
0.0
 40
1.0
  1
RV164-CC_XVII
  0
TEXT
  5
36F
  8
CIVIC_ID
 10
608758.98561965826
 20
1769292.851676059
 30
0.0
 40
1.0
  1
RV164-CC_XIII
  0
TEXT
  5
370
  8
CIVIC_ID
 10
608793.42703830265
 20
1769294.4128824
 30
0.0
 40
1.0
  1
RV164-CC_X
  0
TEXT
  5
371
  8
CIVIC_ID
 10
608778.21736920008
 20
1769290.451143421
 30
0.0
 40
1.0
  1
RV164-CC_IX
  0
TEXT
  5
372
  8
CIVIC_ID
 10
608778.52374575753
 20
1769275.920648986
 30
0.0
 40
1.0
  1
RV164-CC_VII
  0
TEXT
  5
373
  8
CIVIC_ID
 10
608827.98213707504
 20
1769300.308027568
 30
0.0
 40
1.0
  1
RV164-CC_VI
  0
TEXT
  5
374
  8
CIVIC_ID
 10
608817.72638097731
 20
1769356.969511864
 30
0.0
 40
1.0
  1
RV164-CC_IV
  0
TEXT
  5
375
  8
CIVIC_ID
 10
608753.64911273774
 20
1769356.149577491
 30
0.0
 40
1.0
  1
RV164-CC_II
  0
TEXT
  5
376
  8
CIVIC_ID
 10
608767.25821731007
 20
1769373.087172796
 30
0.0
 40
1.0
  1
RV164-CC_I
  0
POLYLINE
  5
377
  8
CIVIC_RANGE
 66
     1
 10
0.0
 20
0.0
 30
0.0
 70
     1
  0
VERTEX
  5
BDC
  8
CIVIC_RANGE
 10
608990.74478486576
 20
1769209.5425806909
 30
0.0
  0
VERTEX
  5
BDD
  8
CIVIC_RANGE
 10
608995.78606306517
 20
1769204.087329257
 30
0.0
  0
VERTEX
  5
BDE
  8
CIVIC_RANGE
 10
608976.17559506616
 20
1769184.7571770251
 30
0.0
  0
VERTEX
  5
BDF
  8
CIVIC_RANGE
 10
608971.03609064047
 20
1769189.3532196111
 30
0.0
  0
SEQEND
  5
BE0
  8
CIVIC_RANGE
  0
POLYLINE
  5
378
  8
CIVIC_ALTARS
 66
     1
 10
0.0
 20
0.0
 30
0.0
 70
     1
  0
VERTEX
  5
BE1
  8
CIVIC_ALTARS
 10
608788.90653078631
 20
1769332.252939719
 30
0.0
  0
VERTEX
  5
BE2
  8
CIVIC_ALTARS
 10
608794.36748299841
 20
1769337.302972289
 30
0.0
  0
VERTEX
  5
BE3
  8
CIVIC_ALTARS
 10
608801.35967208701
 20
1769330.365511158
 30
0.0
  0
VERTEX
  5
BE4
  8
CIVIC_ALTARS
 10
608796.00077362603
 20
1769325.264340204
 30
0.0
  0
SEQEND
  5
BE5
  8
CIVIC_ALTARS
  0
POLYLINE
  5
379
  8
CIVIC_ALTARS
 66
     1
 10
0.0
 20
0.0
 30
0.0
 70
     1
  0
VERTEX
  5
BE6
  8
CIVIC_ALTARS
 10
608886.33944326546
 20
1769281.724933604
 30
0.0
  0
VERTEX
  5
BE7
  8
CIVIC_ALTARS
 10
608881.90154117334
 20
1769286.5402840159
 30
0.0
  0
VERTEX
  5
BE8
  8
CIVIC_ALTARS
 10
608877.46723120171
 20
1769282.615492542
 30
0.0
  0
VERTEX
  5
BE9
  8
CIVIC_ALTARS
 10
608882.05404692306
 20
1769277.7843068009
 30
0.0
  0
SEQEND
  5
BEA
  8
CIVIC_ALTARS
  0
POLYLINE
  5
37A
  8
CIVIC_PYRAMIDS
 66
     1
 10
0.0
 20
0.0
 30
0.0
 70
     1
  0
VERTEX
  5
BEB
  8
CIVIC_PYRAMIDS
 10
608922.52033209905
 20
1769211.8100748679
 30
0.0
  0
VERTEX
  5
BEC
  8
CIVIC_PYRAMIDS
 10
608928.97487386724
 20
1769204.8983495999
 30
0.0
  0
VERTEX
  5
BED
  8
CIVIC_PYRAMIDS
 10
608922.07741821895
 20
1769198.0043639131
 30
0.0
  0
VERTEX
  5
BEE
  8
CIVIC_PYRAMIDS
 10
608914.9093263566
 20
1769204.222447186
 30
0.0
  0
SEQEND
  5
BEF
  8
CIVIC_PYRAMIDS
  0
POLYLINE
  5
37B
  8
CIVIC_PYRAMIDS
 66
     1
 10
0.0
 20
0.0
 30
0.0
 70
     1
  0
VERTEX
  5
BF0
  8
CIVIC_PYRAMIDS
 10
608946.0300946252
 20
1769206.5668674221
 30
0.0
  0
VERTEX
  5
BF1
  8
CIVIC_PYRAMIDS
 10
608955.34780236252
 20
1769197.058225642
 30
0.0
  0
VERTEX
  5
BF2
  8
CIVIC_PYRAMIDS
 10
608945.8804868497
 20
1769186.920002196
 30
0.0
  0
VERTEX
  5
BF3
  8
CIVIC_PYRAMIDS
 10
608936.05464586534
 20
1769196.166092759
 30
0.0
  0
SEQEND
  5
BF4
  8
CIVIC_PYRAMIDS
  0
POLYLINE
  5
37C
  8
CIVIC_PYRAMIDS
 66
     1
 10
0.0
 20
0.0
 30
0.0
 70
     1
  0
VERTEX
  5
BF5
  8
CIVIC_PYRAMIDS
 10
608935.17656825471
 20
1769225.5574349081
 30
0.0
  0
VERTEX
  5
BF6
  8
CIVIC_PYRAMIDS
 10
608942.21279559715
 20
1769218.6716206439
 30
0.0
  0
VERTEX
  5
BF7
  8
CIVIC_PYRAMIDS
 10
608935.1258730687
 20
1769211.3352175739
 30
0.0
  0
VERTEX
  5
BF8
  8
CIVIC_PYRAMIDS
 10
608927.78575389145
 20
1769217.9126770019
 30
0.0
  0
SEQEND
  5
BF9
  8
CIVIC_PYRAMIDS
  0
POLYLINE
  5
37D
  8
CIVIC_RANGE
 66
     1
 10
0.0
 20
0.0
 30
0.0
 70
     1
  0
VERTEX
  5
BFA
  8
CIVIC_RANGE
 10
608918.84192126687
 20
1769251.258290054
 30
0.0
  0
VERTEX
  5
BFB
  8
CIVIC_RANGE
 10
608939.51310785906
 20
1769232.2480010961
 30
0.0
  0
VERTEX
  5
BFC
  8
CIVIC_RANGE
 10
608934.28209954244
 20
1769226.3451929891
 30
0.0
  0
VERTEX
  5
BFD
  8
CIVIC_RANGE
 10
608913.52729464835
 20
1769246.0774148901
 30
0.0
  0
SEQEND
  5
BFE
  8
CIVIC_RANGE
  0
POLYLINE
  5
37E
  8
CIVIC_ALTARS
 66
     1
 10
0.0
 20
0.0
 30
0.0
 70
     1
  0
VERTEX
  5
BFF
  8
CIVIC_ALTARS
 10
608940.88717119466
 20
1769261.6882246849
 30
0.0
  0
VERTEX
  5
C00
  8
CIVIC_ALTARS
 10
608946.16533307976
 20
1769256.5560917261
 30
0.0
  0
VERTEX
  5
C01
  8
CIVIC_ALTARS
 10
608940.72311225254
 20
1769251.626476754
 30
0.0
  0
VERTEX
  5
C02
  8
CIVIC_ALTARS
 10
608936.0460792568
 20
1769256.301025359
 30
0.0
  0
SEQEND
  5
C03
  8
CIVIC_ALTARS
  0
POLYLINE
  5
37F
  8
CIVIC_PYRAMIDS
 66
     1
 10
0.0
 20
0.0
 30
0.0
 70
     1
  0
VERTEX
  5
C04
  8
CIVIC_PYRAMIDS
 10
608979.39625889063
 20
1769259.3368074331
 30
0.0
  0
VERTEX
  5
C05
  8
CIVIC_PYRAMIDS
 10
608994.72181898751
 20
1769243.0705718261
 30
0.0
  0
VERTEX
  5
C06
  8
CIVIC_PYRAMIDS
 10
608980.24977889785
 20
1769229.5612811791
 30
0.0
  0
VERTEX
  5
C07
  8
CIVIC_PYRAMIDS
 10
608964.13928090211
 20
1769245.5269344421
 30
0.0
  0
SEQEND
  5
C08
  8
CIVIC_PYRAMIDS
  0
POLYLINE
  5
380
  8
CIVIC_ALTARS
 66
     1
 10
0.0
 20
0.0
 30
0.0
 70
     1
  0
VERTEX
  5
C09
  8
CIVIC_ALTARS
 10
609002.27748651896
 20
1769228.378975363
 30
0.0
  0
VERTEX
  5
C0A
  8
CIVIC_ALTARS
 10
609005.02623362525
 20
1769225.434085292
 30
0.0
  0
VERTEX
  5
C0B
  8
CIVIC_ALTARS
 10
609000.68249009585
 20
1769221.5183239421
 30
0.0
  0
VERTEX
  5
C0C
  8
CIVIC_ALTARS
 10
608997.61635618762
 20
1769224.4125687319
 30
0.0
  0
SEQEND
  5
C0D
  8
CIVIC_ALTARS
  0
POLYLINE
  5
381
  8
CIVIC_ALTARS
 66
     1
 10
0.0
 20
0.0
 30
0.0
 70
     1
  0
VERTEX
  5
C0E
  8
CIVIC_ALTARS
 10
608997.06065844034
 20
1769232.9737908009
 30
0.0
  0
VERTEX
  5
C0F
  8
CIVIC_ALTARS
 10
608994.06175499165
 20
1769236.0560653589
 30
0.0
  0
VERTEX
  5
C10
  8
CIVIC_ALTARS
 10
608990.06825404882
 20
1769232.0767578881
 30
0.0
  0
VERTEX
  5
C11
  8
CIVIC_ALTARS
 10
608993.17830982467
 20
1769229.176883183
 30
0.0
  0
SEQEND
  5
C12
  8
CIVIC_ALTARS
  0
POLYLINE
  5
382
  8
CIVIC_ALTARS
 66
     1
 10
0.0
 20
0.0
 30
0.0
 70
     1
  0
VERTEX
  5
C13
  8
CIVIC_ALTARS
 10
608955.51530830876
 20
1769274.6357775759
 30
0.0
  0
VERTEX
  5
C14
  8
CIVIC_ALTARS
 10
608959.41294345679
 20
1769270.7486349531
 30
0.0
  0
VERTEX
  5
C15
  8
CIVIC_ALTARS
 10
608955.45803763834
 20
1769266.7746978269
 30
0.0
  0
VERTEX
  5
C16
  8
CIVIC_ALTARS
 10
608951.81080019649
 20
1769270.6158628219
 30
0.0
  0
SEQEND
  5
C17
  8
CIVIC_ALTARS
  0
POLYLINE
  5
383
  8
CIVIC_ALTARS
 66
     1
 10
0.0
 20
0.0
 30
0.0
 70
     1
  0
VERTEX
  5
C18
  8
CIVIC_ALTARS
 10
609001.27867009596
 20
1769278.750308868
 30
0.0
  0
VERTEX
  5
C19
  8
CIVIC_ALTARS
 10
609007.34268153762
 20
1769272.9785499291
 30
0.0
  0
VERTEX
  5
C1A
  8
CIVIC_ALTARS
 10
609001.7773072382
 20
1769266.792369501
 30
0.0
  0
VERTEX
  5
C1B
  8
CIVIC_ALTARS
 10
608995.27579430852
 20
1769272.874552913
 30
0.0
  0
SEQEND
  5
C1C
  8
CIVIC_ALTARS
  0
POLYLINE
  5
384
  8
CIVIC_RANGE
 66
     1
 10
0.0
 20
0.0
 30
0.0
 70
     1
  0
VERTEX
  5
C1D
  8
CIVIC_RANGE
 10
609009.36662723275
 20
1769295.6758972381
 30
0.0
  0
VERTEX
  5
C1E
  8
CIVIC_RANGE
 10
609025.09938447725
 20
1769277.783342168
 30
0.0
  0
VERTEX
  5
C1F
  8
CIVIC_RANGE
 10
609019.98625502689
 20
1769273.5230418339
 30
0.0
  0
VERTEX
  5
C20
  8
CIVIC_RANGE
 10
609004.45001568855
 20
1769291.284704302
 30
0.0
  0
SEQEND
  5
C21
  8
CIVIC_RANGE
  0
POLYLINE
  5
385
  8
CIVIC_PYRAMIDS
 66
     1
 10
0.0
 20
0.0
 30
0.0
 70
     1
  0
VERTEX
  5
C22
  8
CIVIC_PYRAMIDS
 10
608978.42060056748
 20
1769307.5307792311
 30
0.0
  0
VERTEX
  5
C23
  8
CIVIC_PYRAMIDS
 10
608993.37272868003
 20
1769291.211025381
 30
0.0
  0
VERTEX
  5
C24
  8
CIVIC_PYRAMIDS
 10
608977.43511921226
 20
1769276.078130183
 30
0.0
  0
VERTEX
  5
C25
  8
CIVIC_PYRAMIDS
 10
608961.76297867973
 20
1769291.6093417739
 30
0.0
  0
SEQEND
  5
C26
  8
CIVIC_PYRAMIDS
  0
POLYLINE
  5
386
  8
CIVIC_PYRAMIDS
 66
     1
 10
0.0
 20
0.0
 30
0.0
 70
     1
  0
VERTEX
  5
C27
  8
CIVIC_PYRAMIDS
 10
608941.54887042043
 20
1769307.712118845
 30
0.0
  0
VERTEX
  5
C28
  8
CIVIC_PYRAMIDS
 10
608955.6354475352
 20
1769292.5922308699
 30
0.0
  0
VERTEX
  5
C29
  8
CIVIC_PYRAMIDS
 10
608941.98866489017
 20
1769278.6414611591
 30
0.0
  0
VERTEX
  5
C2A
  8
CIVIC_PYRAMIDS
 10
608927.09656811506
 20
1769293.7851470241
 30
0.0
  0
SEQEND
  5
C2B
  8
CIVIC_PYRAMIDS
  0
POLYLINE
  5
387
  8
CIVIC_RANGE
 66
     1
 10
0.0
 20
0.0
 30
0.0
 70
     1
  0
VERTEX
  5
C2C
  8
CIVIC_RANGE
 10
608876.87416653638
 20
1769320.182549695
 30
0.0
  0
VERTEX
  5
C2D
  8
CIVIC_RANGE
 10
608885.0037017609
 20
1769311.354856526
 30
0.0
  0
VERTEX
  5
C2E
  8
CIVIC_RANGE
 10
608878.75043350481
 20
1769305.47253505
 30
0.0
  0
VERTEX
  5
C2F
  8
CIVIC_RANGE
 10
608870.15125566244
 20
1769314.2166724119
 30
0.0
  0
SEQEND
  5
C30
  8
CIVIC_RANGE
  0
POLYLINE
  5
388
  8
CIVIC_RANGE
 66
     1
 10
0.0
 20
0.0
 30
0.0
 70
     1
  0
VERTEX
  5
C31
  8
CIVIC_RANGE
 10
608923.01009721239
 20
1769328.729299583
 30
0.0
  0
VERTEX
  5
C32
  8
CIVIC_RANGE
 10
608930.15818065475
 20
1769321.6527505789
 30
0.0
  0
VERTEX
  5
C33
  8
CIVIC_RANGE
 10
608894.88956683606
 20
1769287.814154407
 30
0.0
  0
VERTEX
  5
C34
  8
CIVIC_RANGE
 10
608887.62921325595
 20
1769296.0326367919
 30
0.0
  0
SEQEND
  5
C35
  8
CIVIC_RANGE
  0
POLYLINE
  5
389
  8
CIVIC_RANGE
 66
     1
 10
0.0
 20
0.0
 30
0.0
 70
     1
  0
VERTEX
  5
C36
  8
CIVIC_RANGE
 10
608893.98029652424
 20
1769359.580154825
 30
0.0
  0
VERTEX
  5
C37
  8
CIVIC_RANGE
 10
608887.79618520953
 20
1769353.6630322831
 30
0.0
  0
VERTEX
  5
C38
  8
CIVIC_RANGE
 10
608915.69238435989
 20
1769323.102140578
 30
0.0
  0
VERTEX
  5
C39
  8
CIVIC_RANGE
 10
608922.47788230656
 20
1769329.3816837419
 30
0.0
  0
SEQEND
  5
C3A
  8
CIVIC_RANGE
  0
POLYLINE
  5
38A
  8
CIVIC_RANGE
 66
     1
 10
0.0
 20
0.0
 30
0.0
 70
     1
  0
VERTEX
  5
C3B
  8
CIVIC_RANGE
 10
608879.51578063145
 20
1769360.681376447
 30
0.0
  0
VERTEX
  5
C3C
  8
CIVIC_RANGE
 10
608886.70998019795
 20
1769352.644643452
 30
0.0
  0
VERTEX
  5
C3D
  8
CIVIC_RANGE
 10
608862.50865472853
 20
1769329.990262012
 30
0.0
  0
VERTEX
  5
C3E
  8
CIVIC_RANGE
 10
608855.27146648674
 20
1769337.587551127
 30
0.0
  0
SEQEND
  5
C3F
  8
CIVIC_RANGE
  0
POLYLINE
  5
38B
  8
CIVIC_BALL_COURTS
 66
     1
 10
0.0
 20
0.0
 30
0.0
 70
     1
  0
VERTEX
  5
C40
  8
CIVIC_BALL_COURTS
 10
608900.18581204431
 20
1769224.8725014031
 30
0.0
  0
VERTEX
  5
C41
  8
CIVIC_BALL_COURTS
 10
608900.20561994542
 20
1769225.8832272941
 30
0.0
  0
VERTEX
  5
C42
  8
CIVIC_BALL_COURTS
 10
608902.80325393216
 20
1769228.8389319771
 30
0.0
  0
VERTEX
  5
C43
  8
CIVIC_BALL_COURTS
 10
608882.28528263816
 20
1769246.561274694
 30
0.0
  0
VERTEX
  5
C44
  8
CIVIC_BALL_COURTS
 10
608878.86666395899
 20
1769243.3233300969
 30
0.0
  0
VERTEX
  5
C45
  8
CIVIC_BALL_COURTS
 10
608878.2101609204
 20
1769243.382927065
 30
0.0
  0
VERTEX
  5
C46
  8
CIVIC_BALL_COURTS
 10
608872.59740967501
 20
1769237.5925297451
 30
0.0
  0
VERTEX
  5
C47
  8
CIVIC_BALL_COURTS
 10
608894.23482958344
 20
1769218.3840258869
 30
0.0
  0
SEQEND
  5
C48
  8
CIVIC_BALL_COURTS
  0
POLYLINE
  5
38C
  8
CIVIC_BALL_COURTS
 66
     1
 10
0.0
 20
0.0
 30
0.0
 70
     1
  0
VERTEX
  5
C49
  8
CIVIC_BALL_COURTS
 10
608894.47531125729
 20
1769261.7917940209
 30
0.0
  0
VERTEX
  5
C4A
  8
CIVIC_BALL_COURTS
 10
608916.39750257845
 20
1769242.5948441201
 30
0.0
  0
VERTEX
  5
C4B
  8
CIVIC_BALL_COURTS
 10
608911.58461321774
 20
1769236.940534147
 30
0.0
  0
VERTEX
  5
C4C
  8
CIVIC_BALL_COURTS
 10
608910.14918629779
 20
1769238.122034088
 30
0.0
  0
VERTEX
  5
C4D
  8
CIVIC_BALL_COURTS
 10
608907.36294664396
 20
1769234.324500924
 30
0.0
  0
VERTEX
  5
C4E
  8
CIVIC_BALL_COURTS
 10
608886.929374233
 20
1769251.624756502
 30
0.0
  0
VERTEX
  5
C4F
  8
CIVIC_BALL_COURTS
 10
608889.80022807291
 20
1769254.6628768649
 30
0.0
  0
VERTEX
  5
C50
  8
CIVIC_BALL_COURTS
 10
608888.6237407939
 20
1769255.9415790029
 30
0.0
  0
SEQEND
  5
C51
  8
CIVIC_BALL_COURTS
  0
POLYLINE
  5
38D
  8
CIVIC_PYRAMIDS
 66
     1
 10
0.0
 20
0.0
 30
0.0
 70
     1
  0
VERTEX
  5
C52
  8
CIVIC_PYRAMIDS
 10
608869.22520141175
 20
1769255.2191436139
 30
0.0
  0
VERTEX
  5
C53
  8
CIVIC_PYRAMIDS
 10
608877.25536757836
 20
1769263.741581833
 30
0.0
  0
VERTEX
  5
C54
  8
CIVIC_PYRAMIDS
 10
608870.26289675827
 20
1769270.2755235841
 30
0.0
  0
VERTEX
  5
C55
  8
CIVIC_PYRAMIDS
 10
608861.69152459223
 20
1769261.6730577149
 30
0.0
  0
SEQEND
  5
C56
  8
CIVIC_PYRAMIDS
  0
POLYLINE
  5
38E
  8
CIVIC_RANGE
 66
     1
 10
0.0
 20
0.0
 30
0.0
 70
     1
  0
VERTEX
  5
C57
  8
CIVIC_RANGE
 10
608824.16898010345
 20
1769290.084640604
 30
0.0
  0
VERTEX
  5
C58
  8
CIVIC_RANGE
 10
608817.98043883918
 20
1769284.4274485561
 30
0.0
  0
VERTEX
  5
C59
  8
CIVIC_RANGE
 10
608864.25793960434
 20
1769242.3111590249
 30
0.0
  0
VERTEX
  5
C5A
  8
CIVIC_RANGE
 10
608870.21861071244
 20
1769248.434159311
 30
0.0
  0
SEQEND
  5
C5B
  8
CIVIC_RANGE
  0
POLYLINE
  5
38F
  8
CIVIC_PYRAMIDS
 66
     1
 10
0.0
 20
0.0
 30
0.0
 70
     1
  0
VERTEX
  5
C5C
  8
CIVIC_PYRAMIDS
 10
608835.69774516032
 20
1769299.3065284791
 30
0.0
  0
VERTEX
  5
C5D
  8
CIVIC_PYRAMIDS
 10
608826.4978363124
 20
1769308.0884118869
 30
0.0
  0
VERTEX
  5
C5E
  8
CIVIC_PYRAMIDS
 10
608817.55650669511
 20
1769297.9634812931
 30
0.0
  0
VERTEX
  5
C5F
  8
CIVIC_PYRAMIDS
 10
608826.80808832846
 20
1769289.54331984
 30
0.0
  0
SEQEND
  5
C60
  8
CIVIC_PYRAMIDS
  0
POLYLINE
  5
390
  8
CIVIC_PYRAMID_ANNEX
 66
     1
 10
0.0
 20
0.0
 30
0.0
 70
     1
  0
VERTEX
  5
C61
  8
CIVIC_PYRAMID_ANNEX
 10
608760.91331192176
 20
1769296.5909148341
 30
0.0
  0
VERTEX
  5
C62
  8
CIVIC_PYRAMID_ANNEX
 10
608765.19373838045
 20
1769300.521224546
 30
0.0
  0
VERTEX
  5
C63
  8
CIVIC_PYRAMID_ANNEX
 10
608768.55785846675
 20
1769297.0193508191
 30
0.0
  0
VERTEX
  5
C64
  8
CIVIC_PYRAMID_ANNEX
 10
608764.27643276472
 20
1769292.900538103
 30
0.0
  0
SEQEND
  5
C65
  8
CIVIC_PYRAMID_ANNEX
  0
POLYLINE
  5
391
  8
CIVIC_PYRAMIDS
 66
     1
 10
0.0
 20
0.0
 30
0.0
 70
     1
  0
VERTEX
  5
C66
  8
CIVIC_PYRAMIDS
 10
608750.05091313517
 20
1769292.1260487321
 30
0.0
  0
VERTEX
  5
C67
  8
CIVIC_PYRAMIDS
 10
608757.48561852635
 20
1769299.2818788211
 30
0.0
  0
VERTEX
  5
C68
  8
CIVIC_PYRAMIDS
 10
608764.19887004583
 20
1769292.514311946
 30
0.0
  0
VERTEX
  5
C69
  8
CIVIC_PYRAMIDS
 10
608757.04162129131
 20
1769285.1368694259
 30
0.0
  0
SEQEND
  5
C6A
  8
CIVIC_PYRAMIDS
  0
POLYLINE
  5
392
  8
CIVIC_PYRAMIDS
 66
     1
 10
0.0
 20
0.0
 30
0.0
 70
     1
  0
VERTEX
  5
C6B
  8
CIVIC_PYRAMIDS
 10
608778.02639519726
 20
1769263.763475942
 30
0.0
  0
VERTEX
  5
C6C
  8
CIVIC_PYRAMIDS
 10
608790.54873266176
 20
1769277.437494691
 30
0.0
  0
VERTEX
  5
C6D
  8
CIVIC_PYRAMIDS
 10
608781.9249273981
 20
1769286.169333504
 30
0.0
  0
VERTEX
  5
C6E
  8
CIVIC_PYRAMIDS
 10
608778.68404735427
 20
1769283.2038324941
 30
0.0
  0
VERTEX
  5
C6F
  8
CIVIC_PYRAMIDS
 10
608777.91496287123
 20
1769284.0825566859
 30
0.0
  0
VERTEX
  5
C70
  8
CIVIC_PYRAMIDS
 10
608767.20373774797
 20
1769273.8676362741
 30
0.0
  0
SEQEND
  5
C71
  8
CIVIC_PYRAMIDS
  0
POLYLINE
  5
393
  8
CIVIC_PYRAMIDS
 66
     1
 10
0.0
 20
0.0
 30
0.0
 70
     1
  0
VERTEX
  5
C72
  8
CIVIC_PYRAMIDS
 10
608785.52497758344
 20
1769290.2254777141
 30
0.0
  0
VERTEX
  5
C73
  8
CIVIC_PYRAMIDS
 10
608778.72397780116
 20
1769283.5311975761
 30
0.0
  0
VERTEX
  5
C74
  8
CIVIC_PYRAMIDS
 10
608768.99120240635
 20
1769293.7033220651
 30
0.0
  0
VERTEX
  5
C75
  8
CIVIC_PYRAMIDS
 10
608775.78872346855
 20
1769299.901627525
 30
0.0
  0
SEQEND
  5
C76
  8
CIVIC_PYRAMIDS
  0
POLYLINE
  5
394
  8
CIVIC_PYRAMIDS
 66
     1
 10
0.0
 20
0.0
 30
0.0
 70
     1
  0
VERTEX
  5
C77
  8
CIVIC_PYRAMIDS
 10
608791.35588903923
 20
1769304.454716447
 30
0.0
  0
VERTEX
  5
C78
  8
CIVIC_PYRAMIDS
 10
608801.18764477177
 20
1769294.654186755
 30
0.0
  0
VERTEX
  5
C79
  8
CIVIC_PYRAMIDS
 10
608791.81054133025
 20
1769284.870022326
 30
0.0
  0
VERTEX
  5
C7A
  8
CIVIC_PYRAMIDS
 10
608781.56729883095
 20
1769294.66801129
 30
0.0
  0
SEQEND
  5
C7B
  8
CIVIC_PYRAMIDS
  0
POLYLINE
  5
395
  8
CIVIC_RANGE
 66
     1
 10
0.0
 20
0.0
 30
0.0
 70
     1
  0
VERTEX
  5
C7C
  8
CIVIC_RANGE
 10
608774.04177752696
 20
1769327.1042272721
 30
0.0
  0
VERTEX
  5
C7D
  8
CIVIC_RANGE
 10
608793.17513347347
 20
1769309.2592775461
 30
0.0
  0
VERTEX
  5
C7E
  8
CIVIC_RANGE
 10
608788.11055458675
 20
1769304.043788068
 30
0.0
  0
VERTEX
  5
C7F
  8
CIVIC_RANGE
 10
608768.92595646135
 20
1769321.888737794
 30
0.0
  0
SEQEND
  5
C80
  8
CIVIC_RANGE
  0
POLYLINE
  5
396
  8
CIVIC_BALL_COURTS
 66
     1
 10
0.0
 20
0.0
 30
0.0
 70
     1
  0
VERTEX
  5
C81
  8
CIVIC_BALL_COURTS
 10
608742.10476655199
 20
1769326.6525830859
 30
0.0
  0
VERTEX
  5
C82
  8
CIVIC_BALL_COURTS
 10
608749.1757566384
 20
1769333.0029693299
 30
0.0
  0
VERTEX
  5
C83
  8
CIVIC_BALL_COURTS
 10
608766.59702095925
 20
1769313.900672215
 30
0.0
  0
VERTEX
  5
C84
  8
CIVIC_BALL_COURTS
 10
608759.50579236529
 20
1769307.118502869
 30
0.0
  0
SEQEND
  5
C85
  8
CIVIC_BALL_COURTS
  0
POLYLINE
  5
397
  8
CIVIC_BALL_COURTS
 66
     1
 10
0.0
 20
0.0
 30
0.0
 70
     1
  0
VERTEX
  5
C86
  8
CIVIC_BALL_COURTS
 10
608732.21847087028
 20
1769316.7828752459
 30
0.0
  0
VERTEX
  5
C87
  8
CIVIC_BALL_COURTS
 10
608739.01968595583
 20
1769323.4987367201
 30
0.0
  0
VERTEX
  5
C88
  8
CIVIC_BALL_COURTS
 10
608757.12927483977
 20
1769304.41583153
 30
0.0
  0
VERTEX
  5
C89
  8
CIVIC_BALL_COURTS
 10
608749.49526669516
 20
1769297.8307091631
 30
0.0
  0
SEQEND
  5
C8A
  8
CIVIC_BALL_COURTS
  0
POLYLINE
  5
398
  8
CIVIC_PYRAMIDS
 66
     1
 10
0.0
 20
0.0
 30
0.0
 70
     1
  0
VERTEX
  5
C8B
  8
CIVIC_PYRAMIDS
 10
608752.99265305884
 20
1769369.9348902949
 30
0.0
  0
VERTEX
  5
C8C
  8
CIVIC_PYRAMIDS
 10
608767.03882327501
 20
1769354.6052608909
 30
0.0
  0
VERTEX
  5
C8D
  8
CIVIC_PYRAMIDS
 10
608752.75043687713
 20
1769341.373243493
 30
0.0
  0
VERTEX
  5
C8E
  8
CIVIC_PYRAMIDS
 10
608738.62352793361
 20
1769356.1381612769
 30
0.0
  0
SEQEND
  5
C8F
  8
CIVIC_PYRAMIDS
  0
POLYLINE
  5
399
  8
CIVIC_PYRAMIDS
 66
     1
 10
0.0
 20
0.0
 30
0.0
 70
     1
  0
VERTEX
  5
C90
  8
CIVIC_PYRAMIDS
 10
608834.54694916704
 20
1769327.932919289
 30
0.0
  0
VERTEX
  5
C91
  8
CIVIC_PYRAMIDS
 10
608844.73617506947
 20
1769338.4069201211
 30
0.0
  0
VERTEX
  5
C92
  8
CIVIC_PYRAMIDS
 10
608833.32402657741
 20
1769350.240357538
 30
0.0
  0
VERTEX
  5
C93
  8
CIVIC_PYRAMIDS
 10
608822.62302331126
 20
1769339.9524722211
 30
0.0
  0
SEQEND
  5
C94
  8
CIVIC_PYRAMIDS
  0
POLYLINE
  5
39A
  8
CIVIC_PYRAMIDS
 66
     1
 10
0.0
 20
0.0
 30
0.0
 70
     1
  0
VERTEX
  5
C95
  8
CIVIC_PYRAMIDS
 10
608814.31640774221
 20
1769333.2190954599
 30
0.0
  0
VERTEX
  5
C96
  8
CIVIC_PYRAMIDS
 10
608835.48115006776
 20
1769354.3727141791
 30
0.0
  0
VERTEX
  5
C97
  8
CIVIC_PYRAMIDS
 10
608813.15140173305
 20
1769376.281054104
 30
0.0
  0
VERTEX
  5
C98
  8
CIVIC_PYRAMIDS
 10
608792.40370184695
 20
1769354.8123166049
 30
0.0
  0
SEQEND
  5
C99
  8
CIVIC_PYRAMIDS
  0
POLYLINE
  5
39B
  8
CIVIC_PYRAMIDS
 66
     1
 10
0.0
 20
0.0
 30
0.0
 70
     1
  0
VERTEX
  5
C9A
  8
CIVIC_PYRAMIDS
 10
608798.80811300047
 20
1769384.358416369
 30
0.0
  0
VERTEX
  5
C9B
  8
CIVIC_PYRAMIDS
 10
608808.98571401031
 20
1769374.842454772
 30
0.0
  0
VERTEX
  5
C9C
  8
CIVIC_PYRAMIDS
 10
608794.51281270757
 20
1769359.4907748729
 30
0.0
  0
VERTEX
  5
C9D
  8
CIVIC_PYRAMIDS
 10
608784.05833168887
 20
1769369.697026442
 30
0.0
  0
SEQEND
  5
C9E
  8
CIVIC_PYRAMIDS
  0
POLYLINE
  5
39C
  8
CIVIC_PYRAMIDS
 66
     1
 10
0.0
 20
0.0
 30
0.0
 70
     1
  0
VERTEX
  5
C9F
  8
CIVIC_PYRAMIDS
 10
608767.7684860666
 20
1769390.757438811
 30
0.0
  0
VERTEX
  5
CA0
  8
CIVIC_PYRAMIDS
 10
608785.08769663633
 20
1769371.7500682969
 30
0.0
  0
VERTEX
  5
CA1
  8
CIVIC_PYRAMIDS
 10
608767.8459952448
 20
1769355.8153795591
 30
0.0
  0
VERTEX
  5
CA2
  8
CIVIC_PYRAMIDS
 10
608750.00575075496
 20
1769375.1793112741
 30
0.0
  0
SEQEND
  5
CA3
  8
CIVIC_PYRAMIDS
  0
POLYLINE
  5
39D
  8
CIVIC_RANGE
 66
     1
 10
0.0
 20
0.0
 30
0.0
 70
     1
  0
VERTEX
  5
CA4
  8
CIVIC_RANGE
 10
608700.03709068068
 20
1769342.7447530199
 30
0.0
  0
VERTEX
  5
CA5
  8
CIVIC_RANGE
 10
608731.95432861266
 20
1769371.154800829
 30
0.0
  0
VERTEX
  5
CA6
  8
CIVIC_RANGE
 10
608739.51165393414
 20
1769363.0768735011
 30
0.0
  0
VERTEX
  5
CA7
  8
CIVIC_RANGE
 10
608708.10967159213
 20
1769335.3220246059
 30
0.0
  0
SEQEND
  5
CA8
  8
CIVIC_RANGE
  0
TEXT
  5
39E
  8
CIVIC_ID
 10
610281.97533222369
 20
1771971.4420885879
 30
0.0
 40
1.0
  1
RV22-II
  0
TEXT
  5
39F
  8
CIVIC_ID
 10
610341.63836825092
 20
1771927.6074546629
 30
0.0
 40
1.0
  1
RV22-I
  0
POLYLINE
  5
3A0
  8
CIVIC_PLATFORM_HIGH
 66
     1
 10
0.0
 20
0.0
 30
0.0
 70
     1
  0
VERTEX
  5
CA9
  8
CIVIC_PLATFORM_HIGH
 10
610285.22107810236
 20
1771993.2805038691
 30
0.0
  0
VERTEX
  5
CAA
  8
CIVIC_PLATFORM_HIGH
 10
610306.8791234456
 20
1771971.444819144
 30
0.0
  0
VERTEX
  5
CAB
  8
CIVIC_PLATFORM_HIGH
 10
610285.21002988308
 20
1771949.883555261
 30
0.0
  0
VERTEX
  5
CAC
  8
CIVIC_PLATFORM_HIGH
 10
610263.725220619
 20
1771971.596137437
 30
0.0
  0
SEQEND
  5
CAD
  8
CIVIC_PLATFORM_HIGH
  0
POLYLINE
  5
3A1
  8
CIVIC_PYRAMIDS
 66
     1
 10
0.0
 20
0.0
 30
0.0
 70
     1
  0
VERTEX
  5
CAE
  8
CIVIC_PYRAMIDS
 10
610320.8365599066
 20
1771926.2850693129
 30
0.0
  0
VERTEX
  5
CAF
  8
CIVIC_PYRAMIDS
 10
610341.95478925284
 20
1771947.879896275
 30
0.0
  0
VERTEX
  5
CB0
  8
CIVIC_PYRAMIDS
 10
610364.03288789548
 20
1771926.0930202319
 30
0.0
  0
VERTEX
  5
CB1
  8
CIVIC_PYRAMIDS
 10
610342.81853904109
 20
1771904.9780884259
 30
0.0
  0
SEQEND
  5
CB2
  8
CIVIC_PYRAMIDS
  0
TEXT
  5
3A2
  8
CIVIC_ID
 10
608291.98681059852
 20
1770126.6440146919
 30
0.0
 40
1.0
  1
RV127-I
 50
2.0000000000039528
  0
POLYLINE
  5
3A3
  8
CIVIC_PYRAMIDS
 66
     1
 10
0.0
 20
0.0
 30
0.0
 70
     1
  0
VERTEX
  5
CB3
  8
CIVIC_PYRAMIDS
 10
608286.17926524649
 20
1770127.1779415749
 30
0.0
  0
VERTEX
  5
CB4
  8
CIVIC_PYRAMIDS
 10
608292.60964214173
 20
1770133.2447740741
 30
0.0
  0
VERTEX
  5
CB5
  8
CIVIC_PYRAMIDS
 10
608298.7505565437
 20
1770126.7360490409
 30
0.0
  0
VERTEX
  5
CB6
  8
CIVIC_PYRAMIDS
 10
608292.02821320854
 20
1770120.592552003
 30
0.0
  0
SEQEND
  5
CB7
  8
CIVIC_PYRAMIDS
  0
TEXT
  5
3A4
  8
CIVIC_ID
 10
608908.46794472728
 20
1770602.94355801
 30
0.0
 40
0.9999999999999998
  1
RV119-I
 50
3.0000000000251958
  0
POLYLINE
  5
3A5
  8
CIVIC_PYRAMIDS
 66
     1
 10
0.0
 20
0.0
 30
0.0
 70
     1
  0
VERTEX
  5
CB8
  8
CIVIC_PYRAMIDS
 10
608911.3971063057
 20
1770619.987409563
 30
0.0
  0
VERTEX
  5
CB9
  8
CIVIC_PYRAMIDS
 10
608922.8295454724
 20
1770603.922171928
 30
0.0
  0
VERTEX
  5
CBA
  8
CIVIC_PYRAMIDS
 10
608905.16212496278
 20
1770591.539486886
 30
0.0
  0
VERTEX
  5
CBB
  8
CIVIC_PYRAMIDS
 10
608894.00322859886
 20
1770607.3586358931
 30
0.0
  0
SEQEND
  5
CBC
  8
CIVIC_PYRAMIDS
  0
TEXT
  5
3A6
  8
CIVIC_ID
 10
608873.58803848026
 20
1771048.6336095859
 30
0.0
 40
0.9999999999999998
  1
RV118-I
 50
3.0000000000251958
  0
POLYLINE
  5
3A7
  8
CIVIC_PYRAMIDS
 66
     1
 10
0.0
 20
0.0
 30
0.0
 70
     1
  0
VERTEX
  5
CBD
  8
CIVIC_PYRAMIDS
 10
608865.80516480375
 20
1771049.8830655811
 30
0.0
  0
VERTEX
  5
CBE
  8
CIVIC_PYRAMIDS
 10
608874.60075299232
 20
1771056.083437715
 30
0.0
  0
VERTEX
  5
CBF
  8
CIVIC_PYRAMIDS
 10
608881.46451256832
 20
1771046.8138759851
 30
0.0
  0
VERTEX
  5
CC0
  8
CIVIC_PYRAMIDS
 10
608872.61204968276
 20
1771040.48301308
 30
0.0
  0
SEQEND
  5
CC1
  8
CIVIC_PYRAMIDS
  0
TEXT
  5
3A8
  8
CIVIC_ID
 10
607282.92237321625
 20
1771854.1390474699
 30
0.0
 40
0.9999999999999998
  1
RV131-IIW
 50
9.0000000001652722
  0
TEXT
  5
3A9
  8
CIVIC_ID
 10
607288.12605232676
 20
1771861.817272004
 30
0.0
 40
0.9999999999999998
  1
RV131-IIE
 50
9.0000000001652722
  0
TEXT
  5
3AA
  8
CIVIC_ID
 10
607278.29367261566
 20
1771907.3380911511
 30
0.0
 40
0.9999999999999998
  1
RV131-I
 50
9.0000000001652722
  0
POLYLINE
  5
3AB
  8
CIVIC_PLATFORM_HIGH
 66
     1
 10
0.0
 20
0.0
 30
0.0
 70
     1
  0
VERTEX
  5
CC2
  8
CIVIC_PLATFORM_HIGH
 10
607276.62177610188
 20
1771854.3709692501
 30
0.0
  0
VERTEX
  5
CC3
  8
CIVIC_PLATFORM_HIGH
 10
607281.28808020975
 20
1771860.1147125589
 30
0.0
  0
VERTEX
  5
CC4
  8
CIVIC_PLATFORM_HIGH
 10
607288.13703307405
 20
1771854.3022969731
 30
0.0
  0
VERTEX
  5
CC5
  8
CIVIC_PLATFORM_HIGH
 10
607283.69684224995
 20
1771848.671807871
 30
0.0
  0
SEQEND
  5
CC6
  8
CIVIC_PLATFORM_HIGH
  0
POLYLINE
  5
3AC
  8
CIVIC_PLATFORM_HIGH
 66
     1
 10
0.0
 20
0.0
 30
0.0
 70
     1
  0
VERTEX
  5
CC7
  8
CIVIC_PLATFORM_HIGH
 10
607287.99638683675
 20
1771867.8170818649
 30
0.0
  0
VERTEX
  5
CC8
  8
CIVIC_PLATFORM_HIGH
 10
607294.93891181727
 20
1771862.5014295401
 30
0.0
  0
VERTEX
  5
CC9
  8
CIVIC_PLATFORM_HIGH
 10
607288.31645116606
 20
1771854.3822134871
 30
0.0
  0
VERTEX
  5
CCA
  8
CIVIC_PLATFORM_HIGH
 10
607281.38116041746
 20
1771860.1812427391
 30
0.0
  0
SEQEND
  5
CCB
  8
CIVIC_PLATFORM_HIGH
  0
POLYLINE
  5
3AD
  8
CIVIC_PYRAMIDS
 66
     1
 10
0.0
 20
0.0
 30
0.0
 70
     1
  0
VERTEX
  5
CCC
  8
CIVIC_PYRAMIDS
 10
607264.18444662436
 20
1771905.0109792519
 30
0.0
  0
VERTEX
  5
CCD
  8
CIVIC_PYRAMIDS
 10
607277.86118100106
 20
1771918.7523418639
 30
0.0
  0
VERTEX
  5
CCE
  8
CIVIC_PYRAMIDS
 10
607291.48593444854
 20
1771905.163940487
 30
0.0
  0
VERTEX
  5
CCF
  8
CIVIC_PYRAMIDS
 10
607277.62200599711
 20
1771891.2886812319
 30
0.0
  0
SEQEND
  5
CD0
  8
CIVIC_PYRAMIDS
  0
TEXT
  5
3AE
  8
CIVIC_ID
 10
610464.93933767325
 20
1772704.6438558551
 30
0.0
 40
1.0
  1
RV110-I
  0
POLYLINE
  5
3AF
  8
CIVIC_PYRAMIDS
 66
     1
 10
0.0
 20
0.0
 30
0.0
 70
     1
  0
VERTEX
  5
CD1
  8
CIVIC_PYRAMIDS
 10
610472.76008417155
 20
1772706.2637543019
 30
0.0
  0
VERTEX
  5
CD2
  8
CIVIC_PYRAMIDS
 10
610463.74157768989
 20
1772712.391960141
 30
0.0
  0
VERTEX
  5
CD3
  8
CIVIC_PYRAMIDS
 10
610457.61188442726
 20
1772703.3759310041
 30
0.0
  0
VERTEX
  5
CD4
  8
CIVIC_PYRAMIDS
 10
610466.7712842552
 20
1772697.599893976
 30
0.0
  0
SEQEND
  5
CD5
  8
CIVIC_PYRAMIDS
  0
TEXT
  5
3B0
  8
CIVIC_ID
 10
611224.18560152641
 20
1772986.7411545389
 30
0.0
 40
1.0
  1
RV46B-B_IV
  0
TEXT
  5
3B1
  8
CIVIC_ID
 10
611215.47119817731
 20
1772982.727599093
 30
0.0
 40
1.0
  1
RV46B-B_III
  0
TEXT
  5
3B2
  8
CIVIC_ID
 10
611233.55084553373
 20
1772984.222884397
 30
0.0
 40
1.0
  1
RV46B-B_II
  0
TEXT
  5
3B3
  8
CIVIC_ID
 10
611368.01006225753
 20
1772929.7930015449
 30
0.0
 40
1.0
  1
RV46B-A_I
  0
POLYLINE
  5
3B4
  8
CIVIC_RANGE
 66
     1
 10
0.0
 20
0.0
 30
0.0
 70
     1
  0
VERTEX
  5
CD6
  8
CIVIC_RANGE
 10
611218.83631750755
 20
1772989.37150867
 30
0.0
  0
VERTEX
  5
CD7
  8
CIVIC_RANGE
 10
611221.19353313663
 20
1772987.237669141
 30
0.0
  0
VERTEX
  5
CD8
  8
CIVIC_RANGE
 10
611213.19791900995
 20
1772978.352579019
 30
0.0
  0
VERTEX
  5
CD9
  8
CIVIC_RANGE
 10
611210.90432188939
 20
1772980.486418548
 30
0.0
  0
SEQEND
  5
CDA
  8
CIVIC_RANGE
  0
POLYLINE
  5
3B5
  8
CIVIC_ALTARS
 66
     1
 10
0.0
 20
0.0
 30
0.0
 70
     1
  0
VERTEX
  5
CDB
  8
CIVIC_ALTARS
 10
611222.43825756863
 20
1772986.347986867
 30
0.0
  0
VERTEX
  5
CDC
  8
CIVIC_ALTARS
 10
611224.12164993666
 20
1772987.971582128
 30
0.0
  0
VERTEX
  5
CDD
  8
CIVIC_ALTARS
 10
611225.46829721495
 20
1772986.56591409
 30
0.0
  0
VERTEX
  5
CDE
  8
CIVIC_ALTARS
 10
611223.8641781715
 20
1772984.9620396199
 30
0.0
  0
SEQEND
  5
CDF
  8
CIVIC_ALTARS
  0
POLYLINE
  5
3B6
  8
CIVIC_PYRAMIDS
 66
     1
 10
0.0
 20
0.0
 30
0.0
 70
     1
  0
VERTEX
  5
CE0
  8
CIVIC_PYRAMIDS
 10
611229.48991958366
 20
1772984.5993268411
 30
0.0
  0
VERTEX
  5
CE1
  8
CIVIC_PYRAMIDS
 10
611234.21933949552
 20
1772988.77414344
 30
0.0
  0
VERTEX
  5
CE2
  8
CIVIC_PYRAMIDS
 10
611238.49576897977
 20
1772983.5933168619
 30
0.0
  0
VERTEX
  5
CE3
  8
CIVIC_PYRAMIDS
 10
611233.76634906791
 20
1772979.569526575
 30
0.0
  0
SEQEND
  5
CE4
  8
CIVIC_PYRAMIDS
  0
POLYLINE
  5
3B7
  8
CIVIC_PYRAMIDS
 66
     1
 10
0.0
 20
0.0
 30
0.0
 70
     1
  0
VERTEX
  5
CE5
  8
CIVIC_PYRAMIDS
 10
611368.930365604
 20
1772934.018992349
 30
0.0
  0
VERTEX
  5
CE6
  8
CIVIC_PYRAMIDS
 10
611372.6652050626
 20
1772928.8553902591
 30
0.0
  0
VERTEX
  5
CE7
  8
CIVIC_PYRAMIDS
 10
611367.34090213338
 20
1772925.042038288
 30
0.0
  0
VERTEX
  5
CE8
  8
CIVIC_PYRAMIDS
 10
611363.60606267489
 20
1772930.205890008
 30
0.0
  0
SEQEND
  5
CE9
  8
CIVIC_PYRAMIDS
  0
TEXT
  5
3B8
  8
CIVIC_ID
 10
610672.37664459203
 20
1772551.4049393921
 30
0.0
 40
1.0
  1
RV20-II
  0
TEXT
  5
3B9
  8
CIVIC_ID
 10
610680.16208448354
 20
1772584.5458537459
 30
0.0
 40
1.0
  1
RV20-I
  0
POLYLINE
  5
3BA
  8
CIVIC_RANGE
 66
     1
 10
0.0
 20
0.0
 30
0.0
 70
     1
  0
VERTEX
  5
CEA
  8
CIVIC_RANGE
 10
610666.93243243219
 20
1772556.843384407
 30
0.0
  0
VERTEX
  5
CEB
  8
CIVIC_RANGE
 10
610670.02475826221
 20
1772559.0214084929
 30
0.0
  0
VERTEX
  5
CEC
  8
CIVIC_RANGE
 10
610676.9588426149
 20
1772549.418381721
 30
0.0
  0
VERTEX
  5
CED
  8
CIVIC_RANGE
 10
610672.11917282699
 20
1772545.990958144
 30
0.0
  0
VERTEX
  5
CEE
  8
CIVIC_RANGE
 10
610669.97479608282
 20
1772548.9595612891
 30
0.0
  0
VERTEX
  5
CEF
  8
CIVIC_RANGE
 10
610671.60089848505
 20
1772550.231926763
 30
0.0
  0
SEQEND
  5
CF0
  8
CIVIC_RANGE
  0
POLYLINE
  5
3BB
  8
CIVIC_PYRAMIDS
 66
     1
 10
0.0
 20
0.0
 30
0.0
 70
     1
  0
VERTEX
  5
CF1
  8
CIVIC_PYRAMIDS
 10
610680.39024510339
 20
1772591.2841235639
 30
0.0
  0
VERTEX
  5
CF2
  8
CIVIC_PYRAMIDS
 10
610685.97801525891
 20
1772583.5216207569
 30
0.0
  0
VERTEX
  5
CF3
  8
CIVIC_PYRAMIDS
 10
610678.6259140044
 20
1772578.2287101881
 30
0.0
  0
VERTEX
  5
CF4
  8
CIVIC_PYRAMIDS
 10
610673.27329917357
 20
1772585.9325498829
 30
0.0
  0
SEQEND
  5
CF5
  8
CIVIC_PYRAMIDS
  0
TEXT
  5
3BC
  8
CIVIC_ID
 10
610635.59461568529
 20
1772905.4898934611
 30
0.0
 40
1.0
  1
RV9-I
  0
POLYLINE
  5
3BD
  8
CIVIC_PYRAMIDS
 66
     1
 10
0.0
 20
0.0
 30
0.0
 70
     1
  0
VERTEX
  5
CF6
  8
CIVIC_PYRAMIDS
 10
610633.61874647555
 20
1772911.6244630271
 30
0.0
  0
VERTEX
  5
CF7
  8
CIVIC_PYRAMIDS
 10
610641.3841379598
 20
1772905.1847860471
 30
0.0
  0
VERTEX
  5
CF8
  8
CIVIC_PYRAMIDS
 10
610637.86685425881
 20
1772900.845930896
 30
0.0
  0
VERTEX
  5
CF9
  8
CIVIC_PYRAMIDS
 10
610629.96440571547
 20
1772907.102980857
 30
0.0
  0
SEQEND
  5
CFA
  8
CIVIC_PYRAMIDS
  0
TEXT
  5
3BE
  8
CIVIC_ID
 10
610725.95675205463
 20
1773180.8090420479
 30
0.0
 40
1.0
  1
RV8-I
  0
POLYLINE
  5
3BF
  8
CIVIC_PYRAMIDS
 66
     1
 10
0.0
 20
0.0
 30
0.0
 70
     1
  0
VERTEX
  5
CFB
  8
CIVIC_PYRAMIDS
 10
610735.69504700205
 20
1773177.669348168
 30
0.0
  0
VERTEX
  5
CFC
  8
CIVIC_PYRAMIDS
 10
610726.23087787931
 20
1773188.9712391889
 30
0.0
  0
VERTEX
  5
CFD
  8
CIVIC_PYRAMIDS
 10
610717.90584644908
 20
1773182.137491643
 30
0.0
  0
VERTEX
  5
CFE
  8
CIVIC_PYRAMIDS
 10
610727.45761592663
 20
1773170.747852463
 30
0.0
  0
SEQEND
  5
CFF
  8
CIVIC_PYRAMIDS
  0
TEXT
  5
3C0
  8
CIVIC_ID
 10
611063.4862481273
 20
1773935.8367683541
 30
0.0
 40
1.0
  1
RV6-CC_IIb
  0
TEXT
  5
3C1
  8
CIVIC_ID
 10
611060.51649617753
 20
1773907.891223067
 30
0.0
 40
1.0
  1
RV6-CC_IIa
  0
POLYLINE
  5
3C2
  8
CIVIC_PYRAMID_ANNEX
 66
     1
 10
0.0
 20
0.0
 30
0.0
 70
     1
  0
VERTEX
  5
D00
  8
CIVIC_PYRAMID_ANNEX
 10
611054.51137528254
 20
1773910.4875437841
 30
0.0
  0
VERTEX
  5
D01
  8
CIVIC_PYRAMID_ANNEX
 10
611058.16527601006
 20
1773913.6631994969
 30
0.0
  0
VERTEX
  5
D02
  8
CIVIC_PYRAMID_ANNEX
 10
611064.96146474732
 20
1773905.2634045249
 30
0.0
  0
VERTEX
  5
D03
  8
CIVIC_PYRAMID_ANNEX
 10
611061.44379422907
 20
1773902.4634728669
 30
0.0
  0
SEQEND
  5
D04
  8
CIVIC_PYRAMID_ANNEX
  0
POLYLINE
  5
3C3
  8
CIVIC_PYRAMID_ANNEX
 66
     1
 10
0.0
 20
0.0
 30
0.0
 70
     1
  0
VERTEX
  5
D05
  8
CIVIC_PYRAMID_ANNEX
 10
611059.32173392503
 20
1773935.597609869
 30
0.0
  0
VERTEX
  5
D06
  8
CIVIC_PYRAMID_ANNEX
 10
611064.64703609771
 20
1773939.944084733
 30
0.0
  0
VERTEX
  5
D07
  8
CIVIC_PYRAMID_ANNEX
 10
611068.12473687227
 20
1773935.597609869
 30
0.0
  0
VERTEX
  5
D08
  8
CIVIC_PYRAMID_ANNEX
 10
611062.79943469958
 20
1773931.631583733
 30
0.0
  0
SEQEND
  5
D09
  8
CIVIC_PYRAMID_ANNEX
  0
TEXT
  5
3C4
  8
CIVIC_ID
 10
611082.19042272749
 20
1773907.708310697
 30
0.0
 40
1.0
  1
RV6-CC_III
  0
TEXT
  5
3C5
  8
CIVIC_ID
 10
611071.87323265988
 20
1774112.6174111899
 30
0.0
 40
1.0
  1
RV6-EX_V
  0
TEXT
  5
3C6
  8
CIVIC_ID
 10
611046.84084840375
 20
1773953.1038760149
 30
0.0
 40
1.0
  1
RV6-CC_IV
  0
TEXT
  5
3C7
  8
CIVIC_ID
 10
611066.74811228656
 20
1773915.6932343179
 30
0.0
 40
1.0
  1
RV6-CC_II
  0
TEXT
  5
3C8
  8
CIVIC_ID
 10
611029.21185990656
 20
1773956.2214857361
 30
0.0
 40
1.0
  1
RV6-CC_Ib
  0
TEXT
  5
3C9
  8
CIVIC_ID
 10
611013.86147987586
 20
1773950.705766611
 30
0.0
 40
1.0
  1
RV6-CC_Ia
  0
POLYLINE
  5
3CA
  8
CIVIC_RANGE
 66
     1
 10
0.0
 20
0.0
 30
0.0
 70
     1
  0
VERTEX
  5
D0A
  8
CIVIC_RANGE
 10
611061.30390012648
 20
1774118.261821429
 30
0.0
  0
VERTEX
  5
D0B
  8
CIVIC_RANGE
 10
611069.06835590256
 20
1774123.3727935031
 30
0.0
  0
VERTEX
  5
D0C
  8
CIVIC_RANGE
 10
611078.94954268355
 20
1774110.2618238491
 30
0.0
  0
VERTEX
  5
D0D
  8
CIVIC_RANGE
 10
611071.52549589053
 20
1774104.871421071
 30
0.0
  0
SEQEND
  5
D0E
  8
CIVIC_RANGE
  0
POLYLINE
  5
3CB
  8
CIVIC_ALTARS
 66
     1
 10
0.0
 20
0.0
 30
0.0
 70
     1
  0
VERTEX
  5
D0F
  8
CIVIC_ALTARS
 10
611044.90431432636
 20
1773953.2908381049
 30
0.0
  0
VERTEX
  5
D10
  8
CIVIC_ALTARS
 10
611047.28417947656
 20
1773954.6582936789
 30
0.0
  0
VERTEX
  5
D11
  8
CIVIC_ALTARS
 10
611048.788374161
 20
1773952.2516348651
 30
0.0
  0
VERTEX
  5
D12
  8
CIVIC_ALTARS
 10
611046.24463306169
 20
1773950.911627396
 30
0.0
  0
SEQEND
  5
D13
  8
CIVIC_ALTARS
  0
POLYLINE
  5
3CC
  8
CIVIC_TOMB
 66
     1
 10
0.0
 20
0.0
 30
0.0
 70
     1
  0
VERTEX
  5
D14
  8
CIVIC_TOMB
 10
611080.64858986775
 20
1773904.4298370851
 30
0.0
  0
VERTEX
  5
D15
  8
CIVIC_TOMB
 10
611079.99575072248
 20
1773910.7829483859
 30
0.0
  0
VERTEX
  5
D16
  8
CIVIC_TOMB
 10
611084.08698706143
 20
1773911.08757735
 30
0.0
  0
VERTEX
  5
D17
  8
CIVIC_TOMB
 10
611084.73949312582
 20
1773904.647397062
 30
0.0
  0
SEQEND
  5
D18
  8
CIVIC_TOMB
  0
POLYLINE
  5
3CE
  8
CIVIC_PYRAMIDS
 66
     1
 10
0.0
 20
0.0
 30
0.0
 70
     1
  0
VERTEX
  5
D19
  8
CIVIC_PYRAMIDS
 10
611058.27352739905
 20
1773913.791665626
 30
0.0
  0
VERTEX
  5
D1A
  8
CIVIC_PYRAMIDS
 10
611069.62226993265
 20
1773923.5197688751
 30
0.0
  0
VERTEX
  5
D1B
  8
CIVIC_PYRAMIDS
 10
611076.5620166657
 20
1773915.2799378571
 30
0.0
  0
VERTEX
  5
D1C
  8
CIVIC_PYRAMIDS
 10
611065.02441709349
 20
1773905.3412491491
 30
0.0
  0
SEQEND
  5
D1D
  8
CIVIC_PYRAMIDS
  0
POLYLINE
  5
3CF
  8
CIVIC_BALL_COURTS
 66
     1
 10
0.0
 20
0.0
 30
0.0
 70
     1
  0
VERTEX
  5
D1E
  8
CIVIC_BALL_COURTS
 10
611007.38404984365
 20
1773955.9022327811
 30
0.0
  0
VERTEX
  5
D1F
  8
CIVIC_BALL_COURTS
 10
611011.98456733243
 20
1773959.540906522
 30
0.0
  0
VERTEX
  5
D20
  8
CIVIC_BALL_COURTS
 10
611025.78578671755
 20
1773941.4168330361
 30
0.0
  0
VERTEX
  5
D21
  8
CIVIC_BALL_COURTS
 10
611020.84219559596
 20
1773937.9156248041
 30
0.0
  0
SEQEND
  5
D22
  8
CIVIC_BALL_COURTS
  0
POLYLINE
  5
3D0
  8
CIVIC_BALL_COURTS
 66
     1
 10
0.0
 20
0.0
 30
0.0
 70
     1
  0
VERTEX
  5
D23
  8
CIVIC_BALL_COURTS
 10
611018.23283750121
 20
1773964.0718686469
 30
0.0
  0
VERTEX
  5
D24
  8
CIVIC_BALL_COURTS
 10
611022.90196971665
 20
1773967.8477829101
 30
0.0
  0
VERTEX
  5
D25
  8
CIVIC_BALL_COURTS
 10
611036.565626567
 20
1773949.998190471
 30
0.0
  0
VERTEX
  5
D26
  8
CIVIC_BALL_COURTS
 10
611031.96544215956
 20
1773946.222501192
 30
0.0
  0
SEQEND
  5
D27
  8
CIVIC_BALL_COURTS
  0
TEXT
  5
3D1
  8
CIVIC_ID
 10
611009.9028098532
 20
1773261.8670077231
 30
0.0
 40
1.0
  1
RV4-II
  0
TEXT
  5
3D2
  8
CIVIC_ID
 10
611000.75706635439
 20
1773289.2989134791
 30
0.0
 40
1.0
  1
RV4-I
  0
POLYLINE
  5
3D3
  8
CIVIC_PYRAMIDS
 66
     1
 10
0.0
 20
0.0
 30
0.0
 70
     1
  0
VERTEX
  5
D28
  8
CIVIC_PYRAMIDS
 10
611003.70516802615
 20
1773258.134515462
 30
0.0
  0
VERTEX
  5
D29
  8
CIVIC_PYRAMIDS
 10
611008.41360382282
 20
1773267.5494403371
 30
0.0
  0
VERTEX
  5
D2A
  8
CIVIC_PYRAMIDS
 10
611017.11002078711
 20
1773263.8506957439
 30
0.0
  0
VERTEX
  5
D2B
  8
CIVIC_PYRAMIDS
 10
611012.30532452487
 20
1773254.291780812
 30
0.0
  0
SEQEND
  5
D2C
  8
CIVIC_PYRAMIDS
  0
POLYLINE
  5
3D4
  8
CIVIC_RANGE
 66
     1
 10
0.0
 20
0.0
 30
0.0
 70
     1
  0
VERTEX
  5
D2D
  8
CIVIC_RANGE
 10
610998.96309102909
 20
1773293.972065785
 30
0.0
  0
VERTEX
  5
D2E
  8
CIVIC_RANGE
 10
611008.10383830988
 20
1773288.634309371
 30
0.0
  0
VERTEX
  5
D2F
  8
CIVIC_RANGE
 10
611005.02250415925
 20
1773283.7177238739
 30
0.0
  0
VERTEX
  5
D30
  8
CIVIC_RANGE
 10
610995.83878940414
 20
1773288.930613911
 30
0.0
  0
SEQEND
  5
D31
  8
CIVIC_RANGE
  0
TEXT
  5
3D5
  8
CIVIC_ID
 10
612565.42217790545
 20
1773335.160798497
 30
0.0
 40
1.0
  1
RV38-I
  0
POLYLINE
  5
3D6
  8
CIVIC_PYRAMIDS
 66
     1
 10
0.0
 20
0.0
 30
0.0
 70
     1
  0
VERTEX
  5
D32
  8
CIVIC_PYRAMIDS
 10
612565.64517019654
 20
1773331.198284708
 30
0.0
  0
VERTEX
  5
D33
  8
CIVIC_PYRAMIDS
 10
612570.26401441765
 20
1773335.8881318341
 30
0.0
  0
VERTEX
  5
D34
  8
CIVIC_PYRAMIDS
 10
612566.3815809791
 20
1773339.7705652721
 30
0.0
  0
VERTEX
  5
D35
  8
CIVIC_PYRAMIDS
 10
612561.79451697785
 20
1773335.0864101781
 30
0.0
  0
SEQEND
  5
D36
  8
CIVIC_PYRAMIDS
  0
TEXT
  5
3D7
  8
CIVIC_ID
 10
611852.48067651864
 20
1774098.5832856151
 30
0.0
 40
1.0
  1
RV1-II
  0
TEXT
  5
3D8
  8
CIVIC_ID
 10
611838.00553970749
 20
1774134.620755939
 30
0.0
 40
1.0
  1
RV1-I
  0
POLYLINE
  5
3D9
  8
CIVIC_PLATFORM_HIGH_BASAL
 66
     1
 10
0.0
 20
0.0
 30
0.0
 70
     1
  0
VERTEX
  5
D37
  8
CIVIC_PLATFORM_HIGH_BASAL
 10
611842.07970181876
 20
1774100.6800915189
 30
0.0
  0
VERTEX
  5
D38
  8
CIVIC_PLATFORM_HIGH_BASAL
 10
611856.57649552706
 20
1774108.4334117509
 30
0.0
  0
VERTEX
  5
D39
  8
CIVIC_PLATFORM_HIGH_BASAL
 10
611862.98227249389
 20
1774096.3819866751
 30
0.0
  0
VERTEX
  5
D3A
  8
CIVIC_PLATFORM_HIGH_BASAL
 10
611848.14829755772
 20
1774088.8815332791
 30
0.0
  0
SEQEND
  5
D3B
  8
CIVIC_PLATFORM_HIGH_BASAL
  0
POLYLINE
  5
3DB
  8
CIVIC_PYRAMIDS
 66
     1
 10
0.0
 20
0.0
 30
0.0
 70
     1
  0
VERTEX
  5
D3C
  8
CIVIC_PYRAMIDS
 10
611840.00397153152
 20
1774142.042287101
 30
0.0
  0
VERTEX
  5
D3D
  8
CIVIC_PYRAMIDS
 10
611844.7065168405
 20
1774133.7298817651
 30
0.0
  0
VERTEX
  5
D3E
  8
CIVIC_PYRAMIDS
 10
611835.80519896618
 20
1774129.3635881119
 30
0.0
  0
VERTEX
  5
D3F
  8
CIVIC_PYRAMIDS
 10
611831.18661578116
 20
1774137.7602823931
 30
0.0
  0
SEQEND
  5
D40
  8
CIVIC_PYRAMIDS
  0
TEXT
  5
3DC
  8
CIVIC_ID
 10
612947.57802359504
 20
1772512.697632649
 30
0.0
 40
1.0
  1
RV43-I
  0
POLYLINE
  5
3DD
  8
CIVIC_PYRAMIDS
 66
     1
 10
0.0
 20
0.0
 30
0.0
 70
     1
  0
VERTEX
  5
D41
  8
CIVIC_PYRAMIDS
 10
612941.93129806768
 20
1772512.7809545579
 30
0.0
  0
VERTEX
  5
D42
  8
CIVIC_PYRAMIDS
 10
612948.36043132609
 20
1772518.947091429
 30
0.0
  0
VERTEX
  5
D43
  8
CIVIC_PYRAMIDS
 10
612953.67407565692
 20
1772512.977897252
 30
0.0
  0
VERTEX
  5
D44
  8
CIVIC_PYRAMIDS
 10
612947.04842449236
 20
1772506.9430555101
 30
0.0
  0
SEQEND
  5
D45
  8
CIVIC_PYRAMIDS
  0
TEXT
  5
3DE
  8
CIVIC_ID
 10
612672.03830053774
 20
1773409.4725987641
 30
0.0
 40
1.0
  1
RV34-II
  0
TEXT
  5
3DF
  8
CIVIC_ID
 10
612684.34574854479
 20
1773405.2126911751
 30
0.0
 40
1.0
  1
RV34-I
  0
POLYLINE
  5
3E0
  8
CIVIC_PYRAMIDS
 66
     1
 10
0.0
 20
0.0
 30
0.0
 70
     1
  0
VERTEX
  5
D46
  8
CIVIC_PYRAMIDS
 10
612671.87237538805
 20
1773403.9540719581
 30
0.0
  0
VERTEX
  5
D47
  8
CIVIC_PYRAMIDS
 10
612677.15632508753
 20
1773408.361473985
 30
0.0
  0
VERTEX
  5
D48
  8
CIVIC_PYRAMIDS
 10
612673.26408091118
 20
1773412.9749212761
 30
0.0
  0
VERTEX
  5
D49
  8
CIVIC_PYRAMIDS
 10
612667.95447611855
 20
1773408.438796828
 30
0.0
  0
SEQEND
  5
D4A
  8
CIVIC_PYRAMIDS
  0
POLYLINE
  5
3E1
  8
CIVIC_PYRAMIDS
 66
     1
 10
0.0
 20
0.0
 30
0.0
 70
     1
  0
VERTEX
  5
D4B
  8
CIVIC_PYRAMIDS
 10
612681.32810982689
 20
1773405.262749895
 30
0.0
  0
VERTEX
  5
D4C
  8
CIVIC_PYRAMIDS
 10
612685.24034498492
 20
1773408.560814955
 30
0.0
  0
VERTEX
  5
D4D
  8
CIVIC_PYRAMIDS
 10
612688.02742104477
 20
1773405.0580454899
 30
0.0
  0
VERTEX
  5
D4E
  8
CIVIC_PYRAMIDS
 10
612684.11518588685
 20
1773401.9132852559
 30
0.0
  0
SEQEND
  5
D4F
  8
CIVIC_PYRAMIDS
  0
TEXT
  5
3E2
  8
CIVIC_ID
 10
613008.73399129021
 20
1773017.3274242431
 30
0.0
 40
1.0
  1
RV37-CC_VII
  0
TEXT
  5
3E3
  8
CIVIC_ID
 10
613004.83834786038
 20
1773032.847412999
 30
0.0
 40
1.0
  1
RV37-CC_VI
  0
TEXT
  5
3E4
  8
CIVIC_ID
 10
613037.69944475906
 20
1772962.84875826
 30
0.0
 40
1.0
  1
RV37-CC_V
  0
TEXT
  5
3E5
  8
CIVIC_ID
 10
613038.07024568215
 20
1772947.506566081
 30
0.0
 40
1.0
  1
RV37-CC_IVa
  0
TEXT
  5
3E6
  8
CIVIC_ID
 10
613029.73425039335
 20
1772935.8080604151
 30
0.0
 40
1.0
  1
RV37-CC_IV
  0
TEXT
  5
3E7
  8
CIVIC_ID
 10
612975.30855066283
 20
1772990.882588695
 30
0.0
 40
1.0
  1
RV37-CC_IIIb
  0
TEXT
  5
3E8
  8
CIVIC_ID
 10
612981.72457393713
 20
1773000.133187983
 30
0.0
 40
1.0
  1
RV37-CC_IIIa
  0
TEXT
  5
3E9
  8
CIVIC_ID
 10
612978.14352763665
 20
1773043.9988522739
 30
0.0
 40
1.0
  1
RV37-CC_II
  0
TEXT
  5
3EA
  8
CIVIC_ID
 10
613008.29444880516
 20
1773052.536755213
 30
0.0
 40
1.0
  1
RV37-CC_I
  0
POLYLINE
  5
3EB
  8
CIVIC_PYRAMID_ANNEX
 66
     1
 10
0.0
 20
0.0
 30
0.0
 70
     1
  0
VERTEX
  5
D50
  8
CIVIC_PYRAMID_ANNEX
 10
613045.32810089935
 20
1772949.7165330951
 30
0.0
  0
VERTEX
  5
D51
  8
CIVIC_PYRAMID_ANNEX
 10
613039.95361317508
 20
1772954.3876085631
 30
0.0
  0
VERTEX
  5
D52
  8
CIVIC_PYRAMID_ANNEX
 10
613032.51972479525
 20
1772946.301121684
 30
0.0
  0
VERTEX
  5
D53
  8
CIVIC_PYRAMID_ANNEX
 10
613037.99469481385
 20
1772941.4291244361
 30
0.0
  0
SEQEND
  5
D54
  8
CIVIC_PYRAMID_ANNEX
  0
POLYLINE
  5
3EC
  8
CIVIC_PYRAMIDS
 66
     1
 10
0.0
 20
0.0
 30
0.0
 70
     1
  0
VERTEX
  5
D55
  8
CIVIC_PYRAMIDS
 10
613030.72412168677
 20
1772926.5152231141
 30
0.0
  0
VERTEX
  5
D56
  8
CIVIC_PYRAMIDS
 10
613041.37391185155
 20
1772938.0387365669
 30
0.0
  0
VERTEX
  5
D57
  8
CIVIC_PYRAMIDS
 10
613028.49881175684
 20
1772949.721192651
 30
0.0
  0
VERTEX
  5
D58
  8
CIVIC_PYRAMIDS
 10
613017.92849952017
 20
1772937.8797939329
 30
0.0
  0
SEQEND
  5
D59
  8
CIVIC_PYRAMIDS
  0
POLYLINE
  5
3ED
  8
CIVIC_BALL_COURTS
 66
     1
 10
0.0
 20
0.0
 30
0.0
 70
     1
  0
VERTEX
  5
D5A
  8
CIVIC_BALL_COURTS
 10
612976.88643612876
 20
1772984.937814964
 30
0.0
  0
VERTEX
  5
D5B
  8
CIVIC_BALL_COURTS
 10
612981.69189647515
 20
1772990.576654328
 30
0.0
  0
VERTEX
  5
D5C
  8
CIVIC_BALL_COURTS
 10
612965.85348741221
 20
1773004.158828655
 30
0.0
  0
VERTEX
  5
D5D
  8
CIVIC_BALL_COURTS
 10
612961.14605945139
 20
1772998.4709776649
 30
0.0
  0
SEQEND
  5
D5E
  8
CIVIC_BALL_COURTS
  0
POLYLINE
  5
3EE
  8
CIVIC_BALL_COURTS
 66
     1
 10
0.0
 20
0.0
 30
0.0
 70
     1
  0
VERTEX
  5
D5F
  8
CIVIC_BALL_COURTS
 10
612968.29492974933
 20
1773006.6460823959
 30
0.0
  0
VERTEX
  5
D60
  8
CIVIC_BALL_COURTS
 10
612972.91063023754
 20
1773012.5090550331
 30
0.0
  0
VERTEX
  5
D61
  8
CIVIC_BALL_COURTS
 10
612988.75372294965
 20
1772998.6625371899
 30
0.0
  0
VERTEX
  5
D62
  8
CIVIC_BALL_COURTS
 10
612983.88852805912
 20
1772993.0490665201
 30
0.0
  0
SEQEND
  5
D63
  8
CIVIC_BALL_COURTS
  0
POLYLINE
  5
3EF
  8
CIVIC_RANGE
 66
     1
 10
0.0
 20
0.0
 30
0.0
 70
     1
  0
VERTEX
  5
D64
  8
CIVIC_RANGE
 10
613042.52482862957
 20
1772955.44696725
 30
0.0
  0
VERTEX
  5
D65
  8
CIVIC_RANGE
 10
613046.01090493053
 20
1772959.420921366
 30
0.0
  0
VERTEX
  5
D66
  8
CIVIC_RANGE
 10
613032.97299397585
 20
1772971.342783713
 30
0.0
  0
VERTEX
  5
D67
  8
CIVIC_RANGE
 10
613029.48691767512
 20
1772967.438550361
 30
0.0
  0
SEQEND
  5
D68
  8
CIVIC_RANGE
  0
POLYLINE
  5
3F0
  8
CIVIC_PYRAMIDS
 66
     1
 10
0.0
 20
0.0
 30
0.0
 70
     1
  0
VERTEX
  5
D69
  8
CIVIC_PYRAMIDS
 10
613003.09635452391
 20
1773018.764163824
 30
0.0
  0
VERTEX
  5
D6A
  8
CIVIC_PYRAMIDS
 10
613010.26705783384
 20
1773022.9560816151
 30
0.0
  0
VERTEX
  5
D6B
  8
CIVIC_PYRAMIDS
 10
613014.56949423102
 20
1773015.785672077
 30
0.0
  0
VERTEX
  5
D6C
  8
CIVIC_PYRAMIDS
 10
613007.28847296291
 20
1773011.3731156799
 30
0.0
  0
SEQEND
  5
D6D
  8
CIVIC_PYRAMIDS
  0
POLYLINE
  5
3F1
  8
CIVIC_ALTARS
 66
     1
 10
0.0
 20
0.0
 30
0.0
 70
     1
  0
VERTEX
  5
D6E
  8
CIVIC_ALTARS
 10
613004.56464259326
 20
1773030.056640957
 30
0.0
  0
VERTEX
  5
D6F
  8
CIVIC_ALTARS
 10
613007.18590104033
 20
1773032.470808699
 30
0.0
  0
VERTEX
  5
D70
  8
CIVIC_ALTARS
 10
613004.56464259326
 20
1773035.2989003321
 30
0.0
  0
VERTEX
  5
D71
  8
CIVIC_ALTARS
 10
613002.08137166372
 20
1773032.746714816
 30
0.0
  0
SEQEND
  5
D72
  8
CIVIC_ALTARS
  0
POLYLINE
  5
3F2
  8
CIVIC_PYRAMIDS
 66
     1
 10
0.0
 20
0.0
 30
0.0
 70
     1
  0
VERTEX
  5
D73
  8
CIVIC_PYRAMIDS
 10
612986.83425532794
 20
1773043.9126073441
 30
0.0
  0
VERTEX
  5
D74
  8
CIVIC_PYRAMIDS
 10
612976.00346012646
 20
1773055.5751308841
 30
0.0
  0
VERTEX
  5
D75
  8
CIVIC_PYRAMIDS
 10
612964.92994380021
 20
1773045.370616935
 30
0.0
  0
VERTEX
  5
D76
  8
CIVIC_PYRAMIDS
 10
612975.89487151557
 20
1773033.863368785
 30
0.0
  0
SEQEND
  5
D77
  8
CIVIC_PYRAMIDS
  0
POLYLINE
  5
3F3
  8
CIVIC_PYRAMIDS
 66
     1
 10
0.0
 20
0.0
 30
0.0
 70
     1
  0
VERTEX
  5
D78
  8
CIVIC_PYRAMIDS
 10
612989.93544372974
 20
1773055.392847327
 30
0.0
  0
VERTEX
  5
D79
  8
CIVIC_PYRAMIDS
 10
613004.49755832215
 20
1773069.0977664399
 30
0.0
  0
VERTEX
  5
D7A
  8
CIVIC_PYRAMIDS
 10
613018.03175597603
 20
1773054.0223769881
 30
0.0
  0
VERTEX
  5
D7B
  8
CIVIC_PYRAMIDS
 10
613003.46964138374
 20
1773040.4887828459
 30
0.0
  0
SEQEND
  5
D7C
  8
CIVIC_PYRAMIDS
  0
TEXT
  5
3F4
  8
CIVIC_ID
 10
613159.99626870279
 20
1773335.1156588481
 30
0.0
 40
1.0
  1
RV30-EX_I
  0
POLYLINE
  5
3F5
  8
CIVIC_PYRAMIDS
 66
     1
 10
0.0
 20
0.0
 30
0.0
 70
     1
  0
VERTEX
  5
D7D
  8
CIVIC_PYRAMIDS
 10
613152.83053726691
 20
1773334.7212360611
 30
0.0
  0
VERTEX
  5
D7E
  8
CIVIC_PYRAMIDS
 10
613158.15552241949
 20
1773341.097795316
 30
0.0
  0
VERTEX
  5
D7F
  8
CIVIC_PYRAMIDS
 10
613164.79531605216
 20
1773335.575833149
 30
0.0
  0
VERTEX
  5
D80
  8
CIVIC_PYRAMIDS
 10
613159.20736199792
 20
1773329.3307769189
 30
0.0
  0
SEQEND
  5
D81
  8
CIVIC_PYRAMIDS
  0
TEXT
  5
3F6
  8
CIVIC_ID
 10
614664.62884498038
 20
1774042.8661482939
 30
0.0
 40
1.0
  1
RV15-EX_I
  0
POLYLINE
  5
3F7
  8
CIVIC_PYRAMIDS
 66
     1
 10
0.0
 20
0.0
 30
0.0
 70
     1
  0
VERTEX
  5
D82
  8
CIVIC_PYRAMIDS
 10
614660.32287783211
 20
1774044.063179604
 30
0.0
  0
VERTEX
  5
D83
  8
CIVIC_PYRAMIDS
 10
614665.1889013683
 20
1774047.5016730749
 30
0.0
  0
VERTEX
  5
D84
  8
CIVIC_PYRAMIDS
 10
614668.88707493246
 20
1774042.2141556039
 30
0.0
  0
VERTEX
  5
D85
  8
CIVIC_PYRAMIDS
 10
614664.02105139627
 20
1774038.7757052779
 30
0.0
  0
SEQEND
  5
D86
  8
CIVIC_PYRAMIDS
  0
TEXT
  5
3F8
  8
CIVIC_ID
 10
613300.17046915938
 20
1773974.811608939
 30
0.0
 40
1.0
  1
RV14-EX_I
 50
7.0000000002510561
  0
POLYLINE
  5
3F9
  8
CIVIC_PYRAMIDS
 66
     1
 10
0.0
 20
0.0
 30
0.0
 70
     1
  0
VERTEX
  5
D87
  8
CIVIC_PYRAMIDS
 10
613292.01923645264
 20
1773973.5701332521
 30
0.0
  0
VERTEX
  5
D88
  8
CIVIC_PYRAMIDS
 10
613297.76215931959
 20
1773979.2979126649
 30
0.0
  0
VERTEX
  5
D89
  8
CIVIC_PYRAMIDS
 10
613302.38970372139
 20
1773974.341202806
 30
0.0
  0
VERTEX
  5
D8A
  8
CIVIC_PYRAMIDS
 10
613296.78102909867
 20
1773968.8811433699
 30
0.0
  0
SEQEND
  5
D8B
  8
CIVIC_PYRAMIDS
  0
TEXT
  5
3FA
  8
CIVIC_ID
 10
610121.99893755955
 20
1761395.380671917
 30
0.0
 40
1.0
  1
RV261-I
  0
POLYLINE
  5
3FB
  8
CIVIC_RANGE
 66
     1
 10
0.0
 20
0.0
 30
0.0
 70
     1
  0
VERTEX
  5
D8C
  8
CIVIC_RANGE
 10
610660.8110199325
 20
1760380.191339141
 30
0.0
  0
VERTEX
  5
D8D
  8
CIVIC_RANGE
 10
610651.61790672375
 20
1760388.8118840661
 30
0.0
  0
VERTEX
  5
D8E
  8
CIVIC_RANGE
 10
610655.21693365113
 20
1760391.847476312
 30
0.0
  0
VERTEX
  5
D8F
  8
CIVIC_RANGE
 10
610664.25112054753
 20
1760383.2215523969
 30
0.0
  0
SEQEND
  5
D90
  8
CIVIC_RANGE
  0
POLYLINE
  5
3FC
  8
CIVIC_PLATFORM_LARGE_BASE
 66
     1
 10
0.0
 20
0.0
 30
0.0
 70
     1
  0
VERTEX
  5
D91
  8
CIVIC_PLATFORM_LARGE_BASE
 10
611767.57593121415
 20
1766587.434778339
 30
0.0
  0
VERTEX
  5
D92
  8
CIVIC_PLATFORM_LARGE_BASE
 10
611756.08796074009
 20
1766576.697676
 30
0.0
  0
VERTEX
  5
D93
  8
CIVIC_PLATFORM_LARGE_BASE
 10
611782.68549353944
 20
1766551.47772414
 30
0.0
  0
VERTEX
  5
D94
  8
CIVIC_PLATFORM_LARGE_BASE
 10
611793.54926985072
 20
1766555.8473908079
 30
0.0
  0
VERTEX
  5
D95
  8
CIVIC_PLATFORM_LARGE_BASE
 10
611796.42109592864
 20
1766549.1055476901
 30
0.0
  0
VERTEX
  5
D96
  8
CIVIC_PLATFORM_LARGE_BASE
 10
611835.95483624516
 20
1766582.1194749889
 30
0.0
  0
VERTEX
  5
D97
  8
CIVIC_PLATFORM_LARGE_BASE
 10
611836.65996913845
 20
1766585.9577785931
 30
0.0
  0
VERTEX
  5
D98
  8
CIVIC_PLATFORM_LARGE_BASE
 10
611825.06474651943
 20
1766600.606226048
 30
0.0
  0
VERTEX
  5
D99
  8
CIVIC_PLATFORM_LARGE_BASE
 10
611817.308284692
 20
1766595.671184619
 30
0.0
  0
VERTEX
  5
D9A
  8
CIVIC_PLATFORM_LARGE_BASE
 10
611821.93078553956
 20
1766589.7177437809
 30
0.0
  0
VERTEX
  5
D9B
  8
CIVIC_PLATFORM_LARGE_BASE
 10
611790.35768582416
 20
1766563.319370267
 30
0.0
  0
SEQEND
  5
D9C
  8
CIVIC_PLATFORM_LARGE_BASE
  0
TEXT
  5
3FE
  8
CIVIC_ID
 10
611770.01208708656
 20
1766570.2401929691
 30
0.0
 40
1.0
  1
RV175-B
  0
TEXT
  5
3FF
  8
CIVIC_ID
 10
613433.74500369118
 20
1775913.676460922
 30
0.0
 40
1.0
  1
RV53-CCL_D
  0
TEXT
  5
400
  8
CIVIC_ID
 10
613398.56396845321
 20
1775897.499717393
 30
0.0
 40
1.0
  1
RV53-CCL_C
  0
TEXT
  5
401
  8
CIVIC_ID
 10
613423.92776850006
 20
1775867.237392111
 30
0.0
 40
1.0
  1
RV53-CCL_B
  0
TEXT
  5
402
  8
CIVIC_ID
 10
613414.87095768075
 20
1775796.1766427599
 30
0.0
 40
1.0
  1
RV53-CCL_A
  0
POLYLINE
  5
403
  8
CIVIC_PLATFORM_LARGE_BASE
 66
     1
 10
0.0
 20
0.0
 30
0.0
 70
     1
  0
VERTEX
  5
D9D
  8
CIVIC_PLATFORM_LARGE_BASE
 10
613437.61407487199
 20
1775864.155151797
 30
0.0
  0
VERTEX
  5
D9E
  8
CIVIC_PLATFORM_LARGE_BASE
 10
613449.47576244851
 20
1775824.1019184261
 30
0.0
  0
VERTEX
  5
D9F
  8
CIVIC_PLATFORM_LARGE_BASE
 10
613444.30434378877
 20
1775823.2014448179
 30
0.0
  0
VERTEX
  5
DA0
  8
CIVIC_PLATFORM_LARGE_BASE
 10
613445.80953771668
 20
1775818.518982054
 30
0.0
  0
VERTEX
  5
DA1
  8
CIVIC_PLATFORM_LARGE_BASE
 10
613450.49265934201
 20
1775819.8568683851
 30
0.0
  0
VERTEX
  5
DA2
  8
CIVIC_PLATFORM_LARGE_BASE
 10
613457.51734178024
 20
1775795.7763083631
 30
0.0
  0
VERTEX
  5
DA3
  8
CIVIC_PLATFORM_LARGE_BASE
 10
613399.06991879083
 20
1775779.580886279
 30
0.0
  0
VERTEX
  5
DA4
  8
CIVIC_PLATFORM_LARGE_BASE
 10
613379.59865819465
 20
1775848.8788818759
 30
0.0
  0
SEQEND
  5
DA5
  8
CIVIC_PLATFORM_LARGE_BASE
  0
POLYLINE
  5
404
  8
CIVIC_PLATFORM_LARGE_BASE
 66
     1
 10
0.0
 20
0.0
 30
0.0
 70
     1
  0
VERTEX
  5
DA6
  8
CIVIC_PLATFORM_LARGE_BASE
 10
613428.83438760834
 20
1775899.2134050929
 30
0.0
  0
VERTEX
  5
DA7
  8
CIVIC_PLATFORM_LARGE_BASE
 10
613431.06436622026
 20
1775891.4018662369
 30
0.0
  0
VERTEX
  5
DA8
  8
CIVIC_PLATFORM_LARGE_BASE
 10
613425.11919994047
 20
1775889.8376069751
 30
0.0
  0
VERTEX
  5
DA9
  8
CIVIC_PLATFORM_LARGE_BASE
 10
613427.62230513373
 20
1775882.1414848589
 30
0.0
  0
VERTEX
  5
DAA
  8
CIVIC_PLATFORM_LARGE_BASE
 10
613431.1269854852
 20
1775883.142599636
 30
0.0
  0
VERTEX
  5
DAB
  8
CIVIC_PLATFORM_LARGE_BASE
 10
613436.50891146134
 20
1775864.6218368809
 30
0.0
  0
VERTEX
  5
DAC
  8
CIVIC_PLATFORM_LARGE_BASE
 10
613411.17975185905
 20
1775857.384036317
 30
0.0
  0
VERTEX
  5
DAD
  8
CIVIC_PLATFORM_LARGE_BASE
 10
613409.48836554214
 20
1775863.4793784141
 30
0.0
  0
VERTEX
  5
DAE
  8
CIVIC_PLATFORM_LARGE_BASE
 10
613399.14452897897
 20
1775860.4908096581
 30
0.0
  0
VERTEX
  5
DAF
  8
CIVIC_PLATFORM_LARGE_BASE
 10
613399.26277280378
 20
1775860.018827671
 30
0.0
  0
VERTEX
  5
DB0
  8
CIVIC_PLATFORM_LARGE_BASE
 10
613393.63836371643
 20
1775858.4852346929
 30
0.0
  0
VERTEX
  5
DB1
  8
CIVIC_PLATFORM_LARGE_BASE
 10
613391.27848343796
 20
1775867.2596948631
 30
0.0
  0
VERTEX
  5
DB2
  8
CIVIC_PLATFORM_LARGE_BASE
 10
613392.67642522044
 20
1775867.622114582
 30
0.0
  0
VERTEX
  5
DB3
  8
CIVIC_PLATFORM_LARGE_BASE
 10
613387.23920776555
 20
1775888.232087621
 30
0.0
  0
SEQEND
  5
DB4
  8
CIVIC_PLATFORM_LARGE_BASE
  0
POLYLINE
  5
405
  8
CIVIC_PLATFORM_LARGE_BASE
 66
     1
 10
0.0
 20
0.0
 30
0.0
 70
     1
  0
VERTEX
  5
DB5
  8
CIVIC_PLATFORM_LARGE_BASE
 10
613424.89969943184
 20
1775919.3898683931
 30
0.0
  0
VERTEX
  5
DB6
  8
CIVIC_PLATFORM_LARGE_BASE
 10
613438.27257639787
 20
1775923.0583922979
 30
0.0
  0
VERTEX
  5
DB7
  8
CIVIC_PLATFORM_LARGE_BASE
 10
613442.1589678009
 20
1775908.6979291269
 30
0.0
  0
VERTEX
  5
DB8
  8
CIVIC_PLATFORM_LARGE_BASE
 10
613428.825061335
 20
1775905.1531854961
 30
0.0
  0
SEQEND
  5
DB9
  8
CIVIC_PLATFORM_LARGE_BASE
  0
POLYLINE
  5
406
  8
CIVIC_PLATFORM_LARGE_BASE
 66
     1
 10
0.0
 20
0.0
 30
0.0
 70
     1
  0
VERTEX
  5
DBA
  8
CIVIC_PLATFORM_LARGE_BASE
 10
613429.97718919429
 20
1775899.7598225151
 30
0.0
  0
VERTEX
  5
DBB
  8
CIVIC_PLATFORM_LARGE_BASE
 10
613380.3237759599
 20
1775886.6647617309
 30
0.0
  0
VERTEX
  5
DBC
  8
CIVIC_PLATFORM_LARGE_BASE
 10
613378.59674995521
 20
1775891.9401989109
 30
0.0
  0
VERTEX
  5
DBD
  8
CIVIC_PLATFORM_LARGE_BASE
 10
613372.6489190259
 20
1775913.330210699
 30
0.0
  0
VERTEX
  5
DBE
  8
CIVIC_PLATFORM_LARGE_BASE
 10
613402.48433413822
 20
1775921.1958337291
 30
0.0
  0
VERTEX
  5
DBF
  8
CIVIC_PLATFORM_LARGE_BASE
 10
613401.716915061
 20
1775923.9775444609
 30
0.0
  0
VERTEX
  5
DC0
  8
CIVIC_PLATFORM_LARGE_BASE
 10
613414.57218384731
 20
1775926.8548782419
 30
0.0
  0
VERTEX
  5
DC1
  8
CIVIC_PLATFORM_LARGE_BASE
 10
613416.30220758286
 20
1775920.011836387
 30
0.0
  0
VERTEX
  5
DC2
  8
CIVIC_PLATFORM_LARGE_BASE
 10
613423.77988044883
 20
1775922.059507797
 30
0.0
  0
SEQEND
  5
DC3
  8
CIVIC_PLATFORM_LARGE_BASE
  0
TEXT
  5
407
  8
CIVIC_ID
 10
611770.25590252248
 20
1766598.7707095661
 30
0.0
 40
1.0
  1
RV175-A
  0
POLYLINE
  5
408
  8
CIVIC_PLATFORM_LARGE_BASE
 66
     1
 10
0.0
 20
0.0
 30
0.0
 70
     1
  0
VERTEX
  5
DC4
  8
CIVIC_PLATFORM_LARGE_BASE
 10
611743.88419877447
 20
1766632.840109648
 30
0.0
  0
VERTEX
  5
DC5
  8
CIVIC_PLATFORM_LARGE_BASE
 10
611752.83309128601
 20
1766639.2310198599
 30
0.0
  0
VERTEX
  5
DC6
  8
CIVIC_PLATFORM_LARGE_BASE
 10
611760.50361816457
 20
1766643.065332616
 30
0.0
  0
VERTEX
  5
DC7
  8
CIVIC_PLATFORM_LARGE_BASE
 10
611769.31028500514
 20
1766646.0478351719
 30
0.0
  0
VERTEX
  5
DC8
  8
CIVIC_PLATFORM_LARGE_BASE
 10
611771.86734935199
 20
1766646.899937086
 30
0.0
  0
VERTEX
  5
DC9
  8
CIVIC_PLATFORM_LARGE_BASE
 10
611780.67401619256
 20
1766639.5148593539
 30
0.0
  0
VERTEX
  5
DCA
  8
CIVIC_PLATFORM_LARGE_BASE
 10
611788.06042481039
 20
1766641.361128788
 30
0.0
  0
VERTEX
  5
DCB
  8
CIVIC_PLATFORM_LARGE_BASE
 10
611794.16846779524
 20
1766634.1184083759
 30
0.0
  0
VERTEX
  5
DCC
  8
CIVIC_PLATFORM_LARGE_BASE
 10
611792.46409131202
 20
1766626.4491994351
 30
0.0
  0
VERTEX
  5
DCD
  8
CIVIC_PLATFORM_LARGE_BASE
 10
611821.15737100085
 20
1766590.0926566271
 30
0.0
  0
VERTEX
  5
DCE
  8
CIVIC_PLATFORM_LARGE_BASE
 10
611790.90127433697
 20
1766563.8192711831
 30
0.0
  0
VERTEX
  5
DCF
  8
CIVIC_PLATFORM_LARGE_BASE
 10
611745.7308009289
 20
1766611.111364983
 30
0.0
  0
VERTEX
  5
DD0
  8
CIVIC_PLATFORM_LARGE_BASE
 10
611745.3044569972
 20
1766624.0349592981
 30
0.0
  0
SEQEND
  5
DD1
  8
CIVIC_PLATFORM_LARGE_BASE
  0
TEXT
  5
409
  8
CIVIC_ID
 10
604454.80057430069
 20
1769279.186713984
 30
0.0
 40
1.0
  1
RV93a-CC_172
  0
POLYLINE
  5
40A
  8
CIVIC_BALL_COURTS
 66
     1
 10
0.0
 20
0.0
 30
0.0
 70
     1
  0
VERTEX
  5
DD2
  8
CIVIC_BALL_COURTS
 10
604460.98888985405
 20
1769268.943139036
 30
0.0
  0
VERTEX
  5
DD3
  8
CIVIC_BALL_COURTS
 10
604464.10852834233
 20
1769271.971102457
 30
0.0
  0
VERTEX
  5
DD4
  8
CIVIC_BALL_COURTS
 10
604452.13092850917
 20
1769284.4343494279
 30
0.0
  0
VERTEX
  5
DD5
  8
CIVIC_BALL_COURTS
 10
604449.21247106371
 20
1769281.603888971
 30
0.0
  0
SEQEND
  5
DD6
  8
CIVIC_BALL_COURTS
  0
TEXT
  5
40B
  8
CIVIC_ID
 10
607296.49646019982
 20
1771889.3822709189
 30
0.0
 40
0.9999999999999998
  1
RV131-Ia
 50
9.0000000001652758
  0
ENDSEC
  0
EOF
