  0
SECTION
  2
HEADER
  9
$ACADVER
  1
AC1009
  9
$INSBASE
 10
0.0
 20
0.0
 30
0.0
  9
$EXTMIN
 10
485470.1210606033
 20
1741980.942466839
 30
-1.5514919643464959
  9
$EXTMAX
 10
628579.87838281202
 20
1815391.074830642
 30
101751.5529134822
  9
$LIMMIN
 10
0.0
 20
0.0
  9
$LIMMAX
 10
12.0
 20
9.0
  9
$ORTHOMODE
 70
     0
  9
$REGENMODE
 70
     1
  9
$FILLMODE
 70
     1
  9
$QTEXTMODE
 70
     0
  9
$MIRRTEXT
 70
     1
  9
$DRAGMODE
 70
     2
  9
$LTSCALE
 40
1.0
  9
$OSMODE
 70
    37
  9
$ATTMODE
 70
     1
  9
$TEXTSIZE
 40
1.0
  9
$TRACEWID
 40
0.05
  9
$TEXTSTYLE
  7
STANDARD
  9
$CLAYER
  8
CHULTUN
  9
$CELTYPE
  6
BYLAYER
  9
$CECOLOR
 62
   256
  9
$DIMSCALE
 40
1.0
  9
$DIMASZ
 40
0.18
  9
$DIMEXO
 40
0.0625
  9
$DIMDLI
 40
0.38
  9
$DIMRND
 40
0.0
  9
$DIMDLE
 40
0.0
  9
$DIMEXE
 40
0.18
  9
$DIMTP
 40
0.0
  9
$DIMTM
 40
0.0
  9
$DIMTXT
 40
0.18
  9
$DIMCEN
 40
0.09
  9
$DIMTSZ
 40
0.0
  9
$DIMTOL
 70
     0
  9
$DIMLIM
 70
     0
  9
$DIMTIH
 70
     1
  9
$DIMTOH
 70
     1
  9
$DIMSE1
 70
     0
  9
$DIMSE2
 70
     0
  9
$DIMTAD
 70
     0
  9
$DIMZIN
 70
     0
  9
$DIMBLK
  1

  9
$DIMASO
 70
     1
  9
$DIMSHO
 70
     1
  9
$DIMPOST
  1

  9
$DIMAPOST
  1

  9
$DIMALT
 70
     0
  9
$DIMALTD
 70
     2
  9
$DIMALTF
 40
25.399999999999999
  9
$DIMLFAC
 40
1.0
  9
$DIMTOFL
 70
     0
  9
$DIMTVP
 40
0.0
  9
$DIMTIX
 70
     0
  9
$DIMSOXD
 70
     0
  9
$DIMSAH
 70
     0
  9
$DIMBLK1
  1

  9
$DIMBLK2
  1

  9
$DIMSTYLE
  2
STANDARD
  9
$DIMCLRD
 70
     0
  9
$DIMCLRE
 70
     0
  9
$DIMCLRT
 70
     0
  9
$DIMTFAC
 40
1.0
  9
$DIMGAP
 40
0.09
  9
$LUNITS
 70
     2
  9
$LUPREC
 70
     4
  9
$SKETCHINC
 40
0.1
  9
$FILLETRAD
 40
0.5
  9
$AUNITS
 70
     0
  9
$AUPREC
 70
     0
  9
$MENU
  1
.
  9
$ELEVATION
 40
0.0
  9
$PELEVATION
 40
0.0
  9
$THICKNESS
 40
0.0
  9
$LIMCHECK
 70
     0
  9
$BLIPMODE
 70
     0
  9
$CHAMFERA
 40
0.5
  9
$CHAMFERB
 40
0.5
  9
$SKPOLY
 70
     0
  9
$TDCREATE
 40
2455959.7770924768
  9
$TDUPDATE
 40
2457956.6289060069
  9
$TDINDWG
 40
9.6201757407000006
  9
$TDUSRTIMER
 40
9.6201757407000006
  9
$USRTIMER
 70
     1
  9
$ANGBASE
 50
0.0
  9
$ANGDIR
 70
     0
  9
$PDMODE
 70
     3
  9
$PDSIZE
 40
0.0
  9
$PLINEWID
 40
0.0
  9
$COORDS
 70
     1
  9
$SPLFRAME
 70
     0
  9
$SPLINETYPE
 70
     6
  9
$SPLINESEGS
 70
     8
  9
$ATTDIA
 70
     1
  9
$ATTREQ
 70
     1
  9
$HANDLING
 70
     1
  9
$HANDSEED
  5
192
  9
$SURFTAB1
 70
     6
  9
$SURFTAB2
 70
     6
  9
$SURFTYPE
 70
     6
  9
$SURFU
 70
     6
  9
$SURFV
 70
     6
  9
$UCSNAME
  2

  9
$UCSORG
 10
0.0
 20
0.0
 30
0.0
  9
$UCSXDIR
 10
1.0
 20
0.0
 30
0.0
  9
$UCSYDIR
 10
0.0
 20
1.0
 30
0.0
  9
$PUCSNAME
  2

  9
$PUCSORG
 10
0.0
 20
0.0
 30
0.0
  9
$PUCSXDIR
 10
1.0
 20
0.0
 30
0.0
  9
$PUCSYDIR
 10
0.0
 20
1.0
 30
0.0
  9
$USERI1
 70
     0
  9
$USERI2
 70
     0
  9
$USERI3
 70
     0
  9
$USERI4
 70
     0
  9
$USERI5
 70
     0
  9
$USERR1
 40
0.0
  9
$USERR2
 40
0.0
  9
$USERR3
 40
0.0
  9
$USERR4
 40
0.0
  9
$USERR5
 40
0.0
  9
$WORLDVIEW
 70
     1
  9
$SHADEDGE
 70
     3
  9
$SHADEDIF
 70
    70
  9
$TILEMODE
 70
     1
  9
$MAXACTVP
 70
    64
  9
$PLIMCHECK
 70
     0
  9
$PEXTMIN
 10
1.0000000000000000E+020
 20
1.0000000000000000E+020
 30
1.0000000000000000E+020
  9
$PEXTMAX
 10
-1.0000000000000000E+020
 20
-1.0000000000000000E+020
 30
-1.0000000000000000E+020
  9
$PLIMMIN
 10
0.0
 20
0.0
  9
$PLIMMAX
 10
12.0
 20
9.0
  9
$UNITMODE
 70
     0
  9
$VISRETAIN
 70
     1
  9
$PLINEGEN
 70
     0
  9
$PSLTSCALE
 70
     1
  0
ENDSEC
  0
SECTION
  2
TABLES
  0
TABLE
  2
VPORT
 70
     1
  0
VPORT
  2
*ACTIVE
 70
     0
 10
0.0
 20
0.0
 11
1.0
 21
1.0
 12
-359512.05231895181
 22
235740.13981177931
 13
0.0
 23
0.0
 14
10.0
 24
10.0
 15
0.1
 25
0.1
 16
0.0
 26
0.0
 36
1.0
 17
949850.74678859755
 27
1537997.59960491
 37
161744.97060287729
 40
47153.27447874171
 41
1.942465753424657
 42
50.0
 43
0.0
 44
0.0
 50
0.0
 51
0.0
 71
     0
 72
   100
 73
     1
 74
     3
 75
     0
 76
     0
 77
     0
 78
     0
  0
ENDTAB
  0
TABLE
  2
LTYPE
 70
     1
  0
LTYPE
  2
CONTINUOUS
 70
     0
  3
Solid line
 72
    65
 73
     0
 40
0.0
  0
ENDTAB
  0
TABLE
  2
LAYER
 70
     3
  0
LAYER
  2
0
 70
     0
 62
    -7
  6
CONTINUOUS
  0
LAYER
  2
CHULTUN
 70
     0
 62
   200
  6
CONTINUOUS
  0
LAYER
  2
CHULTUN_LABELS
 70
     0
 62
   200
  6
CONTINUOUS
  0
ENDTAB
  0
TABLE
  2
STYLE
 70
     1
  0
STYLE
  2
STANDARD
 70
     0
 40
0.0
 41
1.0
 50
0.0
 71
     0
 42
1.0
  3
txt
  4

  0
ENDTAB
  0
TABLE
  2
VIEW
 70
     0
  0
ENDTAB
  0
TABLE
  2
UCS
 70
     0
  0
ENDTAB
  0
TABLE
  2
APPID
 70
     7
  0
APPID
  2
ACAD
 70
     0
  0
APPID
  2
ACAECLAYERSTANDARD
 70
     0
  0
APPID
  2
ADE
 70
     0
  0
APPID
  2
ADE_PROJECTION
 70
     0
  0
APPID
  2
ACAD_PSEXT
 70
     0
  0
APPID
  2
ACAD_NAV_VCDISPLAY
 70
     0
  0
APPID
  2
ACCMTRANSPARENCY
 70
     0
  0
ENDTAB
  0
TABLE
  2
DIMSTYLE
 70
     1
  0
DIMSTYLE
  2
STANDARD
 70
     0
  3

  4

  5

  6

  7

 40
1.0
 41
0.18
 42
0.0625
 43
0.38
 44
0.18
 45
0.0
 46
0.0
 47
0.0
 48
0.0
140
0.18
141
0.09
142
0.0
143
25.399999999999999
144
1.0
145
0.0
146
1.0
147
0.09
 71
     0
 72
     0
 73
     1
 74
     1
 75
     0
 76
     0
 77
     0
 78
     0
170
     0
171
     2
172
     0
173
     0
174
     0
175
     0
176
     0
177
     0
178
     0
  0
ENDTAB
  0
ENDSEC
  0
SECTION
  2
BLOCKS
  0
BLOCK
  8
0
  2
$MODEL_SPACE
 70
     0
 10
0.0
 20
0.0
 30
0.0
  3
$MODEL_SPACE
  1

  0
ENDBLK
  5
15
  8
0
  0
BLOCK
 67
     1
  8
0
  2
$PAPER_SPACE
 70
     0
 10
0.0
 20
0.0
 30
0.0
  3
$PAPER_SPACE
  1

  0
ENDBLK
  5
1C
 67
     1
  8
0
  0
ENDSEC
  0
SECTION
  2
ENTITIES
  0
TEXT
  5
68
  8
CHULTUN_LABELS
 10
606961.01141651208
 20
1767451.2683912429
 30
0.0
 40
1.0
  1
RV180-CH1
  0
POLYLINE
  5
6A
  8
CHULTUN
 66
     1
 10
0.0
 20
0.0
 30
0.0
 70
     1
  0
VERTEX
  5
E6
  8
CHULTUN
 10
606959.68342178082
 20
1767450.6108423041
 30
0.0
  0
VERTEX
  5
E7
  8
CHULTUN
 10
606960.98177228542
 20
1767453.1313982401
 30
0.0
  0
VERTEX
  5
E8
  8
CHULTUN
 10
606962.28012279014
 20
1767450.605140937
 30
0.0
  0
SEQEND
  5
E9
  8
CHULTUN
  0
TEXT
  5
6B
  8
CHULTUN_LABELS
 10
611571.23942794383
 20
1770974.7117680351
 30
0.0
 40
1.0
  1
RV49-CH2
  0
TEXT
  5
6C
  8
CHULTUN_LABELS
 10
611561.14214230434
 20
1770964.208880533
 30
0.0
 40
1.0
  1
RV49-CH1
  0
POLYLINE
  5
6D
  8
CHULTUN
 66
     1
 10
0.0
 20
0.0
 30
0.0
 70
     1
  0
VERTEX
  5
EA
  8
CHULTUN
 10
611559.87602048297
 20
1770963.3177916729
 30
0.0
  0
VERTEX
  5
EB
  8
CHULTUN
 10
611561.17437098757
 20
1770965.8383476089
 30
0.0
  0
VERTEX
  5
EC
  8
CHULTUN
 10
611562.47272149229
 20
1770963.3120903061
 30
0.0
  0
SEQEND
  5
ED
  8
CHULTUN
  0
POLYLINE
  5
6E
  8
CHULTUN
 66
     1
 10
0.0
 20
0.0
 30
0.0
 70
     1
  0
VERTEX
  5
EE
  8
CHULTUN
 10
611569.76106405549
 20
1770973.731674759
 30
0.0
  0
VERTEX
  5
EF
  8
CHULTUN
 10
611571.05941456009
 20
1770976.2522306941
 30
0.0
  0
VERTEX
  5
F0
  8
CHULTUN
 10
611572.35776506481
 20
1770973.7259733919
 30
0.0
  0
SEQEND
  5
F1
  8
CHULTUN
  0
TEXT
  5
6F
  8
CHULTUN_LABELS
 10
605685.32375643298
 20
1769977.1527220351
 30
0.0
 40
1.0
  1
RV55-CH1
  0
POLYLINE
  5
70
  8
CHULTUN
 66
     1
 10
0.0
 20
0.0
 30
0.0
 70
     1
  0
VERTEX
  5
F2
  8
CHULTUN
 10
605684.05275141005
 20
1769976.3648941121
 30
0.0
  0
VERTEX
  5
F3
  8
CHULTUN
 10
605685.30691440299
 20
1769978.907725496
 30
0.0
  0
VERTEX
  5
F4
  8
CHULTUN
 10
605686.64915643178
 20
1769976.404512295
 30
0.0
  0
SEQEND
  5
F5
  8
CHULTUN
  0
TEXT
  5
71
  8
CHULTUN_LABELS
 10
607810.82279082679
 20
1767708.795902916
 30
0.0
 40
1.0
  1
RV159-CH1
  0
POLYLINE
  5
72
  8
CHULTUN
 66
     1
 10
0.0
 20
0.0
 30
0.0
 70
     1
  0
VERTEX
  5
F6
  8
CHULTUN
 10
607809.56141233491
 20
1767708.11208452
 30
0.0
  0
VERTEX
  5
F7
  8
CHULTUN
 10
607810.85976283951
 20
1767710.6326404561
 30
0.0
  0
VERTEX
  5
F8
  8
CHULTUN
 10
607812.15811334434
 20
1767708.106383153
 30
0.0
  0
SEQEND
  5
F9
  8
CHULTUN
  0
TEXT
  5
73
  8
CHULTUN_LABELS
 10
604314.44415498944
 20
1768534.762541326
 30
0.0
 40
1.0
  1
RV93b-CH1
  0
POLYLINE
  5
74
  8
CHULTUN
 66
     1
 10
0.0
 20
0.0
 30
0.0
 70
     1
  0
VERTEX
  5
FA
  8
CHULTUN
 10
604313.10517094785
 20
1768533.8659233439
 30
0.0
  0
VERTEX
  5
FB
  8
CHULTUN
 10
604314.40352145245
 20
1768536.38647928
 30
0.0
  0
VERTEX
  5
FC
  8
CHULTUN
 10
604315.70187195705
 20
1768533.8602219771
 30
0.0
  0
SEQEND
  5
FD
  8
CHULTUN
  0
TEXT
  5
75
  8
CHULTUN
 10
611143.56752427062
 20
1767589.3296921491
 30
0.0
 40
1.0
  1
RV169-CH4
 50
2.0000000000039528
  0
TEXT
  5
76
  8
CHULTUN
 10
611141.07430588221
 20
1767589.699592079
 30
0.0
 40
1.0
  1
RV169-CH3
 50
2.0000000000039528
  0
TEXT
  5
77
  8
CHULTUN
 10
611095.83214549499
 20
1767609.5652633719
 30
0.0
 40
1.0
  1
RV169-CH2
 50
2.0000000000039528
  0
TEXT
  5
78
  8
CHULTUN
 10
611206.9726133527
 20
1767648.537922258
 30
0.0
 40
1.0
  1
RV169-CH1
 50
2.0000000000039528
  0
POLYLINE
  5
79
  8
CHULTUN
 66
     1
 10
0.0
 20
0.0
 30
0.0
 70
     1
  0
VERTEX
  5
FE
  8
CHULTUN
 10
611142.20117913745
 20
1767588.915857957
 30
0.0
  0
VERTEX
  5
FF
  8
CHULTUN
 10
611143.41077258834
 20
1767591.480190217
 30
0.0
  0
VERTEX
  5
100
  8
CHULTUN
 10
611144.79649728141
 20
1767589.0007836211
 30
0.0
  0
SEQEND
  5
101
  8
CHULTUN
  0
POLYLINE
  5
7A
  8
CHULTUN
 66
     1
 10
0.0
 20
0.0
 30
0.0
 70
     1
  0
VERTEX
  5
102
  8
CHULTUN
 10
611139.72674331616
 20
1767588.5570153019
 30
0.0
  0
VERTEX
  5
103
  8
CHULTUN
 10
611140.93633676728
 20
1767591.1213475619
 30
0.0
  0
VERTEX
  5
104
  8
CHULTUN
 10
611142.32206146035
 20
1767588.641940966
 30
0.0
  0
SEQEND
  5
105
  8
CHULTUN
  0
POLYLINE
  5
7B
  8
CHULTUN
 66
     1
 10
0.0
 20
0.0
 30
0.0
 70
     1
  0
VERTEX
  5
106
  8
CHULTUN
 10
611094.44628963456
 20
1767608.249909549
 30
0.0
  0
VERTEX
  5
107
  8
CHULTUN
 10
611095.65588308556
 20
1767610.8142418091
 30
0.0
  0
VERTEX
  5
108
  8
CHULTUN
 10
611097.04160777875
 20
1767608.3348352129
 30
0.0
  0
SEQEND
  5
109
  8
CHULTUN
  0
POLYLINE
  5
7C
  8
CHULTUN
 66
     1
 10
0.0
 20
0.0
 30
0.0
 70
     1
  0
VERTEX
  5
10A
  8
CHULTUN
 10
611205.71390597161
 20
1767647.4277489949
 30
0.0
  0
VERTEX
  5
10B
  8
CHULTUN
 10
611206.92349942261
 20
1767649.9920812559
 30
0.0
  0
VERTEX
  5
10C
  8
CHULTUN
 10
611208.30922411568
 20
1767647.51267466
 30
0.0
  0
SEQEND
  5
10D
  8
CHULTUN
  0
TEXT
  5
7D
  8
CHULTUN_LABELS
 10
611402.19859907473
 20
1767877.969102988
 30
0.0
 40
1.0
  1
RV168-CH1
 50
2.0000000000039528
  0
POLYLINE
  5
7E
  8
CHULTUN
 66
     1
 10
0.0
 20
0.0
 30
0.0
 70
     1
  0
VERTEX
  5
10E
  8
CHULTUN
 10
611400.86158575467
 20
1767877.3653136941
 30
0.0
  0
VERTEX
  5
10F
  8
CHULTUN
 10
611402.07117920578
 20
1767879.9296459539
 30
0.0
  0
VERTEX
  5
110
  8
CHULTUN
 10
611403.45690389886
 20
1767877.4502393589
 30
0.0
  0
SEQEND
  5
111
  8
CHULTUN
  0
POLYLINE
  5
7F
  8
CHULTUN
 66
     1
 10
0.0
 20
0.0
 30
0.0
 70
     1
  0
VERTEX
  5
112
  8
CHULTUN
 10
610940.32014937734
 20
1768067.095838082
 30
0.0
  0
VERTEX
  5
113
  8
CHULTUN
 10
610941.61849988182
 20
1768069.6163940169
 30
0.0
  0
VERTEX
  5
114
  8
CHULTUN
 10
610942.91685038654
 20
1768067.090136715
 30
0.0
  0
SEQEND
  5
115
  8
CHULTUN
  0
TEXT
  5
80
  8
CHULTUN_LABELS
 10
608839.04144728195
 20
1769230.4929027101
 30
0.0
 40
1.0
  1
RV164-W_CH3
  0
TEXT
  5
81
  8
CHULTUN_LABELS
 10
608880.9077552188
 20
1769141.9131872309
 30
0.0
 40
1.0
  1
RV164-W_CH2
  0
TEXT
  5
82
  8
CHULTUN_LABELS
 10
608820.98911258357
 20
1769135.0527490401
 30
0.0
 40
1.0
  1
RV164-W_CH1
  0
POLYLINE
  5
83
  8
CHULTUN
 66
     1
 10
0.0
 20
0.0
 30
0.0
 70
     1
  0
VERTEX
  5
116
  8
CHULTUN
 10
608879.50814803015
 20
1769140.8202829331
 30
0.0
  0
VERTEX
  5
117
  8
CHULTUN
 10
608880.80649853486
 20
1769143.3408388691
 30
0.0
  0
VERTEX
  5
118
  8
CHULTUN
 10
608882.10484903946
 20
1769140.814581566
 30
0.0
  0
SEQEND
  5
119
  8
CHULTUN
  0
POLYLINE
  5
84
  8
CHULTUN
 66
     1
 10
0.0
 20
0.0
 30
0.0
 70
     1
  0
VERTEX
  5
11A
  8
CHULTUN
 10
608819.51522828825
 20
1769134.193115788
 30
0.0
  0
VERTEX
  5
11B
  8
CHULTUN
 10
608820.81357879285
 20
1769136.7136717241
 30
0.0
  0
VERTEX
  5
11C
  8
CHULTUN
 10
608822.11192929756
 20
1769134.187414421
 30
0.0
  0
SEQEND
  5
11D
  8
CHULTUN
  0
POLYLINE
  5
85
  8
CHULTUN
 66
     1
 10
0.0
 20
0.0
 30
0.0
 70
     1
  0
VERTEX
  5
11E
  8
CHULTUN
 10
608837.76008391834
 20
1769229.5464201821
 30
0.0
  0
VERTEX
  5
11F
  8
CHULTUN
 10
608839.05843442283
 20
1769232.0669761179
 30
0.0
  0
VERTEX
  5
120
  8
CHULTUN
 10
608840.35678492754
 20
1769229.5407188151
 30
0.0
  0
SEQEND
  5
121
  8
CHULTUN
  0
TEXT
  5
86
  8
CHULTUN_LABELS
 10
609156.52792103798
 20
1771606.6069073351
 30
0.0
 40
1.0
  1
RV113-CH1
 50
4.9999999998730864
  0
POLYLINE
  5
87
  8
CHULTUN
 66
     1
 10
0.0
 20
0.0
 30
0.0
 70
     1
  0
VERTEX
  5
122
  8
CHULTUN
 10
609155.33619537589
 20
1771606.141688365
 30
0.0
  0
VERTEX
  5
123
  8
CHULTUN
 10
609156.4099243402
 20
1771608.765811526
 30
0.0
  0
VERTEX
  5
124
  8
CHULTUN
 10
609157.92351206078
 20
1771606.3623260979
 30
0.0
  0
SEQEND
  5
125
  8
CHULTUN
  0
TEXT
  5
88
  8
CHULTUN_LABELS
 10
608172.70884965034
 20
1772200.160043509
 30
0.0
 40
0.9999999999999998
  1
RV142-CH1
 50
11.00000000042672
  0
POLYLINE
  5
89
  8
CHULTUN
 66
     1
 10
0.0
 20
0.0
 30
0.0
 70
     1
  0
VERTEX
  5
126
  8
CHULTUN
 10
608171.75374803285
 20
1772199.075643474
 30
0.0
  0
VERTEX
  5
127
  8
CHULTUN
 10
608172.54729943594
 20
1772201.7976266539
 30
0.0
  0
VERTEX
  5
128
  8
CHULTUN
 10
608174.30382820312
 20
1772199.565520769
 30
0.0
  0
SEQEND
  5
129
  8
CHULTUN
  0
TEXT
  5
8A
  8
CHULTUN_LABELS
 10
607515.00504134246
 20
1771960.1765551961
 30
0.0
 40
0.9999999999999998
  1
RV131-3
 50
9.0000000001652758
  0
TEXT
  5
8B
  8
CHULTUN_LABELS
 10
607354.30831281608
 20
1771951.7256838761
 30
0.0
 40
0.9999999999999998
  1
RV131-2
 50
9.0000000001652758
  0
TEXT
  5
8C
  8
CHULTUN_LABELS
 10
607274.36394644948
 20
1771827.094352511
 30
0.0
 40
0.9999999999999998
  1
RV131-CH1
 50
9.0000000001652758
  0
POLYLINE
  5
8D
  8
CHULTUN
 66
     1
 10
0.0
 20
0.0
 30
0.0
 70
     1
  0
VERTEX
  5
12A
  8
CHULTUN
 10
607353.84485097486
 20
1771951.1707844411
 30
0.0
  0
VERTEX
  5
12B
  8
CHULTUN
 10
607354.18320079625
 20
1771952.3944147611
 30
0.0
  0
VERTEX
  5
12C
  8
CHULTUN
 10
607354.88587482017
 20
1771951.3348262471
 30
0.0
  0
SEQEND
  5
12D
  8
CHULTUN
  0
POLYLINE
  5
8E
  8
CHULTUN
 66
     1
 10
0.0
 20
0.0
 30
0.0
 70
     1
  0
VERTEX
  5
12E
  8
CHULTUN
 10
607514.60192212998
 20
1771959.685050234
 30
0.0
  0
VERTEX
  5
12F
  8
CHULTUN
 10
607514.94027195149
 20
1771960.908680554
 30
0.0
  0
VERTEX
  5
130
  8
CHULTUN
 10
607515.6429459753
 20
1771959.849092039
 30
0.0
  0
SEQEND
  5
131
  8
CHULTUN
  0
POLYLINE
  5
8F
  8
CHULTUN
 66
     1
 10
0.0
 20
0.0
 30
0.0
 70
     1
  0
VERTEX
  5
132
  8
CHULTUN
 10
607273.90084354184
 20
1771826.7015860651
 30
0.0
  0
VERTEX
  5
133
  8
CHULTUN
 10
607274.23919336335
 20
1771827.9252163849
 30
0.0
  0
VERTEX
  5
134
  8
CHULTUN
 10
607274.94186738692
 20
1771826.8656278709
 30
0.0
  0
SEQEND
  5
135
  8
CHULTUN
  0
TEXT
  5
90
  8
CHULTUN_LABELS
 10
611274.62442022248
 20
1773146.84751792
 30
0.0
 40
1.0
  1
RV46B-CH1
  0
POLYLINE
  5
91
  8
CHULTUN
 66
     1
 10
0.0
 20
0.0
 30
0.0
 70
     1
  0
VERTEX
  5
136
  8
CHULTUN
 10
611274.07949938485
 20
1773146.5778706239
 30
0.0
  0
VERTEX
  5
137
  8
CHULTUN
 10
611274.60510151298
 20
1773147.7335064521
 30
0.0
  0
VERTEX
  5
138
  8
CHULTUN
 10
611275.13336829108
 20
1773146.577040795
 30
0.0
  0
SEQEND
  5
139
  8
CHULTUN
  0
TEXT
  5
92
  8
CHULTUN_LABELS
 10
611086.48550475878
 20
1773908.8831795701
 30
0.0
 40
1.0
  1
RV6-CH2
  0
TEXT
  5
93
  8
CHULTUN_LABELS
 10
611086.40290062199
 20
1773912.191801101
 30
0.0
 40
1.0
  1
RV6-CH1
  0
POLYLINE
  5
94
  8
CHULTUN
 66
     1
 10
0.0
 20
0.0
 30
0.0
 70
     1
  0
VERTEX
  5
13A
  8
CHULTUN
 10
611085.83599642536
 20
1773908.3287624579
 30
0.0
  0
VERTEX
  5
13B
  8
CHULTUN
 10
611086.3615985536
 20
1773909.4843982861
 30
0.0
  0
VERTEX
  5
13C
  8
CHULTUN
 10
611086.8898653317
 20
1773908.327932629
 30
0.0
  0
SEQEND
  5
13D
  8
CHULTUN
  0
POLYLINE
  5
95
  8
CHULTUN
 66
     1
 10
0.0
 20
0.0
 30
0.0
 70
     1
  0
VERTEX
  5
13E
  8
CHULTUN
 10
611085.75305920735
 20
1773911.802522586
 30
0.0
  0
VERTEX
  5
13F
  8
CHULTUN
 10
611086.27866133559
 20
1773912.9581584141
 30
0.0
  0
VERTEX
  5
140
  8
CHULTUN
 10
611086.80692811368
 20
1773911.8016927571
 30
0.0
  0
SEQEND
  5
141
  8
CHULTUN
  0
TEXT
  5
96
  8
CHULTUN_LABELS
 10
611027.28998140164
 20
1773767.8113959441
 30
0.0
 40
1.0
  1
RV6-CH3
  0
POLYLINE
  5
97
  8
CHULTUN
 66
     1
 10
0.0
 20
0.0
 30
0.0
 70
     1
  0
VERTEX
  5
142
  8
CHULTUN
 10
611026.84365259821
 20
1773767.496137318
 30
0.0
  0
VERTEX
  5
143
  8
CHULTUN
 10
611027.36925472645
 20
1773768.6517731459
 30
0.0
  0
VERTEX
  5
144
  8
CHULTUN
 10
611027.89752150455
 20
1773767.4953074891
 30
0.0
  0
SEQEND
  5
145
  8
CHULTUN
  0
TEXT
  5
98
  8
CHULTUN_LABELS
 10
611084.0453519118
 20
1773426.6136815359
 30
0.0
 40
1.0
  1
RV4-CH1
  0
POLYLINE
  5
99
  8
CHULTUN
 66
     1
 10
0.0
 20
0.0
 30
0.0
 70
     1
  0
VERTEX
  5
146
  8
CHULTUN
 10
611083.47978003987
 20
1773426.2770493859
 30
0.0
  0
VERTEX
  5
147
  8
CHULTUN
 10
611084.00538216811
 20
1773427.4326852129
 30
0.0
  0
VERTEX
  5
148
  8
CHULTUN
 10
611084.53364894621
 20
1773426.276219557
 30
0.0
  0
SEQEND
  5
149
  8
CHULTUN
  0
TEXT
  5
9A
  8
CHULTUN_LABELS
 10
612769.14775885234
 20
1772814.9090367251
 30
0.0
 40
1.0
  1
RV42-CH1
  0
POLYLINE
  5
9B
  8
CHULTUN
 66
     1
 10
0.0
 20
0.0
 30
0.0
 70
     1
  0
VERTEX
  5
14A
  8
CHULTUN
 10
612768.60183877125
 20
1772814.5975204641
 30
0.0
  0
VERTEX
  5
14B
  8
CHULTUN
 10
612769.12744089938
 20
1772815.753156292
 30
0.0
  0
VERTEX
  5
14C
  8
CHULTUN
 10
612769.65570767748
 20
1772814.596690635
 30
0.0
  0
SEQEND
  5
14D
  8
CHULTUN
  0
TEXT
  5
9C
  8
CHULTUN_LABELS
 10
613020.75729483285
 20
1773476.154546222
 30
0.0
 40
1.0
  1
RV36-CH1
  0
TEXT
  5
9D
  8
CHULTUN_LABELS
 10
612872.08916733938
 20
1773332.013009263
 30
0.0
 40
1.0
  1
RV35-CH1
  0
POLYLINE
  5
9E
  8
CHULTUN
 66
     1
 10
0.0
 20
0.0
 30
0.0
 70
     1
  0
VERTEX
  5
14E
  8
CHULTUN
 10
613020.30630289274
 20
1773475.8622823721
 30
0.0
  0
VERTEX
  5
14F
  8
CHULTUN
 10
613020.83190502098
 20
1773477.0179182
 30
0.0
  0
VERTEX
  5
150
  8
CHULTUN
 10
613021.36017179908
 20
1773475.8614525429
 30
0.0
  0
SEQEND
  5
151
  8
CHULTUN
  0
POLYLINE
  5
9F
  8
CHULTUN
 66
     1
 10
0.0
 20
0.0
 30
0.0
 70
     1
  0
VERTEX
  5
152
  8
CHULTUN
 10
612871.50494292064
 20
1773331.679400071
 30
0.0
  0
VERTEX
  5
153
  8
CHULTUN
 10
612872.03054504876
 20
1773332.835035899
 30
0.0
  0
VERTEX
  5
154
  8
CHULTUN
 10
612872.55881182675
 20
1773331.6785702419
 30
0.0
  0
SEQEND
  5
155
  8
CHULTUN
  0
TEXT
  5
A0
  8
CHULTUN_LABELS
 10
613005.52349322115
 20
1772961.2292695129
 30
0.0
 40
1.0
  1
RV37-CH4
  0
TEXT
  5
A1
  8
CHULTUN_LABELS
 10
613007.92500864936
 20
1772961.342228529
 30
0.0
 40
1.0
  1
RV37-CH3
  0
TEXT
  5
A2
  8
CHULTUN_LABELS
 10
613013.0807724928
 20
1773034.096168306
 30
0.0
 40
1.0
  1
RV37-CH2
  0
TEXT
  5
A3
  8
CHULTUN_LABELS
 10
613022.67284479516
 20
1773031.8808136019
 30
0.0
 40
1.0
  1
RV37-CH1
  0
TEXT
  5
A4
  8
CHULTUN_LABELS
 10
612973.68292930454
 20
1773139.983827078
 30
0.0
 40
1.0
  1
RV30-CH8
  0
TEXT
  5
A5
  8
CHULTUN_LABELS
 10
613030.69976855419
 20
1773067.933566422
 30
0.0
 40
1.0
  1
RV30-CH7
  0
TEXT
  5
A6
  8
CHULTUN_LABELS
 10
613033.87869549543
 20
1773071.074197443
 30
0.0
 40
1.0
  1
RV30-CH6
  0
TEXT
  5
A7
  8
CHULTUN_LABELS
 10
613059.87768138445
 20
1773180.0561925571
 30
0.0
 40
1.0
  1
RV30-CH4
  0
TEXT
  5
A8
  8
CHULTUN_LABELS
 10
613207.20282549295
 20
1773331.287637586
 30
0.0
 40
1.0
  1
RV30-CH2
  0
TEXT
  5
A9
  8
CHULTUN_LABELS
 10
613315.51516827638
 20
1773364.505304266
 30
0.0
 40
1.0
  1
RV30-CH1
  0
POLYLINE
  5
AA
  8
CHULTUN
 66
     1
 10
0.0
 20
0.0
 30
0.0
 70
     1
  0
VERTEX
  5
156
  8
CHULTUN
 10
613012.49221801839
 20
1773033.767525367
 30
0.0
  0
VERTEX
  5
157
  8
CHULTUN
 10
613013.01782014675
 20
1773034.923161194
 30
0.0
  0
VERTEX
  5
158
  8
CHULTUN
 10
613013.54608692473
 20
1773033.7666955369
 30
0.0
  0
SEQEND
  5
159
  8
CHULTUN
  0
POLYLINE
  5
AB
  8
CHULTUN
 66
     1
 10
0.0
 20
0.0
 30
0.0
 70
     1
  0
VERTEX
  5
15A
  8
CHULTUN
 10
613022.14924115408
 20
1773031.5870459869
 30
0.0
  0
VERTEX
  5
15B
  8
CHULTUN
 10
613022.67484328232
 20
1773032.7426818151
 30
0.0
  0
VERTEX
  5
15C
  8
CHULTUN
 10
613023.20311006042
 20
1773031.586216158
 30
0.0
  0
SEQEND
  5
15D
  8
CHULTUN
  0
POLYLINE
  5
AC
  8
CHULTUN
 66
     1
 10
0.0
 20
0.0
 30
0.0
 70
     1
  0
VERTEX
  5
15E
  8
CHULTUN
 10
613004.96291756723
 20
1772960.808963109
 30
0.0
  0
VERTEX
  5
15F
  8
CHULTUN
 10
613005.48851969547
 20
1772961.964598936
 30
0.0
  0
VERTEX
  5
160
  8
CHULTUN
 10
613006.01678647357
 20
1772960.8081332799
 30
0.0
  0
SEQEND
  5
161
  8
CHULTUN
  0
POLYLINE
  5
AD
  8
CHULTUN
 66
     1
 10
0.0
 20
0.0
 30
0.0
 70
     1
  0
VERTEX
  5
162
  8
CHULTUN
 10
613007.44370632025
 20
1772960.9166753951
 30
0.0
  0
VERTEX
  5
163
  8
CHULTUN
 10
613007.96930844837
 20
1772962.072311223
 30
0.0
  0
VERTEX
  5
164
  8
CHULTUN
 10
613008.49757522636
 20
1772960.915845566
 30
0.0
  0
SEQEND
  5
165
  8
CHULTUN
  0
POLYLINE
  5
AE
  8
CHULTUN
 66
     1
 10
0.0
 20
0.0
 30
0.0
 70
     1
  0
VERTEX
  5
166
  8
CHULTUN
 10
612973.19996156951
 20
1773139.658270451
 30
0.0
  0
VERTEX
  5
167
  8
CHULTUN
 10
612973.72556369775
 20
1773140.813906278
 30
0.0
  0
VERTEX
  5
168
  8
CHULTUN
 10
612974.25383047585
 20
1773139.6574406221
 30
0.0
  0
SEQEND
  5
169
  8
CHULTUN
  0
POLYLINE
  5
AF
  8
CHULTUN
 66
     1
 10
0.0
 20
0.0
 30
0.0
 70
     1
  0
VERTEX
  5
16A
  8
CHULTUN
 10
613059.32476659794
 20
1773179.6473055079
 30
0.0
  0
VERTEX
  5
16B
  8
CHULTUN
 10
613059.85036872618
 20
1773180.8029413349
 30
0.0
  0
VERTEX
  5
16C
  8
CHULTUN
 10
613060.37863550428
 20
1773179.646475679
 30
0.0
  0
SEQEND
  5
16D
  8
CHULTUN
  0
POLYLINE
  5
B0
  8
CHULTUN
 66
     1
 10
0.0
 20
0.0
 30
0.0
 70
     1
  0
VERTEX
  5
16E
  8
CHULTUN
 10
613033.26615917485
 20
1773070.657594613
 30
0.0
  0
VERTEX
  5
16F
  8
CHULTUN
 10
613033.79176130309
 20
1773071.813230441
 30
0.0
  0
VERTEX
  5
170
  8
CHULTUN
 10
613034.32002808119
 20
1773070.6567647839
 30
0.0
  0
SEQEND
  5
171
  8
CHULTUN
  0
POLYLINE
  5
B1
  8
CHULTUN
 66
     1
 10
0.0
 20
0.0
 30
0.0
 70
     1
  0
VERTEX
  5
172
  8
CHULTUN
 10
613030.14985149854
 20
1773067.5419627191
 30
0.0
  0
VERTEX
  5
173
  8
CHULTUN
 10
613030.67545362678
 20
1773068.697598547
 30
0.0
  0
VERTEX
  5
174
  8
CHULTUN
 10
613031.20372040488
 20
1773067.5411328899
 30
0.0
  0
SEQEND
  5
175
  8
CHULTUN
  0
POLYLINE
  5
B2
  8
CHULTUN
 66
     1
 10
0.0
 20
0.0
 30
0.0
 70
     1
  0
VERTEX
  5
176
  8
CHULTUN
 10
613206.58562603535
 20
1773330.8818368481
 30
0.0
  0
VERTEX
  5
177
  8
CHULTUN
 10
613207.11122816382
 20
1773332.037472676
 30
0.0
  0
VERTEX
  5
178
  8
CHULTUN
 10
613207.6394949418
 20
1773330.8810070199
 30
0.0
  0
SEQEND
  5
179
  8
CHULTUN
  0
POLYLINE
  5
B3
  8
CHULTUN
 66
     1
 10
0.0
 20
0.0
 30
0.0
 70
     1
  0
VERTEX
  5
17A
  8
CHULTUN
 10
613314.97457749431
 20
1773364.088701437
 30
0.0
  0
VERTEX
  5
17B
  8
CHULTUN
 10
613315.50017962256
 20
1773365.2443372649
 30
0.0
  0
VERTEX
  5
17C
  8
CHULTUN
 10
613316.02844640065
 20
1773364.0878716081
 30
0.0
  0
SEQEND
  5
17D
  8
CHULTUN
  0
TEXT
  5
B4
  8
CHULTUN_LABELS
 10
614665.87790222792
 20
1774055.4828022141
 30
0.0
 40
1.0
  1
RV15-CH1
  0
POLYLINE
  5
B5
  8
CHULTUN
 66
     1
 10
0.0
 20
0.0
 30
0.0
 70
     1
  0
VERTEX
  5
17E
  8
CHULTUN
 10
614665.35860501241
 20
1774055.147246415
 30
0.0
  0
VERTEX
  5
17F
  8
CHULTUN
 10
614665.88420714065
 20
1774056.302882242
 30
0.0
  0
VERTEX
  5
180
  8
CHULTUN
 10
614666.41247391875
 20
1774055.1464165859
 30
0.0
  0
SEQEND
  5
181
  8
CHULTUN
  0
POLYLINE
  5
B6
  8
CHULTUN
 66
     1
 10
0.0
 20
0.0
 30
0.0
 70
     1
  0
VERTEX
  5
182
  8
CHULTUN
 10
613919.39715849911
 20
1773233.777581688
 30
0.0
  0
VERTEX
  5
183
  8
CHULTUN
 10
613919.86155900185
 20
1773234.959141646
 30
0.0
  0
VERTEX
  5
184
  8
CHULTUN
 10
613920.44962654449
 20
1773233.831908233
 30
0.0
  0
SEQEND
  5
185
  8
CHULTUN
  0
POLYLINE
  5
B7
  8
CHULTUN
 66
     1
 10
0.0
 20
0.0
 30
0.0
 70
     1
  0
VERTEX
  5
186
  8
CHULTUN
 10
613207.88403043826
 20
1773856.139362745
 30
0.0
  0
VERTEX
  5
187
  8
CHULTUN
 10
613208.26487822866
 20
1773857.3504394239
 30
0.0
  0
VERTEX
  5
188
  8
CHULTUN
 10
613208.93014509627
 20
1773856.2669734131
 30
0.0
  0
SEQEND
  5
189
  8
CHULTUN
  0
POLYLINE
  5
B8
  8
CHULTUN
 66
     1
 10
0.0
 20
0.0
 30
0.0
 70
     1
  0
VERTEX
  5
18A
  8
CHULTUN
 10
613214.48931108124
 20
1773865.5876208269
 30
0.0
  0
VERTEX
  5
18B
  8
CHULTUN
 10
613214.87015887152
 20
1773866.798697507
 30
0.0
  0
VERTEX
  5
18C
  8
CHULTUN
 10
613215.53542573925
 20
1773865.715231495
 30
0.0
  0
SEQEND
  5
18D
  8
CHULTUN
  0
POLYLINE
  5
B9
  8
CHULTUN
 66
     1
 10
0.0
 20
0.0
 30
0.0
 70
     1
  0
VERTEX
  5
18E
  8
CHULTUN
 10
613204.28963484487
 20
1773890.2044913131
 30
0.0
  0
VERTEX
  5
18F
  8
CHULTUN
 10
613204.67048263503
 20
1773891.415567993
 30
0.0
  0
VERTEX
  5
190
  8
CHULTUN
 10
613205.33574950276
 20
1773890.3321019809
 30
0.0
  0
SEQEND
  5
191
  8
CHULTUN
  0
TEXT
  5
BA
  8
CHULTUN_LABELS
 10
613920.08254872286
 20
1773234.1982159759
 30
0.0
 40
0.9999999999999998
  1
RV25-CH1
 50
3.0000000000251958
  0
TEXT
  5
BB
  8
CHULTUN_LABELS
 10
613208.4244644955
 20
1773856.8957098019
 30
0.0
 40
1.0
  1
RV14-CH2
 50
7.0000000002510561
  0
TEXT
  5
BC
  8
CHULTUN_LABELS
 10
613215.2146461223
 20
1773866.646525084
 30
0.0
 40
1.0
  1
RV14-CH1
 50
7.0000000002510561
  0
TEXT
  5
BD
  8
CHULTUN_LABELS
 10
613204.76201652107
 20
1773890.877061995
 30
0.0
 40
1.0
  1
RV14-CH3
 50
7.0000000002510561
  0
ENDSEC
  0
EOF
