  0
SECTION
  2
HEADER
  9
$ACADVER
  1
AC1009
  9
$INSBASE
 10
0.0
 20
0.0
 30
0.0
  9
$EXTMIN
 10
737186.52757171495
 20
4560284.6900000013
 30
0.0
  9
$EXTMAX
 10
737398.17722602258
 20
4560415.0999380071
 30
405.0
  9
$LIMMIN
 10
0.0
 20
0.0
  9
$LIMMAX
 10
12.0
 20
9.0
  9
$ORTHOMODE
 70
     0
  9
$REGENMODE
 70
     1
  9
$FILLMODE
 70
     1
  9
$QTEXTMODE
 70
     0
  9
$MIRRTEXT
 70
     1
  9
$DRAGMODE
 70
     2
  9
$LTSCALE
 40
1.0
  9
$OSMODE
 70
   623
  9
$ATTMODE
 70
     1
  9
$TEXTSIZE
 40
5.0
  9
$TRACEWID
 40
0.05
  9
$TEXTSTYLE
  7
STANDARD
  9
$CLAYER
  8
HH_OUTLINES
  9
$CELTYPE
  6
BYLAYER
  9
$CECOLOR
 62
   256
  9
$DIMSCALE
 40
1.0
  9
$DIMASZ
 40
0.18
  9
$DIMEXO
 40
0.0625
  9
$DIMDLI
 40
0.38
  9
$DIMRND
 40
0.0
  9
$DIMDLE
 40
0.0
  9
$DIMEXE
 40
0.18
  9
$DIMTP
 40
0.0
  9
$DIMTM
 40
0.0
  9
$DIMTXT
 40
0.18
  9
$DIMCEN
 40
0.09
  9
$DIMTSZ
 40
0.0
  9
$DIMTOL
 70
     0
  9
$DIMLIM
 70
     0
  9
$DIMTIH
 70
     1
  9
$DIMTOH
 70
     1
  9
$DIMSE1
 70
     0
  9
$DIMSE2
 70
     0
  9
$DIMTAD
 70
     0
  9
$DIMZIN
 70
     0
  9
$DIMBLK
  1

  9
$DIMASO
 70
     1
  9
$DIMSHO
 70
     1
  9
$DIMPOST
  1

  9
$DIMAPOST
  1

  9
$DIMALT
 70
     0
  9
$DIMALTD
 70
     2
  9
$DIMALTF
 40
25.399999999999999
  9
$DIMLFAC
 40
1.0
  9
$DIMTOFL
 70
     0
  9
$DIMTVP
 40
0.0
  9
$DIMTIX
 70
     0
  9
$DIMSOXD
 70
     0
  9
$DIMSAH
 70
     0
  9
$DIMBLK1
  1

  9
$DIMBLK2
  1

  9
$DIMSTYLE
  2
STANDARD
  9
$DIMCLRD
 70
     0
  9
$DIMCLRE
 70
     0
  9
$DIMCLRT
 70
     0
  9
$DIMTFAC
 40
1.0
  9
$DIMGAP
 40
0.09
  9
$LUNITS
 70
     2
  9
$LUPREC
 70
     4
  9
$SKETCHINC
 40
0.1
  9
$FILLETRAD
 40
0.5
  9
$AUNITS
 70
     0
  9
$AUPREC
 70
     0
  9
$MENU
  1
.
  9
$ELEVATION
 40
0.0
  9
$PELEVATION
 40
0.0
  9
$THICKNESS
 40
0.0
  9
$LIMCHECK
 70
     0
  9
$BLIPMODE
 70
     0
  9
$CHAMFERA
 40
0.5
  9
$CHAMFERB
 40
0.5
  9
$SKPOLY
 70
     0
  9
$TDCREATE
 40
2454974.1445596418
  9
$TDUPDATE
 40
2457562.5889509381
  9
$TDINDWG
 40
6.3913618287
  9
$TDUSRTIMER
 40
6.3913616434999998
  9
$USRTIMER
 70
     1
  9
$ANGBASE
 50
0.0
  9
$ANGDIR
 70
     1
  9
$PDMODE
 70
     2
  9
$PDSIZE
 40
1.0
  9
$PLINEWID
 40
0.0
  9
$COORDS
 70
     1
  9
$SPLFRAME
 70
     0
  9
$SPLINETYPE
 70
     6
  9
$SPLINESEGS
 70
     8
  9
$ATTDIA
 70
     1
  9
$ATTREQ
 70
     1
  9
$HANDLING
 70
     1
  9
$HANDSEED
  5
129
  9
$SURFTAB1
 70
     6
  9
$SURFTAB2
 70
     6
  9
$SURFTYPE
 70
     6
  9
$SURFU
 70
     6
  9
$SURFV
 70
     6
  9
$UCSNAME
  2

  9
$UCSORG
 10
0.0
 20
0.0
 30
0.0
  9
$UCSXDIR
 10
1.0
 20
0.0
 30
0.0
  9
$UCSYDIR
 10
0.0
 20
1.0
 30
0.0
  9
$PUCSNAME
  2

  9
$PUCSORG
 10
0.0
 20
0.0
 30
0.0
  9
$PUCSXDIR
 10
1.0
 20
0.0
 30
0.0
  9
$PUCSYDIR
 10
0.0
 20
1.0
 30
0.0
  9
$USERI1
 70
     0
  9
$USERI2
 70
     0
  9
$USERI3
 70
     0
  9
$USERI4
 70
     0
  9
$USERI5
 70
     0
  9
$USERR1
 40
0.0
  9
$USERR2
 40
0.0
  9
$USERR3
 40
0.0
  9
$USERR4
 40
0.0
  9
$USERR5
 40
0.0
  9
$WORLDVIEW
 70
     1
  9
$SHADEDGE
 70
     3
  9
$SHADEDIF
 70
    70
  9
$TILEMODE
 70
     1
  9
$MAXACTVP
 70
    64
  9
$PLIMCHECK
 70
     0
  9
$PEXTMIN
 10
0.0
 20
0.0
 30
0.0
  9
$PEXTMAX
 10
0.0
 20
0.0
 30
0.0
  9
$PLIMMIN
 10
0.0
 20
0.0
  9
$PLIMMAX
 10
12.0
 20
9.0
  9
$UNITMODE
 70
     0
  9
$VISRETAIN
 70
     1
  9
$PLINEGEN
 70
     0
  9
$PSLTSCALE
 70
     1
  0
ENDSEC
  0
SECTION
  2
TABLES
  0
TABLE
  2
VPORT
 70
     1
  0
VPORT
  2
*ACTIVE
 70
     0
 10
0.0
 20
0.0
 11
1.0
 21
1.0
 12
737292.35239886865
 22
4560349.8949690033
 13
0.0
 23
0.0
 14
1000.0
 24
1000.0
 15
0.5
 25
0.5
 16
0.0
 26
0.0
 36
1.0
 17
0.0
 27
0.0
 37
0.0
 40
163.43687439819141
 41
1.301997649823736
 42
50.0
 43
0.0
 44
0.0
 50
0.0
 51
0.0
 71
     0
 72
   100
 73
     1
 74
     2
 75
     0
 76
     0
 77
     0
 78
     0
  0
ENDTAB
  0
TABLE
  2
LTYPE
 70
     1
  0
LTYPE
  2
CONTINUOUS
 70
     0
  3
Solid line
 72
    65
 73
     0
 40
0.0
  0
ENDTAB
  0
TABLE
  2
LAYER
 70
     3
  0
LAYER
  2
0
 70
     0
 62
    -7
  6
CONTINUOUS
  0
LAYER
  2
HH_OUTLINES
 70
     0
 62
     1
  6
CONTINUOUS
  0
LAYER
  2
HH_NUMBERS
 70
     0
 62
     7
  6
CONTINUOUS
  0
ENDTAB
  0
TABLE
  2
STYLE
 70
     1
  0
STYLE
  2
STANDARD
 70
     0
 40
0.0
 41
1.0
 50
0.0
 71
     0
 42
5.0
  3
txt
  4

  0
ENDTAB
  0
TABLE
  2
VIEW
 70
     0
  0
ENDTAB
  0
TABLE
  2
UCS
 70
     0
  0
ENDTAB
  0
TABLE
  2
APPID
 70
     6
  0
APPID
  2
ACAD
 70
     0
  0
APPID
  2
ADE
 70
     0
  0
APPID
  2
ACAD_NAV_VCDISPLAY
 70
     0
  0
APPID
  2
ACAECLAYERSTANDARD
 70
     0
  0
APPID
  2
ACCMTRANSPARENCY
 70
     0
  0
APPID
  2
ADE_PROJECTION
 70
     0
  0
ENDTAB
  0
TABLE
  2
DIMSTYLE
 70
     1
  0
DIMSTYLE
  2
STANDARD
 70
     0
  3

  4

  5

  6

  7

 40
1.0
 41
0.18
 42
0.0625
 43
0.38
 44
0.18
 45
0.0
 46
0.0
 47
0.0
 48
0.0
140
0.18
141
0.09
142
0.0
143
25.399999999999999
144
1.0
145
0.0
146
1.0
147
0.09
 71
     0
 72
     0
 73
     1
 74
     1
 75
     0
 76
     0
 77
     0
 78
     0
170
     0
171
     2
172
     0
173
     0
174
     0
175
     0
176
     0
177
     0
178
     0
  0
ENDTAB
  0
ENDSEC
  0
SECTION
  2
BLOCKS
  0
BLOCK
  8
0
  2
$MODEL_SPACE
 70
     0
 10
0.0
 20
0.0
 30
0.0
  3
$MODEL_SPACE
  1

  0
ENDBLK
  5
18
  8
0
  0
BLOCK
 67
     1
  8
0
  2
$PAPER_SPACE
 70
     0
 10
0.0
 20
0.0
 30
0.0
  3
$PAPER_SPACE
  1

  0
ENDBLK
  5
1E
 67
     1
  8
0
  0
ENDSEC
  0
SECTION
  2
ENTITIES
  0
POLYLINE
  5
74
  8
HH_OUTLINES
 66
     1
 10
0.0
 20
0.0
 30
0.0
 70
     1
  0
VERTEX
  5
B3
  8
HH_OUTLINES
 10
737306.05000000005
 20
4560409.7699999986
 30
0.0
  0
VERTEX
  5
B4
  8
HH_OUTLINES
 10
737314.98105882341
 20
4560405.2697647046
 30
0.0
  0
VERTEX
  5
B5
  8
HH_OUTLINES
 10
737294.72999999986
 20
4560365.0800000001
 30
0.0
  0
VERTEX
  5
B6
  8
HH_OUTLINES
 10
737285.79894117662
 20
4560369.580235295
 30
0.0
  0
VERTEX
  5
B7
  8
HH_OUTLINES
 10
737288.04905882361
 20
4560374.0457647052
 30
0.0
  0
VERTEX
  5
B8
  8
HH_OUTLINES
 10
737283.58352941205
 20
4560376.2958823526
 30
0.0
  0
VERTEX
  5
B9
  8
HH_OUTLINES
 10
737288.08376470616
 20
4560385.2269411758
 30
0.0
  0
VERTEX
  5
BA
  8
HH_OUTLINES
 10
737292.54929411749
 20
4560382.9768235283
 30
0.0
  0
VERTEX
  5
BB
  8
HH_OUTLINES
 10
737294.79941176437
 20
4560387.4423529413
 30
0.0
  0
VERTEX
  5
BC
  8
HH_OUTLINES
 10
737292.56664705905
 20
4560388.5674117636
 30
0.0
  0
VERTEX
  5
BD
  8
HH_OUTLINES
 10
737297.06688235304
 20
4560397.4984705867
 30
0.0
  0
VERTEX
  5
BE
  8
HH_OUTLINES
 10
737299.29964705848
 20
4560396.3734117644
 30
0.0
  0
VERTEX
  5
BF
  8
HH_OUTLINES
 10
737306.05000000005
 20
4560409.7699999986
 30
0.0
  0
SEQEND
  5
C0
  8
HH_OUTLINES
  0
POLYLINE
  5
75
  8
HH_OUTLINES
 66
     1
 10
0.0
 20
0.0
 30
0.0
 70
     1
  0
VERTEX
  5
C1
  8
HH_OUTLINES
 10
737261.96384615393
 20
4560337.6707692305
 30
0.0
  0
VERTEX
  5
C2
  8
HH_OUTLINES
 10
737257.49769230746
 20
4560339.9215384619
 30
0.0
  0
VERTEX
  5
C3
  8
HH_OUTLINES
 10
737264.25000000023
 20
4560353.3200000003
 30
0.0
  0
VERTEX
  5
C4
  8
HH_OUTLINES
 10
737268.71615384636
 20
4560351.0692307698
 30
0.0
  0
VERTEX
  5
C5
  8
HH_OUTLINES
 10
737266.46538461547
 20
4560346.6030769227
 30
0.0
  0
VERTEX
  5
C6
  8
HH_OUTLINES
 10
737270.93153846171
 20
4560344.3523076922
 30
0.0
  0
VERTEX
  5
C7
  8
HH_OUTLINES
 10
737268.68076923105
 20
4560339.886153846
 30
0.0
  0
VERTEX
  5
C8
  8
HH_OUTLINES
 10
737264.21461538482
 20
4560342.1369230757
 30
0.0
  0
SEQEND
  5
C9
  8
HH_OUTLINES
  0
TEXT
  5
76
  8
HH_NUMBERS
 10
737237.37733708846
 20
4560319.7033555945
 30
0.0
 40
4.0
  1
201
  0
TEXT
  5
78
  8
HH_NUMBERS
 10
737262.35958881921
 20
4560343.8229143517
 30
0.0
 40
4.0
  1
202
  0
TEXT
  5
79
  8
HH_NUMBERS
 10
737358.12057643279
 20
4560362.48852209
 30
0.0
 40
4.0
  1
205
  0
TEXT
  5
7A
  8
HH_NUMBERS
 10
737366.39301918587
 20
4560378.3558639716
 30
0.0
 40
4.0
  1
204
  0
TEXT
  5
7B
  8
HH_NUMBERS
 10
737296.50183453958
 20
4560389.1976039093
 30
0.0
 40
4.0
  1
203
  0
TEXT
  5
7C
  8
HH_NUMBERS
 10
737313.44111466338
 20
4560341.9899662938
 30
0.0
 40
4.0
  1
208
  0
TEXT
  5
7D
  8
HH_NUMBERS
 10
737333.25495717884
 20
4560326.5564393476
 30
0.0
 40
4.0
  1
209
  0
TEXT
  5
7E
  8
HH_NUMBERS
 10
737352.07697776658
 20
4560345.873903038
 30
0.0
 40
4.0
  1
207
  0
TEXT
  5
7F
  8
HH_NUMBERS
 10
737332.65244716092
 20
4560367.3133510128
 30
0.0
 40
4.0
  1
206
  0
TEXT
  5
80
  8
HH_NUMBERS
 10
737327.43069174769
 20
4560304.0698673949
 30
0.0
 40
4.0
  1
210
  0
POLYLINE
  5
81
  8
HH_OUTLINES
 66
     1
 10
0.0
 20
0.0
 30
0.0
 70
     1
  0
VERTEX
  5
CA
  8
HH_OUTLINES
 10
737251.92000000004
 20
4560335.8799999999
 30
0.0
  0
VERTEX
  5
CB
  8
HH_OUTLINES
 10
737265.34764705866
 20
4560329.2005882347
 30
0.0
  0
VERTEX
  5
CC
  8
HH_OUTLINES
 10
737260.89270365005
 20
4560320.244798433
 30
0.0
  0
VERTEX
  5
CD
  8
HH_OUTLINES
 10
737256.40325227741
 20
4560322.5073087178
 30
0.0
  0
VERTEX
  5
CE
  8
HH_OUTLINES
 10
737233.03148689528
 20
4560311.8665568987
 30
0.0
  0
VERTEX
  5
CF
  8
HH_OUTLINES
 10
737224.43992264918
 20
4560316.1963738101
 30
0.0
  0
VERTEX
  5
D0
  8
HH_OUTLINES
 10
737230.17000000039
 20
4560330.1100000013
 30
0.0
  0
VERTEX
  5
D1
  8
HH_OUTLINES
 10
737239.41705882363
 20
4560326.3017647061
 30
0.0
  0
VERTEX
  5
D2
  8
HH_OUTLINES
 10
737247.46705882356
 20
4560326.9282352934
 30
0.0
  0
SEQEND
  5
D3
  8
HH_OUTLINES
  0
POLYLINE
  5
82
  8
HH_OUTLINES
 66
     1
 10
0.0
 20
0.0
 30
0.0
 70
     1
  0
VERTEX
  5
D4
  8
HH_OUTLINES
 10
737377.20979999995
 20
4560390.2813999997
 30
0.0
  0
VERTEX
  5
D5
  8
HH_OUTLINES
 10
737368.23660000006
 20
4560394.6938000014
 30
0.0
  0
VERTEX
  5
D6
  8
HH_OUTLINES
 10
737366.03039999993
 20
4560390.2072000001
 30
0.0
  0
VERTEX
  5
D7
  8
HH_OUTLINES
 10
737361.54379999998
 20
4560392.413399999
 30
0.0
  0
VERTEX
  5
D8
  8
HH_OUTLINES
 10
737357.13139999995
 20
4560383.4401999991
 30
0.0
  0
VERTEX
  5
D9
  8
HH_OUTLINES
 10
737361.6179999999
 20
4560381.2340000002
 30
0.0
  0
VERTEX
  5
DA
  8
HH_OUTLINES
 10
737359.41179999872
 20
4560376.7474000007
 30
0.0
  0
VERTEX
  5
DB
  8
HH_OUTLINES
 10
737368.38500000024
 20
4560372.335
 30
0.0
  0
VERTEX
  5
DC
  8
HH_OUTLINES
 10
737366.17879997741
 20
4560367.8484000098
 30
0.0
  0
VERTEX
  5
DD
  8
HH_OUTLINES
 10
737375.15199999977
 20
4560363.4359999998
 30
0.0
  0
VERTEX
  5
DE
  8
HH_OUTLINES
 10
737383.97679999995
 20
4560381.3824000014
 30
0.0
  0
VERTEX
  5
DF
  8
HH_OUTLINES
 10
737375.00360000029
 20
4560385.7948000012
 30
0.0
  0
SEQEND
  5
E0
  8
HH_OUTLINES
  0
POLYLINE
  5
83
  8
HH_OUTLINES
 66
     1
 10
0.0
 20
0.0
 30
0.0
 70
     1
  0
VERTEX
  5
E1
  8
HH_OUTLINES
 10
737357.13139999995
 20
4560383.4401999991
 30
0.0
  0
VERTEX
  5
E2
  8
HH_OUTLINES
 10
737361.6179999999
 20
4560381.2340000002
 30
0.0
  0
VERTEX
  5
E3
  8
HH_OUTLINES
 10
737359.41179999872
 20
4560376.7474000007
 30
0.0
  0
VERTEX
  5
E4
  8
HH_OUTLINES
 10
737368.38500000024
 20
4560372.335
 30
0.0
  0
VERTEX
  5
E5
  8
HH_OUTLINES
 10
737366.17879997741
 20
4560367.8484000098
 30
0.0
  0
VERTEX
  5
E6
  8
HH_OUTLINES
 10
737375.15199999977
 20
4560363.4359999998
 30
0.0
  0
VERTEX
  5
E7
  8
HH_OUTLINES
 10
737370.73959999986
 20
4560354.4627999999
 30
0.0
  0
VERTEX
  5
E8
  8
HH_OUTLINES
 10
737345.27447838255
 20
4560367.0194075899
 30
0.0
  0
VERTEX
  5
E9
  8
HH_OUTLINES
 10
737348.0033916937
 20
4560372.4579895614
 30
0.0
  0
VERTEX
  5
EA
  8
HH_OUTLINES
 10
737351.02494107676
 20
4560371.0219067326
 30
0.0
  0
SEQEND
  5
EB
  8
HH_OUTLINES
  0
POLYLINE
  5
84
  8
HH_OUTLINES
 66
     1
 10
0.0
 20
0.0
 30
0.0
 70
     1
  0
VERTEX
  5
EC
  8
HH_OUTLINES
 10
737348.0033916937
 20
4560372.4579895614
 30
0.0
  0
VERTEX
  5
ED
  8
HH_OUTLINES
 10
737336.27547445253
 20
4560378.5074452562
 30
0.0
  0
VERTEX
  5
EE
  8
HH_OUTLINES
 10
737334.00175182475
 20
4560374.0551824821
 30
0.0
  0
VERTEX
  5
EF
  8
HH_OUTLINES
 10
737329.54948905122
 20
4560376.3289051102
 30
0.0
  0
VERTEX
  5
F0
  8
HH_OUTLINES
 10
737327.27576642332
 20
4560371.8766423361
 30
0.0
  0
VERTEX
  5
F1
  8
HH_OUTLINES
 10
737322.82350364968
 20
4560374.1503649643
 30
0.0
  0
VERTEX
  5
F2
  8
HH_OUTLINES
 10
737320.54978102201
 20
4560369.6981021902
 30
0.0
  0
VERTEX
  5
F3
  8
HH_OUTLINES
 10
737333.90656934318
 20
4560362.8769343058
 30
0.0
  0
VERTEX
  5
F4
  8
HH_OUTLINES
 10
737331.63284671563
 20
4560358.4246715326
 30
0.0
  0
VERTEX
  5
F5
  8
HH_OUTLINES
 10
737339.06837315846
 20
4560354.6509633996
 30
0.0
  0
SEQEND
  5
F6
  8
HH_OUTLINES
  0
POLYLINE
  5
85
  8
HH_OUTLINES
 66
     1
 10
0.0
 20
0.0
 30
0.0
 70
     1
  0
VERTEX
  5
F7
  8
HH_OUTLINES
 10
737345.27447838255
 20
4560367.0194075899
 30
0.0
  0
VERTEX
  5
F8
  8
HH_OUTLINES
 10
737370.73959999986
 20
4560354.4627999999
 30
0.0
  0
VERTEX
  5
F9
  8
HH_OUTLINES
 10
737361.91480000003
 20
4560336.5164000001
 30
0.0
  0
VERTEX
  5
FA
  8
HH_OUTLINES
 10
737357.42820000031
 20
4560338.7226
 30
0.0
  0
VERTEX
  5
FB
  8
HH_OUTLINES
 10
737355.22199999995
 20
4560334.2359999996
 30
0.0
  0
VERTEX
  5
FC
  8
HH_OUTLINES
 10
737346.24880000006
 20
4560338.6484000003
 30
0.0
  0
VERTEX
  5
FD
  8
HH_OUTLINES
 10
737344.04260000004
 20
4560334.1617999999
 30
0.0
  0
VERTEX
  5
FE
  8
HH_OUTLINES
 10
737331.8180924136
 20
4560340.2015318321
 30
0.0
  0
SEQEND
  5
FF
  8
HH_OUTLINES
  0
POLYLINE
  5
86
  8
HH_OUTLINES
 66
     1
 10
0.0
 20
0.0
 30
0.0
 70
     1
  0
VERTEX
  5
100
  8
HH_OUTLINES
 10
737339.06837315834
 20
4560354.6509633996
 30
0.0
  0
VERTEX
  5
101
  8
HH_OUTLINES
 10
737331.63284671563
 20
4560358.4246715326
 30
0.0
  0
VERTEX
  5
102
  8
HH_OUTLINES
 10
737329.35912408773
 20
4560353.9724087594
 30
0.0
  0
VERTEX
  5
103
  8
HH_OUTLINES
 10
737316.00233576645
 20
4560360.7935766429
 30
0.0
  0
VERTEX
  5
104
  8
HH_OUTLINES
 10
737306.90744525555
 20
4560342.9845255483
 30
0.0
  0
VERTEX
  5
105
  8
HH_OUTLINES
 10
737311.35970802919
 20
4560340.7108029202
 30
0.0
  0
VERTEX
  5
106
  8
HH_OUTLINES
 10
737306.81226277375
 20
4560331.8062773729
 30
0.0
  0
VERTEX
  5
107
  8
HH_OUTLINES
 10
737320.16905109491
 20
4560324.9851094894
 30
0.0
  0
VERTEX
  5
108
  8
HH_OUTLINES
 10
737321.88124851079
 20
4560328.3378283838
 30
0.0
  0
VERTEX
  5
109
  8
HH_OUTLINES
 10
737325.10267696378
 20
4560326.8180589126
 30
0.0
  0
SEQEND
  5
10A
  8
HH_OUTLINES
  0
POLYLINE
  5
87
  8
HH_OUTLINES
 66
     1
 10
0.0
 20
0.0
 30
405.0
 70
     1
  0
VERTEX
  5
10B
  8
HH_OUTLINES
 10
737346.39720000036
 20
4560316.2896000007
 30
405.0
  0
VERTEX
  5
10C
  8
HH_OUTLINES
 10
737341.91059997829
 20
4560318.4958000109
 30
405.0
  0
VERTEX
  5
10D
  8
HH_OUTLINES
 10
737339.70440000016
 20
4560314.0092000002
 30
405.0
  0
VERTEX
  5
10E
  8
HH_OUTLINES
 10
737335.2178000001
 20
4560316.2154000001
 30
405.0
  0
VERTEX
  5
10F
  8
HH_OUTLINES
 10
737337.42400000012
 20
4560320.7020000014
 30
405.0
  0
VERTEX
  5
110
  8
HH_OUTLINES
 10
737325.10267696378
 20
4560326.8180589126
 30
405.0
  0
VERTEX
  5
111
  8
HH_OUTLINES
 10
737331.8180924136
 20
4560340.2015318321
 30
405.0
  0
VERTEX
  5
112
  8
HH_OUTLINES
 10
737344.04260000004
 20
4560334.1617999999
 30
405.0
  0
VERTEX
  5
113
  8
HH_OUTLINES
 10
737346.24880000006
 20
4560338.6484000003
 30
405.0
  0
VERTEX
  5
114
  8
HH_OUTLINES
 10
737350.73540000035
 20
4560336.4421999985
 30
405.0
  0
VERTEX
  5
115
  8
HH_OUTLINES
 10
737346.32300000021
 20
4560327.4689999986
 30
405.0
  0
VERTEX
  5
116
  8
HH_OUTLINES
 10
737350.80960000015
 20
4560325.2627999997
 30
405.0
  0
SEQEND
  5
117
  8
HH_OUTLINES
  0
POLYLINE
  5
88
  8
HH_OUTLINES
 66
     1
 10
0.0
 20
0.0
 30
0.0
 70
     1
  0
VERTEX
  5
118
  8
HH_OUTLINES
 10
737350.88380000007
 20
4560314.083399999
 30
0.0
  0
VERTEX
  5
119
  8
HH_OUTLINES
 10
737346.47140000004
 20
4560305.1101999991
 30
0.0
  0
VERTEX
  5
11A
  8
HH_OUTLINES
 10
737341.98480000009
 20
4560307.3163999999
 30
0.0
  0
VERTEX
  5
11B
  8
HH_OUTLINES
 10
737337.57239999995
 20
4560298.3432
 30
0.0
  0
VERTEX
  5
11C
  8
HH_OUTLINES
 10
737333.08580000012
 20
4560300.549399999
 30
0.0
  0
VERTEX
  5
11D
  8
HH_OUTLINES
 10
737330.87959999999
 20
4560296.0627999986
 30
0.0
  0
VERTEX
  5
11E
  8
HH_OUTLINES
 10
737326.39300000004
 20
4560298.2689999994
 30
0.0
  0
VERTEX
  5
11F
  8
HH_OUTLINES
 10
737324.18680000002
 20
4560293.7823999999
 30
0.0
  0
VERTEX
  5
120
  8
HH_OUTLINES
 10
737319.70020000008
 20
4560295.9885999998
 30
0.0
  0
VERTEX
  5
121
  8
HH_OUTLINES
 10
737321.90640000009
 20
4560300.4752000002
 30
0.0
  0
VERTEX
  5
122
  8
HH_OUTLINES
 10
737317.41980000003
 20
4560302.6814000001
 30
0.0
  0
VERTEX
  5
123
  8
HH_OUTLINES
 10
737324.03839999996
 20
4560316.1411999986
 30
0.0
  0
VERTEX
  5
124
  8
HH_OUTLINES
 10
737333.01159999985
 20
4560311.7287999997
 30
0.0
  0
VERTEX
  5
125
  8
HH_OUTLINES
 10
737335.2178000001
 20
4560316.2154000001
 30
0.0
  0
VERTEX
  5
126
  8
HH_OUTLINES
 10
737339.70440000016
 20
4560314.0092000002
 30
0.0
  0
VERTEX
  5
127
  8
HH_OUTLINES
 10
737341.91059997829
 20
4560318.4958000109
 30
0.0
  0
SEQEND
  5
128
  8
HH_OUTLINES
  0
ENDSEC
  0
EOF
