  0
SECTION
  2
HEADER
  9
$ACADVER
  1
AC1009
  9
$INSBASE
 10
0.0
 20
0.0
 30
0.0
  9
$EXTMIN
 10
732711.88571428577
 20
4554937.54
 30
0.0
  9
$EXTMAX
 10
737381.77060000005
 20
4560409.7699999986
 30
0.0
  9
$LIMMIN
 10
0.0
 20
0.0
  9
$LIMMAX
 10
12.0
 20
9.0
  9
$ORTHOMODE
 70
     0
  9
$REGENMODE
 70
     1
  9
$FILLMODE
 70
     1
  9
$QTEXTMODE
 70
     0
  9
$MIRRTEXT
 70
     1
  9
$DRAGMODE
 70
     2
  9
$LTSCALE
 40
1.0
  9
$OSMODE
 70
   623
  9
$ATTMODE
 70
     1
  9
$TEXTSIZE
 40
0.2
  9
$TRACEWID
 40
0.05
  9
$TEXTSTYLE
  7
STANDARD
  9
$CLAYER
  8
SQUARES
  9
$CELTYPE
  6
BYLAYER
  9
$CECOLOR
 62
   256
  9
$DIMSCALE
 40
1.0
  9
$DIMASZ
 40
0.18
  9
$DIMEXO
 40
0.0625
  9
$DIMDLI
 40
0.38
  9
$DIMRND
 40
0.0
  9
$DIMDLE
 40
0.0
  9
$DIMEXE
 40
0.18
  9
$DIMTP
 40
0.0
  9
$DIMTM
 40
0.0
  9
$DIMTXT
 40
0.18
  9
$DIMCEN
 40
0.09
  9
$DIMTSZ
 40
0.0
  9
$DIMTOL
 70
     0
  9
$DIMLIM
 70
     0
  9
$DIMTIH
 70
     1
  9
$DIMTOH
 70
     1
  9
$DIMSE1
 70
     0
  9
$DIMSE2
 70
     0
  9
$DIMTAD
 70
     0
  9
$DIMZIN
 70
     0
  9
$DIMBLK
  1

  9
$DIMASO
 70
     1
  9
$DIMSHO
 70
     1
  9
$DIMPOST
  1

  9
$DIMAPOST
  1

  9
$DIMALT
 70
     0
  9
$DIMALTD
 70
     2
  9
$DIMALTF
 40
25.399999999999999
  9
$DIMLFAC
 40
1.0
  9
$DIMTOFL
 70
     0
  9
$DIMTVP
 40
0.0
  9
$DIMTIX
 70
     0
  9
$DIMSOXD
 70
     0
  9
$DIMSAH
 70
     0
  9
$DIMBLK1
  1

  9
$DIMBLK2
  1

  9
$DIMSTYLE
  2
STANDARD
  9
$DIMCLRD
 70
     0
  9
$DIMCLRE
 70
     0
  9
$DIMCLRT
 70
     0
  9
$DIMTFAC
 40
1.0
  9
$DIMGAP
 40
0.09
  9
$LUNITS
 70
     2
  9
$LUPREC
 70
     4
  9
$SKETCHINC
 40
0.1
  9
$FILLETRAD
 40
0.5
  9
$AUNITS
 70
     0
  9
$AUPREC
 70
     0
  9
$MENU
  1
.
  9
$ELEVATION
 40
0.0
  9
$PELEVATION
 40
0.0
  9
$THICKNESS
 40
0.0
  9
$LIMCHECK
 70
     0
  9
$BLIPMODE
 70
     0
  9
$CHAMFERA
 40
0.5
  9
$CHAMFERB
 40
0.5
  9
$SKPOLY
 70
     0
  9
$TDCREATE
 40
2455703.2279213662
  9
$TDUPDATE
 40
2457576.6374177779
  9
$TDINDWG
 40
0.1265856829
  9
$TDUSRTIMER
 40
0.1265856829
  9
$USRTIMER
 70
     1
  9
$ANGBASE
 50
0.0
  9
$ANGDIR
 70
     1
  9
$PDMODE
 70
    66
  9
$PDSIZE
 40
0.0
  9
$PLINEWID
 40
0.0
  9
$COORDS
 70
     1
  9
$SPLFRAME
 70
     0
  9
$SPLINETYPE
 70
     6
  9
$SPLINESEGS
 70
     8
  9
$ATTDIA
 70
     1
  9
$ATTREQ
 70
     1
  9
$HANDLING
 70
     1
  9
$HANDSEED
  5
5A9
  9
$SURFTAB1
 70
     6
  9
$SURFTAB2
 70
     6
  9
$SURFTYPE
 70
     6
  9
$SURFU
 70
     6
  9
$SURFV
 70
     6
  9
$UCSNAME
  2

  9
$UCSORG
 10
0.0
 20
0.0
 30
0.0
  9
$UCSXDIR
 10
1.0
 20
0.0
 30
0.0
  9
$UCSYDIR
 10
0.0
 20
1.0
 30
0.0
  9
$PUCSNAME
  2

  9
$PUCSORG
 10
0.0
 20
0.0
 30
0.0
  9
$PUCSXDIR
 10
1.0
 20
0.0
 30
0.0
  9
$PUCSYDIR
 10
0.0
 20
1.0
 30
0.0
  9
$USERI1
 70
     0
  9
$USERI2
 70
     0
  9
$USERI3
 70
     0
  9
$USERI4
 70
     0
  9
$USERI5
 70
     0
  9
$USERR1
 40
0.0
  9
$USERR2
 40
0.0
  9
$USERR3
 40
0.0
  9
$USERR4
 40
0.0
  9
$USERR5
 40
0.0
  9
$WORLDVIEW
 70
     1
  9
$SHADEDGE
 70
     3
  9
$SHADEDIF
 70
    70
  9
$TILEMODE
 70
     1
  9
$MAXACTVP
 70
    64
  9
$PLIMCHECK
 70
     0
  9
$PEXTMIN
 10
0.0
 20
0.0
 30
0.0
  9
$PEXTMAX
 10
0.0
 20
0.0
 30
0.0
  9
$PLIMMIN
 10
0.0
 20
0.0
  9
$PLIMMAX
 10
12.0
 20
9.0
  9
$UNITMODE
 70
     0
  9
$VISRETAIN
 70
     1
  9
$PLINEGEN
 70
     0
  9
$PSLTSCALE
 70
     1
  0
ENDSEC
  0
SECTION
  2
TABLES
  0
TABLE
  2
VPORT
 70
     1
  0
VPORT
  2
*ACTIVE
 70
     0
 10
0.0
 20
0.0
 11
1.0
 21
1.0
 12
733562.5764554023
 22
4555356.0287836678
 13
0.0
 23
0.0
 14
0.5
 24
0.5
 15
0.5
 25
0.5
 16
0.0
 26
0.0
 36
1.0
 17
0.0
 27
0.0
 37
0.0
 40
2191.9851582434171
 41
1.301997649823736
 42
50.0
 43
0.0
 44
0.0
 50
0.0
 51
0.0
 71
     0
 72
   100
 73
     1
 74
     2
 75
     0
 76
     0
 77
     0
 78
     0
  0
ENDTAB
  0
TABLE
  2
LTYPE
 70
     1
  0
LTYPE
  2
CONTINUOUS
 70
     0
  3
Solid line
 72
    65
 73
     0
 40
0.0
  0
ENDTAB
  0
TABLE
  2
LAYER
 70
     3
  0
LAYER
  2
0
 70
     0
 62
    -7
  6
CONTINUOUS
  0
LAYER
  2
SQUARES
 70
     0
 62
     5
  6
CONTINUOUS
  0
LAYER
  2
SQ_NUMBERS
 70
     0
 62
   140
  6
CONTINUOUS
  0
ENDTAB
  0
TABLE
  2
STYLE
 70
     1
  0
STYLE
  2
STANDARD
 70
     0
 40
0.0
 41
1.0
 50
0.0
 71
     0
 42
0.2
  3
txt
  4

  0
ENDTAB
  0
TABLE
  2
VIEW
 70
     0
  0
ENDTAB
  0
TABLE
  2
UCS
 70
     0
  0
ENDTAB
  0
TABLE
  2
APPID
 70
     6
  0
APPID
  2
ACAD
 70
     0
  0
APPID
  2
DCO15
 70
     0
  0
APPID
  2
ADE
 70
     0
  0
APPID
  2
ACAECLAYERSTANDARD
 70
     0
  0
APPID
  2
ACAD_NAV_VCDISPLAY
 70
     0
  0
APPID
  2
ADE_PROJECTION
 70
     0
  0
ENDTAB
  0
TABLE
  2
DIMSTYLE
 70
     1
  0
DIMSTYLE
  2
STANDARD
 70
     0
  3

  4

  5

  6

  7

 40
1.0
 41
0.18
 42
0.0625
 43
0.38
 44
0.18
 45
0.0
 46
0.0
 47
0.0
 48
0.0
140
0.18
141
0.09
142
0.0
143
25.399999999999999
144
1.0
145
0.0
146
1.0
147
0.09
 71
     0
 72
     0
 73
     1
 74
     1
 75
     0
 76
     0
 77
     0
 78
     0
170
     0
171
     2
172
     0
173
     0
174
     0
175
     0
176
     0
177
     0
178
     0
  0
ENDTAB
  0
ENDSEC
  0
SECTION
  2
BLOCKS
  0
BLOCK
  8
0
  2
$MODEL_SPACE
 70
     0
 10
0.0
 20
0.0
 30
0.0
  3
$MODEL_SPACE
  1

  0
ENDBLK
  5
17
  8
0
  0
BLOCK
 67
     1
  8
0
  2
$PAPER_SPACE
 70
     0
 10
0.0
 20
0.0
 30
0.0
  3
$PAPER_SPACE
  1

  0
ENDBLK
  5
1D
 67
     1
  8
0
  0
ENDSEC
  0
SECTION
  2
ENTITIES
  0
POLYLINE
  5
72
  8
SQUARES
 66
     1
 10
0.0
 20
0.0
 30
0.0
 70
     1
1001
DCO15
1071
        2
1071
        2
1000
colsq
1004
073030353900
1001
ADE
1011
-1.2386020324192939
1021
0.0
1031
0.0
1021
-0.9852697709575295
1031
0.0
  0
VERTEX
  5
211
  8
SQUARES
 10
733608.86762295093
 20
4554943.9538524579
 30
0.0
  0
VERTEX
  5
212
  8
SQUARES
 10
733610.58573770488
 20
4554939.2581147542
 30
0.0
  0
VERTEX
  5
213
  8
SQUARES
 10
733605.89000000013
 20
4554937.54
 30
0.0
  0
VERTEX
  5
214
  8
SQUARES
 10
733604.17188524595
 20
4554942.2357377047
 30
0.0
  0
SEQEND
  5
215
  8
SQUARES
  0
POLYLINE
  5
74
  8
SQUARES
 66
     1
 10
0.0
 20
0.0
 30
0.0
 70
     1
1001
DCO15
1071
        2
1071
        2
1000
colsq
1004
073030363000
1001
ADE
1011
-1.238602032535709
1021
0.0
1031
0.0
1021
-0.9852697709575295
1031
0.0
  0
VERTEX
  5
216
  8
SQUARES
 10
733613.5633606558
 20
4554945.671967213
 30
0.0
  0
VERTEX
  5
217
  8
SQUARES
 10
733615.28147540987
 20
4554940.9762295084
 30
0.0
  0
VERTEX
  5
218
  8
SQUARES
 10
733610.58573770488
 20
4554939.2581147542
 30
0.0
  0
VERTEX
  5
219
  8
SQUARES
 10
733608.86762295093
 20
4554943.9538524579
 30
0.0
  0
SEQEND
  5
21A
  8
SQUARES
  0
POLYLINE
  5
75
  8
SQUARES
 66
     1
 10
0.0
 20
0.0
 30
0.0
 70
     1
1001
DCO15
1071
        2
1071
        2
1000
colsq
1004
073030313900
1001
ADE
1011
-1.2386020323028779
1021
0.0
1031
0.0
1021
-0.9852697709575295
1031
0.0
  0
VERTEX
  5
21B
  8
SQUARES
 10
733601.53655737685
 20
4554978.5421311492
 30
0.0
  0
VERTEX
  5
21C
  8
SQUARES
 10
733603.25467213104
 20
4554973.8463934427
 30
0.0
  0
VERTEX
  5
21D
  8
SQUARES
 10
733598.55893442605
 20
4554972.1282786876
 30
0.0
  0
VERTEX
  5
21E
  8
SQUARES
 10
733596.84081967187
 20
4554976.8240163941
 30
0.0
  0
SEQEND
  5
21F
  8
SQUARES
  0
POLYLINE
  5
76
  8
SQUARES
 66
     1
 10
0.0
 20
0.0
 30
0.0
 70
     1
1001
DCO15
1071
        2
1071
        2
1000
colsq
1004
073030343400
1001
ADE
1011
-1.2386020324192939
1021
0.0
1031
0.0
1021
-0.9852697718888521
1031
0.0
  0
VERTEX
  5
220
  8
SQUARES
 10
733611.38663934427
 20
4554966.1730327876
 30
0.0
  0
VERTEX
  5
221
  8
SQUARES
 10
733613.10475409846
 20
4554961.4772950821
 30
0.0
  0
VERTEX
  5
222
  8
SQUARES
 10
733608.40901639336
 20
4554959.7591803269
 30
0.0
  0
VERTEX
  5
223
  8
SQUARES
 10
733606.69090163906
 20
4554964.4549180334
 30
0.0
  0
SEQEND
  5
224
  8
SQUARES
  0
POLYLINE
  5
77
  8
SQUARES
 66
     1
 10
0.0
 20
0.0
 30
0.0
 70
     1
1001
DCO15
1071
        2
1071
        2
1000
colsq
1004
073030313700
1001
ADE
1011
-1.2386020324192939
1021
0.0
1031
0.0
1021
-0.9852697709575295
1031
0.0
  0
VERTEX
  5
225
  8
SQUARES
 10
733606.23229508195
 20
4554980.2602459025
 30
0.0
  0
VERTEX
  5
226
  8
SQUARES
 10
733607.95040983614
 20
4554975.5645081969
 30
0.0
  0
VERTEX
  5
227
  8
SQUARES
 10
733603.25467213104
 20
4554973.8463934427
 30
0.0
  0
VERTEX
  5
228
  8
SQUARES
 10
733601.53655737685
 20
4554978.5421311492
 30
0.0
  0
SEQEND
  5
229
  8
SQUARES
  0
POLYLINE
  5
78
  8
SQUARES
 66
     1
 10
0.0
 20
0.0
 30
0.0
 70
     1
1001
DCO15
1071
        2
1071
        2
1000
colsq
1004
073030363300
1001
ADE
1011
-1.2384866452775889
1021
0.0
1031
0.0
1021
-0.9855851326137781
1031
0.0
  0
VERTEX
  5
22A
  8
SQUARES
 10
733622.95483606553
 20
4554949.1081967214
 30
0.0
  0
VERTEX
  5
22B
  8
SQUARES
 10
733618.25909836055
 20
4554947.3900819672
 30
0.0
  0
VERTEX
  5
22C
  8
SQUARES
 10
733616.54098360636
 20
4554952.0858196719
 30
0.0
  0
VERTEX
  5
22D
  8
SQUARES
 10
733621.23672131135
 20
4554953.803934426
 30
0.0
  0
SEQEND
  5
22E
  8
SQUARES
  0
POLYLINE
  5
79
  8
SQUARES
 66
     1
 10
0.0
 20
0.0
 30
0.0
 70
     1
1001
DCO15
1071
        2
1071
        2
1000
colsq
1004
073030363400
1001
ADE
1011
-1.2386020324192939
1021
0.0
1031
0.0
1021
-0.9852697709575295
1031
0.0
  0
VERTEX
  5
22F
  8
SQUARES
 10
733632.3463114755
 20
4554952.5444262289
 30
0.0
  0
VERTEX
  5
230
  8
SQUARES
 10
733630.62819672143
 20
4554957.2401639344
 30
0.0
  0
VERTEX
  5
231
  8
SQUARES
 10
733635.32393442607
 20
4554958.9582786877
 30
0.0
  0
VERTEX
  5
232
  8
SQUARES
 10
733637.04204918025
 20
4554954.262540984
 30
0.0
  0
SEQEND
  5
233
  8
SQUARES
  0
POLYLINE
  5
7A
  8
SQUARES
 66
     1
 10
0.0
 20
0.0
 30
0.0
 70
     1
1001
DCO15
1071
        2
1071
        2
1000
colsq
1004
073030363800
1001
ADE
1011
-1.238486645044758
1021
0.0
1031
0.0
1021
-0.9855851335451006
1031
0.0
  0
VERTEX
  5
234
  8
SQUARES
 10
733641.73778688523
 20
4554955.9806557382
 30
0.0
  0
VERTEX
  5
235
  8
SQUARES
 10
733643.45590163919
 20
4554951.2849180344
 30
0.0
  0
VERTEX
  5
236
  8
SQUARES
 10
733638.7601639342
 20
4554949.5668032793
 30
0.0
  0
VERTEX
  5
237
  8
SQUARES
 10
733637.04204918025
 20
4554954.262540984
 30
0.0
  0
SEQEND
  5
238
  8
SQUARES
  0
POLYLINE
  5
7B
  8
SQUARES
 66
     1
 10
0.0
 20
0.0
 30
0.0
 70
     1
1001
DCO15
1071
        2
1071
        2
1000
colsq
1004
073030363700
1001
ADE
1011
-1.2386020324192939
1021
0.0
1031
0.0
1021
-0.9852697709575295
1031
0.0
  0
VERTEX
  5
239
  8
SQUARES
 10
733640.01967213105
 20
4554960.6763934419
 30
0.0
  0
VERTEX
  5
23A
  8
SQUARES
 10
733641.73778688523
 20
4554955.9806557382
 30
0.0
  0
VERTEX
  5
23B
  8
SQUARES
 10
733637.04204918025
 20
4554954.262540984
 30
0.0
  0
VERTEX
  5
23C
  8
SQUARES
 10
733635.32393442607
 20
4554958.9582786877
 30
0.0
  0
SEQEND
  5
23D
  8
SQUARES
  0
POLYLINE
  5
7C
  8
SQUARES
 66
     1
 10
0.0
 20
0.0
 30
0.0
 70
     1
1001
DCO15
1071
        2
1071
        2
1000
colsq
1004
073030363600
1001
ADE
1011
-1.2386020323028779
1021
0.0
1031
0.0
1021
-0.9852697709575295
1031
0.0
  0
VERTEX
  5
23E
  8
SQUARES
 10
733635.32393442607
 20
4554958.9582786877
 30
0.0
  0
VERTEX
  5
23F
  8
SQUARES
 10
733640.01967213105
 20
4554960.6763934419
 30
0.0
  0
VERTEX
  5
240
  8
SQUARES
 10
733638.30155737721
 20
4554965.3721311484
 30
0.0
  0
VERTEX
  5
241
  8
SQUARES
 10
733633.60581967211
 20
4554963.6540163932
 30
0.0
  0
SEQEND
  5
242
  8
SQUARES
  0
POLYLINE
  5
7D
  8
SQUARES
 66
     1
 10
0.0
 20
0.0
 30
0.0
 70
     1
1001
DCO15
1071
        2
1071
        2
1000
colsq
1004
073030353100
1001
ADE
1011
-1.238602032535709
1021
0.0
1031
0.0
1021
-0.9852697700262069
1031
0.0
  0
VERTEX
  5
243
  8
SQUARES
 10
733634.86532786884
 20
4554974.7636065576
 30
0.0
  0
VERTEX
  5
244
  8
SQUARES
 10
733636.58344262314
 20
4554970.0678688511
 30
0.0
  0
VERTEX
  5
245
  8
SQUARES
 10
733631.88770491828
 20
4554968.3497540979
 30
0.0
  0
VERTEX
  5
246
  8
SQUARES
 10
733630.16959016386
 20
4554973.0454918034
 30
0.0
  0
SEQEND
  5
247
  8
SQUARES
  0
POLYLINE
  5
7E
  8
SQUARES
 66
     1
 10
0.0
 20
0.0
 30
0.0
 70
     1
1001
DCO15
1071
        2
1071
        2
1000
colsq
1004
073030373100
1001
ADE
1011
-1.2386020324192939
1021
0.0
1031
0.0
1021
-0.9852697718888521
1031
0.0
  0
VERTEX
  5
248
  8
SQUARES
 10
733646.4335245901
 20
4554957.6987704923
 30
0.0
  0
VERTEX
  5
249
  8
SQUARES
 10
733648.15163934417
 20
4554953.0030327868
 30
0.0
  0
VERTEX
  5
24A
  8
SQUARES
 10
733643.45590163919
 20
4554951.2849180344
 30
0.0
  0
VERTEX
  5
24B
  8
SQUARES
 10
733641.73778688523
 20
4554955.9806557382
 30
0.0
  0
SEQEND
  5
24C
  8
SQUARES
  0
POLYLINE
  5
7F
  8
SQUARES
 66
     1
 10
0.0
 20
0.0
 30
0.0
 70
     1
1001
DCO15
1071
        2
1071
        2
1000
colsq
1004
073030303500
1001
ADE
1011
-1.2386020323028779
1021
0.0
1031
0.0
1021
-0.9852697709575295
1031
0.0
  0
VERTEX
  5
24D
  8
SQUARES
 10
733634.40672131127
 20
4554990.5689344257
 30
0.0
  0
VERTEX
  5
24E
  8
SQUARES
 10
733636.12483606557
 20
4554985.8731967211
 30
0.0
  0
VERTEX
  5
24F
  8
SQUARES
 10
733631.42909836071
 20
4554984.155081966
 30
0.0
  0
VERTEX
  5
250
  8
SQUARES
 10
733629.7109836064
 20
4554988.8508196734
 30
0.0
  0
SEQEND
  5
251
  8
SQUARES
  0
POLYLINE
  5
80
  8
SQUARES
 66
     1
 10
0.0
 20
0.0
 30
0.0
 70
     1
1001
DCO15
1071
        2
1071
        2
1000
colsq
1004
073030353300
1001
ADE
1011
-1.238486645161174
1021
0.0
1031
0.0
1021
-0.9855851316824555
1031
0.0
  0
VERTEX
  5
252
  8
SQUARES
 10
733644.25680327858
 20
4554978.199836066
 30
0.0
  0
VERTEX
  5
253
  8
SQUARES
 10
733645.97491803276
 20
4554973.5040983604
 30
0.0
  0
VERTEX
  5
254
  8
SQUARES
 10
733641.2791803279
 20
4554971.7859836062
 30
0.0
  0
VERTEX
  5
255
  8
SQUARES
 10
733639.56106557371
 20
4554976.4817213118
 30
0.0
  0
SEQEND
  5
256
  8
SQUARES
  0
POLYLINE
  5
81
  8
SQUARES
 66
     1
 10
0.0
 20
0.0
 30
0.0
 70
     1
1001
DCO15
1071
        2
1071
        2
1000
colsq
1004
073030383100
1001
ADE
1011
-1.2384866452775889
1021
0.0
1031
0.0
1021
-0.9855851326137781
1031
0.0
  0
VERTEX
  5
257
  8
SQUARES
 10
733661.32163934445
 20
4554989.7680327874
 30
0.0
  0
VERTEX
  5
258
  8
SQUARES
 10
733656.62590163935
 20
4554988.0499180332
 30
0.0
  0
VERTEX
  5
259
  8
SQUARES
 10
733658.34401639341
 20
4554983.3541803276
 30
0.0
  0
VERTEX
  5
25A
  8
SQUARES
 10
733663.03975409851
 20
4554985.0722950818
 30
0.0
  0
SEQEND
  5
25B
  8
SQUARES
  0
POLYLINE
  5
82
  8
SQUARES
 66
     1
 10
0.0
 20
0.0
 30
0.0
 70
     1
1001
DCO15
1071
        2
1071
        2
1000
colsq
1004
073030383200
1001
ADE
1011
-0.8915856279199942
1021
0.0
1031
0.0
1021
-1.3077674610540271
1031
0.0
  0
VERTEX
  5
25C
  8
SQUARES
 10
733402.9425
 20
4555173.3824999994
 30
0.0
  0
VERTEX
  5
25D
  8
SQUARES
 10
733398.96500000008
 20
4555170.3524999991
 30
0.0
  0
VERTEX
  5
25E
  8
SQUARES
 10
733395.93500000017
 20
4555174.3299999982
 30
0.0
  0
VERTEX
  5
25F
  8
SQUARES
 10
733399.91250000009
 20
4555177.3600000003
 30
0.0
  0
SEQEND
  5
260
  8
SQUARES
  0
POLYLINE
  5
83
  8
SQUARES
 66
     1
 10
0.0
 20
0.0
 30
0.0
 70
     1
1001
DCO15
1071
        2
1071
        2
1000
colsq
1004
073031313300
1001
ADE
1011
-0.8915856280364096
1021
0.0
1031
0.0
1021
-1.3077674610540271
1031
0.0
  0
VERTEX
  5
261
  8
SQUARES
 10
733425.10000000009
 20
4555152.5475000003
 30
0.0
  0
VERTEX
  5
262
  8
SQUARES
 10
733428.13000000024
 20
4555148.5700000003
 30
0.0
  0
VERTEX
  5
263
  8
SQUARES
 10
733424.1525000002
 20
4555145.54
 30
0.0
  0
VERTEX
  5
264
  8
SQUARES
 10
733421.12250000006
 20
4555149.5175000001
 30
0.0
  0
SEQEND
  5
265
  8
SQUARES
  0
POLYLINE
  5
84
  8
SQUARES
 66
     1
 10
0.0
 20
0.0
 30
0.0
 70
     1
1001
DCO15
1071
        2
1071
        2
1000
colsq
1004
073031333600
1001
ADE
1011
-1.05555768974591
1021
0.0
1031
0.0
1021
-1.1795334452763191
1031
0.0
  0
VERTEX
  5
266
  8
SQUARES
 10
733202.92799999996
 20
4555241.7460000003
 30
0.0
  0
VERTEX
  5
267
  8
SQUARES
 10
733205.41000000003
 20
4555237.4049999993
 30
0.0
  0
VERTEX
  5
268
  8
SQUARES
 10
733201.06900000002
 20
4555234.9229999986
 30
0.0
  0
VERTEX
  5
269
  8
SQUARES
 10
733198.58700000006
 20
4555239.2639999986
 30
0.0
  0
SEQEND
  5
26A
  8
SQUARES
  0
POLYLINE
  5
85
  8
SQUARES
 66
     1
 10
0.0
 20
0.0
 30
0.0
 70
     1
1001
DCO15
1071
        2
1071
        2
1000
colsq
1004
073031303600
1001
ADE
1011
-0.891789120156318
1021
0.0
1031
0.0
1021
-1.3075003363192079
1031
0.0
  0
VERTEX
  5
26B
  8
SQUARES
 10
733409.94999999995
 20
4555172.4349999996
 30
0.0
  0
VERTEX
  5
26C
  8
SQUARES
 10
733412.9800000001
 20
4555168.4574999986
 30
0.0
  0
VERTEX
  5
26D
  8
SQUARES
 10
733409.00249999994
 20
4555165.4274999993
 30
0.0
  0
VERTEX
  5
26E
  8
SQUARES
 10
733405.97250000003
 20
4555169.4050000003
 30
0.0
  0
SEQEND
  5
26F
  8
SQUARES
  0
POLYLINE
  5
86
  8
SQUARES
 66
     1
 10
0.0
 20
0.0
 30
0.0
 70
     1
1001
DCO15
1071
        2
1071
        2
1000
colsq
1004
073031303300
1001
ADE
1011
-0.8915856281528249
1021
0.0
1031
0.0
1021
-1.307767461985349
1031
0.0
  0
VERTEX
  5
270
  8
SQUARES
 10
733414.87499999977
 20
4555182.4724999992
 30
0.0
  0
VERTEX
  5
271
  8
SQUARES
 10
733410.89750000031
 20
4555179.4424999999
 30
0.0
  0
VERTEX
  5
272
  8
SQUARES
 10
733413.92750000022
 20
4555175.4649999989
 30
0.0
  0
VERTEX
  5
273
  8
SQUARES
 10
733417.90499999991
 20
4555178.4949999992
 30
0.0
  0
SEQEND
  5
274
  8
SQUARES
  0
POLYLINE
  5
87
  8
SQUARES
 66
     1
 10
0.0
 20
0.0
 30
0.0
 70
     1
1001
DCO15
1071
        2
1071
        2
1000
colsq
1004
073031343000
1001
ADE
1011
-1.02711081248708
1021
0.0
1031
0.0
1021
-1.2040805909782639
1031
0.0
  0
VERTEX
  5
275
  8
SQUARES
 10
733158.875
 20
4555238.7649999987
 30
0.0
  0
VERTEX
  5
276
  8
SQUARES
 10
733161.45999999985
 20
4555234.4850000003
 30
0.0
  0
VERTEX
  5
277
  8
SQUARES
 10
733157.18000000005
 20
4555231.9000000004
 30
0.0
  0
VERTEX
  5
278
  8
SQUARES
 10
733154.59499999997
 20
4555236.1799999997
 30
0.0
  0
SEQEND
  5
279
  8
SQUARES
  0
POLYLINE
  5
88
  8
SQUARES
 66
     1
 10
0.0
 20
0.0
 30
0.0
 70
     1
1001
DCO15
1071
        2
1071
        2
1000
colsq
1004
073030323700
1001
ADE
1011
-1.2384866452775889
1021
0.0
1031
0.0
1021
-0.9855851326137781
1031
0.0
  0
VERTEX
  5
27A
  8
SQUARES
 10
733592.14508196677
 20
4554975.1059016399
 30
0.0
  0
VERTEX
  5
27B
  8
SQUARES
 10
733593.8631967213
 20
4554970.4101639343
 30
0.0
  0
VERTEX
  5
27C
  8
SQUARES
 10
733589.1674590162
 20
4554968.6920491802
 30
0.0
  0
VERTEX
  5
27D
  8
SQUARES
 10
733587.44934426202
 20
4554973.3877868848
 30
0.0
  0
SEQEND
  5
27E
  8
SQUARES
  0
POLYLINE
  5
89
  8
SQUARES
 66
     1
 10
0.0
 20
0.0
 30
0.0
 70
     1
1001
DCO15
1071
        2
1071
        2
1000
colsq
1004
073030353700
1001
ADE
1011
-1.2386020324192939
1021
0.0
1031
0.0
1021
-0.9852697709575295
1031
0.0
  0
VERTEX
  5
27F
  8
SQUARES
 10
733607.14950819663
 20
4554948.6495901654
 30
0.0
  0
VERTEX
  5
280
  8
SQUARES
 10
733608.86762295093
 20
4554943.9538524579
 30
0.0
  0
VERTEX
  5
281
  8
SQUARES
 10
733604.17188524595
 20
4554942.2357377047
 30
0.0
  0
VERTEX
  5
282
  8
SQUARES
 10
733602.45377049164
 20
4554946.9314754102
 30
0.0
  0
SEQEND
  5
283
  8
SQUARES
  0
POLYLINE
  5
8A
  8
SQUARES
 66
     1
 10
0.0
 20
0.0
 30
0.0
 70
     1
1001
DCO15
1071
        2
1071
        2
1000
colsq
1004
073030353500
1001
ADE
1011
-1.2386020324192939
1021
0.0
1031
0.0
1021
-0.9852697709575295
1031
0.0
  0
VERTEX
  5
284
  8
SQUARES
 10
733602.45377049164
 20
4554946.9314754102
 30
0.0
  0
VERTEX
  5
285
  8
SQUARES
 10
733607.14950819663
 20
4554948.6495901654
 30
0.0
  0
VERTEX
  5
286
  8
SQUARES
 10
733605.43139344244
 20
4554953.3453278691
 30
0.0
  0
VERTEX
  5
287
  8
SQUARES
 10
733600.73565573758
 20
4554951.6272131149
 30
0.0
  0
SEQEND
  5
288
  8
SQUARES
  0
POLYLINE
  5
8B
  8
SQUARES
 66
     1
 10
0.0
 20
0.0
 30
0.0
 70
     1
1001
DCO15
1071
        2
1071
        2
1000
colsq
1004
073030323900
1001
ADE
1011
-1.238486645161174
1021
0.0
1031
0.0
1021
-0.9855851326137781
1031
0.0
  0
VERTEX
  5
289
  8
SQUARES
 10
733595.58131147525
 20
4554965.7144262297
 30
0.0
  0
VERTEX
  5
28A
  8
SQUARES
 10
733597.29942622955
 20
4554961.0186885241
 30
0.0
  0
VERTEX
  5
28B
  8
SQUARES
 10
733601.99516393419
 20
4554962.7368032793
 30
0.0
  0
VERTEX
  5
28C
  8
SQUARES
 10
733600.27704918012
 20
4554967.432540983
 30
0.0
  0
SEQEND
  5
28D
  8
SQUARES
  0
POLYLINE
  5
8C
  8
SQUARES
 66
     1
 10
0.0
 20
0.0
 30
0.0
 70
     1
1001
DCO15
1071
        2
1071
        2
1000
colsq
1004
073030323400
1001
ADE
1011
-1.238486645161174
1021
0.0
1031
0.0
1021
-0.9855851326137781
1031
0.0
  0
VERTEX
  5
28E
  8
SQUARES
 10
733596.84081967187
 20
4554976.8240163941
 30
0.0
  0
VERTEX
  5
28F
  8
SQUARES
 10
733598.55893442605
 20
4554972.1282786876
 30
0.0
  0
VERTEX
  5
290
  8
SQUARES
 10
733593.8631967213
 20
4554970.4101639343
 30
0.0
  0
VERTEX
  5
291
  8
SQUARES
 10
733592.14508196677
 20
4554975.1059016399
 30
0.0
  0
SEQEND
  5
292
  8
SQUARES
  0
POLYLINE
  5
8D
  8
SQUARES
 66
     1
 10
0.0
 20
0.0
 30
0.0
 70
     1
1001
DCO15
1071
        2
1071
        2
1000
colsq
1004
073030323500
1001
ADE
1011
-1.238486645161174
1021
0.0
1031
0.0
1021
-0.9855851326137781
1031
0.0
  0
VERTEX
  5
293
  8
SQUARES
 10
733595.1227049178
 20
4554981.5197540987
 30
0.0
  0
VERTEX
  5
294
  8
SQUARES
 10
733596.84081967187
 20
4554976.8240163941
 30
0.0
  0
VERTEX
  5
295
  8
SQUARES
 10
733592.14508196677
 20
4554975.1059016399
 30
0.0
  0
VERTEX
  5
296
  8
SQUARES
 10
733590.42696721305
 20
4554979.8016393436
 30
0.0
  0
SEQEND
  5
297
  8
SQUARES
  0
POLYLINE
  5
8E
  8
SQUARES
 66
     1
 10
0.0
 20
0.0
 30
0.0
 70
     1
1001
DCO15
1071
        2
1071
        2
1000
colsq
1004
073030323200
1001
ADE
1011
-1.2384866452775889
1021
0.0
1031
0.0
1021
-0.9855851326137781
1031
0.0
  0
VERTEX
  5
298
  8
SQUARES
 10
733590.42696721305
 20
4554979.8016393436
 30
0.0
  0
VERTEX
  5
299
  8
SQUARES
 10
733588.70885245886
 20
4554984.4973770492
 30
0.0
  0
VERTEX
  5
29A
  8
SQUARES
 10
733593.40459016385
 20
4554986.2154918034
 30
0.0
  0
VERTEX
  5
29B
  8
SQUARES
 10
733595.1227049178
 20
4554981.5197540987
 30
0.0
  0
SEQEND
  5
29C
  8
SQUARES
  0
POLYLINE
  5
8F
  8
SQUARES
 66
     1
 10
0.0
 20
0.0
 30
0.0
 70
     1
1001
DCO15
1071
        2
1071
        2
1000
colsq
1004
073030353800
1001
ADE
1011
-1.238486645394004
1021
0.0
1031
0.0
1021
-0.9855851326137781
1031
0.0
  0
VERTEX
  5
29D
  8
SQUARES
 10
733611.84524590173
 20
4554950.3677049177
 30
0.0
  0
VERTEX
  5
29E
  8
SQUARES
 10
733613.5633606558
 20
4554945.671967213
 30
0.0
  0
VERTEX
  5
29F
  8
SQUARES
 10
733608.86762295093
 20
4554943.9538524579
 30
0.0
  0
VERTEX
  5
2A0
  8
SQUARES
 10
733607.14950819663
 20
4554948.6495901654
 30
0.0
  0
SEQEND
  5
2A1
  8
SQUARES
  0
POLYLINE
  5
90
  8
SQUARES
 66
     1
 10
0.0
 20
0.0
 30
0.0
 70
     1
1001
DCO15
1071
        2
1071
        2
1000
colsq
1004
073030353400
1001
ADE
1011
-1.2386020323028779
1021
0.0
1031
0.0
1021
-0.9852697718888521
1031
0.0
  0
VERTEX
  5
2A2
  8
SQUARES
 10
733606.69090163906
 20
4554964.4549180334
 30
0.0
  0
VERTEX
  5
2A3
  8
SQUARES
 10
733608.40901639336
 20
4554959.7591803269
 30
0.0
  0
VERTEX
  5
2A4
  8
SQUARES
 10
733603.71327868837
 20
4554958.0410655737
 30
0.0
  0
VERTEX
  5
2A5
  8
SQUARES
 10
733601.99516393419
 20
4554962.7368032793
 30
0.0
  0
SEQEND
  5
2A6
  8
SQUARES
  0
POLYLINE
  5
91
  8
SQUARES
 66
     1
 10
0.0
 20
0.0
 30
0.0
 70
     1
1001
DCO15
1071
        2
1071
        2
1000
colsq
1004
073030333000
1001
ADE
1011
-1.238486645044758
1021
0.0
1031
0.0
1021
-0.9855851326137781
1031
0.0
  0
VERTEX
  5
2A7
  8
SQUARES
 10
733604.9727868851
 20
4554969.1506557381
 30
0.0
  0
VERTEX
  5
2A8
  8
SQUARES
 10
733606.69090163906
 20
4554964.4549180334
 30
0.0
  0
VERTEX
  5
2A9
  8
SQUARES
 10
733601.99516393419
 20
4554962.7368032793
 30
0.0
  0
VERTEX
  5
2AA
  8
SQUARES
 10
733600.27704918012
 20
4554967.432540983
 30
0.0
  0
SEQEND
  5
2AB
  8
SQUARES
  0
POLYLINE
  5
92
  8
SQUARES
 66
     1
 10
0.0
 20
0.0
 30
0.0
 70
     1
1001
DCO15
1071
        2
1071
        2
1000
colsq
1004
073030323000
1001
ADE
1011
-1.238486645044758
1021
0.0
1031
0.0
1021
-0.9855851335451006
1031
0.0
  0
VERTEX
  5
2AC
  8
SQUARES
 10
733599.81844262278
 20
4554983.237868852
 30
0.0
  0
VERTEX
  5
2AD
  8
SQUARES
 10
733601.53655737685
 20
4554978.5421311492
 30
0.0
  0
VERTEX
  5
2AE
  8
SQUARES
 10
733596.84081967187
 20
4554976.8240163941
 30
0.0
  0
VERTEX
  5
2AF
  8
SQUARES
 10
733595.1227049178
 20
4554981.5197540987
 30
0.0
  0
SEQEND
  5
2B0
  8
SQUARES
  0
POLYLINE
  5
93
  8
SQUARES
 66
     1
 10
0.0
 20
0.0
 30
0.0
 70
     1
1001
DCO15
1071
        2
1071
        2
1000
colsq
1004
073030323100
1001
ADE
1011
-1.2384866452775889
1021
0.0
1031
0.0
1021
-0.9855851326137781
1031
0.0
  0
VERTEX
  5
2B1
  8
SQUARES
 10
733598.1003278686
 20
4554987.9336065566
 30
0.0
  0
VERTEX
  5
2B2
  8
SQUARES
 10
733599.81844262278
 20
4554983.237868852
 30
0.0
  0
VERTEX
  5
2B3
  8
SQUARES
 10
733595.1227049178
 20
4554981.5197540987
 30
0.0
  0
VERTEX
  5
2B4
  8
SQUARES
 10
733593.40459016385
 20
4554986.2154918034
 30
0.0
  0
SEQEND
  5
2B5
  8
SQUARES
  0
POLYLINE
  5
94
  8
SQUARES
 66
     1
 10
0.0
 20
0.0
 30
0.0
 70
     1
1001
DCO15
1071
        2
1071
        2
1000
colsq
1004
073030323300
1001
ADE
1011
-1.2384866452775889
1021
0.0
1031
0.0
1021
-0.9855851326137781
1031
0.0
  0
VERTEX
  5
2B6
  8
SQUARES
 10
733591.68647540954
 20
4554990.9112295071
 30
0.0
  0
VERTEX
  5
2B7
  8
SQUARES
 10
733596.38221311464
 20
4554992.6293442622
 30
0.0
  0
VERTEX
  5
2B8
  8
SQUARES
 10
733598.1003278686
 20
4554987.9336065566
 30
0.0
  0
VERTEX
  5
2B9
  8
SQUARES
 10
733593.40459016385
 20
4554986.2154918034
 30
0.0
  0
SEQEND
  5
2BA
  8
SQUARES
  0
POLYLINE
  5
95
  8
SQUARES
 66
     1
 10
0.0
 20
0.0
 30
0.0
 70
     1
1001
DCO15
1071
        2
1071
        2
1000
colsq
1004
073030363100
1001
ADE
1011
-1.2386020324192939
1021
0.0
1031
0.0
1021
-0.9852697709575295
1031
0.0
  0
VERTEX
  5
2BB
  8
SQUARES
 10
733618.25909836055
 20
4554947.3900819672
 30
0.0
  0
VERTEX
  5
2BC
  8
SQUARES
 10
733616.54098360636
 20
4554952.0858196719
 30
0.0
  0
VERTEX
  5
2BD
  8
SQUARES
 10
733611.84524590173
 20
4554950.3677049177
 30
0.0
  0
VERTEX
  5
2BE
  8
SQUARES
 10
733613.5633606558
 20
4554945.671967213
 30
0.0
  0
SEQEND
  5
2BF
  8
SQUARES
  0
POLYLINE
  5
96
  8
SQUARES
 66
     1
 10
0.0
 20
0.0
 30
0.0
 70
     1
1001
DCO15
1071
        2
1071
        2
1000
colsq
1004
073030333700
1001
ADE
1011
-1.2384866452775889
1021
0.0
1031
0.0
1021
-0.9855851326137781
1031
0.0
  0
VERTEX
  5
2C0
  8
SQUARES
 10
733607.95040983614
 20
4554975.5645081969
 30
0.0
  0
VERTEX
  5
2C1
  8
SQUARES
 10
733609.6685245902
 20
4554970.8687704923
 30
0.0
  0
VERTEX
  5
2C2
  8
SQUARES
 10
733604.9727868851
 20
4554969.1506557381
 30
0.0
  0
VERTEX
  5
2C3
  8
SQUARES
 10
733603.25467213104
 20
4554973.8463934427
 30
0.0
  0
SEQEND
  5
2C4
  8
SQUARES
  0
POLYLINE
  5
97
  8
SQUARES
 66
     1
 10
0.0
 20
0.0
 30
0.0
 70
     1
1001
DCO15
1071
        2
1071
        2
1000
colsq
1004
073030313800
1001
ADE
1011
-1.2384866452775889
1021
0.0
1031
0.0
1021
-0.9855851335451006
1031
0.0
  0
VERTEX
  5
2C5
  8
SQUARES
 10
733606.23229508195
 20
4554980.2602459025
 30
0.0
  0
VERTEX
  5
2C6
  8
SQUARES
 10
733604.51418032777
 20
4554984.9559836071
 30
0.0
  0
VERTEX
  5
2C7
  8
SQUARES
 10
733599.81844262278
 20
4554983.237868852
 30
0.0
  0
VERTEX
  5
2C8
  8
SQUARES
 10
733601.53655737685
 20
4554978.5421311492
 30
0.0
  0
SEQEND
  5
2C9
  8
SQUARES
  0
POLYLINE
  5
98
  8
SQUARES
 66
     1
 10
0.0
 20
0.0
 30
0.0
 70
     1
1001
DCO15
1071
        2
1071
        2
1000
colsq
1004
073030343200
1001
ADE
1011
-1.238486645161174
1021
0.0
1031
0.0
1021
-0.9855851335451006
1031
0.0
  0
VERTEX
  5
2CA
  8
SQUARES
 10
733616.08237704902
 20
4554967.8911475409
 30
0.0
  0
VERTEX
  5
2CB
  8
SQUARES
 10
733614.36426229519
 20
4554972.5868852464
 30
0.0
  0
VERTEX
  5
2CC
  8
SQUARES
 10
733609.6685245902
 20
4554970.8687704923
 30
0.0
  0
VERTEX
  5
2CD
  8
SQUARES
 10
733611.38663934427
 20
4554966.1730327876
 30
0.0
  0
SEQEND
  5
2CE
  8
SQUARES
  0
POLYLINE
  5
99
  8
SQUARES
 66
     1
 10
0.0
 20
0.0
 30
0.0
 70
     1
1001
DCO15
1071
        2
1071
        2
1000
colsq
1004
073030313500
1001
ADE
1011
-1.2386020324192939
1021
0.0
1031
0.0
1021
-0.9852697709575295
1031
0.0
  0
VERTEX
  5
2CF
  8
SQUARES
 10
733610.9280327867
 20
4554981.9783606557
 30
0.0
  0
VERTEX
  5
2D0
  8
SQUARES
 10
733612.64614754089
 20
4554977.2826229511
 30
0.0
  0
VERTEX
  5
2D1
  8
SQUARES
 10
733607.95040983614
 20
4554975.5645081969
 30
0.0
  0
VERTEX
  5
2D2
  8
SQUARES
 10
733606.23229508195
 20
4554980.2602459025
 30
0.0
  0
SEQEND
  5
2D3
  8
SQUARES
  0
POLYLINE
  5
9A
  8
SQUARES
 66
     1
 10
0.0
 20
0.0
 30
0.0
 70
     1
1001
DCO15
1071
        2
1071
        2
1000
colsq
1004
073030313600
1001
ADE
1011
-1.2386020323028779
1021
0.0
1031
0.0
1021
-0.9852697709575295
1031
0.0
  0
VERTEX
  5
2D4
  8
SQUARES
 10
733606.23229508195
 20
4554980.2602459025
 30
0.0
  0
VERTEX
  5
2D5
  8
SQUARES
 10
733610.9280327867
 20
4554981.9783606557
 30
0.0
  0
VERTEX
  5
2D6
  8
SQUARES
 10
733609.20991803263
 20
4554986.6740983604
 30
0.0
  0
VERTEX
  5
2D7
  8
SQUARES
 10
733604.51418032788
 20
4554984.9559836071
 30
0.0
  0
SEQEND
  5
2D8
  8
SQUARES
  0
POLYLINE
  5
9B
  8
SQUARES
 66
     1
 10
0.0
 20
0.0
 30
0.0
 70
     1
1001
DCO15
1071
        2
1071
        2
1000
colsq
1004
073030343600
1001
ADE
1011
-1.2386020323028779
1021
0.0
1031
0.0
1021
-0.9852697709575295
1031
0.0
  0
VERTEX
  5
2D9
  8
SQUARES
 10
733620.77811475389
 20
4554969.6092622951
 30
0.0
  0
VERTEX
  5
2DA
  8
SQUARES
 10
733622.49622950843
 20
4554964.9135245914
 30
0.0
  0
VERTEX
  5
2DB
  8
SQUARES
 10
733617.80049180321
 20
4554963.1954098362
 30
0.0
  0
VERTEX
  5
2DC
  8
SQUARES
 10
733616.08237704902
 20
4554967.8911475409
 30
0.0
  0
SEQEND
  5
2DD
  8
SQUARES
  0
POLYLINE
  5
9C
  8
SQUARES
 66
     1
 10
0.0
 20
0.0
 30
0.0
 70
     1
1001
DCO15
1071
        2
1071
        2
1000
colsq
1004
073030343100
1001
ADE
1011
-1.2386020324192939
1021
0.0
1031
0.0
1021
-0.9852697718888521
1031
0.0
  0
VERTEX
  5
2DE
  8
SQUARES
 10
733620.77811475389
 20
4554969.6092622951
 30
0.0
  0
VERTEX
  5
2DF
  8
SQUARES
 10
733616.08237704902
 20
4554967.8911475409
 30
0.0
  0
VERTEX
  5
2E0
  8
SQUARES
 10
733614.36426229519
 20
4554972.5868852464
 30
0.0
  0
VERTEX
  5
2E1
  8
SQUARES
 10
733619.05999999994
 20
4554974.3049999997
 30
0.0
  0
SEQEND
  5
2E2
  8
SQUARES
  0
POLYLINE
  5
9D
  8
SQUARES
 66
     1
 10
0.0
 20
0.0
 30
0.0
 70
     1
1001
DCO15
1071
        2
1071
        2
1000
colsq
1004
073030313300
1001
ADE
1011
-1.238486645161174
1021
0.0
1031
0.0
1021
-0.9855851326137781
1031
0.0
  0
VERTEX
  5
2E3
  8
SQUARES
 10
733615.62377049157
 20
4554983.6964754099
 30
0.0
  0
VERTEX
  5
2E4
  8
SQUARES
 10
733617.34188524599
 20
4554979.0007377053
 30
0.0
  0
VERTEX
  5
2E5
  8
SQUARES
 10
733612.64614754089
 20
4554977.2826229511
 30
0.0
  0
VERTEX
  5
2E6
  8
SQUARES
 10
733610.9280327867
 20
4554981.9783606557
 30
0.0
  0
SEQEND
  5
2E7
  8
SQUARES
  0
POLYLINE
  5
9E
  8
SQUARES
 66
     1
 10
0.0
 20
0.0
 30
0.0
 70
     1
1001
DCO15
1071
        2
1071
        2
1000
colsq
1004
073030313400
1001
ADE
1011
-1.2386020323028779
1021
0.0
1031
0.0
1021
-0.9852697709575295
1031
0.0
  0
VERTEX
  5
2E8
  8
SQUARES
 10
733610.9280327867
 20
4554981.9783606557
 30
0.0
  0
VERTEX
  5
2E9
  8
SQUARES
 10
733615.62377049157
 20
4554983.6964754099
 30
0.0
  0
VERTEX
  5
2EA
  8
SQUARES
 10
733613.90565573773
 20
4554988.3922131145
 30
0.0
  0
VERTEX
  5
2EB
  8
SQUARES
 10
733609.20991803263
 20
4554986.6740983604
 30
0.0
  0
SEQEND
  5
2EC
  8
SQUARES
  0
POLYLINE
  5
9F
  8
SQUARES
 66
     1
 10
0.0
 20
0.0
 30
0.0
 70
     1
1001
DCO15
1071
        2
1071
        2
1000
colsq
1004
073030343000
1001
ADE
1011
-1.2386020324192939
1021
0.0
1031
0.0
1021
-0.9852697709575295
1031
0.0
  0
VERTEX
  5
2ED
  8
SQUARES
 10
733620.77811475389
 20
4554969.6092622951
 30
0.0
  0
VERTEX
  5
2EE
  8
SQUARES
 10
733619.05999999994
 20
4554974.3049999997
 30
0.0
  0
VERTEX
  5
2EF
  8
SQUARES
 10
733623.75573770481
 20
4554976.0231147539
 30
0.0
  0
VERTEX
  5
2F0
  8
SQUARES
 10
733625.47385245888
 20
4554971.3273770493
 30
0.0
  0
SEQEND
  5
2F1
  8
SQUARES
  0
POLYLINE
  5
A0
  8
SQUARES
 66
     1
 10
0.0
 20
0.0
 30
0.0
 70
     1
1001
DCO15
1071
        2
1071
        2
1000
colsq
1004
073030313100
1001
ADE
1011
-1.2386020323028779
1021
0.0
1031
0.0
1021
-0.9852697709575295
1031
0.0
  0
VERTEX
  5
2F2
  8
SQUARES
 10
733620.31950819644
 20
4554985.4145901641
 30
0.0
  0
VERTEX
  5
2F3
  8
SQUARES
 10
733622.03762295085
 20
4554980.7188524576
 30
0.0
  0
VERTEX
  5
2F4
  8
SQUARES
 10
733617.34188524599
 20
4554979.0007377053
 30
0.0
  0
VERTEX
  5
2F5
  8
SQUARES
 10
733615.62377049157
 20
4554983.6964754099
 30
0.0
  0
SEQEND
  5
2F6
  8
SQUARES
  0
POLYLINE
  5
A1
  8
SQUARES
 66
     1
 10
0.0
 20
0.0
 30
0.0
 70
     1
1001
DCO15
1071
        2
1071
        2
1000
colsq
1004
073030313200
1001
ADE
1011
-1.238486645161174
1021
0.0
1031
0.0
1021
-0.9855851326137781
1031
0.0
  0
VERTEX
  5
2F7
  8
SQUARES
 10
733615.62377049157
 20
4554983.6964754099
 30
0.0
  0
VERTEX
  5
2F8
  8
SQUARES
 10
733620.31950819644
 20
4554985.4145901641
 30
0.0
  0
VERTEX
  5
2F9
  8
SQUARES
 10
733618.6013934426
 20
4554990.1103278678
 30
0.0
  0
VERTEX
  5
2FA
  8
SQUARES
 10
733613.90565573773
 20
4554988.3922131145
 30
0.0
  0
SEQEND
  5
2FB
  8
SQUARES
  0
POLYLINE
  5
A2
  8
SQUARES
 66
     1
 10
0.0
 20
0.0
 30
0.0
 70
     1
1001
DCO15
1071
        2
1071
        2
1000
colsq
1004
073030343900
1001
ADE
1011
-1.2386020324192939
1021
0.0
1031
0.0
1021
-0.9852697709575295
1031
0.0
  0
VERTEX
  5
2FC
  8
SQUARES
 10
733630.16959016386
 20
4554973.0454918034
 30
0.0
  0
VERTEX
  5
2FD
  8
SQUARES
 10
733631.88770491828
 20
4554968.3497540979
 30
0.0
  0
VERTEX
  5
2FE
  8
SQUARES
 10
733627.19196721318
 20
4554966.6316393437
 30
0.0
  0
VERTEX
  5
2FF
  8
SQUARES
 10
733625.47385245888
 20
4554971.3273770493
 30
0.0
  0
SEQEND
  5
300
  8
SQUARES
  0
POLYLINE
  5
A3
  8
SQUARES
 66
     1
 10
0.0
 20
0.0
 30
0.0
 70
     1
1001
DCO15
1071
        2
1071
        2
1000
colsq
1004
073030333900
1001
ADE
1011
-1.238486645161174
1021
0.0
1031
0.0
1021
-0.9855851326137781
1031
0.0
  0
VERTEX
  5
301
  8
SQUARES
 10
733628.45147540979
 20
4554977.7412295081
 30
0.0
  0
VERTEX
  5
302
  8
SQUARES
 10
733630.16959016386
 20
4554973.0454918034
 30
0.0
  0
VERTEX
  5
303
  8
SQUARES
 10
733625.47385245888
 20
4554971.3273770493
 30
0.0
  0
VERTEX
  5
304
  8
SQUARES
 10
733623.75573770481
 20
4554976.0231147539
 30
0.0
  0
SEQEND
  5
305
  8
SQUARES
  0
POLYLINE
  5
A4
  8
SQUARES
 66
     1
 10
0.0
 20
0.0
 30
0.0
 70
     1
1001
DCO15
1071
        2
1071
        2
1000
colsq
1004
073030333100
1001
ADE
1011
-1.2384866452775889
1021
0.0
1031
0.0
1021
-0.9855851326137781
1031
0.0
  0
VERTEX
  5
306
  8
SQUARES
 10
733626.73336065584
 20
4554982.4369672127
 30
0.0
  0
VERTEX
  5
307
  8
SQUARES
 10
733628.45147540979
 20
4554977.7412295081
 30
0.0
  0
VERTEX
  5
308
  8
SQUARES
 10
733623.75573770481
 20
4554976.0231147539
 30
0.0
  0
VERTEX
  5
309
  8
SQUARES
 10
733622.03762295085
 20
4554980.7188524576
 30
0.0
  0
SEQEND
  5
30A
  8
SQUARES
  0
POLYLINE
  5
A5
  8
SQUARES
 66
     1
 10
0.0
 20
0.0
 30
0.0
 70
     1
1001
DCO15
1071
        2
1071
        2
1000
colsq
1004
073030303900
1001
ADE
1011
-1.2386020324192939
1021
0.0
1031
0.0
1021
-0.9852697709575295
1031
0.0
  0
VERTEX
  5
30B
  8
SQUARES
 10
733625.01524590142
 20
4554987.1327049183
 30
0.0
  0
VERTEX
  5
30C
  8
SQUARES
 10
733626.73336065584
 20
4554982.4369672127
 30
0.0
  0
VERTEX
  5
30D
  8
SQUARES
 10
733622.03762295085
 20
4554980.7188524576
 30
0.0
  0
VERTEX
  5
30E
  8
SQUARES
 10
733620.31950819644
 20
4554985.4145901641
 30
0.0
  0
SEQEND
  5
30F
  8
SQUARES
  0
POLYLINE
  5
A6
  8
SQUARES
 66
     1
 10
0.0
 20
0.0
 30
0.0
 70
     1
1001
DCO15
1071
        2
1071
        2
1000
colsq
1004
073030333800
1001
ADE
1011
-1.2384866452775889
1021
0.0
1031
0.0
1021
-0.9855851326137781
1031
0.0
  0
VERTEX
  5
310
  8
SQUARES
 10
733633.14721311477
 20
4554979.4593442623
 30
0.0
  0
VERTEX
  5
311
  8
SQUARES
 10
733634.86532786884
 20
4554974.7636065576
 30
0.0
  0
VERTEX
  5
312
  8
SQUARES
 10
733630.16959016386
 20
4554973.0454918034
 30
0.0
  0
VERTEX
  5
313
  8
SQUARES
 10
733628.45147540979
 20
4554977.7412295081
 30
0.0
  0
SEQEND
  5
314
  8
SQUARES
  0
POLYLINE
  5
A7
  8
SQUARES
 66
     1
 10
0.0
 20
0.0
 30
0.0
 70
     1
1001
DCO15
1071
        2
1071
        2
1000
colsq
1004
073030333200
1001
ADE
1011
-1.2384866452775889
1021
0.0
1031
0.0
1021
-0.9855851326137781
1031
0.0
  0
VERTEX
  5
315
  8
SQUARES
 10
733631.42909836071
 20
4554984.155081966
 30
0.0
  0
VERTEX
  5
316
  8
SQUARES
 10
733633.14721311477
 20
4554979.4593442623
 30
0.0
  0
VERTEX
  5
317
  8
SQUARES
 10
733628.45147540979
 20
4554977.7412295081
 30
0.0
  0
VERTEX
  5
318
  8
SQUARES
 10
733626.73336065584
 20
4554982.4369672127
 30
0.0
  0
SEQEND
  5
319
  8
SQUARES
  0
POLYLINE
  5
A8
  8
SQUARES
 66
     1
 10
0.0
 20
0.0
 30
0.0
 70
     1
1001
DCO15
1071
        2
1071
        2
1000
colsq
1004
073030303800
1001
ADE
1011
-1.238486645161174
1021
0.0
1031
0.0
1021
-0.9855851326137781
1031
0.0
  0
VERTEX
  5
31A
  8
SQUARES
 10
733625.01524590142
 20
4554987.1327049183
 30
0.0
  0
VERTEX
  5
31B
  8
SQUARES
 10
733629.7109836064
 20
4554988.8508196734
 30
0.0
  0
VERTEX
  5
31C
  8
SQUARES
 10
733627.99286885245
 20
4554993.5465573762
 30
0.0
  0
VERTEX
  5
31D
  8
SQUARES
 10
733623.29713114735
 20
4554991.8284426229
 30
0.0
  0
SEQEND
  5
31E
  8
SQUARES
  0
POLYLINE
  5
A9
  8
SQUARES
 66
     1
 10
0.0
 20
0.0
 30
0.0
 70
     1
1001
DCO15
1071
        2
1071
        2
1000
colsq
1004
073030363900
1001
ADE
1011
-1.2386020324192939
1021
0.0
1031
0.0
1021
-0.9852697709575295
1031
0.0
  0
VERTEX
  5
31F
  8
SQUARES
 10
733640.01967213105
 20
4554960.6763934419
 30
0.0
  0
VERTEX
  5
320
  8
SQUARES
 10
733644.71540983603
 20
4554962.394508197
 30
0.0
  0
VERTEX
  5
321
  8
SQUARES
 10
733642.99729508208
 20
4554967.0902459007
 30
0.0
  0
VERTEX
  5
322
  8
SQUARES
 10
733638.30155737721
 20
4554965.3721311484
 30
0.0
  0
SEQEND
  5
323
  8
SQUARES
  0
POLYLINE
  5
AA
  8
SQUARES
 66
     1
 10
0.0
 20
0.0
 30
0.0
 70
     1
1001
DCO15
1071
        2
1071
        2
1000
colsq
1004
073030333600
1001
ADE
1011
-1.238486645161174
1021
0.0
1031
0.0
1021
-0.9855851326137781
1031
0.0
  0
VERTEX
  5
324
  8
SQUARES
 10
733637.84295081953
 20
4554981.1774590164
 30
0.0
  0
VERTEX
  5
325
  8
SQUARES
 10
733639.56106557371
 20
4554976.4817213118
 30
0.0
  0
VERTEX
  5
326
  8
SQUARES
 10
733634.86532786884
 20
4554974.7636065576
 30
0.0
  0
VERTEX
  5
327
  8
SQUARES
 10
733633.14721311477
 20
4554979.4593442623
 30
0.0
  0
SEQEND
  5
328
  8
SQUARES
  0
POLYLINE
  5
AB
  8
SQUARES
 66
     1
 10
0.0
 20
0.0
 30
0.0
 70
     1
1001
DCO15
1071
        2
1071
        2
1000
colsq
1004
073030333300
1001
ADE
1011
-1.2384866452775889
1021
0.0
1031
0.0
1021
-0.9855851326137781
1031
0.0
  0
VERTEX
  5
329
  8
SQUARES
 10
733636.12483606557
 20
4554985.8731967211
 30
0.0
  0
VERTEX
  5
32A
  8
SQUARES
 10
733637.84295081953
 20
4554981.1774590164
 30
0.0
  0
VERTEX
  5
32B
  8
SQUARES
 10
733633.14721311477
 20
4554979.4593442623
 30
0.0
  0
VERTEX
  5
32C
  8
SQUARES
 10
733631.42909836071
 20
4554984.155081966
 30
0.0
  0
SEQEND
  5
32D
  8
SQUARES
  0
POLYLINE
  5
AC
  8
SQUARES
 66
     1
 10
0.0
 20
0.0
 30
0.0
 70
     1
1001
DCO15
1071
        2
1071
        2
1000
colsq
1004
073030303100
1001
ADE
1011
-1.2386020324192939
1021
0.0
1031
0.0
1021
-0.9852697709575295
1031
0.0
  0
VERTEX
  5
32E
  8
SQUARES
 10
733624.55663934432
 20
4555002.9380327873
 30
0.0
  0
VERTEX
  5
32F
  8
SQUARES
 10
733629.25237704918
 20
4555004.6561475405
 30
0.0
  0
VERTEX
  5
330
  8
SQUARES
 10
733627.53426229511
 20
4555009.3518852461
 30
0.0
  0
VERTEX
  5
331
  8
SQUARES
 10
733622.83852459001
 20
4555007.6337704919
 30
0.0
  0
SEQEND
  5
332
  8
SQUARES
  0
POLYLINE
  5
AD
  8
SQUARES
 66
     1
 10
0.0
 20
0.0
 30
0.0
 70
     1
1001
DCO15
1071
        2
1071
        2
1000
colsq
1004
073030373300
1001
ADE
1011
-1.2384866452775889
1021
0.0
1031
0.0
1021
-0.9855851326137781
1031
0.0
  0
VERTEX
  5
333
  8
SQUARES
 10
733649.4111475409
 20
4554964.1126229502
 30
0.0
  0
VERTEX
  5
334
  8
SQUARES
 10
733651.12926229532
 20
4554959.4168852447
 30
0.0
  0
VERTEX
  5
335
  8
SQUARES
 10
733646.4335245901
 20
4554957.6987704923
 30
0.0
  0
VERTEX
  5
336
  8
SQUARES
 10
733644.71540983603
 20
4554962.394508197
 30
0.0
  0
SEQEND
  5
337
  8
SQUARES
  0
POLYLINE
  5
AE
  8
SQUARES
 66
     1
 10
0.0
 20
0.0
 30
0.0
 70
     1
1001
DCO15
1071
        2
1071
        2
1000
colsq
1004
073030373200
1001
ADE
1011
-1.2384866452775889
1021
0.0
1031
0.0
1021
-0.9855851326137781
1031
0.0
  0
VERTEX
  5
338
  8
SQUARES
 10
733647.69303278695
 20
4554968.8083606558
 30
0.0
  0
VERTEX
  5
339
  8
SQUARES
 10
733642.99729508208
 20
4554967.0902459007
 30
0.0
  0
VERTEX
  5
33A
  8
SQUARES
 10
733644.71540983603
 20
4554962.394508197
 30
0.0
  0
VERTEX
  5
33B
  8
SQUARES
 10
733649.4111475409
 20
4554964.1126229502
 30
0.0
  0
SEQEND
  5
33C
  8
SQUARES
  0
POLYLINE
  5
AF
  8
SQUARES
 66
     1
 10
0.0
 20
0.0
 30
0.0
 70
     1
1001
DCO15
1071
        2
1071
        2
1000
colsq
1004
073030333500
1001
ADE
1011
-1.238486645044758
1021
0.0
1031
0.0
1021
-0.9855851326137781
1031
0.0
  0
VERTEX
  5
33D
  8
SQUARES
 10
733642.53868852474
 20
4554982.8955737697
 30
0.0
  0
VERTEX
  5
33E
  8
SQUARES
 10
733644.25680327858
 20
4554978.199836066
 30
0.0
  0
VERTEX
  5
33F
  8
SQUARES
 10
733639.56106557371
 20
4554976.4817213118
 30
0.0
  0
VERTEX
  5
340
  8
SQUARES
 10
733637.84295081953
 20
4554981.1774590164
 30
0.0
  0
SEQEND
  5
341
  8
SQUARES
  0
POLYLINE
  5
B0
  8
SQUARES
 66
     1
 10
0.0
 20
0.0
 30
0.0
 70
     1
1001
DCO15
1071
        2
1071
        2
1000
colsq
1004
073030333400
1001
ADE
1011
-1.2384866452775889
1021
0.0
1031
0.0
1021
-0.9855851326137781
1031
0.0
  0
VERTEX
  5
342
  8
SQUARES
 10
733640.82057377044
 20
4554987.5913114753
 30
0.0
  0
VERTEX
  5
343
  8
SQUARES
 10
733642.53868852474
 20
4554982.8955737697
 30
0.0
  0
VERTEX
  5
344
  8
SQUARES
 10
733637.84295081953
 20
4554981.1774590164
 30
0.0
  0
VERTEX
  5
345
  8
SQUARES
 10
733636.12483606557
 20
4554985.8731967211
 30
0.0
  0
SEQEND
  5
346
  8
SQUARES
  0
POLYLINE
  5
B1
  8
SQUARES
 66
     1
 10
0.0
 20
0.0
 30
0.0
 70
     1
1001
DCO15
1071
        2
1071
        2
1000
colsq
1004
073030303400
1001
ADE
1011
-1.2386020323028779
1021
0.0
1031
0.0
1021
-0.9852697709575295
1031
0.0
  0
VERTEX
  5
347
  8
SQUARES
 10
733639.10245901626
 20
4554992.2870491808
 30
0.0
  0
VERTEX
  5
348
  8
SQUARES
 10
733640.82057377044
 20
4554987.5913114753
 30
0.0
  0
VERTEX
  5
349
  8
SQUARES
 10
733636.12483606557
 20
4554985.8731967211
 30
0.0
  0
VERTEX
  5
34A
  8
SQUARES
 10
733634.40672131127
 20
4554990.5689344257
 30
0.0
  0
SEQEND
  5
34B
  8
SQUARES
  0
POLYLINE
  5
B2
  8
SQUARES
 66
     1
 10
0.0
 20
0.0
 30
0.0
 70
     1
1001
DCO15
1071
        2
1071
        2
1000
colsq
1004
073030303300
1001
ADE
1011
-1.2384866452775889
1021
0.0
1031
0.0
1021
-0.9855851326137781
1031
0.0
  0
VERTEX
  5
34C
  8
SQUARES
 10
733637.38434426242
 20
4554996.9827868855
 30
0.0
  0
VERTEX
  5
34D
  8
SQUARES
 10
733632.68860655744
 20
4554995.2646721322
 30
0.0
  0
VERTEX
  5
34E
  8
SQUARES
 10
733634.40672131127
 20
4554990.5689344257
 30
0.0
  0
VERTEX
  5
34F
  8
SQUARES
 10
733639.10245901626
 20
4554992.2870491808
 30
0.0
  0
SEQEND
  5
350
  8
SQUARES
  0
POLYLINE
  5
B3
  8
SQUARES
 66
     1
 10
0.0
 20
0.0
 30
0.0
 70
     1
1001
DCO15
1071
        2
1071
        2
1000
colsq
1004
073030303200
1001
ADE
1011
-1.2384866452775889
1021
0.0
1031
0.0
1021
-0.9855851326137781
1031
0.0
  0
VERTEX
  5
351
  8
SQUARES
 10
733632.22999999998
 20
4555011.0700000003
 30
0.0
  0
VERTEX
  5
352
  8
SQUARES
 10
733627.53426229511
 20
4555009.3518852461
 30
0.0
  0
VERTEX
  5
353
  8
SQUARES
 10
733629.25237704918
 20
4555004.6561475405
 30
0.0
  0
VERTEX
  5
354
  8
SQUARES
 10
733633.94811475405
 20
4555006.3742622957
 30
0.0
  0
SEQEND
  5
355
  8
SQUARES
  0
POLYLINE
  5
B4
  8
SQUARES
 66
     1
 10
0.0
 20
0.0
 30
0.0
 70
     1
1001
DCO15
1071
        2
1071
        2
1000
colsq
1004
073030373500
1001
ADE
1011
-1.2386020324192939
1021
0.0
1031
0.0
1021
-0.9852697709575295
1031
0.0
  0
VERTEX
  5
356
  8
SQUARES
 10
733655.82500000019
 20
4554961.1349999998
 30
0.0
  0
VERTEX
  5
357
  8
SQUARES
 10
733654.10688524612
 20
4554965.8307377063
 30
0.0
  0
VERTEX
  5
358
  8
SQUARES
 10
733649.4111475409
 20
4554964.1126229502
 30
0.0
  0
VERTEX
  5
359
  8
SQUARES
 10
733651.12926229532
 20
4554959.4168852447
 30
0.0
  0
SEQEND
  5
35A
  8
SQUARES
  0
POLYLINE
  5
B5
  8
SQUARES
 66
     1
 10
0.0
 20
0.0
 30
0.0
 70
     1
1001
DCO15
1071
        2
1071
        2
1000
colsq
1004
073030373700
1001
ADE
1011
-1.2386020324192939
1021
0.0
1031
0.0
1021
-0.9852697709575295
1031
0.0
  0
VERTEX
  5
35B
  8
SQUARES
 10
733662.23885245924
 20
4554958.1573770503
 30
0.0
  0
VERTEX
  5
35C
  8
SQUARES
 10
733660.52073770505
 20
4554962.853114753
 30
0.0
  0
VERTEX
  5
35D
  8
SQUARES
 10
733655.82500000019
 20
4554961.1349999998
 30
0.0
  0
VERTEX
  5
35E
  8
SQUARES
 10
733657.54311475414
 20
4554956.4392622951
 30
0.0
  0
SEQEND
  5
35F
  8
SQUARES
  0
POLYLINE
  5
B6
  8
SQUARES
 66
     1
 10
0.0
 20
0.0
 30
0.0
 70
     1
1001
DCO15
1071
        2
1071
        2
1000
colsq
1004
073030373800
1001
ADE
1011
-1.2384866452775889
1021
0.0
1031
0.0
1021
-0.9855851326137781
1031
0.0
  0
VERTEX
  5
360
  8
SQUARES
 10
733658.34401639341
 20
4554983.3541803276
 30
0.0
  0
VERTEX
  5
361
  8
SQUARES
 10
733660.06213114748
 20
4554978.658442623
 30
0.0
  0
VERTEX
  5
362
  8
SQUARES
 10
733655.36639344273
 20
4554976.9403278679
 30
0.0
  0
VERTEX
  5
363
  8
SQUARES
 10
733653.64827868855
 20
4554981.6360655753
 30
0.0
  0
SEQEND
  5
364
  8
SQUARES
  0
POLYLINE
  5
B7
  8
SQUARES
 66
     1
 10
0.0
 20
0.0
 30
0.0
 70
     1
1001
DCO15
1071
        2
1071
        2
1000
colsq
1004
073030383000
1001
ADE
1011
-1.2384866452775889
1021
0.0
1031
0.0
1021
-0.9855851326137781
1031
0.0
  0
VERTEX
  5
365
  8
SQUARES
 10
733663.03975409851
 20
4554985.0722950818
 30
0.0
  0
VERTEX
  5
366
  8
SQUARES
 10
733664.75786885258
 20
4554980.3765573772
 30
0.0
  0
VERTEX
  5
367
  8
SQUARES
 10
733660.06213114748
 20
4554978.658442623
 30
0.0
  0
VERTEX
  5
368
  8
SQUARES
 10
733658.34401639341
 20
4554983.3541803276
 30
0.0
  0
SEQEND
  5
369
  8
SQUARES
  0
POLYLINE
  5
B8
  8
SQUARES
 66
     1
 10
0.0
 20
0.0
 30
0.0
 70
     1
1001
DCO15
1071
        2
1071
        2
1000
colsq
1004
073030393100
1001
ADE
1011
-1.193512424244545
1021
0.0
1031
0.0
1021
-1.0398370278999201
1031
0.0
  0
VERTEX
  5
36A
  8
SQUARES
 10
733448.95833333314
 20
4555111.2216666657
 30
0.0
  0
VERTEX
  5
36B
  8
SQUARES
 10
733450.88499999978
 20
4555106.6066666674
 30
0.0
  0
VERTEX
  5
36C
  8
SQUARES
 10
733446.27000000002
 20
4555104.6799999997
 30
0.0
  0
VERTEX
  5
36D
  8
SQUARES
 10
733444.34333333327
 20
4555109.2949999999
 30
0.0
  0
SEQEND
  5
36E
  8
SQUARES
  0
POLYLINE
  5
B9
  8
SQUARES
 66
     1
 10
0.0
 20
0.0
 30
0.0
 70
     1
1001
DCO15
1071
        2
1071
        2
1000
colsq
1004
073030383900
1001
ADE
1011
-1.193383030942641
1021
0.0
1031
0.0
1021
-1.0401469664648171
1031
0.0
  0
VERTEX
  5
36F
  8
SQUARES
 10
733447.03166666662
 20
4555115.836666666
 30
0.0
  0
VERTEX
  5
370
  8
SQUARES
 10
733448.95833333314
 20
4555111.2216666657
 30
0.0
  0
VERTEX
  5
371
  8
SQUARES
 10
733444.34333333327
 20
4555109.2949999999
 30
0.0
  0
VERTEX
  5
372
  8
SQUARES
 10
733442.41666666663
 20
4555113.9099999992
 30
0.0
  0
SEQEND
  5
373
  8
SQUARES
  0
POLYLINE
  5
BA
  8
SQUARES
 66
     1
 10
0.0
 20
0.0
 30
0.0
 70
     1
1001
DCO15
1071
        2
1071
        2
1000
colsq
1004
073030383500
1001
ADE
1011
-1.193383031175471
1021
0.0
1031
0.0
1021
-1.0401469664648171
1031
0.0
  0
VERTEX
  5
374
  8
SQUARES
 10
733443.17833333311
 20
4555125.0666666664
 30
0.0
  0
VERTEX
  5
375
  8
SQUARES
 10
733438.563333333
 20
4555123.1399999997
 30
0.0
  0
VERTEX
  5
376
  8
SQUARES
 10
733440.48999999987
 20
4555118.5250000004
 30
0.0
  0
VERTEX
  5
377
  8
SQUARES
 10
733445.10499999975
 20
4555120.4516666662
 30
0.0
  0
SEQEND
  5
378
  8
SQUARES
  0
POLYLINE
  5
BB
  8
SQUARES
 66
     1
 10
0.0
 20
0.0
 30
0.0
 70
     1
1001
DCO15
1071
        2
1071
        2
1000
colsq
1004
073030383700
1001
ADE
1011
-1.193383031175471
1021
0.0
1031
0.0
1021
-1.0401469664648171
1031
0.0
  0
VERTEX
  5
379
  8
SQUARES
 10
733451.64666666661
 20
4555117.7633333318
 30
0.0
  0
VERTEX
  5
37A
  8
SQUARES
 10
733449.71999999986
 20
4555122.3783333329
 30
0.0
  0
VERTEX
  5
37B
  8
SQUARES
 10
733445.10499999975
 20
4555120.4516666662
 30
0.0
  0
VERTEX
  5
37C
  8
SQUARES
 10
733447.03166666662
 20
4555115.836666666
 30
0.0
  0
SEQEND
  5
37D
  8
SQUARES
  0
POLYLINE
  5
BC
  8
SQUARES
 66
     1
 10
0.0
 20
0.0
 30
0.0
 70
     1
1001
DCO15
1071
        2
1071
        2
1000
colsq
1004
073030393700
1001
ADE
1011
-1.1935124243609601
1021
0.0
1031
0.0
1021
-1.0398370278999201
1031
0.0
  0
VERTEX
  5
37E
  8
SQUARES
 10
733469.34499999997
 20
4555114.3133333325
 30
0.0
  0
VERTEX
  5
37F
  8
SQUARES
 10
733471.27166666684
 20
4555109.6983333332
 30
0.0
  0
VERTEX
  5
380
  8
SQUARES
 10
733466.65666666685
 20
4555107.7716666674
 30
0.0
  0
VERTEX
  5
381
  8
SQUARES
 10
733464.72999999998
 20
4555112.3866666658
 30
0.0
  0
SEQEND
  5
382
  8
SQUARES
  0
POLYLINE
  5
BD
  8
SQUARES
 66
     1
 10
0.0
 20
0.0
 30
0.0
 70
     1
1001
DCO15
1071
        2
1071
        2
1000
colsq
1004
073030393500
1001
ADE
1011
-1.1935124243609601
1021
0.0
1031
0.0
1021
-1.0398370278999201
1031
0.0
  0
VERTEX
  5
383
  8
SQUARES
 10
733467.41833333333
 20
4555118.9283333328
 30
0.0
  0
VERTEX
  5
384
  8
SQUARES
 10
733462.80333333323
 20
4555117.0016666669
 30
0.0
  0
VERTEX
  5
385
  8
SQUARES
 10
733464.72999999998
 20
4555112.3866666658
 30
0.0
  0
VERTEX
  5
386
  8
SQUARES
 10
733469.34499999997
 20
4555114.3133333325
 30
0.0
  0
SEQEND
  5
387
  8
SQUARES
  0
POLYLINE
  5
BE
  8
SQUARES
 66
     1
 10
0.0
 20
0.0
 30
0.0
 70
     1
1001
DCO15
1071
        2
1071
        2
1000
colsq
1004
073030393800
1001
ADE
1011
-1.1933830310590561
1021
0.0
1031
0.0
1021
-1.0401469664648171
1031
0.0
  0
VERTEX
  5
388
  8
SQUARES
 10
733473.95999999996
 20
4555116.2400000002
 30
0.0
  0
VERTEX
  5
389
  8
SQUARES
 10
733475.88666666683
 20
4555111.625
 30
0.0
  0
VERTEX
  5
38A
  8
SQUARES
 10
733471.27166666684
 20
4555109.6983333332
 30
0.0
  0
VERTEX
  5
38B
  8
SQUARES
 10
733469.34499999997
 20
4555114.3133333325
 30
0.0
  0
SEQEND
  5
38C
  8
SQUARES
  0
POLYLINE
  5
BF
  8
SQUARES
 66
     1
 10
0.0
 20
0.0
 30
0.0
 70
     1
1001
DCO15
1071
        2
1071
        2
1000
colsq
1004
073030393600
1001
ADE
1011
-1.1935124243609601
1021
0.0
1031
0.0
1021
-1.0398370269685979
1031
0.0
  0
VERTEX
  5
38D
  8
SQUARES
 10
733473.95999999996
 20
4555116.2400000002
 30
0.0
  0
VERTEX
  5
38E
  8
SQUARES
 10
733469.34499999997
 20
4555114.3133333325
 30
0.0
  0
VERTEX
  5
38F
  8
SQUARES
 10
733467.41833333333
 20
4555118.9283333328
 30
0.0
  0
VERTEX
  5
390
  8
SQUARES
 10
733472.03333333333
 20
4555120.8550000014
 30
0.0
  0
SEQEND
  5
391
  8
SQUARES
  0
POLYLINE
  5
C0
  8
SQUARES
 66
     1
 10
0.0
 20
0.0
 30
0.0
 70
     1
1001
DCO15
1071
        2
1071
        2
1000
colsq
1004
073030393900
1001
ADE
1011
-0.891789120156318
1021
0.0
1031
0.0
1021
-1.3075003353878849
1031
0.0
  0
VERTEX
  5
392
  8
SQUARES
 10
733398.01750000042
 20
4555163.3449999988
 30
0.0
  0
VERTEX
  5
393
  8
SQUARES
 10
733394.98750000028
 20
4555167.3224999998
 30
0.0
  0
VERTEX
  5
394
  8
SQUARES
 10
733398.96500000008
 20
4555170.3524999991
 30
0.0
  0
VERTEX
  5
395
  8
SQUARES
 10
733401.99500000023
 20
4555166.3749999991
 30
0.0
  0
SEQEND
  5
396
  8
SQUARES
  0
POLYLINE
  5
C1
  8
SQUARES
 66
     1
 10
0.0
 20
0.0
 30
0.0
 70
     1
1001
DCO15
1071
        2
1071
        2
1000
colsq
1004
073031303500
1001
ADE
1011
-0.8917891200399026
1021
0.0
1031
0.0
1021
-1.3075003363192079
1031
0.0
  0
VERTEX
  5
397
  8
SQUARES
 10
733401.99500000023
 20
4555166.3749999991
 30
0.0
  0
VERTEX
  5
398
  8
SQUARES
 10
733405.02500000014
 20
4555162.3975
 30
0.0
  0
VERTEX
  5
399
  8
SQUARES
 10
733409.00249999994
 20
4555165.4274999993
 30
0.0
  0
VERTEX
  5
39A
  8
SQUARES
 10
733405.97250000003
 20
4555169.4050000003
 30
0.0
  0
SEQEND
  5
39B
  8
SQUARES
  0
POLYLINE
  5
C2
  8
SQUARES
 66
     1
 10
0.0
 20
0.0
 30
0.0
 70
     1
1001
DCO15
1071
        2
1071
        2
1000
colsq
1004
073030383300
1001
ADE
1011
-0.8915856280364096
1021
0.0
1031
0.0
1021
-1.3077674610540271
1031
0.0
  0
VERTEX
  5
39C
  8
SQUARES
 10
733403.89000000001
 20
4555180.3899999997
 30
0.0
  0
VERTEX
  5
39D
  8
SQUARES
 10
733399.91250000009
 20
4555177.3600000003
 30
0.0
  0
VERTEX
  5
39E
  8
SQUARES
 10
733402.9425
 20
4555173.3824999994
 30
0.0
  0
VERTEX
  5
39F
  8
SQUARES
 10
733406.92000000004
 20
4555176.4124999987
 30
0.0
  0
SEQEND
  5
3A0
  8
SQUARES
  0
POLYLINE
  5
C3
  8
SQUARES
 66
     1
 10
0.0
 20
0.0
 30
0.0
 70
     1
1001
DCO15
1071
        2
1071
        2
1000
colsq
1004
073031313400
1001
ADE
1011
-0.891789120156318
1021
0.0
1031
0.0
1021
-1.3075003372505301
1031
0.0
  0
VERTEX
  5
3A1
  8
SQUARES
 10
733429.0774999999
 20
4555155.5774999987
 30
0.0
  0
VERTEX
  5
3A2
  8
SQUARES
 10
733432.10750000004
 20
4555151.5999999996
 30
0.0
  0
VERTEX
  5
3A3
  8
SQUARES
 10
733428.13000000024
 20
4555148.5700000003
 30
0.0
  0
VERTEX
  5
3A4
  8
SQUARES
 10
733425.10000000009
 20
4555152.5475000003
 30
0.0
  0
SEQEND
  5
3A5
  8
SQUARES
  0
POLYLINE
  5
C4
  8
SQUARES
 66
     1
 10
0.0
 20
0.0
 30
0.0
 70
     1
1001
DCO15
1071
        2
1071
        2
1000
colsq
1004
073031313200
1001
ADE
1011
-0.8915856279199942
1021
0.0
1031
0.0
1021
-1.3077674610540271
1031
0.0
  0
VERTEX
  5
3A6
  8
SQUARES
 10
733426.04749999999
 20
4555159.5549999997
 30
0.0
  0
VERTEX
  5
3A7
  8
SQUARES
 10
733429.0774999999
 20
4555155.5774999987
 30
0.0
  0
VERTEX
  5
3A8
  8
SQUARES
 10
733425.10000000009
 20
4555152.5475000003
 30
0.0
  0
VERTEX
  5
3A9
  8
SQUARES
 10
733422.06999999995
 20
4555156.5250000004
 30
0.0
  0
SEQEND
  5
3AA
  8
SQUARES
  0
POLYLINE
  5
C5
  8
SQUARES
 66
     1
 10
0.0
 20
0.0
 30
0.0
 70
     1
1001
DCO15
1071
        2
1071
        2
1000
colsq
1004
073031313000
1001
ADE
1011
-0.891789120156318
1021
0.0
1031
0.0
1021
-1.3075003363192079
1031
0.0
  0
VERTEX
  5
3AB
  8
SQUARES
 10
733423.01749999996
 20
4555163.5324999988
 30
0.0
  0
VERTEX
  5
3AC
  8
SQUARES
 10
733419.04000000015
 20
4555160.5024999985
 30
0.0
  0
VERTEX
  5
3AD
  8
SQUARES
 10
733422.06999999995
 20
4555156.5250000004
 30
0.0
  0
VERTEX
  5
3AE
  8
SQUARES
 10
733426.04749999999
 20
4555159.5549999997
 30
0.0
  0
SEQEND
  5
3AF
  8
SQUARES
  0
POLYLINE
  5
C6
  8
SQUARES
 66
     1
 10
0.0
 20
0.0
 30
0.0
 70
     1
1001
DCO15
1071
        2
1071
        2
1000
colsq
1004
073031303800
1001
ADE
1011
-0.8915856280364096
1021
0.0
1031
0.0
1021
-1.3077674601227041
1031
0.0
  0
VERTEX
  5
3B0
  8
SQUARES
 10
733417.90499999991
 20
4555178.4949999992
 30
0.0
  0
VERTEX
  5
3B1
  8
SQUARES
 10
733420.93499999994
 20
4555174.5174999991
 30
0.0
  0
VERTEX
  5
3B2
  8
SQUARES
 10
733416.95750000014
 20
4555171.4874999998
 30
0.0
  0
VERTEX
  5
3B3
  8
SQUARES
 10
733413.92750000022
 20
4555175.4649999989
 30
0.0
  0
SEQEND
  5
3B4
  8
SQUARES
  0
POLYLINE
  5
C7
  8
SQUARES
 66
     1
 10
0.0
 20
0.0
 30
0.0
 70
     1
1001
DCO15
1071
        2
1071
        2
1000
colsq
1004
073031313900
1001
ADE
1011
-0.8477130960673093
1021
0.0
1031
0.0
1021
-1.3362009413540361
1031
0.0
  0
VERTEX
  5
3B5
  8
SQUARES
 10
733258.36400000006
 20
4555156.6920000007
 30
0.0
  0
VERTEX
  5
3B6
  8
SQUARES
 10
733261.52400000021
 20
4555152.818
 30
0.0
  0
VERTEX
  5
3B7
  8
SQUARES
 10
733257.65000000002
 20
4555149.6579999998
 30
0.0
  0
VERTEX
  5
3B8
  8
SQUARES
 10
733254.49000000011
 20
4555153.5320000006
 30
0.0
  0
SEQEND
  5
3B9
  8
SQUARES
  0
POLYLINE
  5
C8
  8
SQUARES
 66
     1
 10
0.0
 20
0.0
 30
0.0
 70
     1
1001
DCO15
1071
        2
1071
        2
1000
colsq
1004
073031323400
1001
ADE
1011
-0.8475008731475099
1021
0.0
1031
0.0
1021
-1.33646111562848
1031
0.0
  0
VERTEX
  5
3BA
  8
SQUARES
 10
733268.55800000019
 20
4555152.1040000003
 30
0.0
  0
VERTEX
  5
3BB
  8
SQUARES
 10
733271.71799999999
 20
4555148.2300000014
 30
0.0
  0
VERTEX
  5
3BC
  8
SQUARES
 10
733267.84400000016
 20
4555145.0700000003
 30
0.0
  0
VERTEX
  5
3BD
  8
SQUARES
 10
733264.68400000012
 20
4555148.9440000001
 30
0.0
  0
SEQEND
  5
3BE
  8
SQUARES
  0
POLYLINE
  5
C9
  8
SQUARES
 66
     1
 10
0.0
 20
0.0
 30
0.0
 70
     1
1001
DCO15
1071
        2
1071
        2
1000
colsq
1004
073031323000
1001
ADE
1011
-0.8475008730310946
1021
0.0
1031
0.0
1021
-1.33646111562848
1031
0.0
  0
VERTEX
  5
3BF
  8
SQUARES
 10
733262.23800000001
 20
4555159.852
 30
0.0
  0
VERTEX
  5
3C0
  8
SQUARES
 10
733265.39800000004
 20
4555155.9780000001
 30
0.0
  0
VERTEX
  5
3C1
  8
SQUARES
 10
733261.52400000021
 20
4555152.818
 30
0.0
  0
VERTEX
  5
3C2
  8
SQUARES
 10
733258.36400000006
 20
4555156.6920000007
 30
0.0
  0
SEQEND
  5
3C3
  8
SQUARES
  0
POLYLINE
  5
CA
  8
SQUARES
 66
     1
 10
0.0
 20
0.0
 30
0.0
 70
     1
1001
DCO15
1071
        2
1071
        2
1000
colsq
1004
073031313600
1001
ADE
1011
-0.847713095950894
1021
0.0
1031
0.0
1021
-1.3362009404227131
1031
0.0
  0
VERTEX
  5
3C4
  8
SQUARES
 10
733259.0780000001
 20
4555163.7259999989
 30
0.0
  0
VERTEX
  5
3C5
  8
SQUARES
 10
733255.20400000026
 20
4555160.5659999996
 30
0.0
  0
VERTEX
  5
3C6
  8
SQUARES
 10
733252.04400000023
 20
4555164.4400000004
 30
0.0
  0
VERTEX
  5
3C7
  8
SQUARES
 10
733255.91800000006
 20
4555167.5999999996
 30
0.0
  0
SEQEND
  5
3C8
  8
SQUARES
  0
POLYLINE
  5
CB
  8
SQUARES
 66
     1
 10
0.0
 20
0.0
 30
0.0
 70
     1
1001
DCO15
1071
        2
1071
        2
1000
colsq
1004
073031343500
1001
ADE
1011
-0.7973572869086638
1021
0.0
1031
0.0
1021
-1.366981866769492
1031
0.0
  0
VERTEX
  5
3C9
  8
SQUARES
 10
733085.3600000001
 20
4555155.7499999991
 30
0.0
  0
VERTEX
  5
3CA
  8
SQUARES
 10
733082.0575
 20
4555159.5037500001
 30
0.0
  0
VERTEX
  5
3CB
  8
SQUARES
 10
733085.81125000003
 20
4555162.8062500004
 30
0.0
  0
VERTEX
  5
3CC
  8
SQUARES
 10
733089.11375000002
 20
4555159.0525000002
 30
0.0
  0
SEQEND
  5
3CD
  8
SQUARES
  0
POLYLINE
  5
CC
  8
SQUARES
 66
     1
 10
0.0
 20
0.0
 30
0.0
 70
     1
1001
DCO15
1071
        2
1071
        2
1000
colsq
1004
073031343300
1001
ADE
1011
-0.7971354937180877
1021
0.0
1031
0.0
1021
-1.367233965545892
1031
0.0
  0
VERTEX
  5
3CE
  8
SQUARES
 10
733085.81125000003
 20
4555162.8062500004
 30
0.0
  0
VERTEX
  5
3CF
  8
SQUARES
 10
733082.50875000015
 20
4555166.5599999996
 30
0.0
  0
VERTEX
  5
3D0
  8
SQUARES
 10
733078.75500000012
 20
4555163.2575000012
 30
0.0
  0
VERTEX
  5
3D1
  8
SQUARES
 10
733082.0575
 20
4555159.5037500001
 30
0.0
  0
SEQEND
  5
3D2
  8
SQUARES
  0
POLYLINE
  5
CD
  8
SQUARES
 66
     1
 10
0.0
 20
0.0
 30
0.0
 70
     1
1001
DCO15
1071
        2
1071
        2
1000
colsq
1004
073031343700
1001
ADE
1011
-0.7973572867922485
1021
0.0
1031
0.0
1021
-1.366981866769492
1031
0.0
  0
VERTEX
  5
3D3
  8
SQUARES
 10
733092.41625000001
 20
4555155.2987500001
 30
0.0
  0
VERTEX
  5
3D4
  8
SQUARES
 10
733089.11375000002
 20
4555159.0525000002
 30
0.0
  0
VERTEX
  5
3D5
  8
SQUARES
 10
733092.86750000005
 20
4555162.3550000004
 30
0.0
  0
VERTEX
  5
3D6
  8
SQUARES
 10
733096.17000000004
 20
4555158.6012500003
 30
0.0
  0
SEQEND
  5
3D7
  8
SQUARES
  0
POLYLINE
  5
CE
  8
SQUARES
 66
     1
 10
0.0
 20
0.0
 30
0.0
 70
     1
1001
DCO15
1071
        2
1071
        2
1000
colsq
1004
073031343600
1001
ADE
1011
-0.7973572867922485
1021
0.0
1031
0.0
1021
-1.366981866769492
1031
0.0
  0
VERTEX
  5
3D8
  8
SQUARES
 10
733092.86750000005
 20
4555162.3550000004
 30
0.0
  0
VERTEX
  5
3D9
  8
SQUARES
 10
733089.56499999994
 20
4555166.1087499997
 30
0.0
  0
VERTEX
  5
3DA
  8
SQUARES
 10
733085.81125000003
 20
4555162.8062500004
 30
0.0
  0
VERTEX
  5
3DB
  8
SQUARES
 10
733089.11375000002
 20
4555159.0525000002
 30
0.0
  0
SEQEND
  5
3DC
  8
SQUARES
  0
POLYLINE
  5
CF
  8
SQUARES
 66
     1
 10
0.0
 20
0.0
 30
0.0
 70
     1
1001
DCO15
1071
        2
1071
        2
1000
colsq
1004
073031343800
1001
ADE
1011
-0.7971354934852571
1021
0.0
1031
0.0
1021
-1.367233965545892
1031
0.0
  0
VERTEX
  5
3DD
  8
SQUARES
 10
733099.92374999996
 20
4555161.9037500015
 30
0.0
  0
VERTEX
  5
3DE
  8
SQUARES
 10
733096.62124999997
 20
4555165.6574999997
 30
0.0
  0
VERTEX
  5
3DF
  8
SQUARES
 10
733092.86750000005
 20
4555162.3550000004
 30
0.0
  0
VERTEX
  5
3E0
  8
SQUARES
 10
733096.17000000004
 20
4555158.6012500003
 30
0.0
  0
SEQEND
  5
3E1
  8
SQUARES
  0
POLYLINE
  5
D0
  8
SQUARES
 66
     1
 10
0.0
 20
0.0
 30
0.0
 70
     1
1001
DCO15
1071
        2
1071
        2
1000
colsq
1004
073031353700
1001
ADE
1011
-0.7973572867922485
1021
0.0
1031
0.0
1021
-1.366981866769492
1031
0.0
  0
VERTEX
  5
3E2
  8
SQUARES
 10
733103.67749999999
 20
4555165.2062500007
 30
0.0
  0
VERTEX
  5
3E3
  8
SQUARES
 10
733100.375
 20
4555168.96
 30
0.0
  0
VERTEX
  5
3E4
  8
SQUARES
 10
733104.12875000038
 20
4555172.2625000002
 30
0.0
  0
VERTEX
  5
3E5
  8
SQUARES
 10
733107.43125000002
 20
4555168.508750001
 30
0.0
  0
SEQEND
  5
3E6
  8
SQUARES
  0
POLYLINE
  5
D1
  8
SQUARES
 66
     1
 10
0.0
 20
0.0
 30
0.0
 70
     1
1001
DCO15
1071
        2
1071
        2
1000
colsq
1004
073031353300
1001
ADE
1011
-0.797135493834503
1021
0.0
1031
0.0
1021
-1.367233965545892
1031
0.0
  0
VERTEX
  5
3E7
  8
SQUARES
 10
733104.12875000038
 20
4555172.2625000002
 30
0.0
  0
VERTEX
  5
3E8
  8
SQUARES
 10
733100.82625000027
 20
4555176.0162500003
 30
0.0
  0
VERTEX
  5
3E9
  8
SQUARES
 10
733097.07250000024
 20
4555172.7137500001
 30
0.0
  0
VERTEX
  5
3EA
  8
SQUARES
 10
733100.375
 20
4555168.96
 30
0.0
  0
SEQEND
  5
3EB
  8
SQUARES
  0
POLYLINE
  5
D2
  8
SQUARES
 66
     1
 10
0.0
 20
0.0
 30
0.0
 70
     1
1001
DCO15
1071
        2
1071
        2
1000
colsq
1004
073031353000
1001
ADE
1011
-0.7973572870250792
1021
0.0
1031
0.0
1021
-1.366981866769492
1031
0.0
  0
VERTEX
  5
3EC
  8
SQUARES
 10
733100.82625000027
 20
4555176.0162500003
 30
0.0
  0
VERTEX
  5
3ED
  8
SQUARES
 10
733097.52375000005
 20
4555179.7700000014
 30
0.0
  0
VERTEX
  5
3EE
  8
SQUARES
 10
733093.77000000014
 20
4555176.4675000003
 30
0.0
  0
VERTEX
  5
3EF
  8
SQUARES
 10
733097.07250000024
 20
4555172.7137500001
 30
0.0
  0
SEQEND
  5
3F0
  8
SQUARES
  0
POLYLINE
  5
D3
  8
SQUARES
 66
     1
 10
0.0
 20
0.0
 30
0.0
 70
     1
1001
DCO15
1071
        2
1071
        2
1000
colsq
1004
073031363100
1001
ADE
1011
-0.7973572867922485
1021
0.0
1031
0.0
1021
-1.366981866769492
1031
0.0
  0
VERTEX
  5
3F1
  8
SQUARES
 10
733110.73375000001
 20
4555164.7550000008
 30
0.0
  0
VERTEX
  5
3F2
  8
SQUARES
 10
733107.43125000002
 20
4555168.508750001
 30
0.0
  0
VERTEX
  5
3F3
  8
SQUARES
 10
733111.18499999982
 20
4555171.8112500003
 30
0.0
  0
VERTEX
  5
3F4
  8
SQUARES
 10
733114.48749999993
 20
4555168.0575000001
 30
0.0
  0
SEQEND
  5
3F5
  8
SQUARES
  0
POLYLINE
  5
D4
  8
SQUARES
 66
     1
 10
0.0
 20
0.0
 30
0.0
 70
     1
1001
DCO15
1071
        2
1071
        2
1000
colsq
1004
073031353800
1001
ADE
1011
-0.7971354937180877
1021
0.0
1031
0.0
1021
-1.367233965545892
1031
0.0
  0
VERTEX
  5
3F6
  8
SQUARES
 10
733107.88250000018
 20
4555175.5650000004
 30
0.0
  0
VERTEX
  5
3F7
  8
SQUARES
 10
733111.18499999982
 20
4555171.8112500003
 30
0.0
  0
VERTEX
  5
3F8
  8
SQUARES
 10
733107.43125000002
 20
4555168.508750001
 30
0.0
  0
VERTEX
  5
3F9
  8
SQUARES
 10
733104.12875000038
 20
4555172.2625000002
 30
0.0
  0
SEQEND
  5
3FA
  8
SQUARES
  0
POLYLINE
  5
D5
  8
SQUARES
 66
     1
 10
0.0
 20
0.0
 30
0.0
 70
     1
1001
DCO15
1071
        2
1071
        2
1000
colsq
1004
073031353900
1001
ADE
1011
-0.7973572867922485
1021
0.0
1031
0.0
1021
-1.366981866769492
1031
0.0
  0
VERTEX
  5
3FB
  8
SQUARES
 10
733114.93874999986
 20
4555175.1137499996
 30
0.0
  0
VERTEX
  5
3FC
  8
SQUARES
 10
733111.63625000021
 20
4555178.8674999997
 30
0.0
  0
VERTEX
  5
3FD
  8
SQUARES
 10
733107.88250000018
 20
4555175.5650000004
 30
0.0
  0
VERTEX
  5
3FE
  8
SQUARES
 10
733111.18499999982
 20
4555171.8112500003
 30
0.0
  0
SEQEND
  5
3FF
  8
SQUARES
  0
POLYLINE
  5
D6
  8
SQUARES
 66
     1
 10
0.0
 20
0.0
 30
0.0
 70
     1
1001
DCO15
1071
        2
1071
        2
1000
colsq
1004
073031353500
1001
ADE
1011
-0.7973572869086638
1021
0.0
1031
0.0
1021
-1.366981866769492
1031
0.0
  0
VERTEX
  5
400
  8
SQUARES
 10
733111.63625000021
 20
4555178.8674999997
 30
0.0
  0
VERTEX
  5
401
  8
SQUARES
 10
733108.33374999999
 20
4555182.6212499999
 30
0.0
  0
VERTEX
  5
402
  8
SQUARES
 10
733104.58000000019
 20
4555179.3187500006
 30
0.0
  0
VERTEX
  5
403
  8
SQUARES
 10
733107.88250000018
 20
4555175.5650000004
 30
0.0
  0
SEQEND
  5
404
  8
SQUARES
  0
POLYLINE
  5
D7
  8
SQUARES
 66
     1
 10
0.0
 20
0.0
 30
0.0
 70
     1
1001
DCO15
1071
        2
1071
        2
1000
colsq
1004
073031363000
1001
ADE
1011
-0.7973572867922485
1021
0.0
1031
0.0
1021
-1.366981866769492
1031
0.0
  0
VERTEX
  5
405
  8
SQUARES
 10
733115.39000000013
 20
4555182.1699999999
 30
0.0
  0
VERTEX
  5
406
  8
SQUARES
 10
733118.6925
 20
4555178.4162499998
 30
0.0
  0
VERTEX
  5
407
  8
SQUARES
 10
733114.93874999986
 20
4555175.1137499996
 30
0.0
  0
VERTEX
  5
408
  8
SQUARES
 10
733111.63625000021
 20
4555178.8674999997
 30
0.0
  0
SEQEND
  5
409
  8
SQUARES
  0
POLYLINE
  5
D8
  8
SQUARES
 66
     1
 10
0.0
 20
0.0
 30
0.0
 70
     1
1001
DCO15
1071
        2
1071
        2
1000
colsq
1004
073031333900
1001
ADE
1011
-1.0269372061593449
1021
0.0
1031
0.0
1021
-1.2043680325150481
1031
0.0
  0
VERTEX
  5
40A
  8
SQUARES
 10
733158.875
 20
4555238.7649999987
 30
0.0
  0
VERTEX
  5
40B
  8
SQUARES
 10
733154.5950000002
 20
4555236.1799999997
 30
0.0
  0
VERTEX
  5
40C
  8
SQUARES
 10
733152.01000000001
 20
4555240.46
 30
0.0
  0
VERTEX
  5
40D
  8
SQUARES
 10
733156.29000000004
 20
4555243.0449999999
 30
0.0
  0
SEQEND
  5
40E
  8
SQUARES
  0
POLYLINE
  5
D9
  8
SQUARES
 66
     1
 10
0.0
 20
0.0
 30
0.0
 70
     1
1001
DCO15
1071
        2
1071
        2
1000
colsq
1004
073031333200
1001
ADE
1011
-1.0555576896294949
1021
0.0
1031
0.0
1021
-1.179533444344997
1031
0.0
  0
VERTEX
  5
40F
  8
SQUARES
 10
733193.62300000014
 20
4555247.9459999986
 30
0.0
  0
VERTEX
  5
410
  8
SQUARES
 10
733191.14099999995
 20
4555252.2869999995
 30
0.0
  0
VERTEX
  5
411
  8
SQUARES
 10
733186.80000000005
 20
4555249.8049999988
 30
0.0
  0
VERTEX
  5
412
  8
SQUARES
 10
733189.28200000001
 20
4555245.4639999988
 30
0.0
  0
SEQEND
  5
413
  8
SQUARES
  0
POLYLINE
  5
DA
  8
SQUARES
 66
     1
 10
0.0
 20
0.0
 30
0.0
 70
     1
1001
DCO15
1071
        2
1071
        2
1000
colsq
1004
073031323500
1001
ADE
1011
-1.05555768974591
1021
0.0
1031
0.0
1021
-1.179533444344997
1031
0.0
  0
VERTEX
  5
414
  8
SQUARES
 10
733174.39000000013
 20
4555271.5099999988
 30
0.0
  0
VERTEX
  5
415
  8
SQUARES
 10
733176.87200000009
 20
4555267.1689999998
 30
0.0
  0
VERTEX
  5
416
  8
SQUARES
 10
733181.21299999999
 20
4555269.6509999987
 30
0.0
  0
VERTEX
  5
417
  8
SQUARES
 10
733178.73100000003
 20
4555273.9919999996
 30
0.0
  0
SEQEND
  5
418
  8
SQUARES
  0
POLYLINE
  5
DB
  8
SQUARES
 66
     1
 10
0.0
 20
0.0
 30
0.0
 70
     1
1001
DCO15
1071
        2
1071
        2
1000
colsq
1004
073031333800
1001
ADE
1011
-1.05555768974591
1021
0.0
1031
0.0
1021
-1.1795334452763191
1031
0.0
  0
VERTEX
  5
419
  8
SQUARES
 10
733201.06900000002
 20
4555234.9229999986
 30
0.0
  0
VERTEX
  5
41A
  8
SQUARES
 10
733203.55099999998
 20
4555230.5820000004
 30
0.0
  0
VERTEX
  5
41B
  8
SQUARES
 10
733207.89199999999
 20
4555233.0639999993
 30
0.0
  0
VERTEX
  5
41C
  8
SQUARES
 10
733205.41000000003
 20
4555237.4049999993
 30
0.0
  0
SEQEND
  5
41D
  8
SQUARES
  0
POLYLINE
  5
DC
  8
SQUARES
 66
     1
 10
0.0
 20
0.0
 30
0.0
 70
     1
1001
DCO15
1071
        2
1071
        2
1000
colsq
1004
073031333000
1001
ADE
1011
-1.05555768974591
1021
0.0
1031
0.0
1021
-1.1795334452763191
1031
0.0
  0
VERTEX
  5
41E
  8
SQUARES
 10
733190.51800000016
 20
4555263.4510000004
 30
0.0
  0
VERTEX
  5
41F
  8
SQUARES
 10
733193.00000000012
 20
4555259.1099999994
 30
0.0
  0
VERTEX
  5
420
  8
SQUARES
 10
733188.65899999999
 20
4555256.6279999986
 30
0.0
  0
VERTEX
  5
421
  8
SQUARES
 10
733186.17700000003
 20
4555260.9689999986
 30
0.0
  0
SEQEND
  5
422
  8
SQUARES
  0
POLYLINE
  5
DD
  8
SQUARES
 66
     1
 10
0.0
 20
0.0
 30
0.0
 70
     1
1001
DCO15
1071
        2
1071
        2
1000
colsq
1004
073031323800
1001
ADE
1011
-1.0555576896294949
1021
0.0
1031
0.0
1021
-1.1795334452763191
1031
0.0
  0
VERTEX
  5
423
  8
SQUARES
 10
733188.03600000008
 20
4555267.7919999994
 30
0.0
  0
VERTEX
  5
424
  8
SQUARES
 10
733190.51800000016
 20
4555263.4510000004
 30
0.0
  0
VERTEX
  5
425
  8
SQUARES
 10
733186.17700000003
 20
4555260.9689999986
 30
0.0
  0
VERTEX
  5
426
  8
SQUARES
 10
733183.69500000018
 20
4555265.3099999996
 30
0.0
  0
SEQEND
  5
427
  8
SQUARES
  0
POLYLINE
  5
DE
  8
SQUARES
 66
     1
 10
0.0
 20
0.0
 30
0.0
 70
     1
1001
DCO15
1071
        2
1071
        2
1000
colsq
1004
073030353200
1001
ADE
1011
-1.2384866452775889
1021
0.0
1031
0.0
1021
-0.9855851316824555
1031
0.0
  0
VERTEX
  5
428
  8
SQUARES
 10
733639.56106557371
 20
4554976.4817213118
 30
0.0
  0
VERTEX
  5
429
  8
SQUARES
 10
733641.2791803279
 20
4554971.7859836062
 30
0.0
  0
VERTEX
  5
42A
  8
SQUARES
 10
733636.58344262314
 20
4554970.0678688511
 30
0.0
  0
VERTEX
  5
42B
  8
SQUARES
 10
733634.86532786884
 20
4554974.7636065576
 30
0.0
  0
SEQEND
  5
42C
  8
SQUARES
  0
POLYLINE
  5
DF
  8
SQUARES
 66
     1
 10
0.0
 20
0.0
 30
0.0
 70
     1
1001
DCO15
1071
        2
1071
        2
1000
colsq
1004
073030393300
1001
ADE
1011
-1.1933830310590561
1021
0.0
1031
0.0
1021
-1.0401469673961401
1031
0.0
  0
VERTEX
  5
42D
  8
SQUARES
 10
733450.88499999978
 20
4555106.6066666674
 30
0.0
  0
VERTEX
  5
42E
  8
SQUARES
 10
733452.81166666676
 20
4555101.9916666662
 30
0.0
  0
VERTEX
  5
42F
  8
SQUARES
 10
733448.19666666677
 20
4555100.0649999985
 30
0.0
  0
VERTEX
  5
430
  8
SQUARES
 10
733446.27000000002
 20
4555104.6799999997
 30
0.0
  0
SEQEND
  5
431
  8
SQUARES
  0
POLYLINE
  5
E0
  8
SQUARES
 66
     1
 10
0.0
 20
0.0
 30
0.0
 70
     1
1001
DCO15
1071
        2
1071
        2
1000
colsq
1004
073030383600
1001
ADE
1011
-1.193383031175471
1021
0.0
1031
0.0
1021
-1.0401469655334941
1031
0.0
  0
VERTEX
  5
432
  8
SQUARES
 10
733445.10499999975
 20
4555120.4516666662
 30
0.0
  0
VERTEX
  5
433
  8
SQUARES
 10
733447.03166666662
 20
4555115.836666666
 30
0.0
  0
VERTEX
  5
434
  8
SQUARES
 10
733442.41666666663
 20
4555113.9099999992
 30
0.0
  0
VERTEX
  5
435
  8
SQUARES
 10
733440.48999999987
 20
4555118.5250000004
 30
0.0
  0
SEQEND
  5
436
  8
SQUARES
  0
POLYLINE
  5
E1
  8
SQUARES
 66
     1
 10
0.0
 20
0.0
 30
0.0
 70
     1
1001
DCO15
1071
        2
1071
        2
1000
colsq
1004
073030393400
1001
ADE
1011
-1.193512424244545
1021
0.0
1031
0.0
1021
-1.0398370269685979
1031
0.0
  0
VERTEX
  5
437
  8
SQUARES
 10
733455.49999999988
 20
4555108.5333333332
 30
0.0
  0
VERTEX
  5
438
  8
SQUARES
 10
733457.42666666675
 20
4555103.9183333321
 30
0.0
  0
VERTEX
  5
439
  8
SQUARES
 10
733452.81166666676
 20
4555101.9916666662
 30
0.0
  0
VERTEX
  5
43A
  8
SQUARES
 10
733450.88499999978
 20
4555106.6066666674
 30
0.0
  0
SEQEND
  5
43B
  8
SQUARES
  0
POLYLINE
  5
E2
  8
SQUARES
 66
     1
 10
0.0
 20
0.0
 30
0.0
 70
     1
1001
DCO15
1071
        2
1071
        2
1000
colsq
1004
073030393000
1001
ADE
1011
-1.1935124243609601
1021
0.0
1031
0.0
1021
-1.0398370269685979
1031
0.0
  0
VERTEX
  5
43C
  8
SQUARES
 10
733451.64666666661
 20
4555117.7633333318
 30
0.0
  0
VERTEX
  5
43D
  8
SQUARES
 10
733453.57333333313
 20
4555113.1483333334
 30
0.0
  0
VERTEX
  5
43E
  8
SQUARES
 10
733448.95833333314
 20
4555111.2216666657
 30
0.0
  0
VERTEX
  5
43F
  8
SQUARES
 10
733447.03166666662
 20
4555115.836666666
 30
0.0
  0
SEQEND
  5
440
  8
SQUARES
  0
POLYLINE
  5
E3
  8
SQUARES
 66
     1
 10
0.0
 20
0.0
 30
0.0
 70
     1
1001
DCO15
1071
        2
1071
        2
1000
colsq
1004
073031303400
1001
ADE
1011
-0.891789120156318
1021
0.0
1031
0.0
1021
-1.3075003363192079
1031
0.0
  0
VERTEX
  5
441
  8
SQUARES
 10
733401.99500000023
 20
4555166.3749999991
 30
0.0
  0
VERTEX
  5
442
  8
SQUARES
 10
733405.02500000014
 20
4555162.3975
 30
0.0
  0
VERTEX
  5
443
  8
SQUARES
 10
733401.04750000034
 20
4555159.3674999988
 30
0.0
  0
VERTEX
  5
444
  8
SQUARES
 10
733398.01750000042
 20
4555163.3449999988
 30
0.0
  0
SEQEND
  5
445
  8
SQUARES
  0
POLYLINE
  5
E4
  8
SQUARES
 66
     1
 10
0.0
 20
0.0
 30
0.0
 70
     1
1001
DCO15
1071
        2
1071
        2
1000
colsq
1004
073031313100
1001
ADE
1011
-0.8917891202727332
1021
0.0
1031
0.0
1021
-1.3075003363192079
1031
0.0
  0
VERTEX
  5
446
  8
SQUARES
 10
733422.06999999995
 20
4555156.5250000004
 30
0.0
  0
VERTEX
  5
447
  8
SQUARES
 10
733425.10000000009
 20
4555152.5475000003
 30
0.0
  0
VERTEX
  5
448
  8
SQUARES
 10
733421.12250000006
 20
4555149.5175000001
 30
0.0
  0
VERTEX
  5
449
  8
SQUARES
 10
733418.09250000014
 20
4555153.4949999992
 30
0.0
  0
SEQEND
  5
44A
  8
SQUARES
  0
POLYLINE
  5
E5
  8
SQUARES
 66
     1
 10
0.0
 20
0.0
 30
0.0
 70
     1
1001
DCO15
1071
        2
1071
        2
1000
colsq
1004
073031303900
1001
ADE
1011
-0.891789120156318
1021
0.0
1031
0.0
1021
-1.3075003363192079
1031
0.0
  0
VERTEX
  5
44B
  8
SQUARES
 10
733422.06999999995
 20
4555156.5250000004
 30
0.0
  0
VERTEX
  5
44C
  8
SQUARES
 10
733418.09250000014
 20
4555153.4949999992
 30
0.0
  0
VERTEX
  5
44D
  8
SQUARES
 10
733415.06250000012
 20
4555157.4725000001
 30
0.0
  0
VERTEX
  5
44E
  8
SQUARES
 10
733419.04000000015
 20
4555160.5024999985
 30
0.0
  0
SEQEND
  5
44F
  8
SQUARES
  0
POLYLINE
  5
E6
  8
SQUARES
 66
     1
 10
0.0
 20
0.0
 30
0.0
 70
     1
1001
DCO15
1071
        2
1071
        2
1000
colsq
1004
073031303200
1001
ADE
1011
-0.8915856281528249
1021
0.0
1031
0.0
1021
-1.3077674610540271
1031
0.0
  0
VERTEX
  5
450
  8
SQUARES
 10
733413.92750000022
 20
4555175.4649999989
 30
0.0
  0
VERTEX
  5
451
  8
SQUARES
 10
733410.89749999985
 20
4555179.4424999999
 30
0.0
  0
VERTEX
  5
452
  8
SQUARES
 10
733406.92000000004
 20
4555176.4124999987
 30
0.0
  0
VERTEX
  5
453
  8
SQUARES
 10
733409.94999999995
 20
4555172.4349999996
 30
0.0
  0
SEQEND
  5
454
  8
SQUARES
  0
POLYLINE
  5
E7
  8
SQUARES
 66
     1
 10
0.0
 20
0.0
 30
0.0
 70
     1
1001
DCO15
1071
        2
1071
        2
1000
colsq
1004
073031323300
1001
ADE
1011
-0.8475008730310946
1021
0.0
1031
0.0
1021
-1.33646111562848
1031
0.0
  0
VERTEX
  5
455
  8
SQUARES
 10
733264.68400000012
 20
4555148.9440000001
 30
0.0
  0
VERTEX
  5
456
  8
SQUARES
 10
733267.84400000016
 20
4555145.0700000003
 30
0.0
  0
VERTEX
  5
457
  8
SQUARES
 10
733263.96999999997
 20
4555141.9100000001
 30
0.0
  0
VERTEX
  5
458
  8
SQUARES
 10
733260.81000000006
 20
4555145.784
 30
0.0
  0
SEQEND
  5
459
  8
SQUARES
  0
POLYLINE
  5
E8
  8
SQUARES
 66
     1
 10
0.0
 20
0.0
 30
0.0
 70
     1
1001
DCO15
1071
        2
1071
        2
1000
colsq
1004
073031343900
1001
ADE
1011
-0.7973572866758332
1021
0.0
1031
0.0
1021
-1.366981866769492
1031
0.0
  0
VERTEX
  5
45A
  8
SQUARES
 10
733096.17000000004
 20
4555158.6012500003
 30
0.0
  0
VERTEX
  5
45B
  8
SQUARES
 10
733099.47250000003
 20
4555154.8475000001
 30
0.0
  0
VERTEX
  5
45C
  8
SQUARES
 10
733103.22624999995
 20
4555158.1500000004
 30
0.0
  0
VERTEX
  5
45D
  8
SQUARES
 10
733099.92374999996
 20
4555161.9037500015
 30
0.0
  0
SEQEND
  5
45E
  8
SQUARES
  0
POLYLINE
  5
E9
  8
SQUARES
 66
     1
 10
0.0
 20
0.0
 30
0.0
 70
     1
1001
DCO15
1071
        2
1071
        2
1000
colsq
1004
073031363200
1001
ADE
1011
-0.7971354934852571
1021
0.0
1031
0.0
1021
-1.367233965545892
1031
0.0
  0
VERTEX
  5
45F
  8
SQUARES
 10
733118.24124999996
 20
4555171.3600000013
 30
0.0
  0
VERTEX
  5
460
  8
SQUARES
 10
733114.93874999986
 20
4555175.1137499996
 30
0.0
  0
VERTEX
  5
461
  8
SQUARES
 10
733118.6925
 20
4555178.4162499998
 30
0.0
  0
VERTEX
  5
462
  8
SQUARES
 10
733121.99500000011
 20
4555174.6624999996
 30
0.0
  0
SEQEND
  5
463
  8
SQUARES
  0
POLYLINE
  5
EA
  8
SQUARES
 66
     1
 10
0.0
 20
0.0
 30
0.0
 70
     1
1001
DCO15
1071
        2
1071
        2
1000
colsq
1004
073031353600
1001
ADE
1011
-0.7973572866758332
1021
0.0
1031
0.0
1021
-1.366981866769492
1031
0.0
  0
VERTEX
  5
464
  8
SQUARES
 10
733115.39000000013
 20
4555182.1699999999
 30
0.0
  0
VERTEX
  5
465
  8
SQUARES
 10
733112.08750000002
 20
4555185.9237500001
 30
0.0
  0
VERTEX
  5
466
  8
SQUARES
 10
733108.33374999999
 20
4555182.6212499999
 30
0.0
  0
VERTEX
  5
467
  8
SQUARES
 10
733111.63625000021
 20
4555178.8674999997
 30
0.0
  0
SEQEND
  5
468
  8
SQUARES
  0
POLYLINE
  5
EB
  8
SQUARES
 66
     1
 10
0.0
 20
0.0
 30
0.0
 70
     1
1001
DCO15
1071
        2
1071
        2
1000
colsq
1004
073031323700
1001
ADE
1011
-1.0555576896294949
1021
0.0
1031
0.0
1021
-1.179533444344997
1031
0.0
  0
VERTEX
  5
469
  8
SQUARES
 10
733186.17700000003
 20
4555260.9689999986
 30
0.0
  0
VERTEX
  5
46A
  8
SQUARES
 10
733183.69500000018
 20
4555265.3099999996
 30
0.0
  0
VERTEX
  5
46B
  8
SQUARES
 10
733179.35400000005
 20
4555262.8279999997
 30
0.0
  0
VERTEX
  5
46C
  8
SQUARES
 10
733181.83599999989
 20
4555258.4869999988
 30
0.0
  0
SEQEND
  5
46D
  8
SQUARES
  0
POLYLINE
  5
EC
  8
SQUARES
 66
     1
 10
0.0
 20
0.0
 30
0.0
 70
     1
1001
DCO15
1071
        2
1071
        2
1000
colsq
1004
073030383800
1001
ADE
1011
-1.1933830310590561
1021
0.0
1031
0.0
1021
-1.0401469655334941
1031
0.0
  0
VERTEX
  5
46E
  8
SQUARES
 10
733454.33499999973
 20
4555124.3049999988
 30
0.0
  0
VERTEX
  5
46F
  8
SQUARES
 10
733449.71999999986
 20
4555122.3783333329
 30
0.0
  0
VERTEX
  5
470
  8
SQUARES
 10
733451.64666666661
 20
4555117.7633333318
 30
0.0
  0
VERTEX
  5
471
  8
SQUARES
 10
733456.26166666648
 20
4555119.6899999985
 30
0.0
  0
SEQEND
  5
472
  8
SQUARES
  0
POLYLINE
  5
ED
  8
SQUARES
 66
     1
 10
0.0
 20
0.0
 30
0.0
 70
     1
1001
DCO15
1071
        2
1071
        2
1000
colsq
1004
073031303000
1001
ADE
1011
-0.8917891200399026
1021
0.0
1031
0.0
1021
-1.3075003372505301
1031
0.0
  0
VERTEX
  5
473
  8
SQUARES
 10
733398.96500000008
 20
4555170.3524999991
 30
0.0
  0
VERTEX
  5
474
  8
SQUARES
 10
733401.99500000023
 20
4555166.3749999991
 30
0.0
  0
VERTEX
  5
475
  8
SQUARES
 10
733405.97250000003
 20
4555169.4050000003
 30
0.0
  0
VERTEX
  5
476
  8
SQUARES
 10
733402.9425
 20
4555173.3824999994
 30
0.0
  0
SEQEND
  5
477
  8
SQUARES
  0
POLYLINE
  5
EE
  8
SQUARES
 66
     1
 10
0.0
 20
0.0
 30
0.0
 70
     1
1001
DCO15
1071
        2
1071
        2
1000
colsq
1004
073031303100
1001
ADE
1011
-0.891789120156318
1021
0.0
1031
0.0
1021
-1.3075003363192079
1031
0.0
  0
VERTEX
  5
478
  8
SQUARES
 10
733406.92000000004
 20
4555176.4124999987
 30
0.0
  0
VERTEX
  5
479
  8
SQUARES
 10
733409.94999999995
 20
4555172.4349999996
 30
0.0
  0
VERTEX
  5
47A
  8
SQUARES
 10
733405.97250000003
 20
4555169.4050000003
 30
0.0
  0
VERTEX
  5
47B
  8
SQUARES
 10
733402.9425
 20
4555173.3824999994
 30
0.0
  0
SEQEND
  5
47C
  8
SQUARES
  0
POLYLINE
  5
EF
  8
SQUARES
 66
     1
 10
0.0
 20
0.0
 30
0.0
 70
     1
1001
DCO15
1071
        2
1071
        2
1000
colsq
1004
073031303700
1001
ADE
1011
-0.8917891202727332
1021
0.0
1031
0.0
1021
-1.3075003363192079
1031
0.0
  0
VERTEX
  5
47D
  8
SQUARES
 10
733413.92750000022
 20
4555175.4649999989
 30
0.0
  0
VERTEX
  5
47E
  8
SQUARES
 10
733416.95750000014
 20
4555171.4874999998
 30
0.0
  0
VERTEX
  5
47F
  8
SQUARES
 10
733412.9800000001
 20
4555168.4574999986
 30
0.0
  0
VERTEX
  5
480
  8
SQUARES
 10
733409.94999999995
 20
4555172.4349999996
 30
0.0
  0
SEQEND
  5
481
  8
SQUARES
  0
POLYLINE
  5
F0
  8
SQUARES
 66
     1
 10
0.0
 20
0.0
 30
0.0
 70
     1
1001
DCO15
1071
        2
1071
        2
1000
colsq
1004
073031313500
1001
ADE
1011
-0.8477130960673093
1021
0.0
1031
0.0
1021
-1.3362009404227131
1031
0.0
  0
VERTEX
  5
482
  8
SQUARES
 10
733252.04400000023
 20
4555164.4400000004
 30
0.0
  0
VERTEX
  5
483
  8
SQUARES
 10
733248.17000000004
 20
4555161.2800000003
 30
0.0
  0
VERTEX
  5
484
  8
SQUARES
 10
733251.32999999996
 20
4555157.4060000014
 30
0.0
  0
VERTEX
  5
485
  8
SQUARES
 10
733255.20400000026
 20
4555160.5659999996
 30
0.0
  0
SEQEND
  5
486
  8
SQUARES
  0
POLYLINE
  5
F1
  8
SQUARES
 66
     1
 10
0.0
 20
0.0
 30
0.0
 70
     1
1001
DCO15
1071
        2
1071
        2
1000
colsq
1004
073031353400
1001
ADE
1011
-0.7973572870250792
1021
0.0
1031
0.0
1021
-1.366981866769492
1031
0.0
  0
VERTEX
  5
487
  8
SQUARES
 10
733104.58000000019
 20
4555179.3187500006
 30
0.0
  0
VERTEX
  5
488
  8
SQUARES
 10
733107.88250000018
 20
4555175.5650000004
 30
0.0
  0
VERTEX
  5
489
  8
SQUARES
 10
733104.12875000038
 20
4555172.2625000002
 30
0.0
  0
VERTEX
  5
48A
  8
SQUARES
 10
733100.82625000027
 20
4555176.0162500003
 30
0.0
  0
SEQEND
  5
48B
  8
SQUARES
  0
POLYLINE
  5
F2
  8
SQUARES
 66
     1
 10
0.0
 20
0.0
 30
0.0
 70
     1
1001
DCO15
1071
        2
1071
        2
1000
colsq
1004
073031353200
1001
ADE
1011
-0.7971354937180877
1021
0.0
1031
0.0
1021
-1.367233965545892
1031
0.0
  0
VERTEX
  5
48C
  8
SQUARES
 10
733101.27750000043
 20
4555183.0725000007
 30
0.0
  0
VERTEX
  5
48D
  8
SQUARES
 10
733104.58000000019
 20
4555179.3187500006
 30
0.0
  0
VERTEX
  5
48E
  8
SQUARES
 10
733108.33374999999
 20
4555182.6212499999
 30
0.0
  0
VERTEX
  5
48F
  8
SQUARES
 10
733105.03125
 20
4555186.3749999991
 30
0.0
  0
SEQEND
  5
490
  8
SQUARES
  0
POLYLINE
  5
F3
  8
SQUARES
 66
     1
 10
0.0
 20
0.0
 30
0.0
 70
     1
1001
DCO15
1071
        2
1071
        2
1000
colsq
1004
073031333100
1001
ADE
1011
-1.0555576898623249
1021
0.0
1031
0.0
1021
-1.179533444344997
1031
0.0
  0
VERTEX
  5
491
  8
SQUARES
 10
733191.14099999995
 20
4555252.2869999995
 30
0.0
  0
VERTEX
  5
492
  8
SQUARES
 10
733188.65899999999
 20
4555256.6279999986
 30
0.0
  0
VERTEX
  5
493
  8
SQUARES
 10
733184.31800000009
 20
4555254.1459999997
 30
0.0
  0
VERTEX
  5
494
  8
SQUARES
 10
733186.80000000005
 20
4555249.8049999988
 30
0.0
  0
SEQEND
  5
495
  8
SQUARES
  0
POLYLINE
  5
F4
  8
SQUARES
 66
     1
 10
0.0
 20
0.0
 30
0.0
 70
     1
1001
DCO15
1071
        2
1071
        2
1000
colsq
1004
073031333700
1001
ADE
1011
-1.05555768974591
1021
0.0
1031
0.0
1021
-1.179533444344997
1031
0.0
  0
VERTEX
  5
496
  8
SQUARES
 10
733203.55099999998
 20
4555230.5820000004
 30
0.0
  0
VERTEX
  5
497
  8
SQUARES
 10
733201.06900000002
 20
4555234.9229999986
 30
0.0
  0
VERTEX
  5
498
  8
SQUARES
 10
733196.728
 20
4555232.4409999996
 30
0.0
  0
VERTEX
  5
499
  8
SQUARES
 10
733199.20999999985
 20
4555228.0999999987
 30
0.0
  0
SEQEND
  5
49A
  8
SQUARES
  0
POLYLINE
  5
F5
  8
SQUARES
 66
     1
 10
0.0
 20
0.0
 30
0.0
 70
     1
1001
DCO15
1071
        2
1071
        2
1000
colsq
1004
073031333500
1001
ADE
1011
-1.05555768974591
1021
0.0
1031
0.0
1021
-1.179533444344997
1031
0.0
  0
VERTEX
  5
49B
  8
SQUARES
 10
733201.06900000002
 20
4555234.9229999986
 30
0.0
  0
VERTEX
  5
49C
  8
SQUARES
 10
733198.58700000006
 20
4555239.2639999986
 30
0.0
  0
VERTEX
  5
49D
  8
SQUARES
 10
733194.24600000004
 20
4555236.7819999997
 30
0.0
  0
VERTEX
  5
49E
  8
SQUARES
 10
733196.728
 20
4555232.4409999996
 30
0.0
  0
SEQEND
  5
49F
  8
SQUARES
  0
POLYLINE
  5
F6
  8
SQUARES
 66
     1
 10
0.0
 20
0.0
 30
0.0
 70
     1
1001
DCO15
1071
        2
1071
        2
1000
colsq
1004
073031333300
1001
ADE
1011
-1.05555768974591
1021
0.0
1031
0.0
1021
-1.179533444344997
1031
0.0
  0
VERTEX
  5
4A0
  8
SQUARES
 10
733196.10499999998
 20
4555243.6050000004
 30
0.0
  0
VERTEX
  5
4A1
  8
SQUARES
 10
733193.62300000014
 20
4555247.9459999986
 30
0.0
  0
VERTEX
  5
4A2
  8
SQUARES
 10
733189.28200000001
 20
4555245.4639999988
 30
0.0
  0
VERTEX
  5
4A3
  8
SQUARES
 10
733191.76399999997
 20
4555241.1229999997
 30
0.0
  0
SEQEND
  5
4A4
  8
SQUARES
  0
POLYLINE
  5
F7
  8
SQUARES
 66
     1
 10
0.0
 20
0.0
 30
0.0
 70
     1
1001
DCO15
1071
        2
1071
        2
1000
colsq
1004
073030383400
1001
ADE
1011
-1.193383031175471
1021
0.0
1031
0.0
1021
-1.0401469673961401
1031
0.0
  0
VERTEX
  5
4A5
  8
SQUARES
 10
733440.48999999987
 20
4555118.5250000004
 30
0.0
  0
VERTEX
  5
4A6
  8
SQUARES
 10
733435.87499999977
 20
4555116.5983333327
 30
0.0
  0
VERTEX
  5
4A7
  8
SQUARES
 10
733433.94833333301
 20
4555121.213333332
 30
0.0
  0
VERTEX
  5
4A8
  8
SQUARES
 10
733438.563333333
 20
4555123.1399999997
 30
0.0
  0
SEQEND
  5
4A9
  8
SQUARES
  0
POLYLINE
  5
F8
  8
SQUARES
 66
     1
 10
0.0
 20
0.0
 30
0.0
 70
     1
1001
DCO15
1071
        2
1071
        2
1000
colsq
1004
073031323100
1001
ADE
1011
-0.8475008731475099
1021
0.0
1031
0.0
1021
-1.33646111562848
1031
0.0
  0
VERTEX
  5
4AA
  8
SQUARES
 10
733261.52400000021
 20
4555152.818
 30
0.0
  0
VERTEX
  5
4AB
  8
SQUARES
 10
733264.68400000012
 20
4555148.9440000001
 30
0.0
  0
VERTEX
  5
4AC
  8
SQUARES
 10
733260.81000000006
 20
4555145.784
 30
0.0
  0
VERTEX
  5
4AD
  8
SQUARES
 10
733257.65000000002
 20
4555149.6579999998
 30
0.0
  0
SEQEND
  5
4AE
  8
SQUARES
  0
POLYLINE
  5
F9
  8
SQUARES
 66
     1
 10
0.0
 20
0.0
 30
0.0
 70
     1
1001
DCO15
1071
        2
1071
        2
1000
colsq
1004
073031343400
1001
ADE
1011
-0.7973572867922485
1021
0.0
1031
0.0
1021
-1.366981866769492
1031
0.0
  0
VERTEX
  5
4AF
  8
SQUARES
 10
733089.56499999994
 20
4555166.1087499997
 30
0.0
  0
VERTEX
  5
4B0
  8
SQUARES
 10
733086.26249999995
 20
4555169.8625000007
 30
0.0
  0
VERTEX
  5
4B1
  8
SQUARES
 10
733082.50875000015
 20
4555166.5599999996
 30
0.0
  0
VERTEX
  5
4B2
  8
SQUARES
 10
733085.81125000003
 20
4555162.8062500004
 30
0.0
  0
SEQEND
  5
4B3
  8
SQUARES
  0
POLYLINE
  5
FA
  8
SQUARES
 66
     1
 10
0.0
 20
0.0
 30
0.0
 70
     1
1001
DCO15
1071
        2
1071
        2
1000
colsq
1004
073031353100
1001
ADE
1011
-0.7973572869086638
1021
0.0
1031
0.0
1021
-1.366981866769492
1031
0.0
  0
VERTEX
  5
4B4
  8
SQUARES
 10
733101.27750000043
 20
4555183.0725000007
 30
0.0
  0
VERTEX
  5
4B5
  8
SQUARES
 10
733104.58000000019
 20
4555179.3187500006
 30
0.0
  0
VERTEX
  5
4B6
  8
SQUARES
 10
733100.82625000027
 20
4555176.0162500003
 30
0.0
  0
VERTEX
  5
4B7
  8
SQUARES
 10
733097.52375000005
 20
4555179.7700000014
 30
0.0
  0
SEQEND
  5
4B8
  8
SQUARES
  0
POLYLINE
  5
FB
  8
SQUARES
 66
     1
 10
0.0
 20
0.0
 30
0.0
 70
     1
1001
DCO15
1071
        2
1071
        2
1000
colsq
1004
073031333400
1001
ADE
1011
-1.05555768974591
1021
0.0
1031
0.0
1021
-1.179533444344997
1031
0.0
  0
VERTEX
  5
4B9
  8
SQUARES
 10
733198.58700000006
 20
4555239.2639999986
 30
0.0
  0
VERTEX
  5
4BA
  8
SQUARES
 10
733196.10499999998
 20
4555243.6050000004
 30
0.0
  0
VERTEX
  5
4BB
  8
SQUARES
 10
733191.76399999997
 20
4555241.1229999997
 30
0.0
  0
VERTEX
  5
4BC
  8
SQUARES
 10
733194.24600000004
 20
4555236.7819999997
 30
0.0
  0
SEQEND
  5
4BD
  8
SQUARES
  0
POLYLINE
  5
FC
  8
SQUARES
 66
     1
 10
0.0
 20
0.0
 30
0.0
 70
     1
1001
DCO15
1071
        2
1071
        2
1000
colsq
1004
073031323600
1001
ADE
1011
-1.0555576898623249
1021
0.0
1031
0.0
1021
-1.179533444344997
1031
0.0
  0
VERTEX
  5
4BE
  8
SQUARES
 10
733183.69500000018
 20
4555265.3099999996
 30
0.0
  0
VERTEX
  5
4BF
  8
SQUARES
 10
733181.21299999999
 20
4555269.6509999987
 30
0.0
  0
VERTEX
  5
4C0
  8
SQUARES
 10
733176.87200000009
 20
4555267.1689999998
 30
0.0
  0
VERTEX
  5
4C1
  8
SQUARES
 10
733179.35400000005
 20
4555262.8279999997
 30
0.0
  0
SEQEND
  5
4C2
  8
SQUARES
  0
POLYLINE
  5
FD
  8
SQUARES
 66
     1
 10
0.0
 20
0.0
 30
0.0
 70
     1
1001
DCO15
1071
        2
1071
        2
1000
colsq
1004
073031343200
1001
ADE
1011
-1.0269372061593449
1021
0.0
1031
0.0
1021
-1.2043680325150481
1031
0.0
  0
VERTEX
  5
4C3
  8
SQUARES
 10
733164.04499999993
 20
4555230.2049999991
 30
0.0
  0
VERTEX
  5
4C4
  8
SQUARES
 10
733166.63000000012
 20
4555225.9249999998
 30
0.0
  0
VERTEX
  5
4C5
  8
SQUARES
 10
733162.34999999998
 20
4555223.3399999999
 30
0.0
  0
VERTEX
  5
4C6
  8
SQUARES
 10
733159.76500000001
 20
4555227.620000001
 30
0.0
  0
SEQEND
  5
4C7
  8
SQUARES
  0
POLYLINE
  5
FE
  8
SQUARES
 66
     1
 10
0.0
 20
0.0
 30
0.0
 70
     1
1001
DCO15
1071
        2
1071
        2
1000
colsq
1004
073030323800
1001
ADE
1011
-1.238486645161174
1021
0.0
1031
0.0
1021
-0.9855851326137781
1031
0.0
  0
VERTEX
  5
4C8
  8
SQUARES
 10
733587.44934426202
 20
4554973.3877868848
 30
0.0
  0
VERTEX
  5
4C9
  8
SQUARES
 10
733585.73122950818
 20
4554978.0835245904
 30
0.0
  0
VERTEX
  5
4CA
  8
SQUARES
 10
733590.42696721305
 20
4554979.8016393436
 30
0.0
  0
VERTEX
  5
4CB
  8
SQUARES
 10
733592.14508196677
 20
4554975.1059016399
 30
0.0
  0
SEQEND
  5
4CC
  8
SQUARES
  0
POLYLINE
  5
FF
  8
SQUARES
 66
     1
 10
0.0
 20
0.0
 30
0.0
 70
     1
1001
DCO15
1071
        2
1071
        2
1000
colsq
1004
073030353600
1001
ADE
1011
-1.2386020324192939
1021
0.0
1031
0.0
1021
-0.9852697709575295
1031
0.0
  0
VERTEX
  5
4CD
  8
SQUARES
 10
733610.12713114754
 20
4554955.0634426242
 30
0.0
  0
VERTEX
  5
4CE
  8
SQUARES
 10
733605.43139344244
 20
4554953.3453278691
 30
0.0
  0
VERTEX
  5
4CF
  8
SQUARES
 10
733607.14950819663
 20
4554948.6495901654
 30
0.0
  0
VERTEX
  5
4D0
  8
SQUARES
 10
733611.84524590173
 20
4554950.3677049177
 30
0.0
  0
SEQEND
  5
4D1
  8
SQUARES
  0
POLYLINE
  5
100
  8
SQUARES
 66
     1
 10
0.0
 20
0.0
 30
0.0
 70
     1
1001
DCO15
1071
        2
1071
        2
1000
colsq
1004
073030323600
1001
ADE
1011
-1.2384866452775889
1021
0.0
1031
0.0
1021
-0.9855851326137781
1031
0.0
  0
VERTEX
  5
4D2
  8
SQUARES
 10
733603.25467213104
 20
4554973.8463934427
 30
0.0
  0
VERTEX
  5
4D3
  8
SQUARES
 10
733604.9727868851
 20
4554969.1506557381
 30
0.0
  0
VERTEX
  5
4D4
  8
SQUARES
 10
733600.27704918012
 20
4554967.432540983
 30
0.0
  0
VERTEX
  5
4D5
  8
SQUARES
 10
733598.55893442605
 20
4554972.1282786876
 30
0.0
  0
SEQEND
  5
4D6
  8
SQUARES
  0
POLYLINE
  5
101
  8
SQUARES
 66
     1
 10
0.0
 20
0.0
 30
0.0
 70
     1
1001
DCO15
1071
        2
1071
        2
1000
colsq
1004
073030363200
1001
ADE
1011
-1.238486645394004
1021
0.0
1031
0.0
1021
-0.9855851326137781
1031
0.0
  0
VERTEX
  5
4D7
  8
SQUARES
 10
733618.25909836055
 20
4554947.3900819672
 30
0.0
  0
VERTEX
  5
4D8
  8
SQUARES
 10
733619.97721311485
 20
4554942.6943442617
 30
0.0
  0
VERTEX
  5
4D9
  8
SQUARES
 10
733615.28147540987
 20
4554940.9762295084
 30
0.0
  0
VERTEX
  5
4DA
  8
SQUARES
 10
733613.5633606558
 20
4554945.671967213
 30
0.0
  0
SEQEND
  5
4DB
  8
SQUARES
  0
POLYLINE
  5
102
  8
SQUARES
 66
     1
 10
0.0
 20
0.0
 30
0.0
 70
     1
1001
DCO15
1071
        2
1071
        2
1000
colsq
1004
073030343300
1001
ADE
1011
-1.2384866452775889
1021
0.0
1031
0.0
1021
-0.9855851335451006
1031
0.0
  0
VERTEX
  5
4DC
  8
SQUARES
 10
733609.6685245902
 20
4554970.8687704923
 30
0.0
  0
VERTEX
  5
4DD
  8
SQUARES
 10
733611.38663934427
 20
4554966.1730327876
 30
0.0
  0
VERTEX
  5
4DE
  8
SQUARES
 10
733606.69090163906
 20
4554964.4549180334
 30
0.0
  0
VERTEX
  5
4DF
  8
SQUARES
 10
733604.9727868851
 20
4554969.1506557381
 30
0.0
  0
SEQEND
  5
4E0
  8
SQUARES
  0
POLYLINE
  5
103
  8
SQUARES
 66
     1
 10
0.0
 20
0.0
 30
0.0
 70
     1
1001
DCO15
1071
        2
1071
        2
1000
colsq
1004
073030343500
1001
ADE
1011
-1.2386020324192939
1021
0.0
1031
0.0
1021
-0.9852697718888521
1031
0.0
  0
VERTEX
  5
4E1
  8
SQUARES
 10
733616.08237704902
 20
4554967.8911475409
 30
0.0
  0
VERTEX
  5
4E2
  8
SQUARES
 10
733617.80049180321
 20
4554963.1954098362
 30
0.0
  0
VERTEX
  5
4E3
  8
SQUARES
 10
733613.10475409846
 20
4554961.4772950821
 30
0.0
  0
VERTEX
  5
4E4
  8
SQUARES
 10
733611.38663934427
 20
4554966.1730327876
 30
0.0
  0
SEQEND
  5
4E5
  8
SQUARES
  0
POLYLINE
  5
104
  8
SQUARES
 66
     1
 10
0.0
 20
0.0
 30
0.0
 70
     1
1001
DCO15
1071
        2
1071
        2
1000
colsq
1004
073030353000
1001
ADE
1011
-1.2386020323028779
1021
0.0
1031
0.0
1021
-0.9852697709575295
1031
0.0
  0
VERTEX
  5
4E6
  8
SQUARES
 10
733632.3463114755
 20
4554952.5444262289
 30
0.0
  0
VERTEX
  5
4E7
  8
SQUARES
 10
733634.06442622934
 20
4554947.8486885251
 30
0.0
  0
VERTEX
  5
4E8
  8
SQUARES
 10
733629.36868852447
 20
4554946.130573771
 30
0.0
  0
VERTEX
  5
4E9
  8
SQUARES
 10
733627.65057377063
 20
4554950.8263114747
 30
0.0
  0
SEQEND
  5
4EA
  8
SQUARES
  0
POLYLINE
  5
105
  8
SQUARES
 66
     1
 10
0.0
 20
0.0
 30
0.0
 70
     1
1001
DCO15
1071
        2
1071
        2
1000
colsq
1004
073030343800
1001
ADE
1011
-1.2384866452775889
1021
0.0
1031
0.0
1021
-0.9855851326137781
1031
0.0
  0
VERTEX
  5
4EB
  8
SQUARES
 10
733625.93245901633
 20
4554955.5220491802
 30
0.0
  0
VERTEX
  5
4EC
  8
SQUARES
 10
733630.62819672143
 20
4554957.2401639344
 30
0.0
  0
VERTEX
  5
4ED
  8
SQUARES
 10
733632.3463114755
 20
4554952.5444262289
 30
0.0
  0
VERTEX
  5
4EE
  8
SQUARES
 10
733627.65057377063
 20
4554950.8263114747
 30
0.0
  0
SEQEND
  5
4EF
  8
SQUARES
  0
POLYLINE
  5
106
  8
SQUARES
 66
     1
 10
0.0
 20
0.0
 30
0.0
 70
     1
1001
DCO15
1071
        2
1071
        2
1000
colsq
1004
073030343700
1001
ADE
1011
-1.2386020324192939
1021
0.0
1031
0.0
1021
-0.9852697709575295
1031
0.0
  0
VERTEX
  5
4F0
  8
SQUARES
 10
733625.47385245888
 20
4554971.3273770493
 30
0.0
  0
VERTEX
  5
4F1
  8
SQUARES
 10
733627.19196721318
 20
4554966.6316393437
 30
0.0
  0
VERTEX
  5
4F2
  8
SQUARES
 10
733622.49622950843
 20
4554964.9135245914
 30
0.0
  0
VERTEX
  5
4F3
  8
SQUARES
 10
733620.77811475389
 20
4554969.6092622951
 30
0.0
  0
SEQEND
  5
4F4
  8
SQUARES
  0
POLYLINE
  5
107
  8
SQUARES
 66
     1
 10
0.0
 20
0.0
 30
0.0
 70
     1
1001
DCO15
1071
        2
1071
        2
1000
colsq
1004
073030363500
1001
ADE
1011
-1.2386020323028779
1021
0.0
1031
0.0
1021
-0.9852697709575295
1031
0.0
  0
VERTEX
  5
4F5
  8
SQUARES
 10
733637.04204918025
 20
4554954.262540984
 30
0.0
  0
VERTEX
  5
4F6
  8
SQUARES
 10
733638.7601639342
 20
4554949.5668032793
 30
0.0
  0
VERTEX
  5
4F7
  8
SQUARES
 10
733634.06442622934
 20
4554947.8486885251
 30
0.0
  0
VERTEX
  5
4F8
  8
SQUARES
 10
733632.3463114755
 20
4554952.5444262289
 30
0.0
  0
SEQEND
  5
4F9
  8
SQUARES
  0
POLYLINE
  5
108
  8
SQUARES
 66
     1
 10
0.0
 20
0.0
 30
0.0
 70
     1
1001
DCO15
1071
        2
1071
        2
1000
colsq
1004
073030313000
1001
ADE
1011
-1.2386020324192939
1021
0.0
1031
0.0
1021
-0.9852697709575295
1031
0.0
  0
VERTEX
  5
4FA
  8
SQUARES
 10
733620.31950819644
 20
4554985.4145901641
 30
0.0
  0
VERTEX
  5
4FB
  8
SQUARES
 10
733625.01524590142
 20
4554987.1327049183
 30
0.0
  0
VERTEX
  5
4FC
  8
SQUARES
 10
733623.29713114735
 20
4554991.8284426229
 30
0.0
  0
VERTEX
  5
4FD
  8
SQUARES
 10
733618.6013934426
 20
4554990.1103278678
 30
0.0
  0
SEQEND
  5
4FE
  8
SQUARES
  0
POLYLINE
  5
109
  8
SQUARES
 66
     1
 10
0.0
 20
0.0
 30
0.0
 70
     1
1001
DCO15
1071
        2
1071
        2
1000
colsq
1004
073030303700
1001
ADE
1011
-1.2386020324192939
1021
0.0
1031
0.0
1021
-0.9852697709575295
1031
0.0
  0
VERTEX
  5
4FF
  8
SQUARES
 10
733629.7109836064
 20
4554988.8508196734
 30
0.0
  0
VERTEX
  5
500
  8
SQUARES
 10
733631.42909836071
 20
4554984.155081966
 30
0.0
  0
VERTEX
  5
501
  8
SQUARES
 10
733626.73336065584
 20
4554982.4369672127
 30
0.0
  0
VERTEX
  5
502
  8
SQUARES
 10
733625.01524590142
 20
4554987.1327049183
 30
0.0
  0
SEQEND
  5
503
  8
SQUARES
  0
POLYLINE
  5
10A
  8
SQUARES
 66
     1
 10
0.0
 20
0.0
 30
0.0
 70
     1
1001
DCO15
1071
        2
1071
        2
1000
colsq
1004
073030373000
1001
ADE
1011
-1.2386020323028779
1021
0.0
1031
0.0
1021
-0.9852697709575295
1031
0.0
  0
VERTEX
  5
504
  8
SQUARES
 10
733644.71540983603
 20
4554962.394508197
 30
0.0
  0
VERTEX
  5
505
  8
SQUARES
 10
733646.4335245901
 20
4554957.6987704923
 30
0.0
  0
VERTEX
  5
506
  8
SQUARES
 10
733641.73778688523
 20
4554955.9806557382
 30
0.0
  0
VERTEX
  5
507
  8
SQUARES
 10
733640.01967213105
 20
4554960.6763934419
 30
0.0
  0
SEQEND
  5
508
  8
SQUARES
  0
POLYLINE
  5
10B
  8
SQUARES
 66
     1
 10
0.0
 20
0.0
 30
0.0
 70
     1
1001
DCO15
1071
        2
1071
        2
1000
colsq
1004
073030303600
1001
ADE
1011
-1.2386020324192939
1021
0.0
1031
0.0
1021
-0.9852697709575295
1031
0.0
  0
VERTEX
  5
509
  8
SQUARES
 10
733629.7109836064
 20
4554988.8508196734
 30
0.0
  0
VERTEX
  5
50A
  8
SQUARES
 10
733634.40672131127
 20
4554990.5689344257
 30
0.0
  0
VERTEX
  5
50B
  8
SQUARES
 10
733632.68860655744
 20
4554995.2646721322
 30
0.0
  0
VERTEX
  5
50C
  8
SQUARES
 10
733627.99286885245
 20
4554993.5465573762
 30
0.0
  0
SEQEND
  5
50D
  8
SQUARES
  0
POLYLINE
  5
10C
  8
SQUARES
 66
     1
 10
0.0
 20
0.0
 30
0.0
 70
     1
1001
DCO15
1071
        2
1071
        2
1000
colsq
1004
073030373400
1001
ADE
1011
-1.2386020323028779
1021
0.0
1031
0.0
1021
-0.9852697709575295
1031
0.0
  0
VERTEX
  5
50E
  8
SQUARES
 10
733651.12926229532
 20
4554959.4168852447
 30
0.0
  0
VERTEX
  5
50F
  8
SQUARES
 10
733652.84737704915
 20
4554954.721147541
 30
0.0
  0
VERTEX
  5
510
  8
SQUARES
 10
733648.15163934417
 20
4554953.0030327868
 30
0.0
  0
VERTEX
  5
511
  8
SQUARES
 10
733646.4335245901
 20
4554957.6987704923
 30
0.0
  0
SEQEND
  5
512
  8
SQUARES
  0
POLYLINE
  5
10D
  8
SQUARES
 66
     1
 10
0.0
 20
0.0
 30
0.0
 70
     1
1001
DCO15
1071
        2
1071
        2
1000
colsq
1004
073030373600
1001
ADE
1011
-1.238602032535709
1021
0.0
1031
0.0
1021
-0.9852697709575295
1031
0.0
  0
VERTEX
  5
513
  8
SQUARES
 10
733655.82500000019
 20
4554961.1349999998
 30
0.0
  0
VERTEX
  5
514
  8
SQUARES
 10
733657.54311475414
 20
4554956.4392622951
 30
0.0
  0
VERTEX
  5
515
  8
SQUARES
 10
733652.84737704915
 20
4554954.721147541
 30
0.0
  0
VERTEX
  5
516
  8
SQUARES
 10
733651.12926229532
 20
4554959.4168852447
 30
0.0
  0
SEQEND
  5
517
  8
SQUARES
  0
POLYLINE
  5
10E
  8
SQUARES
 66
     1
 10
0.0
 20
0.0
 30
0.0
 70
     1
1001
DCO15
1071
        2
1071
        2
1000
colsq
1004
073030373900
1001
ADE
1011
-1.2386020324192939
1021
0.0
1031
0.0
1021
-0.9852697709575295
1031
0.0
  0
VERTEX
  5
518
  8
SQUARES
 10
733653.64827868855
 20
4554981.6360655753
 30
0.0
  0
VERTEX
  5
519
  8
SQUARES
 10
733658.34401639341
 20
4554983.3541803276
 30
0.0
  0
VERTEX
  5
51A
  8
SQUARES
 10
733656.62590163935
 20
4554988.0499180332
 30
0.0
  0
VERTEX
  5
51B
  8
SQUARES
 10
733651.93016393448
 20
4554986.331803279
 30
0.0
  0
SEQEND
  5
51C
  8
SQUARES
  0
POLYLINE
  5
10F
  8
SQUARES
 66
     1
 10
0.0
 20
0.0
 30
0.0
 70
     1
1001
DCO15
1071
        2
1071
        2
1000
colsq
1004
073031313700
1001
ADE
1011
-0.847713095950894
1021
0.0
1031
0.0
1021
-1.3362009404227131
1031
0.0
  0
VERTEX
  5
51D
  8
SQUARES
 10
733255.20400000026
 20
4555160.5659999996
 30
0.0
  0
VERTEX
  5
51E
  8
SQUARES
 10
733258.36400000006
 20
4555156.6920000007
 30
0.0
  0
VERTEX
  5
51F
  8
SQUARES
 10
733254.49000000011
 20
4555153.5320000006
 30
0.0
  0
VERTEX
  5
520
  8
SQUARES
 10
733251.33000000007
 20
4555157.4060000014
 30
0.0
  0
SEQEND
  5
521
  8
SQUARES
  0
POLYLINE
  5
110
  8
SQUARES
 66
     1
 10
0.0
 20
0.0
 30
0.0
 70
     1
1001
DCO15
1071
        2
1071
        2
1000
colsq
1004
073031323900
1001
ADE
1011
-1.05555768974591
1021
0.0
1031
0.0
1021
-1.179533444344997
1031
0.0
  0
VERTEX
  5
522
  8
SQUARES
 10
733188.65899999999
 20
4555256.6279999986
 30
0.0
  0
VERTEX
  5
523
  8
SQUARES
 10
733186.17700000003
 20
4555260.9689999986
 30
0.0
  0
VERTEX
  5
524
  8
SQUARES
 10
733181.83599999989
 20
4555258.4869999988
 30
0.0
  0
VERTEX
  5
525
  8
SQUARES
 10
733184.31800000009
 20
4555254.1459999997
 30
0.0
  0
SEQEND
  5
526
  8
SQUARES
  0
POLYLINE
  5
111
  8
SQUARES
 66
     1
 10
0.0
 20
0.0
 30
0.0
 70
     1
1001
DCO15
1071
        2
1071
        2
1000
colsq
1004
073030393200
1001
ADE
1011
-1.193383030942641
1021
0.0
1031
0.0
1021
-1.0401469664648171
1031
0.0
  0
VERTEX
  5
527
  8
SQUARES
 10
733453.57333333313
 20
4555113.1483333334
 30
0.0
  0
VERTEX
  5
528
  8
SQUARES
 10
733455.49999999988
 20
4555108.5333333332
 30
0.0
  0
VERTEX
  5
529
  8
SQUARES
 10
733450.88499999978
 20
4555106.6066666674
 30
0.0
  0
VERTEX
  5
52A
  8
SQUARES
 10
733448.95833333314
 20
4555111.2216666657
 30
0.0
  0
SEQEND
  5
52B
  8
SQUARES
  0
POLYLINE
  5
112
  8
SQUARES
 66
     1
 10
0.0
 20
0.0
 30
0.0
 70
     1
1001
DCO15
1071
        2
1071
        2
1000
colsq
1004
073031313800
1001
ADE
1011
-0.8475008731475099
1021
0.0
1031
0.0
1021
-1.336461116559803
1031
0.0
  0
VERTEX
  5
52C
  8
SQUARES
 10
733259.0780000001
 20
4555163.7259999989
 30
0.0
  0
VERTEX
  5
52D
  8
SQUARES
 10
733262.23800000001
 20
4555159.852
 30
0.0
  0
VERTEX
  5
52E
  8
SQUARES
 10
733258.36400000006
 20
4555156.6920000007
 30
0.0
  0
VERTEX
  5
52F
  8
SQUARES
 10
733255.20400000026
 20
4555160.5659999996
 30
0.0
  0
SEQEND
  5
530
  8
SQUARES
  0
POLYLINE
  5
113
  8
SQUARES
 66
     1
 10
0.0
 20
0.0
 30
0.0
 70
     1
1001
DCO15
1071
        2
1071
        2
1000
colsq
1004
073031343100
1001
ADE
1011
-1.02711081248708
1021
0.0
1031
0.0
1021
-1.2040805909782639
1031
0.0
  0
VERTEX
  5
531
  8
SQUARES
 10
733161.45999999985
 20
4555234.4850000003
 30
0.0
  0
VERTEX
  5
532
  8
SQUARES
 10
733164.04499999993
 20
4555230.2049999991
 30
0.0
  0
VERTEX
  5
533
  8
SQUARES
 10
733159.76500000001
 20
4555227.620000001
 30
0.0
  0
VERTEX
  5
534
  8
SQUARES
 10
733157.18000000005
 20
4555231.9000000004
 30
0.0
  0
SEQEND
  5
535
  8
SQUARES
  0
POLYLINE
  5
114
  8
SQUARES
 66
     1
 10
0.0
 20
0.0
 30
0.0
 70
     1
1001
DCO15
1071
        2
1071
        2
1000
colsq
1004
073031323200
1001
ADE
1011
-0.8475008731475099
1021
0.0
1031
0.0
1021
-1.33646111562848
1031
0.0
  0
VERTEX
  5
536
  8
SQUARES
 10
733265.39800000004
 20
4555155.9780000001
 30
0.0
  0
VERTEX
  5
537
  8
SQUARES
 10
733268.55800000019
 20
4555152.1040000003
 30
0.0
  0
VERTEX
  5
538
  8
SQUARES
 10
733264.68400000012
 20
4555148.9440000001
 30
0.0
  0
VERTEX
  5
539
  8
SQUARES
 10
733261.52400000021
 20
4555152.818
 30
0.0
  0
SEQEND
  5
53A
  8
SQUARES
  0
TEXT
  5
115
  8
SQ_NUMBERS
 10
733589.36652499798
 20
4554970.9015358938
 30
0.0
 40
1.0000374173357609
  1
0027
 50
20.09697380165656
 72
     4
 11
733590.65627049166
 21
4554971.8989754086
 31
0.0
  0
TEXT
  5
118
  8
SQ_NUMBERS
 10
733587.64841024415
 20
4554975.5972736012
 30
0.0
 40
1.0000374173357609
  1
0028
 50
20.09697380165656
 72
     4
 11
733588.93815573759
 21
4554976.5947131151
 31
0.0
  0
TEXT
  5
119
  8
SQ_NUMBERS
 10
733606.08906598191
 20
4554939.7494867146
 30
0.0
 40
1.0000374173357609
  1
0059
 50
20.09697380165656
 72
     4
 11
733607.37881147536
 21
4554940.7469262294
 31
0.0
  0
TEXT
  5
11A
  8
SQ_NUMBERS
 10
733604.37095122784
 20
4554944.4452244192
 30
0.0
 40
1.0000374173357609
  1
0057
 50
20.09697380165656
 72
     4
 11
733605.66069672129
 21
4554945.4426639332
 31
0.0
  0
TEXT
  5
11B
  8
SQ_NUMBERS
 10
733602.65283647354
 20
4554949.1409621248
 30
0.0
 40
1.0000374173357609
  1
0055
 50
20.09697380165656
 72
     4
 11
733603.94258196722
 21
4554950.1384016396
 31
0.0
  0
TEXT
  5
11C
  8
SQ_NUMBERS
 10
733597.49849221134
 20
4554963.2281752396
 30
0.0
 40
1.0000374173357609
  1
0029
 50
20.09697380165656
 72
     4
 11
733598.7882377049
 21
4554964.2256147536
 31
0.0
  0
TEXT
  5
11D
  8
SQ_NUMBERS
 10
733594.06226270308
 20
4554972.6196506489
 30
0.0
 40
1.0000374173357609
  1
0024
 50
20.09697380165656
 72
     4
 11
733595.35200819664
 21
4554973.6170901638
 31
0.0
  0
TEXT
  5
11E
  8
SQ_NUMBERS
 10
733592.34414794901
 20
4554977.3153883535
 30
0.0
 40
1.0000374173357609
  1
0025
 50
20.09697380165656
 72
     4
 11
733593.63389344246
 21
4554978.3128278693
 31
0.0
  0
TEXT
  5
11F
  8
SQ_NUMBERS
 10
733590.62603319495
 20
4554982.0111260591
 30
0.0
 40
1.0000374173357609
  1
0022
 50
20.09697380165656
 72
     4
 11
733591.91577868839
 21
4554983.008565574
 31
0.0
  0
TEXT
  5
120
  8
SQ_NUMBERS
 10
733610.78480368666
 20
4554941.4676014688
 30
0.0
 40
1.0000374173357609
  1
0060
 50
20.09697380165656
 72
     4
 11
733612.07454918034
 21
4554942.4650409827
 31
0.0
  0
TEXT
  5
121
  8
SQ_NUMBERS
 10
733609.06668893259
 20
4554946.1633391734
 30
0.0
 40
1.0000374173357609
  1
0058
 50
20.09697380165656
 72
     4
 11
733610.35643442615
 21
4554947.1607786883
 31
0.0
  0
TEXT
  5
122
  8
SQ_NUMBERS
 10
733607.34857417853
 20
4554950.8590768781
 30
0.0
 40
1.0000374173357609
  1
0056
 50
20.09697380165656
 72
     4
 11
733608.63831967209
 21
4554951.8565163938
 31
0.0
  0
TEXT
  5
123
  8
SQ_NUMBERS
 10
733603.91234467027
 20
4554960.2505522883
 30
0.0
 40
1.0000374173357609
  1
0054
 50
20.09697380165656
 72
     4
 11
733605.20209016395
 21
4554961.2479918031
 31
0.0
  0
TEXT
  5
124
  8
SQ_NUMBERS
 10
733602.19411271892
 20
4554964.9466103027
 30
0.0
 40
1.0000374173357609
  1
0030
 50
20.09697380165656
 72
     4
 11
733603.48397540965
 21
4554965.9437295077
 31
0.0
  0
TEXT
  5
125
  8
SQ_NUMBERS
 10
733600.47611516202
 20
4554969.6420276985
 30
0.0
 40
1.0000374173357609
  1
0026
 50
20.09697380165656
 72
     4
 11
733601.76586065558
 21
4554970.6394672133
 31
0.0
  0
TEXT
  5
126
  8
SQ_NUMBERS
 10
733598.75800040795
 20
4554974.3377654031
 30
0.0
 40
1.0000374173357609
  1
0019
 50
20.09697380165656
 72
     4
 11
733600.04774590151
 21
4554975.335204917
 31
0.0
  0
TEXT
  5
127
  8
SQ_NUMBERS
 10
733597.03988565376
 20
4554979.0335031077
 30
0.0
 40
1.0000374173357609
  1
0020
 50
20.09697380165656
 72
     4
 11
733598.32963114744
 21
4554980.0309426226
 31
0.0
  0
TEXT
  5
128
  8
SQ_NUMBERS
 10
733595.3217708997
 20
4554983.7292408133
 30
0.0
 40
1.0000374173357609
  1
0021
 50
20.09697380165656
 72
     4
 11
733596.61151639326
 21
4554984.7266803281
 31
0.0
  0
TEXT
  5
129
  8
SQ_NUMBERS
 10
733593.60353894834
 20
4554988.4252988268
 30
0.0
 40
1.0000374173357609
  1
0023
 50
20.09697380165656
 72
     4
 11
733594.89340163919
 21
4554989.4224180318
 31
0.0
  0
TEXT
  5
12A
  8
SQ_NUMBERS
 10
733615.48054139165
 20
4554943.185716223
 30
0.0
 40
1.0000374173357609
  1
0062
 50
20.09697380165656
 72
     4
 11
733616.77028688521
 21
4554944.1831557378
 31
0.0
  0
TEXT
  5
12B
  8
SQ_NUMBERS
 10
733613.7624266377
 20
4554947.8814539267
 30
0.0
 40
1.0000374173357609
  1
0061
 50
20.09697380165656
 72
     4
 11
733615.05217213125
 21
4554948.8788934425
 31
0.0
  0
TEXT
  5
12C
  8
SQ_NUMBERS
 10
733608.60808237526
 20
4554961.9686670434
 30
0.0
 40
1.0000374173357609
  1
0044
 50
20.09697380165656
 72
     4
 11
733609.89782786882
 21
4554962.9661065573
 31
0.0
  0
TEXT
  5
12D
  8
SQ_NUMBERS
 10
733606.88985042367
 20
4554966.6647250559
 30
0.0
 40
1.0000374173357609
  1
0043
 50
20.09697380165656
 72
     4
 11
733608.17971311463
 21
4554967.6618442619
 31
0.0
  0
TEXT
  5
12E
  8
SQ_NUMBERS
 10
733605.1717356696
 20
4554971.3604627624
 30
0.0
 40
1.0000374173357609
  1
0037
 50
20.09697380165656
 72
     4
 11
733606.46159836056
 21
4554972.3575819666
 31
0.0
  0
TEXT
  5
12F
  8
SQ_NUMBERS
 10
733603.45373811305
 20
4554976.0558801573
 30
0.0
 40
1.0000374173357609
  1
0017
 50
20.09697380165656
 72
     4
 11
733604.74348360649
 21
4554977.0533196721
 31
0.0
  0
TEXT
  5
130
  8
SQ_NUMBERS
 10
733601.73562335875
 20
4554980.7516178619
 30
0.0
 40
1.0000374173357609
  1
0018
 50
20.09697380165656
 72
     4
 11
733603.02536885231
 21
4554981.7490573758
 31
0.0
  0
TEXT
  5
131
  8
SQ_NUMBERS
 10
733618.45804714505
 20
4554949.5998889906
 30
0.0
 40
1.0000374173357609
  1
0063
 50
20.09697380165656
 72
     4
 11
733619.74790983612
 21
4554950.5970081966
 31
0.0
  0
TEXT
  5
132
  8
SQ_NUMBERS
 10
733613.30382008024
 20
4554963.6867817957
 30
0.0
 40
1.0000374173357609
  1
0045
 50
20.09697380165656
 72
     4
 11
733614.59356557368
 21
4554964.6842213105
 31
0.0
  0
TEXT
  5
133
  8
SQ_NUMBERS
 10
733611.58570532606
 20
4554968.3825195013
 30
0.0
 40
1.0000374173357609
  1
0042
 50
20.09697380165656
 72
     4
 11
733612.87545081961
 21
4554969.3799590161
 31
0.0
  0
TEXT
  5
134
  8
SQ_NUMBERS
 10
733608.14947581792
 20
4554977.7739949115
 30
0.0
 40
1.0000374173357609
  1
0015
 50
20.09697380165656
 72
     4
 11
733609.43922131136
 21
4554978.7714344263
 31
0.0
  0
TEXT
  5
135
  8
SQ_NUMBERS
 10
733606.43136106385
 20
4554982.4697326161
 30
0.0
 40
1.0000374173357609
  1
0016
 50
20.09697380165656
 72
     4
 11
733607.72110655729
 21
4554983.4671721309
 31
0.0
  0
TEXT
  5
136
  8
SQ_NUMBERS
 10
733617.99955778499
 20
4554965.4048965508
 30
0.0
 40
1.0000374173357609
  1
0046
 50
20.09697380165656
 72
     4
 11
733619.28930327855
 21
4554966.4023360657
 31
0.0
  0
TEXT
  5
137
  8
SQ_NUMBERS
 10
733616.28144303092
 20
4554970.1006342564
 30
0.0
 40
1.0000374173357609
  1
0041
 50
20.09697380165656
 72
     4
 11
733617.57118852448
 21
4554971.0980737703
 31
0.0
  0
TEXT
  5
138
  8
SQ_NUMBERS
 10
733612.84509632539
 20
4554979.4924299754
 30
0.0
 40
1.0000374173357609
  1
0013
 50
20.09697380165656
 72
     4
 11
733614.13495901634
 21
4554980.4895491814
 31
0.0
  0
TEXT
  5
139
  8
SQ_NUMBERS
 10
733611.1270987686
 20
4554984.1878473703
 30
0.0
 40
1.0000374173357609
  1
0014
 50
20.09697380165656
 72
     4
 11
733612.41684426216
 21
4554985.1852868851
 31
0.0
  0
TEXT
  5
13A
  8
SQ_NUMBERS
 10
733629.5677545066
 20
4554948.3400604846
 30
0.0
 40
1.0000374173357609
  1
0050
 50
20.09697380165656
 72
     4
 11
733630.85750000004
 21
4554949.3375000004
 31
0.0
  0
TEXT
  5
13B
  8
SQ_NUMBERS
 10
733627.8496397523
 20
4554953.0357981902
 30
0.0
 40
1.0000374173357609
  1
0048
 50
20.09697380165656
 72
     4
 11
733629.13938524586
 21
4554954.033237705
 31
0.0
  0
TEXT
  5
13C
  8
SQ_NUMBERS
 10
733622.69529548986
 20
4554967.123011305
 30
0.0
 40
1.0000374173357609
  1
0047
 50
20.09697380165656
 72
     4
 11
733623.98504098353
 21
4554968.1204508189
 31
0.0
  0
TEXT
  5
13D
  8
SQ_NUMBERS
 10
733620.97718073602
 20
4554971.8187490096
 30
0.0
 40
1.0000374173357609
  1
0040
 50
20.09697380165656
 72
     4
 11
733622.26692622947
 21
4554972.8161885254
 31
0.0
  0
TEXT
  5
13E
  8
SQ_NUMBERS
 10
733617.54095122765
 20
4554981.2102244189
 30
0.0
 40
1.0000374173357609
  1
0011
 50
20.09697380165656
 72
     4
 11
733618.83069672133
 21
4554982.2076639337
 31
0.0
  0
TEXT
  5
13F
  8
SQ_NUMBERS
 10
733615.8228364737
 20
4554985.9059621254
 30
0.0
 40
1.0000374173357609
  1
0012
 50
20.09697380165656
 72
     4
 11
733617.11258196714
 21
4554986.9034016393
 31
0.0
  0
TEXT
  5
140
  8
SQ_NUMBERS
 10
733634.26349221147
 20
4554950.0581752388
 30
0.0
 40
1.0000374173357609
  1
0065
 50
20.09697380165656
 72
     4
 11
733635.55323770503
 21
4554951.0556147546
 31
0.0
  0
TEXT
  5
141
  8
SQ_NUMBERS
 10
733632.54537745728
 20
4554954.7539129443
 30
0.0
 40
1.0000374173357609
  1
0064
 50
20.09697380165656
 72
     4
 11
733633.83512295096
 21
4554955.7513524592
 31
0.0
  0
TEXT
  5
142
  8
SQ_NUMBERS
 10
733627.39103319496
 20
4554968.8411260592
 30
0.0
 40
1.0000374173357609
  1
0049
 50
20.09697380165656
 72
     4
 11
733628.68077868852
 21
4554969.838565575
 31
0.0
  0
TEXT
  5
143
  8
SQ_NUMBERS
 10
733625.67280124349
 20
4554973.5371840736
 30
0.0
 40
1.0000374173357609
  1
0039
 50
20.09697380165656
 72
     4
 11
733626.96266393445
 21
4554974.5343032777
 31
0.0
  0
TEXT
  5
144
  8
SQ_NUMBERS
 10
733623.95468648919
 20
4554978.2329217782
 30
0.0
 40
1.0000374173357609
  1
0031
 50
20.09697380165656
 72
     4
 11
733625.24454918026
 21
4554979.2300409833
 31
0.0
  0
TEXT
  5
145
  8
SQ_NUMBERS
 10
733622.23668893275
 20
4554982.928339174
 30
0.0
 40
1.0000374173357609
  1
0009
 50
20.09697380165656
 72
     4
 11
733623.5264344262
 21
4554983.9257786889
 31
0.0
  0
TEXT
  5
146
  8
SQ_NUMBERS
 10
733620.51857417857
 20
4554987.6240768777
 30
0.0
 40
1.0000374173357609
  1
0010
 50
20.09697380165656
 72
     4
 11
733621.80831967213
 21
4554988.6215163926
 31
0.0
  0
TEXT
  5
147
  8
SQ_NUMBERS
 10
733638.95922991633
 20
4554951.776289993
 30
0.0
 40
1.0000374173357609
  1
0068
 50
20.09697380165656
 72
     4
 11
733640.24897540989
 21
4554952.7737295078
 31
0.0
  0
TEXT
  5
148
  8
SQ_NUMBERS
 10
733637.24111516215
 20
4554956.4720276976
 30
0.0
 40
1.0000374173357609
  1
0067
 50
20.09697380165656
 72
     4
 11
733638.53086065582
 21
4554957.4694672134
 31
0.0
  0
TEXT
  5
149
  8
SQ_NUMBERS
 10
733635.52300040796
 20
4554961.1677654032
 30
0.0
 40
1.0000374173357609
  1
0066
 50
20.09697380165656
 72
     4
 11
733636.81274590164
 21
4554962.165204918
 31
0.0
  0
TEXT
  5
14A
  8
SQ_NUMBERS
 10
733632.08677089983
 20
4554970.5592408134
 30
0.0
 40
1.0000374173357609
  1
0051
 50
20.09697380165656
 72
     4
 11
733633.37651639339
 21
4554971.5566803282
 31
0.0
  0
TEXT
  5
14B
  8
SQ_NUMBERS
 10
733630.36853894836
 20
4554975.2552988278
 30
0.0
 40
1.0000374173357609
  1
0038
 50
20.09697380165656
 72
     4
 11
733631.65840163932
 21
4554976.2524180328
 31
0.0
  0
TEXT
  5
14C
  8
SQ_NUMBERS
 10
733628.65042419429
 20
4554979.9510365324
 30
0.0
 40
1.0000374173357609
  1
0032
 50
20.09697380165656
 72
     4
 11
733629.94028688525
 21
4554980.9481557366
 31
0.0
  0
TEXT
  5
14D
  8
SQ_NUMBERS
 10
733626.9324266375
 20
4554984.6464539282
 30
0.0
 40
1.0000374173357609
  1
0007
 50
20.09697380165656
 72
     4
 11
733628.22217213106
 21
4554985.643893443
 31
0.0
  0
TEXT
  5
14E
  8
SQ_NUMBERS
 10
733625.21431188344
 20
4554989.3421916328
 30
0.0
 40
1.0000374173357609
  1
0008
 50
20.09697380165656
 72
     4
 11
733626.50405737699
 21
4554990.3396311477
 31
0.0
  0
TEXT
  5
14F
  8
SQ_NUMBERS
 10
733643.6549676212
 20
4554953.4944047472
 30
0.0
 40
1.0000374173357609
  1
0071
 50
20.09697380165656
 72
     4
 11
733644.94471311476
 21
4554954.491844262
 31
0.0
  0
TEXT
  5
150
  8
SQ_NUMBERS
 10
733641.93685286725
 20
4554958.1901424518
 30
0.0
 40
1.0000374173357609
  1
0070
 50
20.09697380165656
 72
     4
 11
733643.22659836069
 21
4554959.1875819666
 31
0.0
  0
TEXT
  5
151
  8
SQ_NUMBERS
 10
733640.21873811306
 20
4554962.8858801574
 30
0.0
 40
1.0000374173357609
  1
0069
 50
20.09697380165656
 72
     4
 11
733641.50848360662
 21
4554963.8833196722
 31
0.0
  0
TEXT
  5
152
  8
SQ_NUMBERS
 10
733636.78250860493
 20
4554972.2773555676
 30
0.0
 40
1.0000374173357609
  1
0052
 50
20.09697380165656
 72
     4
 11
733638.07225409837
 21
4554973.2747950833
 31
0.0
  0
TEXT
  5
153
  8
SQ_NUMBERS
 10
733635.06427665334
 20
4554976.973413582
 30
0.0
 40
1.0000374173357609
  1
0036
 50
20.09697380165656
 72
     4
 11
733636.3541393443
 21
4554977.970532787
 31
0.0
  0
TEXT
  5
154
  8
SQ_NUMBERS
 10
733633.34616189916
 20
4554981.6691512857
 30
0.0
 40
1.0000374173357609
  1
0033
 50
20.09697380165656
 72
     4
 11
733634.63602459023
 21
4554982.6662704907
 31
0.0
  0
TEXT
  5
155
  8
SQ_NUMBERS
 10
733631.62816434249
 20
4554986.3645686833
 30
0.0
 40
1.0000374173357609
  1
0005
 50
20.09697380165656
 72
     4
 11
733632.91790983605
 21
4554987.3620081972
 31
0.0
  0
TEXT
  5
156
  8
SQ_NUMBERS
 10
733629.9100495883
 20
4554991.0603063861
 30
0.0
 40
1.0000374173357609
  1
0006
 50
20.09697380165656
 72
     4
 11
733631.19979508186
 21
4554992.0577459019
 31
0.0
  0
TEXT
  5
157
  8
SQ_NUMBERS
 10
733624.75570532586
 20
4555005.1475195009
 30
0.0
 40
1.0000374173357609
  1
0001
 50
20.09697380165656
 72
     4
 11
733626.04545081966
 21
4555006.1449590158
 31
0.0
  0
TEXT
  5
158
  8
SQ_NUMBERS
 10
733648.35070532619
 20
4554955.2125195013
 30
0.0
 40
1.0000374173357609
  1
0074
 50
20.09697380165656
 72
     4
 11
733649.64045081974
 21
4554956.2099590162
 31
0.0
  0
TEXT
  5
159
  8
SQ_NUMBERS
 10
733646.63247337483
 20
4554959.9085775157
 30
0.0
 40
1.0000374173357609
  1
0073
 50
20.09697380165656
 72
     4
 11
733647.92233606556
 21
4554960.9056967217
 31
0.0
  0
TEXT
  5
15A
  8
SQ_NUMBERS
 10
733644.91447581805
 20
4554964.6039949106
 30
0.0
 40
1.0000374173357609
  1
0072
 50
20.09697380165656
 72
     4
 11
733646.20422131149
 21
4554965.6014344264
 31
0.0
  0
TEXT
  5
15B
  8
SQ_NUMBERS
 10
733641.47812911216
 20
4554973.9957906306
 30
0.0
 40
1.0000374173357609
  1
0053
 50
20.09697380165656
 72
     4
 11
733642.76799180335
 21
4554974.9929098357
 31
0.0
  0
TEXT
  5
15C
  8
SQ_NUMBERS
 10
733639.76001435833
 20
4554978.6915283361
 30
0.0
 40
1.0000374173357609
  1
0035
 50
20.09697380165656
 72
     4
 11
733641.04987704917
 21
4554979.6886475412
 31
0.0
  0
TEXT
  5
15D
  8
SQ_NUMBERS
 10
733638.04189960426
 20
4554983.3872660408
 30
0.0
 40
1.0000374173357609
  1
0034
 50
20.09697380165656
 72
     4
 11
733639.3317622951
 21
4554984.3843852459
 31
0.0
  0
TEXT
  5
15E
  8
SQ_NUMBERS
 10
733636.32390204736
 20
4554988.0826834356
 30
0.0
 40
1.0000374173357609
  1
0004
 50
20.09697380165656
 72
     4
 11
733637.61364754103
 21
4554989.0801229514
 31
0.0
  0
TEXT
  5
15F
  8
SQ_NUMBERS
 10
733634.605670096
 20
4554992.778741451
 30
0.0
 40
1.0000374173357609
  1
0003
 50
20.09697380165656
 72
     4
 11
733635.89553278685
 21
4554993.7758606561
 31
0.0
  0
TEXT
  5
160
  8
SQ_NUMBERS
 10
733629.45144303096
 20
4555006.865634256
 30
0.0
 40
1.0000374173357609
  1
0002
 50
20.09697380165656
 72
     4
 11
733630.74118852452
 21
4555007.8630737709
 31
0.0
  0
TEXT
  5
161
  8
SQ_NUMBERS
 10
733653.04644303105
 20
4554956.9306342546
 30
0.0
 40
1.0000374173357609
  1
0076
 50
20.09697380165656
 72
     4
 11
733654.33618852461
 21
4554957.9280737704
 31
0.0
  0
TEXT
  5
162
  8
SQ_NUMBERS
 10
733651.32832827687
 20
4554961.6263719611
 30
0.0
 40
1.0000374173357609
  1
0075
 50
20.09697380165656
 72
     4
 11
733652.61807377054
 21
4554962.623811475
 31
0.0
  0
TEXT
  5
163
  8
SQ_NUMBERS
 10
733657.74218073615
 20
4554958.6487490097
 30
0.0
 40
1.0000374173357609
  1
0077
 50
20.09697380165656
 72
     4
 11
733659.0319262296
 21
4554959.6461885246
 31
0.0
  0
TEXT
  5
164
  8
SQ_NUMBERS
 10
733655.56545942463
 20
4554979.1498145834
 30
0.0
 40
1.0000374173357609
  1
0078
 50
20.09697380165656
 72
     4
 11
733656.85520491807
 21
4554980.1472540982
 31
0.0
  0
TEXT
  5
165
  8
SQ_NUMBERS
 10
733653.84734467044
 20
4554983.8455522889
 30
0.0
 40
1.0000374173357609
  1
0079
 50
20.09697380165656
 72
     4
 11
733655.137090164
 21
4554984.8429918038
 31
0.0
  0
TEXT
  5
166
  8
SQ_NUMBERS
 10
733660.2611971295
 20
4554980.8679293366
 30
0.0
 40
1.0000374173357609
  1
0080
 50
20.09697380165656
 72
     4
 11
733661.55094262306
 21
4554981.8653688524
 31
0.0
  0
TEXT
  5
167
  8
SQ_NUMBERS
 10
733658.54308237531
 20
4554985.5636670431
 30
0.0
 40
1.0000374173357609
  1
0081
 50
20.09697380165656
 72
     4
 11
733659.83282786887
 21
4554986.561106558
 31
0.0
  0
TEXT
  5
168
  8
SQ_NUMBERS
 10
733435.97509754414
 20
4555118.8148830133
 30
0.0
 40
1.0002053678059
  1
0084
 50
22.659523116550861
 72
     4
 11
733437.21916666627
 21
4555119.8691666657
 31
0.0
  0
TEXT
  5
169
  8
SQ_NUMBERS
 10
733448.29663278768
 20
4555102.2818644829
 30
0.0
 40
1.0002053678059
  1
0093
 50
22.659523116550861
 72
     4
 11
733449.54083333351
 21
4555103.3358333316
 31
0.0
  0
TEXT
  5
16A
  8
SQ_NUMBERS
 10
733446.37009754439
 20
4555106.8965496812
 30
0.0
 40
1.0002053678059
  1
0091
 50
22.659523116550861
 72
     4
 11
733447.61416666675
 21
4555107.9508333318
 31
0.0
  0
TEXT
  5
16B
  8
SQ_NUMBERS
 10
733444.44343087764
 20
4555111.5115496796
 30
0.0
 40
1.0002053678059
  1
0089
 50
22.659523116550861
 72
     4
 11
733445.68749999988
 21
4555112.5658333329
 31
0.0
  0
TEXT
  5
16C
  8
SQ_NUMBERS
 10
733442.51676421077
 20
4555116.1265496798
 30
0.0
 40
1.0002053678059
  1
0086
 50
22.659523116550861
 72
     4
 11
733443.76083333313
 21
4555117.1808333332
 31
0.0
  0
TEXT
  5
16D
  8
SQ_NUMBERS
 10
733440.59009754402
 20
4555120.74154968
 30
0.0
 40
1.0002053678059
  1
0085
 50
22.659523116550861
 72
     4
 11
733441.83416666638
 21
4555121.7958333325
 31
0.0
  0
TEXT
  5
16E
  8
SQ_NUMBERS
 10
733452.91176421102
 20
4555104.2082163468
 30
0.0
 40
1.0002053678059
  1
0094
 50
22.659523116550861
 72
     4
 11
733454.15583333338
 21
4555105.2624999993
 31
0.0
  0
TEXT
  5
16F
  8
SQ_NUMBERS
 10
733450.98509754427
 20
4555108.823216347
 30
0.0
 40
1.0002053678059
  1
0092
 50
22.659523116550861
 72
     4
 11
733452.22916666674
 21
4555109.8774999985
 31
0.0
  0
TEXT
  5
170
  8
SQ_NUMBERS
 10
733449.05843087763
 20
4555113.4382163472
 30
0.0
 40
1.0002053678059
  1
0090
 50
22.659523116550861
 72
     4
 11
733450.30249999999
 21
4555114.4924999997
 31
0.0
  0
TEXT
  5
171
  8
SQ_NUMBERS
 10
733447.13176421076
 20
4555118.0532163465
 30
0.0
 40
1.0002053678059
  1
0087
 50
22.659523116550861
 72
     4
 11
733448.37583333312
 21
4555119.1074999999
 31
0.0
  0
TEXT
  5
172
  8
SQ_NUMBERS
 10
733451.74676421075
 20
4555119.9798830152
 30
0.0
 40
1.0002053678059
  1
0088
 50
22.659523116550861
 72
     4
 11
733452.99083333311
 21
4555121.0341666657
 31
0.0
  0
TEXT
  5
173
  8
SQ_NUMBERS
 10
733466.75676421099
 20
4555109.9882163461
 30
0.0
 40
1.0002053678059
  1
0097
 50
22.659523116550861
 72
     4
 11
733468.00083333335
 21
4555111.0425000004
 31
0.0
  0
TEXT
  5
174
  8
SQ_NUMBERS
 10
733464.83009754424
 20
4555114.6032163473
 30
0.0
 40
1.0002053678059
  1
0095
 50
22.659523116550861
 72
     4
 11
733466.0741666666
 21
4555115.6574999997
 31
0.0
  0
TEXT
  5
175
  8
SQ_NUMBERS
 10
733471.37176421087
 20
4555111.9148830129
 30
0.0
 40
1.0002053678059
  1
0098
 50
22.659523116550861
 72
     4
 11
733472.61583333334
 21
4555112.9691666663
 31
0.0
  0
TEXT
  5
176
  8
SQ_NUMBERS
 10
733469.44509754423
 20
4555116.529883014
 30
0.0
 40
1.0002053678059
  1
0096
 50
22.659523116550861
 72
     4
 11
733470.68916666659
 21
4555117.5841666674
 31
0.0
  0
TEXT
  5
177
  8
SQ_NUMBERS
 10
733400.58420497982
 20
4555161.5369988056
 30
0.0
 40
1.000028124591767
  1
0104
 50
37.299607935784138
 72
     4
 11
733401.52125000034
 21
4555162.8712499999
 31
0.0
  0
TEXT
  5
178
  8
SQ_NUMBERS
 10
733397.5542049798
 20
4555165.5144988047
 30
0.0
 40
1.000028124591767
  1
0099
 50
37.299607935784138
 72
     4
 11
733398.49125000031
 21
4555166.848749999
 31
0.0
  0
TEXT
  5
179
  8
SQ_NUMBERS
 10
733404.56170497974
 20
4555164.566998804
 30
0.0
 40
1.000028124591767
  1
0105
 50
37.299607935784138
 72
     4
 11
733405.49875000014
 21
4555165.9012499992
 31
0.0
  0
TEXT
  5
17A
  8
SQ_NUMBERS
 10
733401.53170497972
 20
4555168.544498805
 30
0.0
 40
1.000028124591767
  1
0100
 50
37.299607935784138
 72
     4
 11
733402.46875000023
 21
4555169.8787499992
 31
0.0
  0
TEXT
  5
17B
  8
SQ_NUMBERS
 10
733398.50170497969
 20
4555172.521998805
 30
0.0
 40
1.000028124591767
  1
0082
 50
37.299607935784138
 72
     4
 11
733399.4387500002
 21
4555173.8562499993
 31
0.0
  0
TEXT
  5
17C
  8
SQ_NUMBERS
 10
733423.68899829476
 20
4555147.7097701225
 30
0.0
 40
1.000028124591767
  1
0113
 50
37.299607935784138
 72
     4
 11
733424.62625000009
 21
4555149.0437500002
 31
0.0
  0
TEXT
  5
17D
  8
SQ_NUMBERS
 10
733420.65920497966
 20
4555151.686998806
 30
0.0
 40
1.000028124591767
  1
0111
 50
37.299607935784138
 72
     4
 11
733421.59624999994
 21
4555153.0212500002
 31
0.0
  0
TEXT
  5
17E
  8
SQ_NUMBERS
 10
733417.62920497975
 20
4555155.6644988051
 30
0.0
 40
1.000028124591767
  1
0109
 50
37.299607935784138
 72
     4
 11
733418.56625000015
 21
4555156.9987499993
 31
0.0
  0
TEXT
  5
17F
  8
SQ_NUMBERS
 10
733408.53920497966
 20
4555167.5969988052
 30
0.0
 40
1.000028124591767
  1
0106
 50
37.299607935784138
 72
     4
 11
733409.47625000007
 21
4555168.9312499994
 31
0.0
  0
TEXT
  5
180
  8
SQ_NUMBERS
 10
733405.50920497964
 20
4555171.5744988052
 30
0.0
 40
1.000028124591767
  1
0101
 50
37.299607935784138
 72
     4
 11
733406.44625000015
 21
4555172.9087499985
 31
0.0
  0
TEXT
  5
181
  8
SQ_NUMBERS
 10
733402.47899829468
 20
4555175.5522701219
 30
0.0
 40
1.000028124591767
  1
0083
 50
37.299607935784138
 72
     4
 11
733403.41625000001
 21
4555176.8862499986
 31
0.0
  0
TEXT
  5
182
  8
SQ_NUMBERS
 10
733427.66670497961
 20
4555150.7394988053
 30
0.0
 40
1.000028124591767
  1
0114
 50
37.299607935784138
 72
     4
 11
733428.60375000001
 21
4555152.0737500004
 31
0.0
  0
TEXT
  5
183
  8
SQ_NUMBERS
 10
733424.6367049797
 20
4555154.7169988062
 30
0.0
 40
1.000028124591767
  1
0112
 50
37.299607935784138
 72
     4
 11
733425.57374999998
 21
4555156.0512499996
 31
0.0
  0
TEXT
  5
184
  8
SQ_NUMBERS
 10
733421.60670497955
 20
4555158.6944988053
 30
0.0
 40
1.000028124591767
  1
0110
 50
37.299607935784138
 72
     4
 11
733422.54374999995
 21
4555160.0287499987
 31
0.0
  0
TEXT
  5
185
  8
SQ_NUMBERS
 10
733412.5167049797
 20
4555170.6269988064
 30
0.0
 40
1.000028124591767
  1
0107
 50
37.299607935784138
 72
     4
 11
733413.45374999999
 21
4555171.9612499997
 31
0.0
  0
TEXT
  5
186
  8
SQ_NUMBERS
 10
733409.48670497956
 20
4555174.6044988045
 30
0.0
 40
1.000028124591767
  1
0102
 50
37.299607935784138
 72
     4
 11
733410.42374999996
 21
4555175.9387499988
 31
0.0
  0
TEXT
  5
187
  8
SQ_NUMBERS
 10
733416.49420497951
 20
4555173.6569988057
 30
0.0
 40
1.000028124591767
  1
0108
 50
37.299607935784138
 72
     4
 11
733417.43125000002
 21
4555174.99125
 31
0.0
  0
TEXT
  5
188
  8
SQ_NUMBERS
 10
733413.46399829455
 20
4555177.6347701224
 30
0.0
 40
1.000028124591767
  1
0103
 50
37.299607935784138
 72
     4
 11
733414.40124999988
 21
4555178.9687499991
 31
0.0
  0
TEXT
  5
189
  8
SQ_NUMBERS
 10
733263.43473642576
 20
4555144.0628278311
 30
0.0
 40
0.9998695114880719
  1
0123
 50
39.203931757042191
 72
     4
 11
733264.32700000005
 21
4555145.4270000001
 31
0.0
  0
TEXT
  5
18A
  8
SQ_NUMBERS
 10
733260.27495197824
 20
4555147.9365635738
 30
0.0
 40
0.9998695114880719
  1
0121
 50
39.203931757042191
 72
     4
 11
733261.16700000002
 21
4555149.301
 31
0.0
  0
TEXT
  5
18B
  8
SQ_NUMBERS
 10
733257.1149519782
 20
4555151.8105635736
 30
0.0
 40
0.9998695114880719
  1
0119
 50
39.203931757042191
 72
     4
 11
733258.00699999998
 21
4555153.1749999998
 31
0.0
  0
TEXT
  5
18C
  8
SQ_NUMBERS
 10
733253.95495197841
 20
4555155.6845635753
 30
0.0
 40
0.9998695114880719
  1
0117
 50
39.203931757042191
 72
     4
 11
733254.84699999995
 21
4555157.0489999996
 31
0.0
  0
TEXT
  5
18D
  8
SQ_NUMBERS
 10
733250.79495197826
 20
4555159.5585635751
 30
0.0
 40
0.9998695114880719
  1
0115
 50
39.203931757042191
 72
     4
 11
733251.68700000003
 21
4555160.9230000004
 31
0.0
  0
TEXT
  5
18E
  8
SQ_NUMBERS
 10
733267.30895197834
 20
4555147.222563575
 30
0.0
 40
0.9998695114880719
  1
0124
 50
39.203931757042191
 72
     4
 11
733268.201
 21
4555148.5870000003
 31
0.0
  0
TEXT
  5
18F
  8
SQ_NUMBERS
 10
733264.14895197831
 20
4555151.0965635749
 30
0.0
 40
0.9998695114880719
  1
0122
 50
39.203931757042191
 72
     4
 11
733265.04100000008
 21
4555152.4610000001
 31
0.0
  0
TEXT
  5
190
  8
SQ_NUMBERS
 10
733260.98895197827
 20
4555154.9705635747
 30
0.0
 40
0.9998695114880719
  1
0120
 50
39.203931757042191
 72
     4
 11
733261.88100000005
 21
4555156.335
 31
0.0
  0
TEXT
  5
191
  8
SQ_NUMBERS
 10
733257.82895197836
 20
4555158.8445635755
 30
0.0
 40
0.9998695114880719
  1
0118
 50
39.203931757042191
 72
     4
 11
733258.72100000014
 21
4555160.2089999998
 31
0.0
  0
TEXT
  5
192
  8
SQ_NUMBERS
 10
733254.66895197844
 20
4555162.7185635753
 30
0.0
 40
0.9998695114880719
  1
0116
 50
39.203931757042191
 72
     4
 11
733255.5610000001
 21
4555164.0830000006
 31
0.0
  0
TEXT
  5
193
  8
SQ_NUMBERS
 10
733084.74501330149
 20
4555157.8812719118
 30
0.0
 40
0.9999429046193528
  1
0145
 50
41.340894792032842
 72
     4
 11
733085.58562499995
 21
4555159.2781250002
 31
0.0
  0
TEXT
  5
194
  8
SQ_NUMBERS
 10
733081.44228802866
 20
4555161.635277967
 30
0.0
 40
0.9999429046193528
  1
0143
 50
41.340894792032842
 72
     4
 11
733082.28312499996
 21
4555163.0318750003
 31
0.0
  0
TEXT
  5
195
  8
SQ_NUMBERS
 10
733091.80126330163
 20
4555157.4300219128
 30
0.0
 40
0.9999429046193528
  1
0147
 50
41.340894792032842
 72
     4
 11
733092.64187499997
 21
4555158.8268750003
 31
0.0
  0
TEXT
  5
196
  8
SQ_NUMBERS
 10
733088.49876330164
 20
4555161.1837719129
 30
0.0
 40
0.9999429046193528
  1
0146
 50
41.340894792032842
 72
     4
 11
733089.33937499998
 21
4555162.5806250004
 31
0.0
  0
TEXT
  5
197
  8
SQ_NUMBERS
 10
733085.19626330154
 20
4555164.9375219122
 30
0.0
 40
0.9999429046193528
  1
0144
 50
41.340894792032842
 72
     4
 11
733086.03687499987
 21
4555166.3343750006
 31
0.0
  0
TEXT
  5
198
  8
SQ_NUMBERS
 10
733098.85751330166
 20
4555156.9787719129
 30
0.0
 40
0.9999429046193528
  1
0149
 50
41.340894792032842
 72
     4
 11
733099.698125
 21
4555158.3756250003
 31
0.0
  0
TEXT
  5
199
  8
SQ_NUMBERS
 10
733095.55501330155
 20
4555160.732521913
 30
0.0
 40
0.9999429046193528
  1
0148
 50
41.340894792032842
 72
     4
 11
733096.39562500012
 21
4555162.1293749996
 31
0.0
  0
TEXT
  5
19A
  8
SQ_NUMBERS
 10
733103.06251330138
 20
4555167.3375219116
 30
0.0
 40
0.9999429046193528
  1
0157
 50
41.340894792032842
 72
     4
 11
733103.90312499995
 21
4555168.734375
 31
0.0
  0
TEXT
  5
19B
  8
SQ_NUMBERS
 10
733099.75978802866
 20
4555171.0915279668
 30
0.0
 40
0.9999429046193528
  1
0153
 50
41.340894792032842
 72
     4
 11
733100.60062499985
 21
4555172.4881250001
 31
0.0
  0
TEXT
  5
19C
  8
SQ_NUMBERS
 10
733096.45751330152
 20
4555174.8450219119
 30
0.0
 40
0.9999429046193528
  1
0150
 50
41.340894792032842
 72
     4
 11
733097.29812499986
 21
4555176.2418750012
 31
0.0
  0
TEXT
  5
19D
  8
SQ_NUMBERS
 10
733110.11876330164
 20
4555166.8862719117
 30
0.0
 40
0.9999429046193528
  1
0161
 50
41.340894792032842
 72
     4
 11
733110.95937499986
 21
4555168.2831249991
 31
0.0
  0
TEXT
  5
19E
  8
SQ_NUMBERS
 10
733106.81626330153
 20
4555170.6400219128
 30
0.0
 40
0.9999429046193528
  1
0158
 50
41.340894792032842
 72
     4
 11
733107.6568750001
 21
4555172.0368750002
 31
0.0
  0
TEXT
  5
19F
  8
SQ_NUMBERS
 10
733103.51376330166
 20
4555174.393771912
 30
0.0
 40
0.9999429046193528
  1
0154
 50
41.340894792032842
 72
     4
 11
733104.354375
 21
4555175.7906250004
 31
0.0
  0
TEXT
  5
1A0
  8
SQ_NUMBERS
 10
733100.21126330155
 20
4555178.1475219131
 30
0.0
 40
0.9999429046193528
  1
0151
 50
41.340894792032842
 72
     4
 11
733101.051875
 21
4555179.5443749996
 31
0.0
  0
TEXT
  5
1A1
  8
SQ_NUMBERS
 10
733110.57001330145
 20
4555173.942521912
 30
0.0
 40
0.9999429046193528
  1
0159
 50
41.340894792032842
 72
     4
 11
733111.41062500002
 21
4555175.3393750004
 31
0.0
  0
TEXT
  5
1A2
  8
SQ_NUMBERS
 10
733107.26751330157
 20
4555177.6962719131
 30
0.0
 40
0.9999429046193528
  1
0155
 50
41.340894792032842
 72
     4
 11
733108.10812500014
 21
4555179.0931249997
 31
0.0
  0
TEXT
  5
1A3
  8
SQ_NUMBERS
 10
733103.96501330158
 20
4555181.4500219142
 30
0.0
 40
0.9999429046193528
  1
0152
 50
41.340894792032842
 72
     4
 11
733104.80562500015
 21
4555182.8468750007
 31
0.0
  0
TEXT
  5
1A4
  8
SQ_NUMBERS
 10
733117.62626330159
 20
4555173.4912719131
 30
0.0
 40
0.9999429046193528
  1
0162
 50
41.340894792032842
 72
     4
 11
733118.46687500004
 21
4555174.8881250015
 31
0.0
  0
TEXT
  5
1A5
  8
SQ_NUMBERS
 10
733114.3237633016
 20
4555177.2450219132
 30
0.0
 40
0.9999429046193528
  1
0160
 50
41.340894792032842
 72
     4
 11
733115.16437500005
 21
4555178.6418749997
 31
0.0
  0
TEXT
  5
1A6
  8
SQ_NUMBERS
 10
733111.02126330172
 20
4555180.9987719133
 30
0.0
 40
0.9999429046193528
  1
0156
 50
41.340894792032842
 72
     4
 11
733111.86187500006
 21
4555182.3956249999
 31
0.0
  0
TEXT
  5
1A7
  8
SQ_NUMBERS
 10
733162.12252148695
 20
4555225.5466869017
 30
0.0
 40
1.000012499925816
  1
0142
 50
31.130799147508959
 72
     4
 11
733163.19750000001
 21
4555226.7725
 31
0.0
  0
TEXT
  5
1A8
  8
SQ_NUMBERS
 10
733159.53752148699
 20
4555229.8266869029
 30
0.0
 40
1.000012499925816
  1
0141
 50
31.130799147508959
 72
     4
 11
733160.61250000005
 21
4555231.0525000002
 31
0.0
  0
TEXT
  5
1A9
  8
SQ_NUMBERS
 10
733156.95252148702
 20
4555234.1066869022
 30
0.0
 40
1.000012499925816
  1
0140
 50
31.130799147508959
 72
     4
 11
733158.02749999997
 21
4555235.3324999986
 31
0.0
  0
TEXT
  5
1AA
  8
SQ_NUMBERS
 10
733154.36734515685
 20
4555238.3869788526
 30
0.0
 40
1.000012499925816
  1
0139
 50
31.130799147508959
 72
     4
 11
733155.4425
 21
4555239.6124999998
 31
0.0
  0
TEXT
  5
1AB
  8
SQ_NUMBERS
 10
733199.03522824019
 20
4555230.3119721692
 30
0.0
 40
1.000092095761264
  1
0137
 50
29.759093321695019
 72
     4
 11
733200.13950000005
 21
4555231.5115
 31
0.0
  0
TEXT
  5
1AC
  8
SQ_NUMBERS
 10
733196.55322824023
 20
4555234.6529721692
 30
0.0
 40
1.000092095761264
  1
0135
 50
29.759093321695019
 72
     4
 11
733197.65749999997
 21
4555235.8525
 31
0.0
  0
TEXT
  5
1AD
  8
SQ_NUMBERS
 10
733194.07122824015
 20
4555238.9939721692
 30
0.0
 40
1.000092095761264
  1
0134
 50
29.759093321695019
 72
     4
 11
733195.17550000001
 21
4555240.1935000001
 31
0.0
  0
TEXT
  5
1AE
  8
SQ_NUMBERS
 10
733191.58922824019
 20
4555243.3349721693
 30
0.0
 40
1.000092095761264
  1
0133
 50
29.759093321695019
 72
     4
 11
733192.69350000017
 21
4555244.5344999991
 31
0.0
  0
TEXT
  5
1AF
  8
SQ_NUMBERS
 10
733189.10722824023
 20
4555247.6759721693
 30
0.0
 40
1.000092095761264
  1
0132
 50
29.759093321695019
 72
     4
 11
733190.21150000009
 21
4555248.8755000001
 31
0.0
  0
TEXT
  5
1B0
  8
SQ_NUMBERS
 10
733186.62522824015
 20
4555252.0169721693
 30
0.0
 40
1.000092095761264
  1
0131
 50
29.759093321695019
 72
     4
 11
733187.72950000013
 21
4555253.2165000001
 31
0.0
  0
TEXT
  5
1B1
  8
SQ_NUMBERS
 10
733184.14339754439
 20
4555256.3576760571
 30
0.0
 40
1.000092095761264
  1
0129
 50
29.759093321695019
 72
     4
 11
733185.24750000006
 21
4555257.5575000001
 31
0.0
  0
TEXT
  5
1B2
  8
SQ_NUMBERS
 10
733181.66139754455
 20
4555260.6986760572
 30
0.0
 40
1.000092095761264
  1
0127
 50
29.759093321695019
 72
     4
 11
733182.7655000001
 21
4555261.8985000001
 31
0.0
  0
TEXT
  5
1B3
  8
SQ_NUMBERS
 10
733179.17939754436
 20
4555265.0396760572
 30
0.0
 40
1.000092095761264
  1
0126
 50
29.759093321695019
 72
     4
 11
733180.28350000014
 21
4555266.2395000001
 31
0.0
  0
TEXT
  5
1B4
  8
SQ_NUMBERS
 10
733176.69739754451
 20
4555269.3806760572
 30
0.0
 40
1.000092095761264
  1
0125
 50
29.759093321695019
 72
     4
 11
733177.80150000006
 21
4555270.5805000002
 31
0.0
  0
TEXT
  5
1B5
  8
SQ_NUMBERS
 10
733203.37622824032
 20
4555232.793972169
 30
0.0
 40
1.000092095761264
  1
0138
 50
29.759093321695019
 72
     4
 11
733204.48050000006
 21
4555233.9934999999
 31
0.0
  0
TEXT
  5
1B6
  8
SQ_NUMBERS
 10
733200.89422824013
 20
4555237.1349721691
 30
0.0
 40
1.000092095761264
  1
0136
 50
29.759093321695019
 72
     4
 11
733201.9985000001
 21
4555238.3344999999
 31
0.0
  0
TEXT
  5
1B7
  8
SQ_NUMBERS
 10
733188.48422824021
 20
4555258.8399721691
 30
0.0
 40
1.000092095761264
  1
0130
 50
29.759093321695019
 72
     4
 11
733189.58850000007
 21
4555260.0395
 31
0.0
  0
TEXT
  5
1B8
  8
SQ_NUMBERS
 10
733186.00239754445
 20
4555263.180676057
 30
0.0
 40
1.000092095761264
  1
0128
 50
29.759093321695019
 72
     4
 11
733187.10650000011
 21
4555264.3805
 31
0.0
  0
TEXT
  5
1B9
  8
SQ_NUMBERS
 10
732752.81574624835
 20
4555216.1005190993
 30
0.0
 40
1.0000931956444581
  1
0218
 50
344.64639704940572
 72
     4
 11
732754.44499999995
 21
4555216.165
 31
0.0
  0
TEXT
  5
1BA
  8
SQ_NUMBERS
 10
732747.99374624842
 20
4555217.4245190993
 30
0.0
 40
1.0000931956444581
  1
0214
 50
344.64639704940572
 72
     4
 11
732749.62300000002
 21
4555217.4890000001
 31
0.0
  0
TEXT
  5
1BB
  8
SQ_NUMBERS
 10
732749.31783656206
 20
4555222.2468480216
 30
0.0
 40
1.0000931956444581
  1
0213
 50
344.64639704940572
 72
     4
 11
732750.94700000004
 21
4555222.3109999998
 31
0.0
  0
TEXT
  5
1BC
  8
SQ_NUMBERS
 10
732754.13974624837
 20
4555220.922519098
 30
0.0
 40
1.0000931956444581
  1
0217
 50
344.64639704940572
 72
     4
 11
732755.76899999997
 21
4555220.9869999997
 31
0.0
  0
TEXT
  5
1BD
  8
SQ_NUMBERS
 10
732755.46374624828
 20
4555225.7445190987
 30
0.0
 40
1.0000931956444581
  1
0216
 50
344.64639704940572
 72
     4
 11
732757.09299999999
 21
4555225.8090000004
 31
0.0
  0
TEXT
  5
1BE
  8
SQ_NUMBERS
 10
732750.64174624835
 20
4555227.0685190996
 30
0.0
 40
1.0000931956444581
  1
0212
 50
344.64639704940572
 72
     4
 11
732752.27100000007
 21
4555227.1330000004
 31
0.0
  0
TEXT
  5
1BF
  8
SQ_NUMBERS
 10
732751.96574624849
 20
4555231.8905191002
 30
0.0
 40
1.0000931956444581
  1
0211
 50
344.64639704940572
 72
     4
 11
732753.59500000009
 21
4555231.9550000001
 31
0.0
  0
TEXT
  5
1C0
  8
SQ_NUMBERS
 10
732756.78774624853
 20
4555230.5665190993
 30
0.0
 40
1.0000931956444581
  1
0215
 50
344.64639704940572
 72
     4
 11
732758.41700000002
 21
4555230.6309999991
 31
0.0
  0
TEXT
  5
1C1
  8
SQ_NUMBERS
 10
732726.68617121433
 20
4555239.4806760848
 30
0.0
 40
1.000112687542219
  1
0202
 50
343.48575722991012
 72
     4
 11
732728.31642857159
 21
4555239.5121428557
 31
0.0
  0
TEXT
  5
1C2
  8
SQ_NUMBERS
 10
732725.26474264276
 20
4555234.686390372
 30
0.0
 40
1.000112687542219
  1
0204
 50
343.48575722991012
 72
     4
 11
732726.89500000002
 21
4555234.7178571429
 31
0.0
  0
TEXT
  5
1C3
  8
SQ_NUMBERS
 10
732723.8433140713
 20
4555229.8921046574
 30
0.0
 40
1.000112687542219
  1
0210
 50
343.48575722991012
 72
     4
 11
732725.47357142845
 21
4555229.9235714283
 31
0.0
  0
TEXT
  5
1C4
  8
SQ_NUMBERS
 10
732722.42188549996
 20
4555225.0978189427
 30
0.0
 40
1.000112687542219
  1
0206
 50
343.48575722991012
 72
     4
 11
732724.05214285722
 21
4555225.1292857127
 31
0.0
  0
TEXT
  5
1C5
  8
SQ_NUMBERS
 10
732721.00045692851
 20
4555220.303533229
 30
0.0
 40
1.000112687542219
  1
0208
 50
343.48575722991012
 72
     4
 11
732722.63071428577
 21
4555220.334999999
 31
0.0
  0
TEXT
  5
1C6
  8
SQ_NUMBERS
 10
732719.57902835705
 20
4555215.5092475144
 30
0.0
 40
1.000112687542219
  1
0220
 50
343.48575722991012
 72
     4
 11
732721.20928571443
 21
4555215.5407142853
 31
0.0
  0
TEXT
  5
1C7
  8
SQ_NUMBERS
 10
732718.1575997856
 20
4555210.7149617998
 30
0.0
 40
1.000112687542219
  1
0222
 50
343.48575722991012
 72
     4
 11
732719.78785714286
 21
4555210.7464285707
 31
0.0
  0
TEXT
  5
1C8
  8
SQ_NUMBERS
 10
732721.89188549994
 20
4555240.9021046571
 30
0.0
 40
1.000112687542219
  1
0201
 50
343.48575722991012
 72
     4
 11
732723.5221428572
 21
4555240.9335714281
 31
0.0
  0
TEXT
  5
1C9
  8
SQ_NUMBERS
 10
732720.47055388812
 20
4555236.1081459746
 30
0.0
 40
1.000112687542219
  1
0203
 50
343.48575722991012
 72
     4
 11
732722.10071428563
 21
4555236.1392857153
 31
0.0
  0
TEXT
  5
1CA
  8
SQ_NUMBERS
 10
732719.04902835703
 20
4555231.3135332288
 30
0.0
 40
1.000112687542219
  1
0209
 50
343.48575722991012
 72
     4
 11
732720.67928571429
 21
4555231.3449999997
 31
0.0
  0
TEXT
  5
1CB
  8
SQ_NUMBERS
 10
732717.62759978557
 20
4555226.5192475142
 30
0.0
 40
1.000112687542219
  1
0205
 50
343.48575722991012
 72
     4
 11
732719.25785714295
 21
4555226.5507142851
 31
0.0
  0
TEXT
  5
1CC
  8
SQ_NUMBERS
 10
732716.20617121411
 20
4555221.7249617986
 30
0.0
 40
1.000112687542219
  1
0207
 50
343.48575722991012
 72
     4
 11
732717.83642857138
 21
4555221.7564285696
 31
0.0
  0
TEXT
  5
1CD
  8
SQ_NUMBERS
 10
732714.78474264266
 20
4555216.9306760859
 30
0.0
 40
1.000112687542219
  1
0219
 50
343.48575722991012
 72
     4
 11
732716.41500000004
 21
4555216.9621428568
 31
0.0
  0
TEXT
  5
1CE
  8
SQ_NUMBERS
 10
732713.36331407144
 20
4555212.1363903712
 30
0.0
 40
1.000112687542219
  1
0221
 50
343.48575722991012
 72
     4
 11
732714.99357142847
 21
4555212.1678571422
 31
0.0
  0
POLYLINE
  5
1CF
  8
SQUARES
 66
     1
 10
0.0
 20
0.0
 30
0.0
 70
     1
  0
VERTEX
  5
53B
  8
SQUARES
 10
732716.68000000005
 20
4555209.0599999996
 30
0.0
  0
VERTEX
  5
53C
  8
SQUARES
 10
732718.10142857127
 20
4555213.8542857133
 30
0.0
  0
VERTEX
  5
53D
  8
SQUARES
 10
732722.89571428555
 20
4555212.4328571418
 30
0.0
  0
VERTEX
  5
53E
  8
SQUARES
 10
732721.47428571433
 20
4555207.6385714272
 30
0.0
  0
SEQEND
  5
53F
  8
SQUARES
  0
POLYLINE
  5
1D0
  8
SQUARES
 66
     1
 10
0.0
 20
0.0
 30
0.0
 70
     1
  0
VERTEX
  5
540
  8
SQUARES
 10
732718.10142857151
 20
4555213.8542857142
 30
0.0
  0
VERTEX
  5
541
  8
SQUARES
 10
732719.52285714285
 20
4555218.6485714279
 30
0.0
  0
VERTEX
  5
542
  8
SQUARES
 10
732724.31714285701
 20
4555217.2271428565
 30
0.0
  0
VERTEX
  5
543
  8
SQUARES
 10
732722.8957142859
 20
4555212.4328571428
 30
0.0
  0
SEQEND
  5
544
  8
SQUARES
  0
POLYLINE
  5
1D1
  8
SQUARES
 66
     1
 10
0.0
 20
0.0
 30
0.0
 70
     1
  0
VERTEX
  5
545
  8
SQUARES
 10
732719.52285714296
 20
4555218.6485714288
 30
0.0
  0
VERTEX
  5
546
  8
SQUARES
 10
732720.9442857143
 20
4555223.4428571416
 30
0.0
  0
VERTEX
  5
547
  8
SQUARES
 10
732725.73857142858
 20
4555222.0214285711
 30
0.0
  0
VERTEX
  5
548
  8
SQUARES
 10
732724.31714285736
 20
4555217.2271428583
 30
0.0
  0
SEQEND
  5
549
  8
SQUARES
  0
POLYLINE
  5
1D2
  8
SQUARES
 66
     1
 10
0.0
 20
0.0
 30
0.0
 70
     1
  0
VERTEX
  5
54A
  8
SQUARES
 10
732720.94428571465
 20
4555223.4428571425
 30
0.0
  0
VERTEX
  5
54B
  8
SQUARES
 10
732722.36571428576
 20
4555228.2371428562
 30
0.0
  0
VERTEX
  5
54C
  8
SQUARES
 10
732727.16000000003
 20
4555226.8157142857
 30
0.0
  0
VERTEX
  5
54D
  8
SQUARES
 10
732725.73857142893
 20
4555222.021428572
 30
0.0
  0
SEQEND
  5
54E
  8
SQUARES
  0
POLYLINE
  5
1D3
  8
SQUARES
 66
     1
 10
0.0
 20
0.0
 30
0.0
 70
     1
  0
VERTEX
  5
54F
  8
SQUARES
 10
732722.36571428576
 20
4555228.2371428562
 30
0.0
  0
VERTEX
  5
550
  8
SQUARES
 10
732723.78714285709
 20
4555233.0314285709
 30
0.0
  0
VERTEX
  5
551
  8
SQUARES
 10
732728.58142857125
 20
4555231.6099999994
 30
0.0
  0
VERTEX
  5
552
  8
SQUARES
 10
732727.16000000003
 20
4555226.8157142857
 30
0.0
  0
SEQEND
  5
553
  8
SQUARES
  0
POLYLINE
  5
1D4
  8
SQUARES
 66
     1
 10
0.0
 20
0.0
 30
0.0
 70
     1
  0
VERTEX
  5
554
  8
SQUARES
 10
732723.78714285733
 20
4555233.0314285718
 30
0.0
  0
VERTEX
  5
555
  8
SQUARES
 10
732725.20857142855
 20
4555237.8257142846
 30
0.0
  0
VERTEX
  5
556
  8
SQUARES
 10
732730.00285714283
 20
4555236.404285714
 30
0.0
  0
VERTEX
  5
557
  8
SQUARES
 10
732728.5814285716
 20
4555231.6100000003
 30
0.0
  0
SEQEND
  5
558
  8
SQUARES
  0
POLYLINE
  5
1D5
  8
SQUARES
 66
     1
 10
0.0
 20
0.0
 30
0.0
 70
     1
  0
VERTEX
  5
559
  8
SQUARES
 10
732725.20857142878
 20
4555237.8257142873
 30
0.0
  0
VERTEX
  5
55A
  8
SQUARES
 10
732726.63000000012
 20
4555242.6200000001
 30
0.0
  0
VERTEX
  5
55B
  8
SQUARES
 10
732731.42428571428
 20
4555241.1985714287
 30
0.0
  0
VERTEX
  5
55C
  8
SQUARES
 10
732730.00285714294
 20
4555236.404285714
 30
0.0
  0
SEQEND
  5
55D
  8
SQUARES
  0
POLYLINE
  5
1D6
  8
SQUARES
 66
     1
 10
0.0
 20
0.0
 30
0.0
 70
     1
  0
VERTEX
  5
55E
  8
SQUARES
 10
732711.88571428577
 20
4555210.481428571
 30
0.0
  0
VERTEX
  5
55F
  8
SQUARES
 10
732713.30714285688
 20
4555215.2757142847
 30
0.0
  0
VERTEX
  5
560
  8
SQUARES
 10
732718.10142857127
 20
4555213.8542857133
 30
0.0
  0
VERTEX
  5
561
  8
SQUARES
 10
732716.68000000005
 20
4555209.0599999996
 30
0.0
  0
SEQEND
  5
562
  8
SQUARES
  0
POLYLINE
  5
1D7
  8
SQUARES
 66
     1
 10
0.0
 20
0.0
 30
0.0
 70
     1
  0
VERTEX
  5
563
  8
SQUARES
 10
732713.30714285735
 20
4555215.2757142847
 30
0.0
  0
VERTEX
  5
564
  8
SQUARES
 10
732714.72857142857
 20
4555220.0699999994
 30
0.0
  0
VERTEX
  5
565
  8
SQUARES
 10
732719.52285714285
 20
4555218.6485714279
 30
0.0
  0
VERTEX
  5
566
  8
SQUARES
 10
732718.10142857151
 20
4555213.8542857142
 30
0.0
  0
SEQEND
  5
567
  8
SQUARES
  0
POLYLINE
  5
1D8
  8
SQUARES
 66
     1
 10
0.0
 20
0.0
 30
0.0
 70
     1
  0
VERTEX
  5
568
  8
SQUARES
 10
732714.72857142857
 20
4555220.0700000003
 30
0.0
  0
VERTEX
  5
569
  8
SQUARES
 10
732716.14999999991
 20
4555224.864285714
 30
0.0
  0
VERTEX
  5
56A
  8
SQUARES
 10
732720.94428571418
 20
4555223.4428571416
 30
0.0
  0
VERTEX
  5
56B
  8
SQUARES
 10
732719.52285714296
 20
4555218.6485714288
 30
0.0
  0
SEQEND
  5
56C
  8
SQUARES
  0
POLYLINE
  5
1D9
  8
SQUARES
 66
     1
 10
0.0
 20
0.0
 30
0.0
 70
     1
  0
VERTEX
  5
56D
  8
SQUARES
 10
732716.15000000014
 20
4555224.8642857149
 30
0.0
  0
VERTEX
  5
56E
  8
SQUARES
 10
732717.57142857125
 20
4555229.6585714286
 30
0.0
  0
VERTEX
  5
56F
  8
SQUARES
 10
732722.36571428552
 20
4555228.2371428562
 30
0.0
  0
VERTEX
  5
570
  8
SQUARES
 10
732720.9442857143
 20
4555223.4428571425
 30
0.0
  0
SEQEND
  5
571
  8
SQUARES
  0
POLYLINE
  5
1DA
  8
SQUARES
 66
     1
 10
0.0
 20
0.0
 30
0.0
 70
     1
  0
VERTEX
  5
572
  8
SQUARES
 10
732717.57142857171
 20
4555229.6585714286
 30
0.0
  0
VERTEX
  5
573
  8
SQUARES
 10
732718.99285714282
 20
4555234.4528571423
 30
0.0
  0
VERTEX
  5
574
  8
SQUARES
 10
732723.78714285709
 20
4555233.0314285709
 30
0.0
  0
VERTEX
  5
575
  8
SQUARES
 10
732722.36571428587
 20
4555228.2371428562
 30
0.0
  0
SEQEND
  5
576
  8
SQUARES
  0
POLYLINE
  5
1DB
  8
SQUARES
 66
     1
 10
0.0
 20
0.0
 30
0.0
 70
     1
  0
VERTEX
  5
577
  8
SQUARES
 10
732718.99285714305
 20
4555234.4528571432
 30
0.0
  0
VERTEX
  5
578
  8
SQUARES
 10
732720.41428571427
 20
4555239.2471428569
 30
0.0
  0
VERTEX
  5
579
  8
SQUARES
 10
732725.20857142855
 20
4555237.8257142846
 30
0.0
  0
VERTEX
  5
57A
  8
SQUARES
 10
732723.78714285733
 20
4555233.0314285718
 30
0.0
  0
SEQEND
  5
57B
  8
SQUARES
  0
POLYLINE
  5
1DC
  8
SQUARES
 66
     1
 10
0.0
 20
0.0
 30
0.0
 70
     1
  0
VERTEX
  5
57C
  8
SQUARES
 10
732720.41428571439
 20
4555239.2471428569
 30
0.0
  0
VERTEX
  5
57D
  8
SQUARES
 10
732721.83571428573
 20
4555244.0414285706
 30
0.0
  0
VERTEX
  5
57E
  8
SQUARES
 10
732726.62999999989
 20
4555242.6200000001
 30
0.0
  0
VERTEX
  5
57F
  8
SQUARES
 10
732725.20857142855
 20
4555237.8257142873
 30
0.0
  0
SEQEND
  5
580
  8
SQUARES
  0
POLYLINE
  5
1DD
  8
SQUARES
 66
     1
 10
0.0
 20
0.0
 30
0.0
 70
     1
  0
VERTEX
  5
581
  8
SQUARES
 10
732746.45257142885
 20
4555215.7677142862
 30
0.0
  0
VERTEX
  5
582
  8
SQUARES
 10
732747.87399999995
 20
4555220.5619999999
 30
0.0
  0
VERTEX
  5
583
  8
SQUARES
 10
732752.66828571435
 20
4555219.1405714285
 30
0.0
  0
VERTEX
  5
584
  8
SQUARES
 10
732751.24685714312
 20
4555214.3462857148
 30
0.0
  0
SEQEND
  5
585
  8
SQUARES
  0
POLYLINE
  5
1DE
  8
SQUARES
 66
     1
 10
0.0
 20
0.0
 30
0.0
 70
     1
  0
VERTEX
  5
586
  8
SQUARES
 10
732747.77657142875
 20
4555220.5897142859
 30
0.0
  0
VERTEX
  5
587
  8
SQUARES
 10
732749.19800000009
 20
4555225.3839999987
 30
0.0
  0
VERTEX
  5
588
  8
SQUARES
 10
732753.99228571425
 20
4555223.9625714282
 30
0.0
  0
VERTEX
  5
589
  8
SQUARES
 10
732752.57085714303
 20
4555219.1682857154
 30
0.0
  0
SEQEND
  5
58A
  8
SQUARES
  0
POLYLINE
  5
1DF
  8
SQUARES
 66
     1
 10
0.0
 20
0.0
 30
0.0
 70
     1
  0
VERTEX
  5
58B
  8
SQUARES
 10
732749.10057142889
 20
4555225.4117142856
 30
0.0
  0
VERTEX
  5
58C
  8
SQUARES
 10
732750.52200000023
 20
4555230.2060000002
 30
0.0
  0
VERTEX
  5
58D
  8
SQUARES
 10
732755.31628571439
 20
4555228.7845714279
 30
0.0
  0
VERTEX
  5
58E
  8
SQUARES
 10
732753.89485714305
 20
4555223.9902857151
 30
0.0
  0
SEQEND
  5
58F
  8
SQUARES
  0
POLYLINE
  5
1E0
  8
SQUARES
 66
     1
 10
0.0
 20
0.0
 30
0.0
 70
     1
  0
VERTEX
  5
590
  8
SQUARES
 10
732750.42457142891
 20
4555230.2337142862
 30
0.0
  0
VERTEX
  5
591
  8
SQUARES
 10
732751.84600000025
 20
4555235.0279999999
 30
0.0
  0
VERTEX
  5
592
  8
SQUARES
 10
732756.64028571441
 20
4555233.6065714275
 30
0.0
  0
VERTEX
  5
593
  8
SQUARES
 10
732755.21885714319
 20
4555228.8122857148
 30
0.0
  0
SEQEND
  5
594
  8
SQUARES
  0
POLYLINE
  5
1E1
  8
SQUARES
 66
     1
 10
0.0
 20
0.0
 30
0.0
 70
     1
  0
VERTEX
  5
595
  8
SQUARES
 10
732755.21885714319
 20
4555228.8122857148
 30
0.0
  0
VERTEX
  5
596
  8
SQUARES
 10
732756.64028571441
 20
4555233.6065714275
 30
0.0
  0
VERTEX
  5
597
  8
SQUARES
 10
732761.43457142869
 20
4555232.1851428561
 30
0.0
  0
VERTEX
  5
598
  8
SQUARES
 10
732760.01314285747
 20
4555227.3908571433
 30
0.0
  0
SEQEND
  5
599
  8
SQUARES
  0
POLYLINE
  5
1E2
  8
SQUARES
 66
     1
 10
0.0
 20
0.0
 30
0.0
 70
     1
  0
VERTEX
  5
59A
  8
SQUARES
 10
732753.82596239063
 20
4555224.1142407004
 30
0.0
  0
VERTEX
  5
59B
  8
SQUARES
 10
732755.24739096186
 20
4555228.9085264141
 30
0.0
  0
VERTEX
  5
59C
  8
SQUARES
 10
732760.04167667625
 20
4555227.4870978426
 30
0.0
  0
VERTEX
  5
59D
  8
SQUARES
 10
732758.62024810491
 20
4555222.6928121289
 30
0.0
  0
SEQEND
  5
59E
  8
SQUARES
  0
POLYLINE
  5
1E3
  8
SQUARES
 66
     1
 10
0.0
 20
0.0
 30
0.0
 70
     1
  0
VERTEX
  5
59F
  8
SQUARES
 10
732752.50196239038
 20
4555219.2922406998
 30
0.0
  0
VERTEX
  5
5A0
  8
SQUARES
 10
732753.92339096148
 20
4555224.0865264144
 30
0.0
  0
VERTEX
  5
5A1
  8
SQUARES
 10
732758.71767667588
 20
4555222.665097842
 30
0.0
  0
VERTEX
  5
5A2
  8
SQUARES
 10
732757.29624810466
 20
4555217.8708121283
 30
0.0
  0
SEQEND
  5
5A3
  8
SQUARES
  0
POLYLINE
  5
1E4
  8
SQUARES
 66
     1
 10
0.0
 20
0.0
 30
0.0
 70
     1
  0
VERTEX
  5
5A4
  8
SQUARES
 10
732751.27457142889
 20
4555214.4437142862
 30
0.0
  0
VERTEX
  5
5A5
  8
SQUARES
 10
732752.696
 20
4555219.2379999999
 30
0.0
  0
VERTEX
  5
5A6
  8
SQUARES
 10
732757.49028571427
 20
4555217.8165714284
 30
0.0
  0
VERTEX
  5
5A7
  8
SQUARES
 10
732756.06885714305
 20
4555213.0222857138
 30
0.0
  0
SEQEND
  5
5A8
  8
SQUARES
  0
ENDSEC
  0
EOF
