  0
SECTION
  2
HEADER
  9
$ACADVER
  1
AC1009
  9
$INSBASE
 10
0.0
 20
0.0
 30
0.0
  9
$EXTMIN
 10
732711.88571428577
 20
4554937.54
 30
0.0
  9
$EXTMAX
 10
737381.77060000005
 20
4560409.7699999986
 30
0.0
  9
$LIMMIN
 10
0.0
 20
0.0
  9
$LIMMAX
 10
12.0
 20
9.0
  9
$ORTHOMODE
 70
     0
  9
$REGENMODE
 70
     1
  9
$FILLMODE
 70
     1
  9
$QTEXTMODE
 70
     0
  9
$MIRRTEXT
 70
     1
  9
$DRAGMODE
 70
     2
  9
$LTSCALE
 40
1.0
  9
$OSMODE
 70
   623
  9
$ATTMODE
 70
     1
  9
$TEXTSIZE
 40
0.2
  9
$TRACEWID
 40
0.05
  9
$TEXTSTYLE
  7
STANDARD
  9
$CLAYER
  8
SQUARES
  9
$CELTYPE
  6
BYLAYER
  9
$CECOLOR
 62
   256
  9
$DIMSCALE
 40
1.0
  9
$DIMASZ
 40
0.18
  9
$DIMEXO
 40
0.0625
  9
$DIMDLI
 40
0.38
  9
$DIMRND
 40
0.0
  9
$DIMDLE
 40
0.0
  9
$DIMEXE
 40
0.18
  9
$DIMTP
 40
0.0
  9
$DIMTM
 40
0.0
  9
$DIMTXT
 40
0.18
  9
$DIMCEN
 40
0.09
  9
$DIMTSZ
 40
0.0
  9
$DIMTOL
 70
     0
  9
$DIMLIM
 70
     0
  9
$DIMTIH
 70
     1
  9
$DIMTOH
 70
     1
  9
$DIMSE1
 70
     0
  9
$DIMSE2
 70
     0
  9
$DIMTAD
 70
     0
  9
$DIMZIN
 70
     0
  9
$DIMBLK
  1

  9
$DIMASO
 70
     1
  9
$DIMSHO
 70
     1
  9
$DIMPOST
  1

  9
$DIMAPOST
  1

  9
$DIMALT
 70
     0
  9
$DIMALTD
 70
     2
  9
$DIMALTF
 40
25.399999999999999
  9
$DIMLFAC
 40
1.0
  9
$DIMTOFL
 70
     0
  9
$DIMTVP
 40
0.0
  9
$DIMTIX
 70
     0
  9
$DIMSOXD
 70
     0
  9
$DIMSAH
 70
     0
  9
$DIMBLK1
  1

  9
$DIMBLK2
  1

  9
$DIMSTYLE
  2
STANDARD
  9
$DIMCLRD
 70
     0
  9
$DIMCLRE
 70
     0
  9
$DIMCLRT
 70
     0
  9
$DIMTFAC
 40
1.0
  9
$DIMGAP
 40
0.09
  9
$LUNITS
 70
     2
  9
$LUPREC
 70
     4
  9
$SKETCHINC
 40
0.1
  9
$FILLETRAD
 40
0.5
  9
$AUNITS
 70
     0
  9
$AUPREC
 70
     0
  9
$MENU
  1
.
  9
$ELEVATION
 40
0.0
  9
$PELEVATION
 40
0.0
  9
$THICKNESS
 40
0.0
  9
$LIMCHECK
 70
     0
  9
$BLIPMODE
 70
     0
  9
$CHAMFERA
 40
0.5
  9
$CHAMFERB
 40
0.5
  9
$SKPOLY
 70
     0
  9
$TDCREATE
 40
2455703.2279213662
  9
$TDUPDATE
 40
2457576.6374177779
  9
$TDINDWG
 40
0.1268590046
  9
$TDUSRTIMER
 40
0.1268590046
  9
$USRTIMER
 70
     1
  9
$ANGBASE
 50
0.0
  9
$ANGDIR
 70
     1
  9
$PDMODE
 70
    66
  9
$PDSIZE
 40
0.0
  9
$PLINEWID
 40
0.0
  9
$COORDS
 70
     1
  9
$SPLFRAME
 70
     0
  9
$SPLINETYPE
 70
     6
  9
$SPLINESEGS
 70
     8
  9
$ATTDIA
 70
     1
  9
$ATTREQ
 70
     1
  9
$HANDLING
 70
     1
  9
$HANDSEED
  5
2B5
  9
$SURFTAB1
 70
     6
  9
$SURFTAB2
 70
     6
  9
$SURFTYPE
 70
     6
  9
$SURFU
 70
     6
  9
$SURFV
 70
     6
  9
$UCSNAME
  2

  9
$UCSORG
 10
0.0
 20
0.0
 30
0.0
  9
$UCSXDIR
 10
1.0
 20
0.0
 30
0.0
  9
$UCSYDIR
 10
0.0
 20
1.0
 30
0.0
  9
$PUCSNAME
  2

  9
$PUCSORG
 10
0.0
 20
0.0
 30
0.0
  9
$PUCSXDIR
 10
1.0
 20
0.0
 30
0.0
  9
$PUCSYDIR
 10
0.0
 20
1.0
 30
0.0
  9
$USERI1
 70
     0
  9
$USERI2
 70
     0
  9
$USERI3
 70
     0
  9
$USERI4
 70
     0
  9
$USERI5
 70
     0
  9
$USERR1
 40
0.0
  9
$USERR2
 40
0.0
  9
$USERR3
 40
0.0
  9
$USERR4
 40
0.0
  9
$USERR5
 40
0.0
  9
$WORLDVIEW
 70
     1
  9
$SHADEDGE
 70
     3
  9
$SHADEDIF
 70
    70
  9
$TILEMODE
 70
     1
  9
$MAXACTVP
 70
    64
  9
$PLIMCHECK
 70
     0
  9
$PEXTMIN
 10
0.0
 20
0.0
 30
0.0
  9
$PEXTMAX
 10
0.0
 20
0.0
 30
0.0
  9
$PLIMMIN
 10
0.0
 20
0.0
  9
$PLIMMAX
 10
12.0
 20
9.0
  9
$UNITMODE
 70
     0
  9
$VISRETAIN
 70
     1
  9
$PLINEGEN
 70
     0
  9
$PSLTSCALE
 70
     1
  0
ENDSEC
  0
SECTION
  2
TABLES
  0
TABLE
  2
VPORT
 70
     1
  0
VPORT
  2
*ACTIVE
 70
     0
 10
0.0
 20
0.0
 11
1.0
 21
1.0
 12
737414.00504228845
 22
4560151.9264828283
 13
0.0
 23
0.0
 14
0.5
 24
0.5
 15
0.5
 25
0.5
 16
0.0
 26
0.0
 36
1.0
 17
0.0
 27
0.0
 37
0.0
 40
867.39795594961026
 41
1.301997649823736
 42
50.0
 43
0.0
 44
0.0
 50
0.0
 51
0.0
 71
     0
 72
   100
 73
     1
 74
     2
 75
     0
 76
     0
 77
     0
 78
     0
  0
ENDTAB
  0
TABLE
  2
LTYPE
 70
     1
  0
LTYPE
  2
CONTINUOUS
 70
     0
  3
Solid line
 72
    65
 73
     0
 40
0.0
  0
ENDTAB
  0
TABLE
  2
LAYER
 70
     3
  0
LAYER
  2
0
 70
     0
 62
    -7
  6
CONTINUOUS
  0
LAYER
  2
SQUARES
 70
     0
 62
     5
  6
CONTINUOUS
  0
LAYER
  2
SQ_NUMBERS
 70
     0
 62
   140
  6
CONTINUOUS
  0
ENDTAB
  0
TABLE
  2
STYLE
 70
     1
  0
STYLE
  2
STANDARD
 70
     0
 40
0.0
 41
1.0
 50
0.0
 71
     0
 42
0.2
  3
txt
  4

  0
ENDTAB
  0
TABLE
  2
VIEW
 70
     0
  0
ENDTAB
  0
TABLE
  2
UCS
 70
     0
  0
ENDTAB
  0
TABLE
  2
APPID
 70
     6
  0
APPID
  2
ACAD
 70
     0
  0
APPID
  2
DCO15
 70
     0
  0
APPID
  2
ADE
 70
     0
  0
APPID
  2
ACAECLAYERSTANDARD
 70
     0
  0
APPID
  2
ACAD_NAV_VCDISPLAY
 70
     0
  0
APPID
  2
ADE_PROJECTION
 70
     0
  0
ENDTAB
  0
TABLE
  2
DIMSTYLE
 70
     1
  0
DIMSTYLE
  2
STANDARD
 70
     0
  3

  4

  5

  6

  7

 40
1.0
 41
0.18
 42
0.0625
 43
0.38
 44
0.18
 45
0.0
 46
0.0
 47
0.0
 48
0.0
140
0.18
141
0.09
142
0.0
143
25.399999999999999
144
1.0
145
0.0
146
1.0
147
0.09
 71
     0
 72
     0
 73
     1
 74
     1
 75
     0
 76
     0
 77
     0
 78
     0
170
     0
171
     2
172
     0
173
     0
174
     0
175
     0
176
     0
177
     0
178
     0
  0
ENDTAB
  0
ENDSEC
  0
SECTION
  2
BLOCKS
  0
BLOCK
  8
0
  2
$MODEL_SPACE
 70
     0
 10
0.0
 20
0.0
 30
0.0
  3
$MODEL_SPACE
  1

  0
ENDBLK
  5
17
  8
0
  0
BLOCK
 67
     1
  8
0
  2
$PAPER_SPACE
 70
     0
 10
0.0
 20
0.0
 30
0.0
  3
$PAPER_SPACE
  1

  0
ENDBLK
  5
1D
 67
     1
  8
0
  0
ENDSEC
  0
SECTION
  2
ENTITIES
  0
POLYLINE
  5
72
  8
SQUARES
 66
     1
 10
0.0
 20
0.0
 30
0.0
 70
     1
1001
DCO15
1071
        2
1071
        2
1000
colsq
1004
073230313300
1001
ADE
1011
-1.564546146080829
1021
0.0
1031
0.0
1021
0.2376540172845125
1031
0.0
  0
VERTEX
  5
139
  8
SQUARES
 10
737322.82350364968
 20
4560374.1503649643
 30
0.0
  0
VERTEX
  5
13A
  8
SQUARES
 10
737320.54978102201
 20
4560369.6981021902
 30
0.0
  0
VERTEX
  5
13B
  8
SQUARES
 10
737325.00204379542
 20
4560367.424379562
 30
0.0
  0
VERTEX
  5
13C
  8
SQUARES
 10
737327.27576642332
 20
4560371.8766423361
 30
0.0
  0
SEQEND
  5
13D
  8
SQUARES
  0
POLYLINE
  5
74
  8
SQUARES
 66
     1
 10
0.0
 20
0.0
 30
0.0
 70
     1
1001
DCO15
1071
        2
1071
        2
1000
colsq
1004
073230353900
1001
ADE
1011
-1.568106581806205
1021
0.0
1031
0.0
1021
0.2139408327639103
1031
0.0
  0
VERTEX
  5
13E
  8
SQUARES
 10
737368.53340000007
 20
4560349.9762000004
 30
0.0
  0
VERTEX
  5
13F
  8
SQUARES
 10
737366.32720000006
 20
4560345.4896
 30
0.0
  0
VERTEX
  5
140
  8
SQUARES
 10
737361.84060000023
 20
4560347.6957999989
 30
0.0
  0
VERTEX
  5
141
  8
SQUARES
 10
737364.04680000024
 20
4560352.1824000003
 30
0.0
  0
SEQEND
  5
142
  8
SQUARES
  0
POLYLINE
  5
75
  8
SQUARES
 66
     1
 10
0.0
 20
0.0
 30
0.0
 70
     1
1001
DCO15
1071
        2
1071
        2
1000
colsq
1004
073230363200
1001
ADE
1011
-1.568106581806205
1021
0.0
1031
0.0
1021
0.2139408327639103
1031
0.0
  0
VERTEX
  5
143
  8
SQUARES
 10
737361.7664000002
 20
4560358.8751999987
 30
0.0
  0
VERTEX
  5
144
  8
SQUARES
 10
737363.97260000021
 20
4560363.3618000001
 30
0.0
  0
VERTEX
  5
145
  8
SQUARES
 10
737359.48600000015
 20
4560365.568
 30
0.0
  0
VERTEX
  5
146
  8
SQUARES
 10
737357.27980000025
 20
4560361.0813999996
 30
0.0
  0
SEQEND
  5
147
  8
SQUARES
  0
POLYLINE
  5
76
  8
SQUARES
 66
     1
 10
0.0
 20
0.0
 30
0.0
 70
     1
1001
DCO15
1071
        2
1071
        2
1000
colsq
1004
073230363300
1001
ADE
1011
-1.568106581689789
1021
0.0
1031
0.0
1021
0.2139408327639103
1031
0.0
  0
VERTEX
  5
148
  8
SQUARES
 10
737357.20559999999
 20
4560372.2608000003
 30
0.0
  0
VERTEX
  5
149
  8
SQUARES
 10
737354.99939999997
 20
4560367.7741999999
 30
0.0
  0
VERTEX
  5
14A
  8
SQUARES
 10
737359.48600000015
 20
4560365.568
 30
0.0
  0
VERTEX
  5
14B
  8
SQUARES
 10
737361.69220000017
 20
4560370.0546000004
 30
0.0
  0
SEQEND
  5
14C
  8
SQUARES
  0
POLYLINE
  5
77
  8
SQUARES
 66
     1
 10
0.0
 20
0.0
 30
0.0
 70
     1
1001
DCO15
1071
        2
1071
        2
1000
colsq
1004
073230363500
1001
ADE
1011
-1.568106581689789
1021
0.0
1031
0.0
1021
0.2139408327639103
1031
0.0
  0
VERTEX
  5
14D
  8
SQUARES
 10
737359.41179999989
 20
4560376.7473999998
 30
0.0
  0
VERTEX
  5
14E
  8
SQUARES
 10
737357.20559999999
 20
4560372.2608000003
 30
0.0
  0
VERTEX
  5
14F
  8
SQUARES
 10
737352.71900000004
 20
4560374.4670000002
 30
0.0
  0
VERTEX
  5
150
  8
SQUARES
 10
737354.92520000006
 20
4560378.9535999987
 30
0.0
  0
SEQEND
  5
151
  8
SQUARES
  0
POLYLINE
  5
78
  8
SQUARES
 66
     1
 10
0.0
 20
0.0
 30
0.0
 70
     1
1001
DCO15
1071
        2
1071
        2
1000
colsq
1004
073230323900
1001
ADE
1011
-1.5790231502614911
1021
0.0
1031
0.0
1021
0.1095217484980822
1031
0.0
  0
VERTEX
  5
152
  8
SQUARES
 10
737239.41705882363
 20
4560326.3017647061
 30
0.0
  0
VERTEX
  5
153
  8
SQUARES
 10
737234.79352941189
 20
4560328.2058823528
 30
0.0
  0
VERTEX
  5
154
  8
SQUARES
 10
737232.88941176492
 20
4560323.5823529409
 30
0.0
  0
VERTEX
  5
155
  8
SQUARES
 10
737237.51294117665
 20
4560321.6782352943
 30
0.0
  0
SEQEND
  5
156
  8
SQUARES
  0
POLYLINE
  5
79
  8
SQUARES
 66
     1
 10
0.0
 20
0.0
 30
0.0
 70
     1
1001
DCO15
1071
        2
1071
        2
1000
colsq
1004
073230313800
1001
ADE
1011
-1.566170094418339
1021
0.0
1031
0.0
1021
0.2292379327118397
1031
0.0
  0
VERTEX
  5
157
  8
SQUARES
 10
737310.51552941184
 20
4560407.5198823521
 30
0.0
  0
VERTEX
  5
158
  8
SQUARES
 10
737306.05000000005
 20
4560409.7699999986
 30
0.0
  0
VERTEX
  5
159
  8
SQUARES
 10
737303.79988235305
 20
4560405.3044705866
 30
0.0
  0
VERTEX
  5
15A
  8
SQUARES
 10
737308.26541176485
 20
4560403.0543529401
 30
0.0
  0
SEQEND
  5
15B
  8
SQUARES
  0
POLYLINE
  5
7A
  8
SQUARES
 66
     1
 10
0.0
 20
0.0
 30
0.0
 70
     1
1001
DCO15
1071
        2
1071
        2
1000
colsq
1004
073230303300
1001
ADE
1011
-1.5645461461972441
1021
0.0
1031
0.0
1021
0.2376540172845125
1031
0.0
  0
VERTEX
  5
15C
  8
SQUARES
 10
737320.26423357648
 20
4560336.1633576648
 30
0.0
  0
VERTEX
  5
15D
  8
SQUARES
 10
737317.99051094882
 20
4560331.7110948907
 30
0.0
  0
VERTEX
  5
15E
  8
SQUARES
 10
737322.44277372258
 20
4560329.4373722645
 30
0.0
  0
VERTEX
  5
15F
  8
SQUARES
 10
737324.71649635048
 20
4560333.8896350358
 30
0.0
  0
SEQEND
  5
160
  8
SQUARES
  0
POLYLINE
  5
7B
  8
SQUARES
 66
     1
 10
0.0
 20
0.0
 30
0.0
 70
     1
1001
DCO15
1071
        2
1071
        2
1000
colsq
1004
073230303700
1001
ADE
1011
-1.5645461461972441
1021
0.0
1031
0.0
1021
0.2376540163531899
1031
0.0
  0
VERTEX
  5
161
  8
SQUARES
 10
737324.81167883193
 20
4560345.0678832112
 30
0.0
  0
VERTEX
  5
162
  8
SQUARES
 10
737322.53795620427
 20
4560340.6156204389
 30
0.0
  0
VERTEX
  5
163
  8
SQUARES
 10
737326.99021897803
 20
4560338.3418978108
 30
0.0
  0
VERTEX
  5
164
  8
SQUARES
 10
737329.26394160581
 20
4560342.794160584
 30
0.0
  0
SEQEND
  5
165
  8
SQUARES
  0
POLYLINE
  5
7C
  8
SQUARES
 66
     1
 10
0.0
 20
0.0
 30
0.0
 70
     1
1001
DCO15
1071
        2
1071
        2
1000
colsq
1004
073230313100
1001
ADE
1011
-1.564546146080829
1021
0.0
1031
0.0
1021
0.2376540182158351
1031
0.0
  0
VERTEX
  5
166
  8
SQUARES
 10
737329.35912408773
 20
4560353.9724087594
 30
0.0
  0
VERTEX
  5
167
  8
SQUARES
 10
737327.08540145983
 20
4560349.5201459872
 30
0.0
  0
VERTEX
  5
168
  8
SQUARES
 10
737331.53766423347
 20
4560347.2464233581
 30
0.0
  0
VERTEX
  5
169
  8
SQUARES
 10
737333.81138686126
 20
4560351.6986861322
 30
0.0
  0
SEQEND
  5
16A
  8
SQUARES
  0
POLYLINE
  5
7D
  8
SQUARES
 66
     1
 10
0.0
 20
0.0
 30
0.0
 70
     1
1001
DCO15
1071
        2
1071
        2
1000
colsq
1004
073230313000
1001
ADE
1011
-1.5645461461972441
1021
0.0
1031
0.0
1021
0.2376540172845125
1031
0.0
  0
VERTEX
  5
16B
  8
SQUARES
 10
737318.18087591243
 20
4560354.0675912406
 30
0.0
  0
VERTEX
  5
16C
  8
SQUARES
 10
737322.63313868595
 20
4560351.7938686144
 30
0.0
  0
VERTEX
  5
16D
  8
SQUARES
 10
737324.90686131385
 20
4560356.2461313866
 30
0.0
  0
VERTEX
  5
16E
  8
SQUARES
 10
737320.45459854009
 20
4560358.5198540138
 30
0.0
  0
SEQEND
  5
16F
  8
SQUARES
  0
POLYLINE
  5
7E
  8
SQUARES
 66
     1
 10
0.0
 20
0.0
 30
0.0
 70
     1
1001
DCO15
1071
        2
1071
        2
1000
colsq
1004
073230303500
1001
ADE
1011
-1.5645461461972441
1021
0.0
1031
0.0
1021
0.2376540163531899
1031
0.0
  0
VERTEX
  5
170
  8
SQUARES
 10
737318.08569343062
 20
4560342.8893430661
 30
0.0
  0
VERTEX
  5
171
  8
SQUARES
 10
737315.81197080296
 20
4560338.437080292
 30
0.0
  0
VERTEX
  5
172
  8
SQUARES
 10
737320.26423357648
 20
4560336.1633576648
 30
0.0
  0
VERTEX
  5
173
  8
SQUARES
 10
737322.53795620427
 20
4560340.6156204389
 30
0.0
  0
SEQEND
  5
174
  8
SQUARES
  0
POLYLINE
  5
7F
  8
SQUARES
 66
     1
 10
0.0
 20
0.0
 30
0.0
 70
     1
1001
DCO15
1071
        2
1071
        2
1000
colsq
1004
073230303400
1001
ADE
1011
-1.564546146080829
1021
0.0
1031
0.0
1021
0.2376540182158351
1031
0.0
  0
VERTEX
  5
175
  8
SQUARES
 10
737309.18116788333
 20
4560347.4367883224
 30
0.0
  0
VERTEX
  5
176
  8
SQUARES
 10
737306.90744525555
 20
4560342.9845255483
 30
0.0
  0
VERTEX
  5
177
  8
SQUARES
 10
737311.35970802919
 20
4560340.7108029202
 30
0.0
  0
VERTEX
  5
178
  8
SQUARES
 10
737313.63343065686
 20
4560345.1630656952
 30
0.0
  0
SEQEND
  5
179
  8
SQUARES
  0
POLYLINE
  5
80
  8
SQUARES
 66
     1
 10
0.0
 20
0.0
 30
0.0
 70
     1
1001
DCO15
1071
        2
1071
        2
1000
colsq
1004
073230303100
1001
ADE
1011
-1.5645461461972441
1021
0.0
1031
0.0
1021
0.2376540172845125
1031
0.0
  0
VERTEX
  5
17A
  8
SQUARES
 10
737313.53824817517
 20
4560333.9848175189
 30
0.0
  0
VERTEX
  5
17B
  8
SQUARES
 10
737311.26452554739
 20
4560329.5325547447
 30
0.0
  0
VERTEX
  5
17C
  8
SQUARES
 10
737315.71678832115
 20
4560327.2588321166
 30
0.0
  0
VERTEX
  5
17D
  8
SQUARES
 10
737317.99051094882
 20
4560331.7110948907
 30
0.0
  0
SEQEND
  5
17E
  8
SQUARES
  0
POLYLINE
  5
81
  8
SQUARES
 66
     1
 10
0.0
 20
0.0
 30
0.0
 70
     1
1001
DCO15
1071
        2
1071
        2
1000
colsq
1004
073230313200
1001
ADE
1011
-1.5645461461972441
1021
0.0
1031
0.0
1021
0.2376540172845125
1031
0.0
  0
VERTEX
  5
17F
  8
SQUARES
 10
737333.90656934318
 20
4560362.8769343058
 30
0.0
  0
VERTEX
  5
180
  8
SQUARES
 10
737331.63284671539
 20
4560358.4246715326
 30
0.0
  0
VERTEX
  5
181
  8
SQUARES
 10
737336.08510948916
 20
4560356.1509489054
 30
0.0
  0
VERTEX
  5
182
  8
SQUARES
 10
737338.35883211682
 20
4560360.6032116786
 30
0.0
  0
SEQEND
  5
183
  8
SQUARES
  0
POLYLINE
  5
82
  8
SQUARES
 66
     1
 10
0.0
 20
0.0
 30
0.0
 70
     1
1001
DCO15
1071
        2
1071
        2
1000
colsq
1004
073230353200
1001
ADE
1011
-1.568106581689789
1021
0.0
1031
0.0
1021
0.2139408318325877
1031
0.0
  0
VERTEX
  5
184
  8
SQUARES
 10
737339.55600000022
 20
4560336.3679999998
 30
0.0
  0
VERTEX
  5
185
  8
SQUARES
 10
737337.3498000002
 20
4560331.8814000003
 30
0.0
  0
VERTEX
  5
186
  8
SQUARES
 10
737332.86320000002
 20
4560334.0876000002
 30
0.0
  0
VERTEX
  5
187
  8
SQUARES
 10
737335.06940000015
 20
4560338.5741999997
 30
0.0
  0
SEQEND
  5
188
  8
SQUARES
  0
POLYLINE
  5
83
  8
SQUARES
 66
     1
 10
0.0
 20
0.0
 30
0.0
 70
     1
1001
DCO15
1071
        2
1071
        2
1000
colsq
1004
073230353500
1001
ADE
1011
-1.568106581689789
1021
0.0
1031
0.0
1021
0.2139408327639103
1031
0.0
  0
VERTEX
  5
189
  8
SQUARES
 10
737346.17460000014
 20
4560349.8278000001
 30
0.0
  0
VERTEX
  5
18A
  8
SQUARES
 10
737343.96840000001
 20
4560345.3411999987
 30
0.0
  0
VERTEX
  5
18B
  8
SQUARES
 10
737339.48179999995
 20
4560347.5473999996
 30
0.0
  0
VERTEX
  5
18C
  8
SQUARES
 10
737341.68799999997
 20
4560352.034
 30
0.0
  0
SEQEND
  5
18D
  8
SQUARES
  0
POLYLINE
  5
84
  8
SQUARES
 66
     1
 10
0.0
 20
0.0
 30
0.0
 70
     1
1001
DCO15
1071
        2
1071
        2
1000
colsq
1004
073230343400
1001
ADE
1011
-1.568106581689789
1021
0.0
1031
0.0
1021
0.2139408327639103
1031
0.0
  0
VERTEX
  5
18E
  8
SQUARES
 10
737324.11259999999
 20
4560304.9617999997
 30
0.0
  0
VERTEX
  5
18F
  8
SQUARES
 10
737321.90640000009
 20
4560300.4752000002
 30
0.0
  0
VERTEX
  5
190
  8
SQUARES
 10
737326.39300000004
 20
4560298.2689999994
 30
0.0
  0
VERTEX
  5
191
  8
SQUARES
 10
737328.59919999994
 20
4560302.7555999998
 30
0.0
  0
SEQEND
  5
192
  8
SQUARES
  0
POLYLINE
  5
85
  8
SQUARES
 66
     1
 10
0.0
 20
0.0
 30
0.0
 70
     1
1001
DCO15
1071
        2
1071
        2
1000
colsq
1004
073230353100
1001
ADE
1011
-1.568106581806205
1021
0.0
1031
0.0
1021
0.2139408327639103
1031
0.0
  0
VERTEX
  5
193
  8
SQUARES
 10
737337.3498000002
 20
4560331.8814000003
 30
0.0
  0
VERTEX
  5
194
  8
SQUARES
 10
737335.14360000007
 20
4560327.3947999999
 30
0.0
  0
VERTEX
  5
195
  8
SQUARES
 10
737339.63020000025
 20
4560325.1886
 30
0.0
  0
VERTEX
  5
196
  8
SQUARES
 10
737341.83640000015
 20
4560329.6751999985
 30
0.0
  0
SEQEND
  5
197
  8
SQUARES
  0
POLYLINE
  5
86
  8
SQUARES
 66
     1
 10
0.0
 20
0.0
 30
0.0
 70
     1
1001
DCO15
1071
        2
1071
        2
1000
colsq
1004
073230353400
1001
ADE
1011
-1.568106581689789
1021
0.0
1031
0.0
1021
0.2139408327639103
1031
0.0
  0
VERTEX
  5
198
  8
SQUARES
 10
737343.96840000001
 20
4560345.3411999987
 30
0.0
  0
VERTEX
  5
199
  8
SQUARES
 10
737341.76220000011
 20
4560340.8546000002
 30
0.0
  0
VERTEX
  5
19A
  8
SQUARES
 10
737346.24880000006
 20
4560338.6484000003
 30
0.0
  0
VERTEX
  5
19B
  8
SQUARES
 10
737348.45499999996
 20
4560343.1349999998
 30
0.0
  0
SEQEND
  5
19C
  8
SQUARES
  0
POLYLINE
  5
87
  8
SQUARES
 66
     1
 10
0.0
 20
0.0
 30
0.0
 70
     1
1001
DCO15
1071
        2
1071
        2
1000
colsq
1004
073230343700
1001
ADE
1011
-1.568106581806205
1021
0.0
1031
0.0
1021
0.2139408327639103
1031
0.0
  0
VERTEX
  5
19D
  8
SQUARES
 10
737335.29200000013
 20
4560305.0359999994
 30
0.0
  0
VERTEX
  5
19E
  8
SQUARES
 10
737337.49820000015
 20
4560309.5225999989
 30
0.0
  0
VERTEX
  5
19F
  8
SQUARES
 10
737333.01159999985
 20
4560311.7287999997
 30
0.0
  0
VERTEX
  5
1A0
  8
SQUARES
 10
737330.80539999995
 20
4560307.2422000002
 30
0.0
  0
SEQEND
  5
1A1
  8
SQUARES
  0
POLYLINE
  5
88
  8
SQUARES
 66
     1
 10
0.0
 20
0.0
 30
0.0
 70
     1
1001
DCO15
1071
        2
1071
        2
1000
colsq
1004
073230353000
1001
ADE
1011
-1.568106581806205
1021
0.0
1031
0.0
1021
0.2139408327639103
1031
0.0
  0
VERTEX
  5
1A2
  8
SQUARES
 10
737341.91060000006
 20
4560318.4957999988
 30
0.0
  0
VERTEX
  5
1A3
  8
SQUARES
 10
737344.11680000019
 20
4560322.9824000001
 30
0.0
  0
VERTEX
  5
1A4
  8
SQUARES
 10
737339.63020000025
 20
4560325.1886
 30
0.0
  0
VERTEX
  5
1A5
  8
SQUARES
 10
737337.42400000012
 20
4560320.7020000014
 30
0.0
  0
SEQEND
  5
1A6
  8
SQUARES
  0
POLYLINE
  5
89
  8
SQUARES
 66
     1
 10
0.0
 20
0.0
 30
0.0
 70
     1
1001
DCO15
1071
        2
1071
        2
1000
colsq
1004
073230353300
1001
ADE
1011
-1.568106581689789
1021
0.0
1031
0.0
1021
0.2139408327639103
1031
0.0
  0
VERTEX
  5
1A7
  8
SQUARES
 10
737348.52920000011
 20
4560331.9556
 30
0.0
  0
VERTEX
  5
1A8
  8
SQUARES
 10
737350.73540000012
 20
4560336.4421999985
 30
0.0
  0
VERTEX
  5
1A9
  8
SQUARES
 10
737346.24880000006
 20
4560338.6484000003
 30
0.0
  0
VERTEX
  5
1AA
  8
SQUARES
 10
737344.04260000004
 20
4560334.1617999999
 30
0.0
  0
SEQEND
  5
1AB
  8
SQUARES
  0
POLYLINE
  5
8A
  8
SQUARES
 66
     1
 10
0.0
 20
0.0
 30
0.0
 70
     1
1001
DCO15
1071
        2
1071
        2
1000
colsq
1004
073230343800
1001
ADE
1011
-1.568106581806205
1021
0.0
1031
0.0
1021
0.2139408336952329
1031
0.0
  0
VERTEX
  5
1AC
  8
SQUARES
 10
737348.67760000005
 20
4560309.5967999985
 30
0.0
  0
VERTEX
  5
1AD
  8
SQUARES
 10
737346.47140000004
 20
4560305.1101999991
 30
0.0
  0
VERTEX
  5
1AE
  8
SQUARES
 10
737341.98480000009
 20
4560307.3163999999
 30
0.0
  0
VERTEX
  5
1AF
  8
SQUARES
 10
737344.19099999999
 20
4560311.8029999994
 30
0.0
  0
SEQEND
  5
1B0
  8
SQUARES
  0
POLYLINE
  5
8B
  8
SQUARES
 66
     1
 10
0.0
 20
0.0
 30
0.0
 70
     1
1001
DCO15
1071
        2
1071
        2
1000
colsq
1004
073230363900
1001
ADE
1011
-1.568106581689789
1021
0.0
1031
0.0
1021
0.2139408327639103
1031
0.0
  0
VERTEX
  5
1B1
  8
SQUARES
 10
737381.77060000005
 20
4560376.8958000001
 30
0.0
  0
VERTEX
  5
1B2
  8
SQUARES
 10
737379.56439999968
 20
4560372.4091999996
 30
0.0
  0
VERTEX
  5
1B3
  8
SQUARES
 10
737375.07779999985
 20
4560374.6153999986
 30
0.0
  0
VERTEX
  5
1B4
  8
SQUARES
 10
737377.28399999999
 20
4560379.101999999
 30
0.0
  0
SEQEND
  5
1B5
  8
SQUARES
  0
POLYLINE
  5
8C
  8
SQUARES
 66
     1
 10
0.0
 20
0.0
 30
0.0
 70
     1
1001
DCO15
1071
        2
1071
        2
1000
colsq
1004
073230363600
1001
ADE
1011
-1.568106581689789
1021
0.0
1031
0.0
1021
0.2139408327639103
1031
0.0
  0
VERTEX
  5
1B6
  8
SQUARES
 10
737372.87159999995
 20
4560370.1288000001
 30
0.0
  0
VERTEX
  5
1B7
  8
SQUARES
 10
737370.66540000006
 20
4560365.6421999987
 30
0.0
  0
VERTEX
  5
1B8
  8
SQUARES
 10
737366.17880000011
 20
4560367.8483999996
 30
0.0
  0
VERTEX
  5
1B9
  8
SQUARES
 10
737368.38500000024
 20
4560372.335
 30
0.0
  0
SEQEND
  5
1BA
  8
SQUARES
  0
POLYLINE
  5
8D
  8
SQUARES
 66
     1
 10
0.0
 20
0.0
 30
0.0
 70
     1
1001
DCO15
1071
        2
1071
        2
1000
colsq
1004
073230363100
1001
ADE
1011
-1.568106581689789
1021
0.0
1031
0.0
1021
0.2139408327639103
1031
0.0
  0
VERTEX
  5
1BB
  8
SQUARES
 10
737366.25300000003
 20
4560356.6689999988
 30
0.0
  0
VERTEX
  5
1BC
  8
SQUARES
 10
737364.04680000024
 20
4560352.1824000003
 30
0.0
  0
VERTEX
  5
1BD
  8
SQUARES
 10
737359.5602000003
 20
4560354.3886000002
 30
0.0
  0
VERTEX
  5
1BE
  8
SQUARES
 10
737361.7664000002
 20
4560358.8751999987
 30
0.0
  0
SEQEND
  5
1BF
  8
SQUARES
  0
POLYLINE
  5
8E
  8
SQUARES
 66
     1
 10
0.0
 20
0.0
 30
0.0
 70
     1
1001
DCO15
1071
        2
1071
        2
1000
colsq
1004
073230363800
1001
ADE
1011
-1.568106581689789
1021
0.0
1031
0.0
1021
0.2139408327639103
1031
0.0
  0
VERTEX
  5
1C0
  8
SQUARES
 10
737363.82420000015
 20
4560385.7206000006
 30
0.0
  0
VERTEX
  5
1C1
  8
SQUARES
 10
737361.6179999999
 20
4560381.2340000002
 30
0.0
  0
VERTEX
  5
1C2
  8
SQUARES
 10
737366.10460000008
 20
4560379.0278000003
 30
0.0
  0
VERTEX
  5
1C3
  8
SQUARES
 10
737368.31080000033
 20
4560383.5143999988
 30
0.0
  0
SEQEND
  5
1C4
  8
SQUARES
  0
POLYLINE
  5
8F
  8
SQUARES
 66
     1
 10
0.0
 20
0.0
 30
0.0
 70
     1
1001
DCO15
1071
        2
1071
        2
1000
colsq
1004
073230353800
1001
ADE
1011
-1.568106581689789
1021
0.0
1031
0.0
1021
0.2139408318325877
1031
0.0
  0
VERTEX
  5
1C5
  8
SQUARES
 10
737350.58700000006
 20
4560358.801
 30
0.0
  0
VERTEX
  5
1C6
  8
SQUARES
 10
737348.38080000016
 20
4560354.3143999996
 30
0.0
  0
VERTEX
  5
1C7
  8
SQUARES
 10
737352.86740000022
 20
4560352.1081999997
 30
0.0
  0
VERTEX
  5
1C8
  8
SQUARES
 10
737355.07360000024
 20
4560356.5948000001
 30
0.0
  0
SEQEND
  5
1C9
  8
SQUARES
  0
POLYLINE
  5
90
  8
SQUARES
 66
     1
 10
0.0
 20
0.0
 30
0.0
 70
     1
1001
DCO15
1071
        2
1071
        2
1000
colsq
1004
073230373000
1001
ADE
1011
-1.5681065815733739
1021
0.0
1031
0.0
1021
0.2139408327639103
1031
0.0
  0
VERTEX
  5
1CA
  8
SQUARES
 10
737359.33759999985
 20
4560387.9267999995
 30
0.0
  0
VERTEX
  5
1CB
  8
SQUARES
 10
737361.54379999998
 20
4560392.413399999
 30
0.0
  0
VERTEX
  5
1CC
  8
SQUARES
 10
737366.03039999993
 20
4560390.2072000001
 30
0.0
  0
VERTEX
  5
1CD
  8
SQUARES
 10
737363.82420000015
 20
4560385.7206000006
 30
0.0
  0
SEQEND
  5
1CE
  8
SQUARES
  0
POLYLINE
  5
91
  8
SQUARES
 66
     1
 10
0.0
 20
0.0
 30
0.0
 70
     1
1001
DCO15
1071
        2
1071
        2
1000
colsq
1004
073230363000
1001
ADE
1011
-1.568106581689789
1021
0.0
1031
0.0
1021
0.2139408327639103
1031
0.0
  0
VERTEX
  5
1CF
  8
SQUARES
 10
737352.79320000007
 20
4560363.2876000004
 30
0.0
  0
VERTEX
  5
1D0
  8
SQUARES
 10
737350.58700000006
 20
4560358.801
 30
0.0
  0
VERTEX
  5
1D1
  8
SQUARES
 10
737346.10040000011
 20
4560361.0071999999
 30
0.0
  0
VERTEX
  5
1D2
  8
SQUARES
 10
737348.30660000001
 20
4560365.4938000003
 30
0.0
  0
SEQEND
  5
1D3
  8
SQUARES
  0
POLYLINE
  5
92
  8
SQUARES
 66
     1
 10
0.0
 20
0.0
 30
0.0
 70
     1
1001
DCO15
1071
        2
1071
        2
1000
colsq
1004
073230343600
1001
ADE
1011
-1.568106581689789
1021
0.0
1031
0.0
1021
0.2139408327639103
1031
0.0
  0
VERTEX
  5
1D4
  8
SQUARES
 10
737339.77860000008
 20
4560302.8298000004
 30
0.0
  0
VERTEX
  5
1D5
  8
SQUARES
 10
737337.57239999995
 20
4560298.3432
 30
0.0
  0
VERTEX
  5
1D6
  8
SQUARES
 10
737333.0858
 20
4560300.549399999
 30
0.0
  0
VERTEX
  5
1D7
  8
SQUARES
 10
737335.29200000013
 20
4560305.0359999994
 30
0.0
  0
SEQEND
  5
1D8
  8
SQUARES
  0
POLYLINE
  5
93
  8
SQUARES
 66
     1
 10
0.0
 20
0.0
 30
0.0
 70
     1
1001
DCO15
1071
        2
1071
        2
1000
colsq
1004
073230333600
1001
ADE
1011
-1.566914747352711
1021
0.0
1031
0.0
1021
0.2211005808785558
1031
0.0
  0
VERTEX
  5
1D9
  8
SQUARES
 10
737256.39588235295
 20
4560333.6535294112
 30
0.0
  0
VERTEX
  5
1DA
  8
SQUARES
 10
737251.92000000004
 20
4560335.8799999999
 30
0.0
  0
VERTEX
  5
1DB
  8
SQUARES
 10
737249.69352941192
 20
4560331.4041176457
 30
0.0
  0
VERTEX
  5
1DC
  8
SQUARES
 10
737254.16941176495
 20
4560329.1776470589
 30
0.0
  0
SEQEND
  5
1DD
  8
SQUARES
  0
POLYLINE
  5
94
  8
SQUARES
 66
     1
 10
0.0
 20
0.0
 30
0.0
 70
     1
1001
DCO15
1071
        2
1071
        2
1000
colsq
1004
073230333800
1001
ADE
1011
-1.5669147472362961
1021
0.0
1031
0.0
1021
0.2211005808785558
1031
0.0
  0
VERTEX
  5
1DE
  8
SQUARES
 10
737258.64529411774
 20
4560326.9511764701
 30
0.0
  0
VERTEX
  5
1DF
  8
SQUARES
 10
737254.16941176495
 20
4560329.1776470589
 30
0.0
  0
VERTEX
  5
1E0
  8
SQUARES
 10
737251.94294117636
 20
4560324.7017647047
 30
0.0
  0
VERTEX
  5
1E1
  8
SQUARES
 10
737256.41882352927
 20
4560322.4752941169
 30
0.0
  0
SEQEND
  5
1E2
  8
SQUARES
  0
POLYLINE
  5
95
  8
SQUARES
 66
     1
 10
0.0
 20
0.0
 30
0.0
 70
     1
1001
DCO15
1071
        2
1071
        2
1000
colsq
1004
073230333700
1001
ADE
1011
-1.566914747352711
1021
0.0
1031
0.0
1021
0.2211005808785558
1031
0.0
  0
VERTEX
  5
1E3
  8
SQUARES
 10
737263.12117647054
 20
4560324.7247058824
 30
0.0
  0
VERTEX
  5
1E4
  8
SQUARES
 10
737265.34764705866
 20
4560329.2005882347
 30
0.0
  0
VERTEX
  5
1E5
  8
SQUARES
 10
737260.87176470575
 20
4560331.4270588234
 30
0.0
  0
VERTEX
  5
1E6
  8
SQUARES
 10
737258.64529411774
 20
4560326.9511764701
 30
0.0
  0
SEQEND
  5
1E7
  8
SQUARES
  0
POLYLINE
  5
96
  8
SQUARES
 66
     1
 10
0.0
 20
0.0
 30
0.0
 70
     1
1001
DCO15
1071
        2
1071
        2
1000
colsq
1004
073230333000
1001
ADE
1011
-1.5790231502614911
1021
0.0
1031
0.0
1021
0.1095217484980822
1031
0.0
  0
VERTEX
  5
1E8
  8
SQUARES
 10
737228.26588235307
 20
4560325.4864705876
 30
0.0
  0
VERTEX
  5
1E9
  8
SQUARES
 10
737226.36176470597
 20
4560320.8629411766
 30
0.0
  0
VERTEX
  5
1EA
  8
SQUARES
 10
737230.98529411771
 20
4560318.9588235291
 30
0.0
  0
VERTEX
  5
1EB
  8
SQUARES
 10
737232.88941176492
 20
4560323.5823529409
 30
0.0
  0
SEQEND
  5
1EC
  8
SQUARES
  0
POLYLINE
  5
97
  8
SQUARES
 66
     1
 10
0.0
 20
0.0
 30
0.0
 70
     1
1001
DCO15
1071
        2
1071
        2
1000
colsq
1004
073230333100
1001
ADE
1011
-1.57902315002866
1021
0.0
1031
0.0
1021
0.1095217484980822
1031
0.0
  0
VERTEX
  5
1ED
  8
SQUARES
 10
737230.98529411771
 20
4560318.9588235291
 30
0.0
  0
VERTEX
  5
1EE
  8
SQUARES
 10
737229.08117647062
 20
4560314.3352941172
 30
0.0
  0
VERTEX
  5
1EF
  8
SQUARES
 10
737233.70470588235
 20
4560312.4311764706
 30
0.0
  0
VERTEX
  5
1F0
  8
SQUARES
 10
737235.60882352944
 20
4560317.0547058824
 30
0.0
  0
SEQEND
  5
1F1
  8
SQUARES
  0
POLYLINE
  5
98
  8
SQUARES
 66
     1
 10
0.0
 20
0.0
 30
0.0
 70
     1
1001
DCO15
1071
        2
1071
        2
1000
colsq
1004
073230323600
1001
ADE
1011
-1.5661700943019241
1021
0.0
1031
0.0
1021
0.2292379327118397
1031
0.0
  0
VERTEX
  5
1F2
  8
SQUARES
 10
737285.83364705893
 20
4560380.7614117637
 30
0.0
  0
VERTEX
  5
1F3
  8
SQUARES
 10
737283.58352941205
 20
4560376.2958823526
 30
0.0
  0
VERTEX
  5
1F4
  8
SQUARES
 10
737288.04905882361
 20
4560374.0457647052
 30
0.0
  0
VERTEX
  5
1F5
  8
SQUARES
 10
737290.29917647026
 20
4560378.5112941172
 30
0.0
  0
SEQEND
  5
1F6
  8
SQUARES
  0
POLYLINE
  5
99
  8
SQUARES
 66
     1
 10
0.0
 20
0.0
 30
0.0
 70
     1
1001
DCO15
1071
        2
1071
        2
1000
colsq
1004
073230323000
1001
ADE
1011
-1.5661700943019241
1021
0.0
1031
0.0
1021
0.2292379327118397
1031
0.0
  0
VERTEX
  5
1F7
  8
SQUARES
 10
737301.54976470605
 20
4560400.8389411746
 30
0.0
  0
VERTEX
  5
1F8
  8
SQUARES
 10
737299.29964705871
 20
4560396.3734117644
 30
0.0
  0
VERTEX
  5
1F9
  8
SQUARES
 10
737303.76517647062
 20
4560394.1232941169
 30
0.0
  0
VERTEX
  5
1FA
  8
SQUARES
 10
737306.01529411774
 20
4560398.588823529
 30
0.0
  0
SEQEND
  5
1FB
  8
SQUARES
  0
POLYLINE
  5
9A
  8
SQUARES
 66
     1
 10
0.0
 20
0.0
 30
0.0
 70
     1
1001
DCO15
1071
        2
1071
        2
1000
colsq
1004
073230323700
1001
ADE
1011
-1.566170094418339
1021
0.0
1031
0.0
1021
0.2292379327118397
1031
0.0
  0
VERTEX
  5
1FC
  8
SQUARES
 10
737294.76470588241
 20
4560376.2611764697
 30
0.0
  0
VERTEX
  5
1FD
  8
SQUARES
 10
737292.51458823518
 20
4560371.7956470577
 30
0.0
  0
VERTEX
  5
1FE
  8
SQUARES
 10
737296.98011764674
 20
4560369.5455294112
 30
0.0
  0
VERTEX
  5
1FF
  8
SQUARES
 10
737299.23023529397
 20
4560374.0110588232
 30
0.0
  0
SEQEND
  5
200
  8
SQUARES
  0
POLYLINE
  5
9B
  8
SQUARES
 66
     1
 10
0.0
 20
0.0
 30
0.0
 70
     1
1001
DCO15
1071
        2
1071
        2
1000
colsq
1004
073230323400
1001
ADE
1011
-1.5661700943019241
1021
0.0
1031
0.0
1021
0.2292379327118397
1031
0.0
  0
VERTEX
  5
201
  8
SQUARES
 10
737299.26494117652
 20
4560385.1922352938
 30
0.0
  0
VERTEX
  5
202
  8
SQUARES
 10
737297.01482352929
 20
4560380.7267058808
 30
0.0
  0
VERTEX
  5
203
  8
SQUARES
 10
737301.48035294085
 20
4560378.4765882343
 30
0.0
  0
VERTEX
  5
204
  8
SQUARES
 10
737303.73047058808
 20
4560382.9421176463
 30
0.0
  0
SEQEND
  5
205
  8
SQUARES
  0
POLYLINE
  5
9C
  8
SQUARES
 66
     1
 10
0.0
 20
0.0
 30
0.0
 70
     1
1001
DCO15
1071
        2
1071
        2
1000
colsq
1004
073230323200
1001
ADE
1011
-1.566170094418339
1021
0.0
1031
0.0
1021
0.2292379327118397
1031
0.0
  0
VERTEX
  5
206
  8
SQUARES
 10
737303.76517647062
 20
4560394.1232941169
 30
0.0
  0
VERTEX
  5
207
  8
SQUARES
 10
737301.51505882363
 20
4560389.657764704
 30
0.0
  0
VERTEX
  5
208
  8
SQUARES
 10
737305.98058823519
 20
4560387.4076470584
 30
0.0
  0
VERTEX
  5
209
  8
SQUARES
 10
737308.23070588219
 20
4560391.8731764685
 30
0.0
  0
SEQEND
  5
20A
  8
SQUARES
  0
POLYLINE
  5
9D
  8
SQUARES
 66
     1
 10
0.0
 20
0.0
 30
0.0
 70
     1
1001
DCO15
1071
        2
1071
        2
1000
colsq
1004
073230303200
1001
ADE
1011
-1.5645461461972441
1021
0.0
1031
0.0
1021
0.2376540163531899
1031
0.0
  0
VERTEX
  5
20B
  8
SQUARES
 10
737311.35970802919
 20
4560340.7108029202
 30
0.0
  0
VERTEX
  5
20C
  8
SQUARES
 10
737309.08598540141
 20
4560336.2585401461
 30
0.0
  0
VERTEX
  5
20D
  8
SQUARES
 10
737313.53824817517
 20
4560333.9848175189
 30
0.0
  0
VERTEX
  5
20E
  8
SQUARES
 10
737315.81197080296
 20
4560338.437080292
 30
0.0
  0
SEQEND
  5
20F
  8
SQUARES
  0
POLYLINE
  5
9E
  8
SQUARES
 66
     1
 10
0.0
 20
0.0
 30
0.0
 70
     1
1001
DCO15
1071
        2
1071
        2
1000
colsq
1004
073230353600
1001
ADE
1011
-1.568106581689789
1021
0.0
1031
0.0
1021
0.2139408327639103
1031
0.0
  0
VERTEX
  5
210
  8
SQUARES
 10
737359.63439999998
 20
4560343.2092000004
 30
0.0
  0
VERTEX
  5
211
  8
SQUARES
 10
737357.42820000031
 20
4560338.7226
 30
0.0
  0
VERTEX
  5
212
  8
SQUARES
 10
737352.94160000025
 20
4560340.9287999999
 30
0.0
  0
VERTEX
  5
213
  8
SQUARES
 10
737355.14780000004
 20
4560345.4153999994
 30
0.0
  0
SEQEND
  5
214
  8
SQUARES
  0
POLYLINE
  5
9F
  8
SQUARES
 66
     1
 10
0.0
 20
0.0
 30
0.0
 70
     1
1001
DCO15
1071
        2
1071
        2
1000
colsq
1004
073230323100
1001
ADE
1011
-0.2142820854205638
1021
0.0
1031
0.0
1021
-1.5342982523143289
1031
0.0
  0
VERTEX
  5
215
  8
SQUARES
 10
737294.81676470593
 20
4560393.0329411756
 30
0.0
  0
VERTEX
  5
216
  8
SQUARES
 10
737297.06688235304
 20
4560397.4984705867
 30
0.0
  0
VERTEX
  5
217
  8
SQUARES
 10
737299.29964705871
 20
4560396.3734117644
 30
0.0
  0
VERTEX
  5
218
  8
SQUARES
 10
737297.0495294116
 20
4560391.9078823524
 30
0.0
  0
SEQEND
  5
219
  8
SQUARES
  0
POLYLINE
  5
A0
  8
SQUARES
 66
     1
 10
0.0
 20
0.0
 30
0.0
 70
     1
1001
DCO15
1071
        2
1071
        2
1000
colsq
1004
073230323800
1001
ADE
1011
-1.566170094418339
1021
0.0
1031
0.0
1021
0.2292379327118397
1031
0.0
  0
VERTEX
  5
21A
  8
SQUARES
 10
737288.04905882361
 20
4560374.0457647052
 30
0.0
  0
VERTEX
  5
21B
  8
SQUARES
 10
737285.79894117662
 20
4560369.580235295
 30
0.0
  0
VERTEX
  5
21C
  8
SQUARES
 10
737290.26447058853
 20
4560367.3301176466
 30
0.0
  0
VERTEX
  5
21D
  8
SQUARES
 10
737292.51458823518
 20
4560371.7956470577
 30
0.0
  0
SEQEND
  5
21E
  8
SQUARES
  0
POLYLINE
  5
A1
  8
SQUARES
 66
     1
 10
0.0
 20
0.0
 30
0.0
 70
     1
1001
DCO15
1071
        2
1071
        2
1000
colsq
1004
073230323500
1001
ADE
1011
-1.5661700943019241
1021
0.0
1031
0.0
1021
0.2292379327118397
1031
0.0
  0
VERTEX
  5
21F
  8
SQUARES
 10
737292.54929411749
 20
4560382.9768235283
 30
0.0
  0
VERTEX
  5
220
  8
SQUARES
 10
737290.29917647026
 20
4560378.5112941172
 30
0.0
  0
VERTEX
  5
221
  8
SQUARES
 10
737294.76470588241
 20
4560376.2611764697
 30
0.0
  0
VERTEX
  5
222
  8
SQUARES
 10
737297.01482352929
 20
4560380.7267058808
 30
0.0
  0
SEQEND
  5
223
  8
SQUARES
  0
POLYLINE
  5
A2
  8
SQUARES
 66
     1
 10
0.0
 20
0.0
 30
0.0
 70
     1
1001
DCO15
1071
        2
1071
        2
1000
colsq
1004
073230303900
1001
ADE
1011
-1.564546146080829
1021
0.0
1031
0.0
1021
0.2376540182158351
1031
0.0
  0
VERTEX
  5
224
  8
SQUARES
 10
737322.63313868595
 20
4560351.7938686144
 30
0.0
  0
VERTEX
  5
225
  8
SQUARES
 10
737320.35941605829
 20
4560347.3416058403
 30
0.0
  0
VERTEX
  5
226
  8
SQUARES
 10
737324.81167883193
 20
4560345.0678832112
 30
0.0
  0
VERTEX
  5
227
  8
SQUARES
 10
737327.08540145983
 20
4560349.5201459872
 30
0.0
  0
SEQEND
  5
228
  8
SQUARES
  0
POLYLINE
  5
A3
  8
SQUARES
 66
     1
 10
0.0
 20
0.0
 30
0.0
 70
     1
1001
DCO15
1071
        2
1071
        2
1000
colsq
1004
073230313900
1001
ADE
1011
-1.5661700945347541
1021
0.0
1031
0.0
1021
0.2292379327118397
1031
0.0
  0
VERTEX
  5
229
  8
SQUARES
 10
737308.26541176485
 20
4560403.0543529401
 30
0.0
  0
VERTEX
  5
22A
  8
SQUARES
 10
737306.01529411774
 20
4560398.588823529
 30
0.0
  0
VERTEX
  5
22B
  8
SQUARES
 10
737310.4808235293
 20
4560396.3387058806
 30
0.0
  0
VERTEX
  5
22C
  8
SQUARES
 10
737312.73094117653
 20
4560400.8042352926
 30
0.0
  0
SEQEND
  5
22D
  8
SQUARES
  0
POLYLINE
  5
A4
  8
SQUARES
 66
     1
 10
0.0
 20
0.0
 30
0.0
 70
     1
1001
DCO15
1071
        2
1071
        2
1000
colsq
1004
073230343500
1001
ADE
1011
-1.568106581806205
1021
0.0
1031
0.0
1021
0.2139408327639103
1031
0.0
  0
VERTEX
  5
22E
  8
SQUARES
 10
737321.83219999995
 20
4560311.6546
 30
0.0
  0
VERTEX
  5
22F
  8
SQUARES
 10
737319.62600000005
 20
4560307.1679999996
 30
0.0
  0
VERTEX
  5
230
  8
SQUARES
 10
737324.11259999999
 20
4560304.9617999997
 30
0.0
  0
VERTEX
  5
231
  8
SQUARES
 10
737326.31880000012
 20
4560309.4483999992
 30
0.0
  0
SEQEND
  5
232
  8
SQUARES
  0
POLYLINE
  5
A5
  8
SQUARES
 66
     1
 10
0.0
 20
0.0
 30
0.0
 70
     1
1001
DCO15
1071
        2
1071
        2
1000
colsq
1004
073230303800
1001
ADE
1011
-1.5645461461972441
1021
0.0
1031
0.0
1021
0.2376540172845125
1031
0.0
  0
VERTEX
  5
233
  8
SQUARES
 10
737313.72861313866
 20
4560356.3413138688
 30
0.0
  0
VERTEX
  5
234
  8
SQUARES
 10
737311.45489051088
 20
4560351.8890510947
 30
0.0
  0
VERTEX
  5
235
  8
SQUARES
 10
737315.90715328464
 20
4560349.6153284675
 30
0.0
  0
VERTEX
  5
236
  8
SQUARES
 10
737318.18087591243
 20
4560354.0675912406
 30
0.0
  0
SEQEND
  5
237
  8
SQUARES
  0
POLYLINE
  5
A6
  8
SQUARES
 66
     1
 10
0.0
 20
0.0
 30
0.0
 70
     1
1001
DCO15
1071
        2
1071
        2
1000
colsq
1004
073230303600
1001
ADE
1011
-1.5645461461972441
1021
0.0
1031
0.0
1021
0.2376540182158351
1031
0.0
  0
VERTEX
  5
238
  8
SQUARES
 10
737315.90715328464
 20
4560349.6153284675
 30
0.0
  0
VERTEX
  5
239
  8
SQUARES
 10
737313.63343065686
 20
4560345.1630656952
 30
0.0
  0
VERTEX
  5
23A
  8
SQUARES
 10
737318.08569343062
 20
4560342.8893430661
 30
0.0
  0
VERTEX
  5
23B
  8
SQUARES
 10
737320.35941605829
 20
4560347.3416058403
 30
0.0
  0
SEQEND
  5
23C
  8
SQUARES
  0
POLYLINE
  5
A7
  8
SQUARES
 66
     1
 10
0.0
 20
0.0
 30
0.0
 70
     1
1001
DCO15
1071
        2
1071
        2
1000
colsq
1004
073230313500
1001
ADE
1011
-1.5645461461972441
1021
0.0
1031
0.0
1021
0.2376540172845125
1031
0.0
  0
VERTEX
  5
23D
  8
SQUARES
 10
737329.54948905122
 20
4560376.3289051102
 30
0.0
  0
VERTEX
  5
23E
  8
SQUARES
 10
737327.27576642332
 20
4560371.8766423361
 30
0.0
  0
VERTEX
  5
23F
  8
SQUARES
 10
737331.72802919697
 20
4560369.6029197089
 30
0.0
  0
VERTEX
  5
240
  8
SQUARES
 10
737334.00175182475
 20
4560374.0551824821
 30
0.0
  0
SEQEND
  5
241
  8
SQUARES
  0
POLYLINE
  5
A8
  8
SQUARES
 66
     1
 10
0.0
 20
0.0
 30
0.0
 70
     1
1001
DCO15
1071
        2
1071
        2
1000
colsq
1004
073230313400
1001
ADE
1011
-1.5645461461972441
1021
0.0
1031
0.0
1021
0.2376540172845125
1031
0.0
  0
VERTEX
  5
242
  8
SQUARES
 10
737331.72802919697
 20
4560369.6029197089
 30
0.0
  0
VERTEX
  5
243
  8
SQUARES
 10
737329.45430656942
 20
4560365.1506569339
 30
0.0
  0
VERTEX
  5
244
  8
SQUARES
 10
737333.90656934318
 20
4560362.8769343058
 30
0.0
  0
VERTEX
  5
245
  8
SQUARES
 10
737336.18029197073
 20
4560367.3291970808
 30
0.0
  0
SEQEND
  5
246
  8
SQUARES
  0
POLYLINE
  5
A9
  8
SQUARES
 66
     1
 10
0.0
 20
0.0
 30
0.0
 70
     1
1001
DCO15
1071
        2
1071
        2
1000
colsq
1004
073230313700
1001
ADE
1011
-1.5645461461972441
1021
0.0
1031
0.0
1021
0.2376540172845125
1031
0.0
  0
VERTEX
  5
247
  8
SQUARES
 10
737336.27547445253
 20
4560378.5074452562
 30
0.0
  0
VERTEX
  5
248
  8
SQUARES
 10
737340.72773722629
 20
4560376.2337226281
 30
0.0
  0
VERTEX
  5
249
  8
SQUARES
 10
737338.45401459862
 20
4560371.7814598549
 30
0.0
  0
VERTEX
  5
24A
  8
SQUARES
 10
737334.00175182475
 20
4560374.0551824821
 30
0.0
  0
SEQEND
  5
24B
  8
SQUARES
  0
POLYLINE
  5
AA
  8
SQUARES
 66
     1
 10
0.0
 20
0.0
 30
0.0
 70
     1
1001
DCO15
1071
        2
1071
        2
1000
colsq
1004
073230313600
1001
ADE
1011
-1.5645461461972441
1021
0.0
1031
0.0
1021
0.2376540172845125
1031
0.0
  0
VERTEX
  5
24C
  8
SQUARES
 10
737338.45401459862
 20
4560371.7814598549
 30
0.0
  0
VERTEX
  5
24D
  8
SQUARES
 10
737336.18029197073
 20
4560367.3291970808
 30
0.0
  0
VERTEX
  5
24E
  8
SQUARES
 10
737340.6325547446
 20
4560365.0554744527
 30
0.0
  0
VERTEX
  5
24F
  8
SQUARES
 10
737342.90627737215
 20
4560369.5077372268
 30
0.0
  0
SEQEND
  5
250
  8
SQUARES
  0
POLYLINE
  5
AB
  8
SQUARES
 66
     1
 10
0.0
 20
0.0
 30
0.0
 70
     1
1001
DCO15
1071
        2
1071
        2
1000
colsq
1004
073230353700
1001
ADE
1011
-1.568106581806205
1021
0.0
1031
0.0
1021
0.2139408318325877
1031
0.0
  0
VERTEX
  5
251
  8
SQUARES
 10
737355.14780000004
 20
4560345.4153999994
 30
0.0
  0
VERTEX
  5
252
  8
SQUARES
 10
737357.3540000004
 20
4560349.9019999988
 30
0.0
  0
VERTEX
  5
253
  8
SQUARES
 10
737352.86740000022
 20
4560352.1081999997
 30
0.0
  0
VERTEX
  5
254
  8
SQUARES
 10
737350.66120000009
 20
4560347.6216000002
 30
0.0
  0
SEQEND
  5
255
  8
SQUARES
  0
POLYLINE
  5
AC
  8
SQUARES
 66
     1
 10
0.0
 20
0.0
 30
0.0
 70
     1
1001
DCO15
1071
        2
1071
        2
1000
colsq
1004
073230343900
1001
ADE
1011
-1.568106581689789
1021
0.0
1031
0.0
1021
0.2139408327639103
1031
0.0
  0
VERTEX
  5
256
  8
SQUARES
 10
737346.39720000024
 20
4560316.2895999998
 30
0.0
  0
VERTEX
  5
257
  8
SQUARES
 10
737344.19099999999
 20
4560311.8029999994
 30
0.0
  0
VERTEX
  5
258
  8
SQUARES
 10
737339.70440000016
 20
4560314.0092000002
 30
0.0
  0
VERTEX
  5
259
  8
SQUARES
 10
737341.91060000006
 20
4560318.4957999988
 30
0.0
  0
SEQEND
  5
25A
  8
SQUARES
  0
POLYLINE
  5
AD
  8
SQUARES
 66
     1
 10
0.0
 20
0.0
 30
0.0
 70
     1
1001
DCO15
1071
        2
1071
        2
1000
colsq
1004
073230363400
1001
ADE
1011
-1.568106581689789
1021
0.0
1031
0.0
1021
0.2139408327639103
1031
0.0
  0
VERTEX
  5
25B
  8
SQUARES
 10
737375.15200000023
 20
4560363.4359999998
 30
0.0
  0
VERTEX
  5
25C
  8
SQUARES
 10
737372.9458000001
 20
4560358.9494000003
 30
0.0
  0
VERTEX
  5
25D
  8
SQUARES
 10
737368.45920000016
 20
4560361.1556000002
 30
0.0
  0
VERTEX
  5
25E
  8
SQUARES
 10
737370.66540000006
 20
4560365.6421999987
 30
0.0
  0
SEQEND
  5
25F
  8
SQUARES
  0
POLYLINE
  5
AE
  8
SQUARES
 66
     1
 10
0.0
 20
0.0
 30
0.0
 70
     1
1001
DCO15
1071
        2
1071
        2
1000
colsq
1004
073230373100
1001
ADE
1011
-1.568106581806205
1021
0.0
1031
0.0
1021
0.2139408327639103
1031
0.0
  0
VERTEX
  5
260
  8
SQUARES
 10
737377.28399999999
 20
4560379.101999999
 30
0.0
  0
VERTEX
  5
261
  8
SQUARES
 10
737379.4902
 20
4560383.5886000004
 30
0.0
  0
VERTEX
  5
262
  8
SQUARES
 10
737375.00360000029
 20
4560385.7948000012
 30
0.0
  0
VERTEX
  5
263
  8
SQUARES
 10
737372.79740000027
 20
4560381.3081999999
 30
0.0
  0
SEQEND
  5
264
  8
SQUARES
  0
POLYLINE
  5
AF
  8
SQUARES
 66
     1
 10
0.0
 20
0.0
 30
0.0
 70
     1
1001
DCO15
1071
        2
1071
        2
1000
colsq
1004
073230363700
1001
ADE
1011
-1.568106581806205
1021
0.0
1031
0.0
1021
0.2139408327639103
1031
0.0
  0
VERTEX
  5
265
  8
SQUARES
 10
737368.38500000024
 20
4560372.335
 30
0.0
  0
VERTEX
  5
266
  8
SQUARES
 10
737370.59120000014
 20
4560376.8216000004
 30
0.0
  0
VERTEX
  5
267
  8
SQUARES
 10
737366.10460000008
 20
4560379.0278000003
 30
0.0
  0
VERTEX
  5
268
  8
SQUARES
 10
737363.89840000018
 20
4560374.5411999989
 30
0.0
  0
SEQEND
  5
269
  8
SQUARES
  0
POLYLINE
  5
B0
  8
SQUARES
 66
     1
 10
0.0
 20
0.0
 30
0.0
 70
     1
1001
DCO15
1071
        2
1071
        2
1000
colsq
1004
073230323300
1001
ADE
1011
-1.566170094418339
1021
0.0
1031
0.0
1021
0.2292379327118397
1031
0.0
  0
VERTEX
  5
26A
  8
SQUARES
 10
737297.0495294116
 20
4560391.9078823524
 30
0.0
  0
VERTEX
  5
26B
  8
SQUARES
 10
737294.79941176483
 20
4560387.4423529413
 30
0.0
  0
VERTEX
  5
26C
  8
SQUARES
 10
737299.26494117652
 20
4560385.1922352938
 30
0.0
  0
VERTEX
  5
26D
  8
SQUARES
 10
737301.51505882363
 20
4560389.657764704
 30
0.0
  0
SEQEND
  5
26E
  8
SQUARES
  0
POLYLINE
  5
B1
  8
SQUARES
 66
     1
 10
0.0
 20
0.0
 30
0.0
 70
     1
1001
DCO15
1071
        2
1071
        2
1000
colsq
1004
073230373200
1001
ADE
1011
-1.568106581806205
1021
0.0
1031
0.0
1021
0.2139408327639103
1031
0.0
  0
VERTEX
  5
26F
  8
SQUARES
 10
737372.72320000001
 20
4560392.4875999987
 30
0.0
  0
VERTEX
  5
270
  8
SQUARES
 10
737370.51700000023
 20
4560388.0010000002
 30
0.0
  0
VERTEX
  5
271
  8
SQUARES
 10
737375.00360000029
 20
4560385.7948000012
 30
0.0
  0
VERTEX
  5
272
  8
SQUARES
 10
737377.20979999995
 20
4560390.2813999997
 30
0.0
  0
SEQEND
  5
273
  8
SQUARES
  0
TEXT
  5
B2
  8
SQ_NUMBERS
 10
737308.66234888125
 20
4560344.3409617906
 30
0.0
 40
0.9998491565058456
  1
2004
 50
332.94708859592453
 72
     4
 11
737310.27043795621
 21
4560344.0737956213
 31
0.0
  0
TEXT
  5
B5
  8
SQ_NUMBERS
 10
737313.2097941367
 20
4560353.2454873389
 30
0.0
 40
0.9998491565058456
  1
2008
 50
332.94708859592453
 72
     4
 11
737314.81788321165
 21
4560352.9783211676
 31
0.0
  0
TEXT
  5
B6
  8
SQ_NUMBERS
 10
737322.30483974493
 20
4560371.0548421349
 30
0.0
 40
0.9998491565058456
  1
2013
 50
332.94708859592453
 72
     4
 11
737323.91277372267
 21
4560370.7873722631
 31
0.0
  0
TEXT
  5
B7
  8
SQ_NUMBERS
 10
737310.84088902723
 20
4560337.6149763893
 30
0.0
 40
0.9998491565058456
  1
2002
 50
332.94708859592453
 72
     4
 11
737312.4489781023
 21
4560337.347810219
 31
0.0
  0
TEXT
  5
B8
  8
SQ_NUMBERS
 10
737315.38833428267
 20
4560346.5195019376
 30
0.0
 40
0.9998491565058456
  1
2006
 50
332.94708859592453
 72
     4
 11
737316.99642335775
 21
4560346.2523357682
 31
0.0
  0
TEXT
  5
B9
  8
SQ_NUMBERS
 10
737319.93577953824
 20
4560355.4240274839
 30
0.0
 40
0.9998491565058456
  1
2010
 50
332.94708859592453
 72
     4
 11
737321.54386861308
 21
4560355.1568613136
 31
0.0
  0
TEXT
  5
BA
  8
SQ_NUMBERS
 10
737329.03067004913
 20
4560373.2330785794
 30
0.0
 40
0.9998491565058456
  1
2015
 50
332.94708859592453
 72
     4
 11
737330.63875912409
 21
4560372.9659124091
 31
0.0
  0
TEXT
  5
BB
  8
SQ_NUMBERS
 10
737313.0194291732
 20
4560330.8889909871
 30
0.0
 40
0.9998491565058456
  1
2001
 50
332.94708859592453
 72
     4
 11
737314.62751824816
 21
4560330.6218248168
 31
0.0
  0
TEXT
  5
BC
  8
SQ_NUMBERS
 10
737317.56687442865
 20
4560339.7935165353
 30
0.0
 40
0.9998491565058456
  1
2005
 50
332.94708859592453
 72
     4
 11
737319.17496350361
 21
4560339.526350365
 31
0.0
  0
TEXT
  5
BD
  8
SQ_NUMBERS
 10
737322.1143196841
 20
4560348.6980420826
 30
0.0
 40
0.9998491565058456
  1
2009
 50
332.94708859592453
 72
     4
 11
737323.72240875894
 21
4560348.4308759132
 31
0.0
  0
TEXT
  5
BE
  8
SQ_NUMBERS
 10
737331.20921019523
 20
4560366.5070931781
 30
0.0
 40
0.9998491565058456
  1
2014
 50
332.94708859592453
 72
     4
 11
737332.81729927007
 21
4560366.2399270078
 31
0.0
  0
TEXT
  5
BF
  8
SQ_NUMBERS
 10
737335.75665545056
 20
4560375.4116187263
 30
0.0
 40
0.9998491565058456
  1
2017
 50
332.94708859592453
 72
     4
 11
737337.36474452552
 21
4560375.1444525551
 31
0.0
  0
TEXT
  5
C0
  8
SQ_NUMBERS
 10
737319.74556967174
 20
4560333.0678348346
 30
0.0
 40
0.9998491565058456
  1
2003
 50
332.94708859592453
 72
     4
 11
737321.35350364947
 21
4560332.8003649628
 31
0.0
  0
TEXT
  5
C1
  8
SQ_NUMBERS
 10
737324.29285983008
 20
4560341.9720566813
 30
0.0
 40
0.9998491565058456
  1
2007
 50
332.94708859592453
 72
     4
 11
737325.90094890515
 21
4560341.704890511
 31
0.0
  0
TEXT
  5
C2
  8
SQ_NUMBERS
 10
737328.84030508564
 20
4560350.8765822286
 30
0.0
 40
0.9998491565058456
  1
2011
 50
332.94708859592453
 72
     4
 11
737330.4483941606
 21
4560350.6094160592
 31
0.0
  0
TEXT
  5
C3
  8
SQ_NUMBERS
 10
737333.38775034109
 20
4560359.7811077759
 30
0.0
 40
0.9998491565058456
  1
2012
 50
332.94708859592453
 72
     4
 11
737334.99583941605
 21
4560359.5139416056
 31
0.0
  0
TEXT
  5
C4
  8
SQ_NUMBERS
 10
737337.93519559654
 20
4560368.6856333232
 30
0.0
 40
0.9998491565058456
  1
2016
 50
332.94708859592453
 72
     4
 11
737339.5432846715
 21
4560368.4184671529
 31
0.0
  0
TEXT
  5
C5
  8
SQ_NUMBERS
 10
737259.24601332762
 20
4560341.2878924338
 30
0.0
 40
1.0002498149709469
  1
2074
 50
333.25365861369198
 72
     4
 11
737260.85615384625
 21
4560341.0292307688
 31
0.0
  0
TEXT
  5
C6
  8
SQ_NUMBERS
 10
737261.49678255827
 20
4560345.7540462809
 30
0.0
 40
1.0002498149709469
  1
2075
 50
333.25365861369198
 72
     4
 11
737263.10692307691
 21
4560345.4953846149
 31
0.0
  0
TEXT
  5
C7
  8
SQ_NUMBERS
 10
737263.74755178939
 20
4560350.220200127
 30
0.0
 40
1.0002498149709469
  1
2077
 50
333.25365861369198
 72
     4
 11
737265.35769230768
 21
4560349.961538462
 31
0.0
  0
TEXT
  5
C8
  8
SQ_NUMBERS
 10
737265.96293640474
 20
4560343.5032770494
 30
0.0
 40
1.0002498149709469
  1
2076
 50
333.25365861369198
 72
     4
 11
737267.57307692314
 21
4560343.2446153844
 31
0.0
  0
TEXT
  5
C9
  8
SQ_NUMBERS
 10
737321.36030443385
 20
4560308.5509924283
 30
0.0
 40
0.9999379580775633
  1
2045
 50
333.81522722915008
 72
     4
 11
737322.97239999985
 21
4560308.3081999989
 31
0.0
  0
TEXT
  5
CA
  8
SQ_NUMBERS
 10
737334.59750443394
 20
4560335.470592428
 30
0.0
 40
0.9999379580775633
  1
2052
 50
333.81522722915008
 72
     4
 11
737336.20960000006
 21
4560335.2278000005
 31
0.0
  0
TEXT
  5
CB
  8
SQ_NUMBERS
 10
737341.21610443387
 20
4560348.9303924283
 30
0.0
 40
0.9999379580775633
  1
2055
 50
333.81522722915008
 72
     4
 11
737342.82819999999
 21
4560348.6875999998
 31
0.0
  0
TEXT
  5
CC
  8
SQ_NUMBERS
 10
737323.6407044339
 20
4560301.858192428
 30
0.0
 40
0.9999379580775633
  1
2044
 50
333.81522722915008
 72
     4
 11
737325.25280000002
 21
4560301.6153999995
 31
0.0
  0
TEXT
  5
CD
  8
SQ_NUMBERS
 10
737336.87790443399
 20
4560328.7777924277
 30
0.0
 40
0.9999379580775633
  1
2051
 50
333.81522722915008
 72
     4
 11
737338.49000000011
 21
4560328.5350000001
 31
0.0
  0
TEXT
  5
CE
  8
SQ_NUMBERS
 10
737343.49650443392
 20
4560342.237592428
 30
0.0
 40
0.9999379580775633
  1
2054
 50
333.81522722915008
 72
     4
 11
737345.10860000004
 21
4560341.9947999986
 31
0.0
  0
TEXT
  5
CF
  8
SQ_NUMBERS
 10
737332.53970443388
 20
4560308.625192428
 30
0.0
 40
0.9999379580775633
  1
2047
 50
333.81522722915008
 72
     4
 11
737334.15180000011
 21
4560308.3823999986
 31
0.0
  0
TEXT
  5
D0
  8
SQ_NUMBERS
 10
737339.15830443392
 20
4560322.0849924283
 30
0.0
 40
0.9999379580775633
  1
2050
 50
333.81522722915008
 72
     4
 11
737340.77040000004
 21
4560321.8421999998
 31
0.0
  0
TEXT
  5
D1
  8
SQ_NUMBERS
 10
737345.7770549251
 20
4560335.5450984724
 30
0.0
 40
0.9999379580775633
  1
2053
 50
333.81522722915008
 72
     4
 11
737347.38900000008
 21
4560335.3020000001
 31
0.0
  0
TEXT
  5
D2
  8
SQ_NUMBERS
 10
737352.39550443401
 20
4560349.004592428
 30
0.0
 40
0.9999379580775633
  1
2057
 50
333.81522722915008
 72
     4
 11
737354.00760000013
 21
4560348.7617999986
 31
0.0
  0
TEXT
  5
D3
  8
SQ_NUMBERS
 10
737341.43870443397
 20
4560315.3921924271
 30
0.0
 40
0.9999379580775633
  1
2049
 50
333.81522722915008
 72
     4
 11
737343.05080000008
 21
4560315.1494000005
 31
0.0
  0
TEXT
  5
D4
  8
SQ_NUMBERS
 10
737354.67590443394
 20
4560342.3117924286
 30
0.0
 40
0.9999379580775633
  1
2056
 50
333.81522722915008
 72
     4
 11
737356.28800000006
 21
4560342.0689999992
 31
0.0
  0
TEXT
  5
D5
  8
SQ_NUMBERS
 10
737343.71910443401
 20
4560308.6993924286
 30
0.0
 40
0.9999379580775633
  1
2048
 50
333.81522722915008
 72
     4
 11
737345.33120000013
 21
4560308.4566000002
 31
0.0
  0
TEXT
  5
D6
  8
SQ_NUMBERS
 10
737376.81210443389
 20
4560375.9983924283
 30
0.0
 40
0.9999379580775633
  1
2069
 50
333.81522722915008
 72
     4
 11
737378.42420000012
 21
4560375.7555999989
 31
0.0
  0
TEXT
  5
D7
  8
SQ_NUMBERS
 10
737370.19350443408
 20
4560362.538592428
 30
0.0
 40
0.9999379580775633
  1
2064
 50
333.81522722915008
 72
     4
 11
737371.80560000008
 21
4560362.2958000004
 31
0.0
  0
TEXT
  5
D8
  8
SQ_NUMBERS
 10
737363.57490443392
 20
4560349.0787924286
 30
0.0
 40
0.9999379580775633
  1
2059
 50
333.81522722915008
 72
     4
 11
737365.18700000003
 21
4560348.8360000011
 31
0.0
  0
TEXT
  5
D9
  8
SQ_NUMBERS
 10
737374.53170443396
 20
4560382.6911924286
 30
0.0
 40
0.9999379580775633
  1
2071
 50
333.81522722915008
 72
     4
 11
737376.14380000008
 21
4560382.4484000001
 31
0.0
  0
TEXT
  5
DA
  8
SQ_NUMBERS
 10
737367.91310443392
 20
4560369.2313924283
 30
0.0
 40
0.9999379580775633
  1
2066
 50
333.81522722915008
 72
     4
 11
737369.52520000003
 21
4560368.9885999998
 31
0.0
  0
TEXT
  5
DB
  8
SQ_NUMBERS
 10
737361.29450443399
 20
4560355.771592427
 30
0.0
 40
0.9999379580775633
  1
2061
 50
333.81522722915008
 72
     4
 11
737362.9066000001
 21
4560355.5287999986
 31
0.0
  0
TEXT
  5
DC
  8
SQ_NUMBERS
 10
737372.25130443391
 20
4560389.383992428
 30
0.0
 40
0.9999379580775633
  1
2072
 50
333.81522722915008
 72
     4
 11
737373.86340000003
 21
4560389.1412000004
 31
0.0
  0
TEXT
  5
DD
  8
SQ_NUMBERS
 10
737365.63270443375
 20
4560375.9241924277
 30
0.0
 40
0.9999379580775633
  1
2067
 50
333.81522722915008
 72
     4
 11
737367.24479999999
 21
4560375.6814000001
 31
0.0
  0
TEXT
  5
DE
  8
SQ_NUMBERS
 10
737359.01410443406
 20
4560362.4643924283
 30
0.0
 40
0.9999379580775633
  1
2062
 50
333.81522722915008
 72
     4
 11
737360.62620000006
 21
4560362.2215999998
 31
0.0
  0
TEXT
  5
DF
  8
SQ_NUMBERS
 10
737363.35230443405
 20
4560382.6169924289
 30
0.0
 40
0.9999379580775633
  1
2068
 50
333.81522722915008
 72
     4
 11
737364.96440000006
 21
4560382.3742000014
 31
0.0
  0
TEXT
  5
E0
  8
SQ_NUMBERS
 10
737356.73385492503
 20
4560369.1574984724
 30
0.0
 40
0.9999379580775633
  1
2063
 50
333.81522722915008
 72
     4
 11
737358.34580000001
 21
4560368.9144000001
 31
0.0
  0
TEXT
  5
E1
  8
SQ_NUMBERS
 10
737350.11510443396
 20
4560355.6973924283
 30
0.0
 40
0.9999379580775633
  1
2058
 50
333.81522722915008
 72
     4
 11
737351.72719999996
 21
4560355.4545999989
 31
0.0
  0
TEXT
  5
E2
  8
SQ_NUMBERS
 10
737361.07190443389
 20
4560389.3097924283
 30
0.0
 40
0.9999379580775633
  1
2070
 50
333.81522722915008
 72
     4
 11
737362.68400000001
 21
4560389.0669999998
 31
0.0
  0
TEXT
  5
E3
  8
SQ_NUMBERS
 10
737354.45330443385
 20
4560375.8499924289
 30
0.0
 40
0.9999379580775633
  1
2065
 50
333.81522722915008
 72
     4
 11
737356.06540000008
 21
4560375.6072000004
 31
0.0
  0
TEXT
  5
E4
  8
SQ_NUMBERS
 10
737347.83470443392
 20
4560362.3901924286
 30
0.0
 40
0.9999379580775633
  1
2060
 50
333.81522722915008
 72
     4
 11
737349.44680000015
 21
4560362.1474000001
 31
0.0
  0
TEXT
  5
E5
  8
SQ_NUMBERS
 10
737334.82010443404
 20
4560301.9323924277
 30
0.0
 40
0.9999379580775633
  1
2046
 50
333.81522722915008
 72
     4
 11
737336.43220000004
 21
4560301.6896000002
 31
0.0
  0
TEXT
  5
E6
  8
SQ_NUMBERS
 10
737238.07511680445
 20
4560305.9236793602
 30
0.0
 40
0.9998138650244604
  1
2042
 50
333.55253721753581
 72
     4
 11
737239.68588235311
 21
4560305.6735294117
 31
0.0
  0
TEXT
  5
E7
  8
SQ_NUMBERS
 10
737251.43409220793
 20
4560332.7792787887
 30
0.0
 40
0.9998138650244604
  1
2036
 50
333.55253721753581
 72
     4
 11
737253.04470588244
 21
4560332.5288235294
 31
0.0
  0
TEXT
  5
E8
  8
SQ_NUMBERS
 10
737240.32468044315
 20
4560299.2216317309
 30
0.0
 40
0.9998138650244604
  1
2043
 50
333.55253721753581
 72
     4
 11
737241.93529411778
 21
4560298.9711764706
 31
0.0
  0
TEXT
  5
E9
  8
SQ_NUMBERS
 10
737253.68350397237
 20
4560326.0769258467
 30
0.0
 40
0.9998138650244604
  1
2038
 50
333.55253721753581
 72
     4
 11
737255.29411764711
 21
4560325.8264705874
 31
0.0
  0
TEXT
  5
EA
  8
SQ_NUMBERS
 10
737247.02688151039
 20
4560301.4707381837
 30
0.0
 40
0.9998138650244604
  1
2041
 50
333.55253721753581
 72
     4
 11
737248.63764705905
 21
4560301.2205882352
 31
0.0
  0
TEXT
  5
EB
  8
SQ_NUMBERS
 10
737251.47982268676
 20
4560310.4225028893
 30
0.0
 40
0.9998138650244604
  1
2040
 50
333.55253721753581
 72
     4
 11
737253.0905882353
 21
4560310.1723529408
 31
0.0
  0
TEXT
  5
EC
  8
SQ_NUMBERS
 10
737255.93291573715
 20
4560319.3745729057
 30
0.0
 40
0.9998138650244604
  1
2039
 50
333.55253721753581
 72
     4
 11
737257.54352941178
 21
4560319.1241176464
 31
0.0
  0
TEXT
  5
ED
  8
SQ_NUMBERS
 10
737260.38585691375
 20
4560328.3263376132
 30
0.0
 40
0.9998138650244604
  1
2037
 50
333.55253721753581
 72
     4
 11
737261.99647058826
 21
4560328.0758823529
 31
0.0
  0
TEXT
  5
EE
  8
SQ_NUMBERS
 10
737224.19264938624
 20
4560313.111300136
 30
0.0
 40
1.0000537632590969
  1
2032
 50
337.61656532352151
 72
     4
 11
737225.81735294126
 21
4560312.9755882351
 31
0.0
  0
TEXT
  5
EF
  8
SQ_NUMBERS
 10
737228.00088468019
 20
4560322.3583589587
 30
0.0
 40
1.0000537632590969
  1
2030
 50
337.61656532352151
 72
     4
 11
737229.62558823533
 21
4560322.2226470588
 31
0.0
  0
TEXT
  5
F0
  8
SQ_NUMBERS
 10
737219.2955905624
 20
4560288.0895354301
 30
0.0
 40
1.0000537632590969
  1
2035
 50
337.61656532352151
 72
     4
 11
737220.92029411765
 21
4560287.9538235292
 31
0.0
  0
TEXT
  5
F1
  8
SQ_NUMBERS
 10
737223.10382585682
 20
4560297.3365942538
 30
0.0
 40
1.0000537632590969
  1
2034
 50
337.61656532352151
 72
     4
 11
737224.72852941183
 21
4560297.200882352
 31
0.0
  0
TEXT
  5
F2
  8
SQ_NUMBERS
 10
737226.91206115088
 20
4560306.5836530766
 30
0.0
 40
1.0000537632590969
  1
2033
 50
337.61656532352151
 72
     4
 11
737228.5367647059
 21
4560306.4479411766
 31
0.0
  0
TEXT
  5
F3
  8
SQ_NUMBERS
 10
737230.72029644495
 20
4560315.8307119012
 30
0.0
 40
1.0000537632590969
  1
2031
 50
337.61656532352151
 72
     4
 11
737232.3450000002
 21
4560315.6950000003
 31
0.0
  0
TEXT
  5
F4
  8
SQ_NUMBERS
 10
737234.52840185387
 20
4560325.0774553409
 30
0.0
 40
1.0000537632590969
  1
2029
 50
337.61656532352151
 72
     4
 11
737236.15323529416
 21
4560324.942058824
 31
0.0
  0
TEXT
  5
F5
  8
SQ_NUMBERS
 10
737285.33147079695
 20
4560377.6621090351
 30
0.0
 40
1.000079643876628
  1
2026
 50
333.2571058021158
 72
     4
 11
737286.94135294121
 21
4560377.4035882344
 31
0.0
  0
TEXT
  5
F6
  8
SQ_NUMBERS
 10
737296.81464092911
 20
4560393.1251661684
 30
0.0
 40
1.000079643876628
  1
2021
 50
63.257105802115802
 72
     4
 11
737297.07316172996
 21
4560394.7350483118
 31
0.0
  0
TEXT
  5
F7
  8
SQ_NUMBERS
 10
737287.54688256176
 20
4560370.9464619774
 30
0.0
 40
1.000079643876628
  1
2028
 50
333.2571058021158
 72
     4
 11
737289.1567647059
 21
4560370.687941175
 31
0.0
  0
TEXT
  5
F8
  8
SQ_NUMBERS
 10
737292.04711785575
 20
4560379.8775207996
 30
0.0
 40
1.000079643876628
  1
2025
 50
333.2571058021158
 72
     4
 11
737293.65700000001
 21
4560379.6189999981
 31
0.0
  0
TEXT
  5
F9
  8
SQ_NUMBERS
 10
737296.54750663671
 20
4560388.8088842286
 30
0.0
 40
1.000079643876628
  1
2023
 50
333.2571058021158
 72
     4
 11
737298.15723529411
 21
4560388.5500588231
 31
0.0
  0
TEXT
  5
FA
  8
SQ_NUMBERS
 10
737301.04758844408
 20
4560397.7396384468
 30
0.0
 40
1.000079643876628
  1
2020
 50
333.2571058021158
 72
     4
 11
737302.65747058822
 21
4560397.4811176462
 31
0.0
  0
TEXT
  5
FB
  8
SQ_NUMBERS
 10
737305.54782373819
 20
4560406.67069727
 30
0.0
 40
1.000079643876628
  1
2018
 50
333.2571058021158
 72
     4
 11
737307.15770588233
 21
4560406.4121764693
 31
0.0
  0
TEXT
  5
FC
  8
SQ_NUMBERS
 10
737294.26252962044
 20
4560373.1618737411
 30
0.0
 40
1.000079643876628
  1
2027
 50
333.2571058021158
 72
     4
 11
737295.87241176481
 21
4560372.9033529405
 31
0.0
  0
TEXT
  5
FD
  8
SQ_NUMBERS
 10
737298.76276491454
 20
4560382.0929325651
 30
0.0
 40
1.000079643876628
  1
2024
 50
333.2571058021158
 72
     4
 11
737300.37264705892
 21
4560381.8344117654
 31
0.0
  0
TEXT
  5
FE
  8
SQ_NUMBERS
 10
737303.26300020865
 20
4560391.0239913883
 30
0.0
 40
1.000079643876628
  1
2022
 50
333.2571058021158
 72
     4
 11
737304.87288235303
 21
4560390.7654705876
 31
0.0
  0
TEXT
  5
FF
  8
SQ_NUMBERS
 10
737307.76323550264
 20
4560399.9550502114
 30
0.0
 40
1.000079643876628
  1
2019
 50
333.2571058021158
 72
     4
 11
737309.37311764713
 21
4560399.6965294108
 31
0.0
  0
POLYLINE
  5
100
  8
SQUARES
 66
     1
 10
0.0
 20
0.0
 30
0.0
 70
     1
1001
DCO15
1071
        2
1071
        2
1000
colsq
1004
073230333100
1001
ADE
1011
-8.1066702088573948
1021
0.0
1031
0.0
1021
-2.609890016727149
1031
0.0
  0
VERTEX
  5
274
  8
SQUARES
 10
737224.45764705888
 20
4560316.2394117638
 30
0.0
  0
VERTEX
  5
275
  8
SQUARES
 10
737222.55352941167
 20
4560311.6158823511
 30
0.0
  0
VERTEX
  5
276
  8
SQUARES
 10
737227.17705882364
 20
4560309.7117647063
 30
0.0
  0
VERTEX
  5
277
  8
SQUARES
 10
737229.08117647062
 20
4560314.3352941172
 30
0.0
  0
SEQEND
  5
278
  8
SQUARES
  0
POLYLINE
  5
101
  8
SQUARES
 66
     1
 10
0.0
 20
0.0
 30
0.0
 70
     1
1001
DCO15
1071
        2
1071
        2
1000
colsq
1004
073230333100
1001
ADE
1011
-5.3872584442142388
1021
0.0
1031
0.0
1021
-9.1375370752066374
1031
0.0
  0
VERTEX
  5
279
  8
SQUARES
 10
737227.17705882364
 20
4560309.7117647063
 30
0.0
  0
VERTEX
  5
27A
  8
SQUARES
 10
737225.27294117643
 20
4560305.0882352944
 30
0.0
  0
VERTEX
  5
27B
  8
SQUARES
 10
737229.89647058817
 20
4560303.1841176469
 30
0.0
  0
VERTEX
  5
27C
  8
SQUARES
 10
737231.80058823526
 20
4560307.8076470587
 30
0.0
  0
SEQEND
  5
27D
  8
SQUARES
  0
POLYLINE
  5
102
  8
SQUARES
 66
     1
 10
0.0
 20
0.0
 30
0.0
 70
     1
1001
DCO15
1071
        2
1071
        2
1000
colsq
1004
073230333100
1001
ADE
1011
-9.1954937383998185
1021
0.0
1031
0.0
1021
-18.38459589891136
1031
0.0
  0
VERTEX
  5
27E
  8
SQUARES
 10
737223.36882352945
 20
4560300.4647058807
 30
0.0
  0
VERTEX
  5
27F
  8
SQUARES
 10
737221.46470588224
 20
4560295.8411764689
 30
0.0
  0
VERTEX
  5
280
  8
SQUARES
 10
737226.08823529386
 20
4560293.9370588232
 30
0.0
  0
VERTEX
  5
281
  8
SQUARES
 10
737227.99235294096
 20
4560298.5605882341
 30
0.0
  0
SEQEND
  5
282
  8
SQUARES
  0
POLYLINE
  5
103
  8
SQUARES
 66
     1
 10
0.0
 20
0.0
 30
0.0
 70
     1
1001
DCO15
1071
        2
1071
        2
1000
colsq
1004
073230333100
1001
ADE
1011
-13.003729032585399
1021
0.0
1031
0.0
1021
-27.63165472261608
1031
0.0
  0
VERTEX
  5
283
  8
SQUARES
 10
737219.56058823515
 20
4560291.217647058
 30
0.0
  0
VERTEX
  5
284
  8
SQUARES
 10
737217.65647058794
 20
4560286.5941176461
 30
0.0
  0
VERTEX
  5
285
  8
SQUARES
 10
737222.27999999991
 20
4560284.6899999985
 30
0.0
  0
VERTEX
  5
286
  8
SQUARES
 10
737224.18411764689
 20
4560289.3135294113
 30
0.0
  0
SEQEND
  5
287
  8
SQUARES
  0
POLYLINE
  5
104
  8
SQUARES
 66
     1
 10
0.0
 20
0.0
 30
0.0
 70
     1
1001
DCO15
1071
        2
1071
        2
1000
colsq
1004
073230333800
1001
ADE
1011
0.6824970173183829
1021
0.0
1031
0.0
1021
-6.4812523601576677
1031
0.0
  0
VERTEX
  5
288
  8
SQUARES
 10
737260.89470588218
 20
4560320.2488235282
 30
0.0
  0
VERTEX
  5
289
  8
SQUARES
 10
737256.41882352938
 20
4560322.4752941178
 30
0.0
  0
VERTEX
  5
28A
  8
SQUARES
 10
737254.19235294103
 20
4560317.9994117636
 30
0.0
  0
VERTEX
  5
28B
  8
SQUARES
 10
737258.66823529382
 20
4560315.7729411758
 30
0.0
  0
SEQEND
  5
28C
  8
SQUARES
  0
POLYLINE
  5
105
  8
SQUARES
 66
     1
 10
0.0
 20
0.0
 30
0.0
 70
     1
1001
DCO15
1071
        2
1071
        2
1000
colsq
1004
073230333800
1001
ADE
1011
-3.7704441593959919
1021
0.0
1031
0.0
1021
-15.43301706667989
1031
0.0
  0
VERTEX
  5
28D
  8
SQUARES
 10
737256.44176470547
 20
4560311.2970588226
 30
0.0
  0
VERTEX
  5
28E
  8
SQUARES
 10
737251.96588235255
 20
4560313.5235294113
 30
0.0
  0
VERTEX
  5
28F
  8
SQUARES
 10
737249.73941176431
 20
4560309.047647058
 30
0.0
  0
VERTEX
  5
290
  8
SQUARES
 10
737254.21529411711
 20
4560306.8211764693
 30
0.0
  0
SEQEND
  5
291
  8
SQUARES
  0
POLYLINE
  5
106
  8
SQUARES
 66
     1
 10
0.0
 20
0.0
 30
0.0
 70
     1
1001
DCO15
1071
        2
1071
        2
1000
colsq
1004
073230333800
1001
ADE
1011
-8.2233853361103684
1021
0.0
1031
0.0
1021
-24.384781773202121
1031
0.0
  0
VERTEX
  5
292
  8
SQUARES
 10
737251.98882352875
 20
4560302.3452941161
 30
0.0
  0
VERTEX
  5
293
  8
SQUARES
 10
737247.51294117596
 20
4560304.5717647048
 30
0.0
  0
VERTEX
  5
294
  8
SQUARES
 10
737245.28647058737
 20
4560300.0958823506
 30
0.0
  0
VERTEX
  5
295
  8
SQUARES
 10
737249.76235294039
 20
4560297.8694117628
 30
0.0
  0
SEQEND
  5
296
  8
SQUARES
  0
POLYLINE
  5
107
  8
SQUARES
 66
     1
 10
0.0
 20
0.0
 30
0.0
 70
     1
1001
DCO15
1071
        2
1071
        2
1000
colsq
1004
073230333800
1001
ADE
1011
-17.175150041817691
1021
0.0
1031
0.0
1021
-19.93184059578925
1031
0.0
  0
VERTEX
  5
297
  8
SQUARES
 10
737243.03705882304
 20
4560306.7982352944
 30
0.0
  0
VERTEX
  5
298
  8
SQUARES
 10
737238.56117647025
 20
4560309.0247058813
 30
0.0
  0
VERTEX
  5
299
  8
SQUARES
 10
737236.33470588189
 20
4560304.5488235289
 30
0.0
  0
VERTEX
  5
29A
  8
SQUARES
 10
737240.81058823469
 20
4560302.3223529393
 30
0.0
  0
SEQEND
  5
29B
  8
SQUARES
  0
POLYLINE
  5
108
  8
SQUARES
 66
     1
 10
0.0
 20
0.0
 30
0.0
 70
     1
1001
DCO15
1071
        2
1071
        2
1000
colsq
1004
073230333800
1001
ADE
1011
-14.92573827737942
1021
0.0
1031
0.0
1021
-26.634193537756801
1031
0.0
  0
VERTEX
  5
29C
  8
SQUARES
 10
737245.28647058737
 20
4560300.0958823506
 30
0.0
  0
VERTEX
  5
29D
  8
SQUARES
 10
737240.81058823469
 20
4560302.3223529393
 30
0.0
  0
VERTEX
  5
29E
  8
SQUARES
 10
737238.58411764633
 20
4560297.846470587
 30
0.0
  0
VERTEX
  5
29F
  8
SQUARES
 10
737243.05999999912
 20
4560295.6199999973
 30
0.0
  0
SEQEND
  5
2A0
  8
SQUARES
  0
POLYLINE
  5
109
  8
SQUARES
 66
     1
 10
0.0
 20
0.0
 30
0.0
 70
     1
1001
DCO15
1071
        2
1071
        2
1000
colsq
1004
073230333600
1001
ADE
1011
6.245006372453644
1021
0.0
1031
0.0
1021
8.7297142250463367
1031
0.0
  0
VERTEX
  5
2A1
  8
SQUARES
 10
737264.20780347276
 20
4560342.1621430553
 30
0.0
  0
VERTEX
  5
2A2
  8
SQUARES
 10
737259.73192111985
 20
4560344.3886136441
 30
0.0
  0
VERTEX
  5
2A3
  8
SQUARES
 10
737257.50545053161
 20
4560339.9127312908
 30
0.0
  0
VERTEX
  5
2A4
  8
SQUARES
 10
737261.98133288464
 20
4560337.686260703
 30
0.0
  0
SEQEND
  5
2A5
  8
SQUARES
  0
POLYLINE
  5
10A
  8
SQUARES
 66
     1
 10
0.0
 20
0.0
 30
0.0
 70
     1
1001
DCO15
1071
        2
1071
        2
1000
colsq
1004
073230333600
1001
ADE
1011
8.495775603223592
1021
0.0
1031
0.0
1021
13.19586807209998
1031
0.0
  0
VERTEX
  5
2A6
  8
SQUARES
 10
737266.45857270365
 20
4560346.6282969024
 30
0.0
  0
VERTEX
  5
2A7
  8
SQUARES
 10
737261.98269035062
 20
4560348.8547674911
 30
0.0
  0
VERTEX
  5
2A8
  8
SQUARES
 10
737259.75621976249
 20
4560344.3788851378
 30
0.0
  0
VERTEX
  5
2A9
  8
SQUARES
 10
737264.23210211552
 20
4560342.1524145491
 30
0.0
  0
SEQEND
  5
2AA
  8
SQUARES
  0
POLYLINE
  5
10B
  8
SQUARES
 66
     1
 10
0.0
 20
0.0
 30
0.0
 70
     1
1001
DCO15
1071
        2
1071
        2
1000
colsq
1004
073230333600
1001
ADE
1011
10.746544834109949
1021
0.0
1031
0.0
1021
17.662021918222301
1031
0.0
  0
VERTEX
  5
2AB
  8
SQUARES
 10
737268.70934193442
 20
4560351.0944507476
 30
0.0
  0
VERTEX
  5
2AC
  8
SQUARES
 10
737264.2334595815
 20
4560353.3209213372
 30
0.0
  0
VERTEX
  5
2AD
  8
SQUARES
 10
737262.00698899326
 20
4560348.845038983
 30
0.0
  0
VERTEX
  5
2AE
  8
SQUARES
 10
737266.48287134641
 20
4560346.6185683962
 30
0.0
  0
SEQEND
  5
2AF
  8
SQUARES
  0
POLYLINE
  5
10C
  8
SQUARES
 66
     1
 10
0.0
 20
0.0
 30
0.0
 70
     1
1001
DCO15
1071
        2
1071
        2
1000
colsq
1004
073230333600
1001
ADE
1011
12.961929449578751
1021
0.0
1031
0.0
1021
10.945098840631539
1031
0.0
  0
VERTEX
  5
2B0
  8
SQUARES
 10
737270.92472654989
 20
4560344.3775276709
 30
0.0
  0
VERTEX
  5
2B1
  8
SQUARES
 10
737266.44884419686
 20
4560346.6039982596
 30
0.0
  0
VERTEX
  5
2B2
  8
SQUARES
 10
737264.22237360885
 20
4560342.1281159064
 30
0.0
  0
VERTEX
  5
2B3
  8
SQUARES
 10
737268.69825596176
 20
4560339.9016453186
 30
0.0
  0
SEQEND
  5
2B4
  8
SQUARES
  0
ENDSEC
  0
EOF
