  0
SECTION
  2
HEADER
  9
$ACADVER
  1
AC1009
  9
$INSBASE
 10
0.0
 20
0.0
 30
0.0
  9
$EXTMIN
 10
732711.88571428577
 20
4554937.54
 30
0.0
  9
$EXTMAX
 10
737381.77060000005
 20
4560409.7699999986
 30
0.0
  9
$LIMMIN
 10
0.0
 20
0.0
  9
$LIMMAX
 10
12.0
 20
9.0
  9
$ORTHOMODE
 70
     0
  9
$REGENMODE
 70
     1
  9
$FILLMODE
 70
     1
  9
$QTEXTMODE
 70
     0
  9
$MIRRTEXT
 70
     1
  9
$DRAGMODE
 70
     2
  9
$LTSCALE
 40
1.0
  9
$OSMODE
 70
   623
  9
$ATTMODE
 70
     1
  9
$TEXTSIZE
 40
0.2
  9
$TRACEWID
 40
0.05
  9
$TEXTSTYLE
  7
STANDARD
  9
$CLAYER
  8
SQUARES
  9
$CELTYPE
  6
BYLAYER
  9
$CECOLOR
 62
   256
  9
$DIMSCALE
 40
1.0
  9
$DIMASZ
 40
0.18
  9
$DIMEXO
 40
0.0625
  9
$DIMDLI
 40
0.38
  9
$DIMRND
 40
0.0
  9
$DIMDLE
 40
0.0
  9
$DIMEXE
 40
0.18
  9
$DIMTP
 40
0.0
  9
$DIMTM
 40
0.0
  9
$DIMTXT
 40
0.18
  9
$DIMCEN
 40
0.09
  9
$DIMTSZ
 40
0.0
  9
$DIMTOL
 70
     0
  9
$DIMLIM
 70
     0
  9
$DIMTIH
 70
     1
  9
$DIMTOH
 70
     1
  9
$DIMSE1
 70
     0
  9
$DIMSE2
 70
     0
  9
$DIMTAD
 70
     0
  9
$DIMZIN
 70
     0
  9
$DIMBLK
  1

  9
$DIMASO
 70
     1
  9
$DIMSHO
 70
     1
  9
$DIMPOST
  1

  9
$DIMAPOST
  1

  9
$DIMALT
 70
     0
  9
$DIMALTD
 70
     2
  9
$DIMALTF
 40
25.399999999999999
  9
$DIMLFAC
 40
1.0
  9
$DIMTOFL
 70
     0
  9
$DIMTVP
 40
0.0
  9
$DIMTIX
 70
     0
  9
$DIMSOXD
 70
     0
  9
$DIMSAH
 70
     0
  9
$DIMBLK1
  1

  9
$DIMBLK2
  1

  9
$DIMSTYLE
  2
STANDARD
  9
$DIMCLRD
 70
     0
  9
$DIMCLRE
 70
     0
  9
$DIMCLRT
 70
     0
  9
$DIMTFAC
 40
1.0
  9
$DIMGAP
 40
0.09
  9
$LUNITS
 70
     2
  9
$LUPREC
 70
     4
  9
$SKETCHINC
 40
0.1
  9
$FILLETRAD
 40
0.5
  9
$AUNITS
 70
     0
  9
$AUPREC
 70
     0
  9
$MENU
  1
.
  9
$ELEVATION
 40
0.0
  9
$PELEVATION
 40
0.0
  9
$THICKNESS
 40
0.0
  9
$LIMCHECK
 70
     0
  9
$BLIPMODE
 70
     0
  9
$CHAMFERA
 40
0.5
  9
$CHAMFERB
 40
0.5
  9
$SKPOLY
 70
     0
  9
$TDCREATE
 40
2455703.2279213662
  9
$TDUPDATE
 40
2457576.6374177779
  9
$TDINDWG
 40
0.1259477894
  9
$TDUSRTIMER
 40
0.1259477894
  9
$USRTIMER
 70
     1
  9
$ANGBASE
 50
0.0
  9
$ANGDIR
 70
     1
  9
$PDMODE
 70
    66
  9
$PDSIZE
 40
0.0
  9
$PLINEWID
 40
0.0
  9
$COORDS
 70
     1
  9
$SPLFRAME
 70
     0
  9
$SPLINETYPE
 70
     6
  9
$SPLINESEGS
 70
     8
  9
$ATTDIA
 70
     1
  9
$ATTREQ
 70
     1
  9
$HANDLING
 70
     1
  9
$HANDSEED
  5
4A5
  9
$SURFTAB1
 70
     6
  9
$SURFTAB2
 70
     6
  9
$SURFTYPE
 70
     6
  9
$SURFU
 70
     6
  9
$SURFV
 70
     6
  9
$UCSNAME
  2

  9
$UCSORG
 10
0.0
 20
0.0
 30
0.0
  9
$UCSXDIR
 10
1.0
 20
0.0
 30
0.0
  9
$UCSYDIR
 10
0.0
 20
1.0
 30
0.0
  9
$PUCSNAME
  2

  9
$PUCSORG
 10
0.0
 20
0.0
 30
0.0
  9
$PUCSXDIR
 10
1.0
 20
0.0
 30
0.0
  9
$PUCSYDIR
 10
0.0
 20
1.0
 30
0.0
  9
$USERI1
 70
     0
  9
$USERI2
 70
     0
  9
$USERI3
 70
     0
  9
$USERI4
 70
     0
  9
$USERI5
 70
     0
  9
$USERR1
 40
0.0
  9
$USERR2
 40
0.0
  9
$USERR3
 40
0.0
  9
$USERR4
 40
0.0
  9
$USERR5
 40
0.0
  9
$WORLDVIEW
 70
     1
  9
$SHADEDGE
 70
     3
  9
$SHADEDIF
 70
    70
  9
$TILEMODE
 70
     1
  9
$MAXACTVP
 70
    64
  9
$PLIMCHECK
 70
     0
  9
$PEXTMIN
 10
0.0
 20
0.0
 30
0.0
  9
$PEXTMAX
 10
0.0
 20
0.0
 30
0.0
  9
$PLIMMIN
 10
0.0
 20
0.0
  9
$PLIMMAX
 10
12.0
 20
9.0
  9
$UNITMODE
 70
     0
  9
$VISRETAIN
 70
     1
  9
$PLINEGEN
 70
     0
  9
$PSLTSCALE
 70
     1
  0
ENDSEC
  0
SECTION
  2
TABLES
  0
TABLE
  2
VPORT
 70
     1
  0
VPORT
  2
*ACTIVE
 70
     0
 10
0.0
 20
0.0
 11
1.0
 21
1.0
 12
734373.90029405837
 22
4556030.2294976432
 13
0.0
 23
0.0
 14
0.5
 24
0.5
 15
0.5
 25
0.5
 16
0.0
 26
0.0
 36
1.0
 17
0.0
 27
0.0
 37
0.0
 40
854.05123894847918
 41
1.301997649823736
 42
50.0
 43
0.0
 44
0.0
 50
0.0
 51
0.0
 71
     0
 72
   100
 73
     1
 74
     2
 75
     0
 76
     0
 77
     0
 78
     0
  0
ENDTAB
  0
TABLE
  2
LTYPE
 70
     1
  0
LTYPE
  2
CONTINUOUS
 70
     0
  3
Solid line
 72
    65
 73
     0
 40
0.0
  0
ENDTAB
  0
TABLE
  2
LAYER
 70
     3
  0
LAYER
  2
0
 70
     0
 62
    -7
  6
CONTINUOUS
  0
LAYER
  2
SQUARES
 70
     0
 62
     5
  6
CONTINUOUS
  0
LAYER
  2
SQ_NUMBERS
 70
     0
 62
   140
  6
CONTINUOUS
  0
ENDTAB
  0
TABLE
  2
STYLE
 70
     1
  0
STYLE
  2
STANDARD
 70
     0
 40
0.0
 41
1.0
 50
0.0
 71
     0
 42
0.2
  3
txt
  4

  0
ENDTAB
  0
TABLE
  2
VIEW
 70
     0
  0
ENDTAB
  0
TABLE
  2
UCS
 70
     0
  0
ENDTAB
  0
TABLE
  2
APPID
 70
     6
  0
APPID
  2
ACAD
 70
     0
  0
APPID
  2
DCO15
 70
     0
  0
APPID
  2
ADE
 70
     0
  0
APPID
  2
ACAECLAYERSTANDARD
 70
     0
  0
APPID
  2
ACAD_NAV_VCDISPLAY
 70
     0
  0
APPID
  2
ADE_PROJECTION
 70
     0
  0
ENDTAB
  0
TABLE
  2
DIMSTYLE
 70
     1
  0
DIMSTYLE
  2
STANDARD
 70
     0
  3

  4

  5

  6

  7

 40
1.0
 41
0.18
 42
0.0625
 43
0.38
 44
0.18
 45
0.0
 46
0.0
 47
0.0
 48
0.0
140
0.18
141
0.09
142
0.0
143
25.399999999999999
144
1.0
145
0.0
146
1.0
147
0.09
 71
     0
 72
     0
 73
     1
 74
     1
 75
     0
 76
     0
 77
     0
 78
     0
170
     0
171
     2
172
     0
173
     0
174
     0
175
     0
176
     0
177
     0
178
     0
  0
ENDTAB
  0
ENDSEC
  0
SECTION
  2
BLOCKS
  0
BLOCK
  8
0
  2
$MODEL_SPACE
 70
     0
 10
0.0
 20
0.0
 30
0.0
  3
$MODEL_SPACE
  1

  0
ENDBLK
  5
17
  8
0
  0
BLOCK
 67
     1
  8
0
  2
$PAPER_SPACE
 70
     0
 10
0.0
 20
0.0
 30
0.0
  3
$PAPER_SPACE
  1

  0
ENDBLK
  5
1D
 67
     1
  8
0
  0
ENDSEC
  0
SECTION
  2
ENTITIES
  0
POLYLINE
  5
72
  8
SQUARES
 66
     1
 10
0.0
 20
0.0
 30
0.0
 70
     1
1001
DCO15
1071
        2
1071
        2
1000
colsq
1004
073131303600
1001
ADE
1011
-0.5542442675214261
1021
0.0
1031
0.0
1021
-1.4823098909109831
1031
0.0
  0
VERTEX
  5
1C5
  8
SQUARES
 10
734319.12928571424
 20
4556104.8892857134
 30
0.0
  0
VERTEX
  5
1C6
  8
SQUARES
 10
734315.98928571434
 20
4556100.9985714275
 30
0.0
  0
VERTEX
  5
1C7
  8
SQUARES
 10
734319.88
 20
4556097.858571426
 30
0.0
  0
VERTEX
  5
1C8
  8
SQUARES
 10
734323.02000000025
 20
4556101.7492857128
 30
0.0
  0
SEQEND
  5
1C9
  8
SQUARES
  0
POLYLINE
  5
74
  8
SQUARES
 66
     1
 10
0.0
 20
0.0
 30
0.0
 70
     1
1001
DCO15
1071
        2
1071
        2
1000
colsq
1004
073131313300
1001
ADE
1011
-0.5220260962378234
1021
0.0
1031
0.0
1021
-1.494043077342212
1031
0.0
  0
VERTEX
  5
1CA
  8
SQUARES
 10
734291.31714285736
 20
4556106.4500000002
 30
0.0
  0
VERTEX
  5
1CB
  8
SQUARES
 10
734288.26142857166
 20
4556102.4928571433
 30
0.0
  0
VERTEX
  5
1CC
  8
SQUARES
 10
734284.3042857144
 20
4556105.5485714292
 30
0.0
  0
VERTEX
  5
1CD
  8
SQUARES
 10
734287.3600000001
 20
4556109.5057142861
 30
0.0
  0
SEQEND
  5
1CE
  8
SQUARES
  0
POLYLINE
  5
75
  8
SQUARES
 66
     1
 10
0.0
 20
0.0
 30
0.0
 70
     1
1001
DCO15
1071
        2
1071
        2
1000
colsq
1004
073131313500
1001
ADE
1011
-0.5289358150912449
1021
0.0
1031
0.0
1021
-1.488707377575337
1031
0.0
  0
VERTEX
  5
1CF
  8
SQUARES
 10
734298.33000000007
 20
4556107.3514285721
 30
0.0
  0
VERTEX
  5
1D0
  8
SQUARES
 10
734294.37285714305
 20
4556110.407142858
 30
0.0
  0
VERTEX
  5
1D1
  8
SQUARES
 10
734291.31714285736
 20
4556106.4500000002
 30
0.0
  0
VERTEX
  5
1D2
  8
SQUARES
 10
734295.27428571414
 20
4556103.3942857152
 30
0.0
  0
SEQEND
  5
1D3
  8
SQUARES
  0
POLYLINE
  5
76
  8
SQUARES
 66
     1
 10
0.0
 20
0.0
 30
0.0
 70
     1
1001
DCO15
1071
        2
1071
        2
1000
colsq
1004
073130353900
1001
ADE
1011
-1.4653507681796321
1021
0.0
1031
0.0
1021
0.5971704656258227
1031
0.0
  0
VERTEX
  5
1D4
  8
SQUARES
 10
734312.49235294119
 20
4556021.9294117643
 30
0.0
  0
VERTEX
  5
1D5
  8
SQUARES
 10
734308.69529411767
 20
4556025.1811764697
 30
0.0
  0
VERTEX
  5
1D6
  8
SQUARES
 10
734311.94705882377
 20
4556028.9782352941
 30
0.0
  0
VERTEX
  5
1D7
  8
SQUARES
 10
734315.74411764694
 20
4556025.7264705878
 30
0.0
  0
SEQEND
  5
1D8
  8
SQUARES
  0
POLYLINE
  5
77
  8
SQUARES
 66
     1
 10
0.0
 20
0.0
 30
0.0
 70
     1
1001
DCO15
1071
        2
1071
        2
1000
colsq
1004
073130353400
1001
ADE
1011
-1.465350768296048
1021
0.0
1031
0.0
1021
0.5971704656258227
1031
0.0
  0
VERTEX
  5
1D9
  8
SQUARES
 10
734317.09735294117
 20
4556031.149411764
 30
0.0
  0
VERTEX
  5
1DA
  8
SQUARES
 10
734318.99588235305
 20
4556029.5235294113
 30
0.0
  0
VERTEX
  5
1DB
  8
SQUARES
 10
734320.89441176504
 20
4556027.8976470577
 30
0.0
  0
VERTEX
  5
1DC
  8
SQUARES
 10
734324.14617647068
 20
4556031.6947058812
 30
0.0
  0
VERTEX
  5
1DD
  8
SQUARES
 10
734320.34911764727
 20
4556034.9464705866
 30
0.0
  0
SEQEND
  5
1DE
  8
SQUARES
  0
POLYLINE
  5
78
  8
SQUARES
 66
     1
 10
0.0
 20
0.0
 30
0.0
 70
     1
1001
DCO15
1071
        2
1071
        2
1000
colsq
1004
073130363000
1001
ADE
1011
-1.465350768296048
1021
0.0
1031
0.0
1021
0.5971704656258227
1031
0.0
  0
VERTEX
  5
1DF
  8
SQUARES
 10
734316.28941176459
 20
4556018.6776470579
 30
0.0
  0
VERTEX
  5
1E0
  8
SQUARES
 10
734312.49235294119
 20
4556021.9294117643
 30
0.0
  0
VERTEX
  5
1E1
  8
SQUARES
 10
734315.74411764694
 20
4556025.7264705878
 30
0.0
  0
VERTEX
  5
1E2
  8
SQUARES
 10
734319.5411764707
 20
4556022.4747058824
 30
0.0
  0
SEQEND
  5
1E3
  8
SQUARES
  0
POLYLINE
  5
79
  8
SQUARES
 66
     1
 10
0.0
 20
0.0
 30
0.0
 70
     1
1001
DCO15
1071
        2
1071
        2
1000
colsq
1004
073130333800
1001
ADE
1011
-1.552703683031722
1021
0.0
1031
0.0
1021
0.3053682334721088
1031
0.0
  0
VERTEX
  5
1E4
  8
SQUARES
 10
734229.14000000001
 20
4555938.9500000002
 30
0.0
  0
VERTEX
  5
1E5
  8
SQUARES
 10
734226.67513513518
 20
4555934.6008108109
 30
0.0
  0
VERTEX
  5
1E6
  8
SQUARES
 10
734222.32594594581
 20
4555937.0656756759
 30
0.0
  0
VERTEX
  5
1E7
  8
SQUARES
 10
734224.79081081075
 20
4555941.4148648651
 30
0.0
  0
SEQEND
  5
1E8
  8
SQUARES
  0
POLYLINE
  5
7A
  8
SQUARES
 66
     1
 10
0.0
 20
0.0
 30
0.0
 70
     1
1001
DCO15
1071
        2
1071
        2
1000
colsq
1004
073130333600
1001
ADE
1011
-0.6761601745383814
1021
0.0
1031
0.0
1021
-1.4312139013782139
1031
0.0
  0
VERTEX
  5
1E9
  8
SQUARES
 10
734205.86999999988
 20
4555893.6900000013
 30
0.0
  0
VERTEX
  5
1EA
  8
SQUARES
 10
734202.25499999989
 20
4555897.1450000014
 30
0.0
  0
VERTEX
  5
1EB
  8
SQUARES
 10
734198.79999999993
 20
4555893.5300000003
 30
0.0
  0
VERTEX
  5
1EC
  8
SQUARES
 10
734202.41499999992
 20
4555890.0750000002
 30
0.0
  0
SEQEND
  5
1ED
  8
SQUARES
  0
POLYLINE
  5
7B
  8
SQUARES
 66
     1
 10
0.0
 20
0.0
 30
0.0
 70
     1
1001
DCO15
1071
        2
1071
        2
1000
colsq
1004
073130333100
1001
ADE
1011
-1.069467428023926
1021
0.0
1031
0.0
1021
-1.16681598406285
1031
0.0
  0
VERTEX
  5
1EE
  8
SQUARES
 10
734205.92000000027
 20
4555859.830000001
 30
0.0
  0
VERTEX
  5
1EF
  8
SQUARES
 10
734203.49000000011
 20
4555864.2000000011
 30
0.0
  0
VERTEX
  5
1F0
  8
SQUARES
 10
734199.12000000011
 20
4555861.7699999996
 30
0.0
  0
VERTEX
  5
1F1
  8
SQUARES
 10
734201.55000000005
 20
4555857.4000000004
 30
0.0
  0
SEQEND
  5
1F2
  8
SQUARES
  0
POLYLINE
  5
7C
  8
SQUARES
 66
     1
 10
0.0
 20
0.0
 30
0.0
 70
     1
1001
DCO15
1071
        2
1071
        2
1000
colsq
1004
073130323400
1001
ADE
1011
-1.158847602433525
1021
0.0
1031
0.0
1021
-1.0779365748167029
1031
0.0
  0
VERTEX
  5
1F3
  8
SQUARES
 10
734136.24039999978
 20
4555862.2328000003
 30
0.0
  0
VERTEX
  5
1F4
  8
SQUARES
 10
734138.31480000017
 20
4555857.6836000001
 30
0.0
  0
VERTEX
  5
1F5
  8
SQUARES
 10
734133.76560000004
 20
4555855.6091999989
 30
0.0
  0
VERTEX
  5
1F6
  8
SQUARES
 10
734131.6912
 20
4555860.1584000001
 30
0.0
  0
SEQEND
  5
1F7
  8
SQUARES
  0
POLYLINE
  5
7D
  8
SQUARES
 66
     1
 10
0.0
 20
0.0
 30
0.0
 70
     1
1001
DCO15
1071
        2
1071
        2
1000
colsq
1004
073130323000
1001
ADE
1011
-1.158847602433525
1021
0.0
1031
0.0
1021
-1.0779365748167029
1031
0.0
  0
VERTEX
  5
1F8
  8
SQUARES
 10
734132.09160000004
 20
4555871.3311999999
 30
0.0
  0
VERTEX
  5
1F9
  8
SQUARES
 10
734134.16600000008
 20
4555866.7820000006
 30
0.0
  0
VERTEX
  5
1FA
  8
SQUARES
 10
734129.61679999984
 20
4555864.7076000003
 30
0.0
  0
VERTEX
  5
1FB
  8
SQUARES
 10
734127.54240000015
 20
4555869.2568000006
 30
0.0
  0
SEQEND
  5
1FC
  8
SQUARES
  0
POLYLINE
  5
7E
  8
SQUARES
 66
     1
 10
0.0
 20
0.0
 30
0.0
 70
     1
1001
DCO15
1071
        2
1071
        2
1000
colsq
1004
073130303700
1001
ADE
1011
-1.1589869174640619
1021
0.0
1031
0.0
1021
-1.0776310535147779
1031
0.0
  0
VERTEX
  5
1FD
  8
SQUARES
 10
734123.79399999999
 20
4555889.5280000009
 30
0.0
  0
VERTEX
  5
1FE
  8
SQUARES
 10
734125.86840000015
 20
4555884.9787999997
 30
0.0
  0
VERTEX
  5
1FF
  8
SQUARES
 10
734121.31920000014
 20
4555882.9044000003
 30
0.0
  0
VERTEX
  5
200
  8
SQUARES
 10
734119.24479999999
 20
4555887.4535999997
 30
0.0
  0
SEQEND
  5
201
  8
SQUARES
  0
POLYLINE
  5
7F
  8
SQUARES
 66
     1
 10
0.0
 20
0.0
 30
0.0
 70
     1
1001
DCO15
1071
        2
1071
        2
1000
colsq
1004
073130323700
1001
ADE
1011
-1.158847602433525
1021
0.0
1031
0.0
1021
-1.0779365748167029
1031
0.0
  0
VERTEX
  5
202
  8
SQUARES
 10
734142.86400000006
 20
4555859.7580000013
 30
0.0
  0
VERTEX
  5
203
  8
SQUARES
 10
734144.93840000022
 20
4555855.2088000001
 30
0.0
  0
VERTEX
  5
204
  8
SQUARES
 10
734140.38919999986
 20
4555853.1343999999
 30
0.0
  0
VERTEX
  5
205
  8
SQUARES
 10
734138.31480000017
 20
4555857.6836000001
 30
0.0
  0
SEQEND
  5
206
  8
SQUARES
  0
POLYLINE
  5
80
  8
SQUARES
 66
     1
 10
0.0
 20
0.0
 30
0.0
 70
     1
1001
DCO15
1071
        2
1071
        2
1000
colsq
1004
073130303800
1001
ADE
1011
-1.158847602433525
1021
0.0
1031
0.0
1021
-1.077936573885381
1031
0.0
  0
VERTEX
  5
207
  8
SQUARES
 10
734130.41760000004
 20
4555887.0532
 30
0.0
  0
VERTEX
  5
208
  8
SQUARES
 10
734128.3432
 20
4555891.6024000002
 30
0.0
  0
VERTEX
  5
209
  8
SQUARES
 10
734123.79399999999
 20
4555889.5280000009
 30
0.0
  0
VERTEX
  5
20A
  8
SQUARES
 10
734125.86840000015
 20
4555884.9787999997
 30
0.0
  0
SEQEND
  5
20B
  8
SQUARES
  0
POLYLINE
  5
81
  8
SQUARES
 66
     1
 10
0.0
 20
0.0
 30
0.0
 70
     1
1001
DCO15
1071
        2
1071
        2
1000
colsq
1004
073131343200
1001
ADE
1011
-1.5695529265794901
1021
0.0
1031
0.0
1021
0.2310393154621124
1031
0.0
  0
VERTEX
  5
20C
  8
SQUARES
 10
734174.83499999996
 20
4555964.7349999994
 30
0.0
  0
VERTEX
  5
20D
  8
SQUARES
 10
734170.38461538486
 20
4555967.0169230755
 30
0.0
  0
VERTEX
  5
20E
  8
SQUARES
 10
734172.66653846158
 20
4555971.4673076915
 30
0.0
  0
VERTEX
  5
20F
  8
SQUARES
 10
734177.11692307668
 20
4555969.1853846144
 30
0.0
  0
SEQEND
  5
210
  8
SQUARES
  0
POLYLINE
  5
82
  8
SQUARES
 66
     1
 10
0.0
 20
0.0
 30
0.0
 70
     1
1001
DCO15
1071
        2
1071
        2
1000
colsq
1004
073131333800
1001
ADE
1011
-1.564802112989127
1021
0.0
1031
0.0
1021
0.2403047224506736
1031
0.0
  0
VERTEX
  5
211
  8
SQUARES
 10
734186.01769230771
 20
4555964.6215384612
 30
0.0
  0
VERTEX
  5
212
  8
SQUARES
 10
734188.29961538478
 20
4555969.0719230771
 30
0.0
  0
VERTEX
  5
213
  8
SQUARES
 10
734192.75000000035
 20
4555966.79
 30
0.0
  0
VERTEX
  5
214
  8
SQUARES
 10
734190.46807692305
 20
4555962.3396153832
 30
0.0
  0
SEQEND
  5
215
  8
SQUARES
  0
POLYLINE
  5
83
  8
SQUARES
 66
     1
 10
0.0
 20
0.0
 30
0.0
 70
     1
1001
DCO15
1071
        2
1071
        2
1000
colsq
1004
073130363900
1001
ADE
1011
-1.473317771800793
1021
0.0
1031
0.0
1021
0.5777924600988627
1031
0.0
  0
VERTEX
  5
216
  8
SQUARES
 10
734332.09567567566
 20
4556086.3759459462
 30
0.0
  0
VERTEX
  5
217
  8
SQUARES
 10
734328.25540540554
 20
4556089.577567568
 30
0.0
  0
VERTEX
  5
218
  8
SQUARES
 10
734325.05378378381
 20
4556085.7372972975
 30
0.0
  0
VERTEX
  5
219
  8
SQUARES
 10
734328.89405405393
 20
4556082.5356756765
 30
0.0
  0
SEQEND
  5
21A
  8
SQUARES
  0
POLYLINE
  5
84
  8
SQUARES
 66
     1
 10
0.0
 20
0.0
 30
0.0
 70
     1
1001
DCO15
1071
        2
1071
        2
1000
colsq
1004
073130373300
1001
ADE
1011
-1.4735327900852999
1021
0.0
1031
0.0
1021
0.5775345508009196
1031
0.0
  0
VERTEX
  5
21B
  8
SQUARES
 10
734332.73432432441
 20
4556079.3340540547
 30
0.0
  0
VERTEX
  5
21C
  8
SQUARES
 10
734328.89405405393
 20
4556082.5356756765
 30
0.0
  0
VERTEX
  5
21D
  8
SQUARES
 10
734325.69243243255
 20
4556078.6954054059
 30
0.0
  0
VERTEX
  5
21E
  8
SQUARES
 10
734329.5327027028
 20
4556075.4937837841
 30
0.0
  0
SEQEND
  5
21F
  8
SQUARES
  0
POLYLINE
  5
85
  8
SQUARES
 66
     1
 10
0.0
 20
0.0
 30
0.0
 70
     1
1001
DCO15
1071
        2
1071
        2
1000
colsq
1004
073130383200
1001
ADE
1011
-1.4735327902017159
1021
0.0
1031
0.0
1021
0.5775345508009196
1031
0.0
  0
VERTEX
  5
220
  8
SQUARES
 10
734330.81000000006
 20
4556061.4100000011
 30
0.0
  0
VERTEX
  5
221
  8
SQUARES
 10
734334.01162162179
 20
4556065.2502702707
 30
0.0
  0
VERTEX
  5
222
  8
SQUARES
 10
734330.17135135131
 20
4556068.4518918926
 30
0.0
  0
VERTEX
  5
223
  8
SQUARES
 10
734326.96972973004
 20
4556064.611621622
 30
0.0
  0
SEQEND
  5
224
  8
SQUARES
  0
POLYLINE
  5
86
  8
SQUARES
 66
     1
 10
0.0
 20
0.0
 30
0.0
 70
     1
1001
DCO15
1071
        2
1071
        2
1000
colsq
1004
073131303000
1001
ADE
1011
-0.5542442672885956
1021
0.0
1031
0.0
1021
-1.4823098899796601
1031
0.0
  0
VERTEX
  5
225
  8
SQUARES
 10
734310.59714285715
 20
4556118.1999999983
 30
0.0
  0
VERTEX
  5
226
  8
SQUARES
 10
734307.45714285725
 20
4556114.3092857134
 30
0.0
  0
VERTEX
  5
227
  8
SQUARES
 10
734311.34785714292
 20
4556111.1692857128
 30
0.0
  0
VERTEX
  5
228
  8
SQUARES
 10
734314.48785714281
 20
4556115.0599999977
 30
0.0
  0
SEQEND
  5
229
  8
SQUARES
  0
POLYLINE
  5
87
  8
SQUARES
 66
     1
 10
0.0
 20
0.0
 30
0.0
 70
     1
1001
DCO15
1071
        2
1071
        2
1000
colsq
1004
073130393800
1001
ADE
1011
-0.5539829703047872
1021
0.0
1031
0.0
1021
-1.482520771212875
1031
0.0
  0
VERTEX
  5
22A
  8
SQUARES
 10
734310.59714285715
 20
4556118.1999999983
 30
0.0
  0
VERTEX
  5
22B
  8
SQUARES
 10
734307.45714285725
 20
4556114.3092857134
 30
0.0
  0
VERTEX
  5
22C
  8
SQUARES
 10
734303.56642857136
 20
4556117.449285713
 30
0.0
  0
VERTEX
  5
22D
  8
SQUARES
 10
734306.70642857125
 20
4556121.339999998
 30
0.0
  0
SEQEND
  5
22E
  8
SQUARES
  0
POLYLINE
  5
88
  8
SQUARES
 66
     1
 10
0.0
 20
0.0
 30
0.0
 70
     1
1001
DCO15
1071
        2
1071
        2
1000
colsq
1004
073130393600
1001
ADE
1011
-0.5542442674050108
1021
0.0
1031
0.0
1021
-1.4823098909109831
1031
0.0
  0
VERTEX
  5
22F
  8
SQUARES
 10
734302.81571428583
 20
4556124.4799999977
 30
0.0
  0
VERTEX
  5
230
  8
SQUARES
 10
734299.67571428593
 20
4556120.5892857118
 30
0.0
  0
VERTEX
  5
231
  8
SQUARES
 10
734303.56642857136
 20
4556117.449285713
 30
0.0
  0
VERTEX
  5
232
  8
SQUARES
 10
734306.70642857125
 20
4556121.339999998
 30
0.0
  0
SEQEND
  5
233
  8
SQUARES
  0
POLYLINE
  5
89
  8
SQUARES
 66
     1
 10
0.0
 20
0.0
 30
0.0
 70
     1
1001
DCO15
1071
        2
1071
        2
1000
colsq
1004
073130393900
1001
ADE
1011
-0.5542442672885956
1021
0.0
1031
0.0
1021
-1.4823098909109831
1031
0.0
  0
VERTEX
  5
234
  8
SQUARES
 10
734313.73714285716
 20
4556122.0907142842
 30
0.0
  0
VERTEX
  5
235
  8
SQUARES
 10
734310.59714285715
 20
4556118.1999999983
 30
0.0
  0
VERTEX
  5
236
  8
SQUARES
 10
734306.70642857125
 20
4556121.339999998
 30
0.0
  0
VERTEX
  5
237
  8
SQUARES
 10
734309.84642857139
 20
4556125.2307142839
 30
0.0
  0
SEQEND
  5
238
  8
SQUARES
  0
POLYLINE
  5
8A
  8
SQUARES
 66
     1
 10
0.0
 20
0.0
 30
0.0
 70
     1
1001
DCO15
1071
        2
1071
        2
1000
colsq
1004
073130393700
1001
ADE
1011
-0.5542442674050108
1021
0.0
1031
0.0
1021
-1.482309891842305
1031
0.0
  0
VERTEX
  5
239
  8
SQUARES
 10
734305.95571428572
 20
4556128.3707142854
 30
0.0
  0
VERTEX
  5
23A
  8
SQUARES
 10
734302.81571428583
 20
4556124.4799999977
 30
0.0
  0
VERTEX
  5
23B
  8
SQUARES
 10
734306.70642857125
 20
4556121.339999998
 30
0.0
  0
VERTEX
  5
23C
  8
SQUARES
 10
734309.84642857139
 20
4556125.2307142839
 30
0.0
  0
SEQEND
  5
23D
  8
SQUARES
  0
POLYLINE
  5
8B
  8
SQUARES
 66
     1
 10
0.0
 20
0.0
 30
0.0
 70
     1
1001
DCO15
1071
        2
1071
        2
1000
colsq
1004
073131313400
1001
ADE
1011
-0.5206973040476443
1021
0.0
1031
0.0
1021
-1.495069173164665
1031
0.0
  0
VERTEX
  5
23E
  8
SQUARES
 10
734295.27428571414
 20
4556103.3942857152
 30
0.0
  0
VERTEX
  5
23F
  8
SQUARES
 10
734292.21857142856
 20
4556099.4371428583
 30
0.0
  0
VERTEX
  5
240
  8
SQUARES
 10
734288.26142857166
 20
4556102.4928571433
 30
0.0
  0
VERTEX
  5
241
  8
SQUARES
 10
734291.31714285736
 20
4556106.4500000002
 30
0.0
  0
SEQEND
  5
242
  8
SQUARES
  0
POLYLINE
  5
8C
  8
SQUARES
 66
     1
 10
0.0
 20
0.0
 30
0.0
 70
     1
1001
DCO15
1071
        2
1071
        2
1000
colsq
1004
073130363300
1001
ADE
1011
-1.465569154126569
1021
0.0
1031
0.0
1021
0.596915458329022
1031
0.0
  0
VERTEX
  5
243
  8
SQUARES
 10
734313.03764705861
 20
4556014.8805882344
 30
0.0
  0
VERTEX
  5
244
  8
SQUARES
 10
734309.24058823509
 20
4556018.1323529398
 30
0.0
  0
VERTEX
  5
245
  8
SQUARES
 10
734312.49235294119
 20
4556021.9294117643
 30
0.0
  0
VERTEX
  5
246
  8
SQUARES
 10
734316.28941176459
 20
4556018.6776470579
 30
0.0
  0
SEQEND
  5
247
  8
SQUARES
  0
POLYLINE
  5
8D
  8
SQUARES
 66
     1
 10
0.0
 20
0.0
 30
0.0
 70
     1
1001
DCO15
1071
        2
1071
        2
1000
colsq
1004
073130363400
1001
ADE
1011
-1.465350768296048
1021
0.0
1031
0.0
1021
0.5971704656258227
1031
0.0
  0
VERTEX
  5
248
  8
SQUARES
 10
734316.83470588224
 20
4556011.628823529
 30
0.0
  0
VERTEX
  5
249
  8
SQUARES
 10
734320.08647058811
 20
4556015.4258823516
 30
0.0
  0
VERTEX
  5
24A
  8
SQUARES
 10
734316.28941176459
 20
4556018.6776470579
 30
0.0
  0
VERTEX
  5
24B
  8
SQUARES
 10
734313.03764705861
 20
4556014.8805882344
 30
0.0
  0
SEQEND
  5
24C
  8
SQUARES
  0
POLYLINE
  5
8E
  8
SQUARES
 66
     1
 10
0.0
 20
0.0
 30
0.0
 70
     1
1001
DCO15
1071
        2
1071
        2
1000
colsq
1004
073130353800
1001
ADE
1011
-1.4655691542429841
1021
0.0
1031
0.0
1021
0.5969154573976994
1031
0.0
  0
VERTEX
  5
24D
  8
SQUARES
 10
734323.33823529398
 20
4556019.222941176
 30
0.0
  0
VERTEX
  5
24E
  8
SQUARES
 10
734326.58999999997
 20
4556023.0199999986
 30
0.0
  0
VERTEX
  5
24F
  8
SQUARES
 10
734324.69147058832
 20
4556024.6458823523
 30
0.0
  0
VERTEX
  5
250
  8
SQUARES
 10
734322.79294117657
 20
4556026.271764705
 30
0.0
  0
VERTEX
  5
251
  8
SQUARES
 10
734319.5411764707
 20
4556022.4747058824
 30
0.0
  0
SEQEND
  5
252
  8
SQUARES
  0
POLYLINE
  5
8F
  8
SQUARES
 66
     1
 10
0.0
 20
0.0
 30
0.0
 70
     1
1001
DCO15
1071
        2
1071
        2
1000
colsq
1004
073130343300
1001
ADE
1011
-1.5527036829153069
1021
0.0
1031
0.0
1021
0.3053682325407863
1031
0.0
  0
VERTEX
  5
253
  8
SQUARES
 10
734212.46648648649
 20
4555919.6689189179
 30
0.0
  0
VERTEX
  5
254
  8
SQUARES
 10
734210.00162162143
 20
4555915.3197297286
 30
0.0
  0
VERTEX
  5
255
  8
SQUARES
 10
734214.35081081069
 20
4555912.8548648637
 30
0.0
  0
VERTEX
  5
256
  8
SQUARES
 10
734216.81567567564
 20
4555917.2040540529
 30
0.0
  0
SEQEND
  5
257
  8
SQUARES
  0
POLYLINE
  5
90
  8
SQUARES
 66
     1
 10
0.0
 20
0.0
 30
0.0
 70
     1
1001
DCO15
1071
        2
1071
        2
1000
colsq
1004
073130343600
1001
ADE
1011
-1.5379407036816699
1021
0.0
1031
0.0
1021
0.3748623691499233
1031
0.0
  0
VERTEX
  5
258
  8
SQUARES
 10
734255.72449438216
 20
4555882.5971910106
 30
0.0
  0
VERTEX
  5
259
  8
SQUARES
 10
734258.38224719104
 20
4555886.8335955059
 30
0.0
  0
VERTEX
  5
25A
  8
SQUARES
 10
734254.14584269677
 20
4555889.491348315
 30
0.0
  0
VERTEX
  5
25B
  8
SQUARES
 10
734251.48808988766
 20
4555885.2549438206
 30
0.0
  0
SEQEND
  5
25C
  8
SQUARES
  0
POLYLINE
  5
91
  8
SQUARES
 66
     1
 10
0.0
 20
0.0
 30
0.0
 70
     1
1001
DCO15
1071
        2
1071
        2
1000
colsq
1004
073130343500
1001
ADE
1011
-1.5379407036816699
1021
0.0
1031
0.0
1021
0.3748623691499233
1031
0.0
  0
VERTEX
  5
25D
  8
SQUARES
 10
734254.14584269677
 20
4555889.491348315
 30
0.0
  0
VERTEX
  5
25E
  8
SQUARES
 10
734256.80359550565
 20
4555893.7277528094
 30
0.0
  0
VERTEX
  5
25F
  8
SQUARES
 10
734261.04000000015
 20
4555891.0700000003
 30
0.0
  0
VERTEX
  5
260
  8
SQUARES
 10
734258.38224719104
 20
4555886.8335955059
 30
0.0
  0
SEQEND
  5
261
  8
SQUARES
  0
POLYLINE
  5
92
  8
SQUARES
 66
     1
 10
0.0
 20
0.0
 30
0.0
 70
     1
1001
DCO15
1071
        2
1071
        2
1000
colsq
1004
073130353200
1001
ADE
1011
-1.5381191961932921
1021
0.0
1031
0.0
1021
0.3745778556913137
1031
0.0
  0
VERTEX
  5
262
  8
SQUARES
 10
734256.76359550527
 20
4555870.1377528086
 30
0.0
  0
VERTEX
  5
263
  8
SQUARES
 10
734261.0
 20
4555867.4800000004
 30
0.0
  0
VERTEX
  5
264
  8
SQUARES
 10
734258.342247191
 20
4555863.2435955061
 30
0.0
  0
VERTEX
  5
265
  8
SQUARES
 10
734254.10584269639
 20
4555865.9013483152
 30
0.0
  0
SEQEND
  5
266
  8
SQUARES
  0
POLYLINE
  5
93
  8
SQUARES
 66
     1
 10
0.0
 20
0.0
 30
0.0
 70
     1
1001
DCO15
1071
        2
1071
        2
1000
colsq
1004
073130353000
1001
ADE
1011
-1.5379407035652539
1021
0.0
1031
0.0
1021
0.3748623691499233
1031
0.0
  0
VERTEX
  5
267
  8
SQUARES
 10
734259.4213483145
 20
4555874.3741573039
 30
0.0
  0
VERTEX
  5
268
  8
SQUARES
 10
734263.65775280888
 20
4555871.7164044948
 30
0.0
  0
VERTEX
  5
269
  8
SQUARES
 10
734261.0
 20
4555867.4800000004
 30
0.0
  0
VERTEX
  5
26A
  8
SQUARES
 10
734256.76359550527
 20
4555870.1377528086
 30
0.0
  0
SEQEND
  5
26B
  8
SQUARES
  0
POLYLINE
  5
94
  8
SQUARES
 66
     1
 10
0.0
 20
0.0
 30
0.0
 70
     1
1001
DCO15
1071
        2
1071
        2
1000
colsq
1004
073131343500
1001
ADE
1011
-1.5608175594825291
1021
0.0
1031
0.0
1021
0.2480757096782327
1031
0.0
  0
VERTEX
  5
26C
  8
SQUARES
 10
734152.4696153847
 20
4555964.9619230768
 30
0.0
  0
VERTEX
  5
26D
  8
SQUARES
 10
734148.01923076925
 20
4555967.243846152
 30
0.0
  0
VERTEX
  5
26E
  8
SQUARES
 10
734150.30115384609
 20
4555971.6942307679
 30
0.0
  0
VERTEX
  5
26F
  8
SQUARES
 10
734154.75153846154
 20
4555969.4123076918
 30
0.0
  0
SEQEND
  5
270
  8
SQUARES
  0
POLYLINE
  5
95
  8
SQUARES
 66
     1
 10
0.0
 20
0.0
 30
0.0
 70
     1
1001
DCO15
1071
        2
1071
        2
1000
colsq
1004
073131323100
1001
ADE
1011
-1.5695529264630741
1021
0.0
1031
0.0
1021
0.2310393145307898
1031
0.0
  0
VERTEX
  5
271
  8
SQUARES
 10
734166.16115384572
 20
4555991.6642307676
 30
0.0
  0
VERTEX
  5
272
  8
SQUARES
 10
734161.71076923038
 20
4555993.9461538447
 30
0.0
  0
VERTEX
  5
273
  8
SQUARES
 10
734163.99269230745
 20
4555998.3965384597
 30
0.0
  0
VERTEX
  5
274
  8
SQUARES
 10
734168.44307692291
 20
4555996.1146153854
 30
0.0
  0
SEQEND
  5
275
  8
SQUARES
  0
POLYLINE
  5
96
  8
SQUARES
 66
     1
 10
0.0
 20
0.0
 30
0.0
 70
     1
1001
DCO15
1071
        2
1071
        2
1000
colsq
1004
073131323500
1001
ADE
1011
-1.564802112639881
1021
0.0
1031
0.0
1021
0.2403047224506736
1031
0.0
  0
VERTEX
  5
276
  8
SQUARES
 10
734168.32961538434
 20
4555984.9319230756
 30
0.0
  0
VERTEX
  5
277
  8
SQUARES
 10
734163.879230769
 20
4555987.2138461536
 30
0.0
  0
VERTEX
  5
278
  8
SQUARES
 10
734166.16115384572
 20
4555991.6642307676
 30
0.0
  0
VERTEX
  5
279
  8
SQUARES
 10
734170.61153846094
 20
4555989.3823076924
 30
0.0
  0
SEQEND
  5
27A
  8
SQUARES
  0
POLYLINE
  5
97
  8
SQUARES
 66
     1
 10
0.0
 20
0.0
 30
0.0
 70
     1
1001
DCO15
1071
        2
1071
        2
1000
colsq
1004
073131333700
1001
ADE
1011
-1.5648021128727121
1021
0.0
1031
0.0
1021
0.2403047224506736
1031
0.0
  0
VERTEX
  5
27B
  8
SQUARES
 10
734181.56730769214
 20
4555966.9034615383
 30
0.0
  0
VERTEX
  5
27C
  8
SQUARES
 10
734177.11692307668
 20
4555969.1853846144
 30
0.0
  0
VERTEX
  5
27D
  8
SQUARES
 10
734179.3988461541
 20
4555973.6357692303
 30
0.0
  0
VERTEX
  5
27E
  8
SQUARES
 10
734183.84923076932
 20
4555971.3538461542
 30
0.0
  0
SEQEND
  5
27F
  8
SQUARES
  0
POLYLINE
  5
98
  8
SQUARES
 66
     1
 10
0.0
 20
0.0
 30
0.0
 70
     1
1001
DCO15
1071
        2
1071
        2
1000
colsq
1004
073130373100
1001
ADE
1011
-1.473317771917209
1021
0.0
1031
0.0
1021
0.5777924600988627
1031
0.0
  0
VERTEX
  5
280
  8
SQUARES
 10
734321.85216216219
 20
4556081.8970270278
 30
0.0
  0
VERTEX
  5
281
  8
SQUARES
 10
734318.01189189195
 20
4556085.0986486487
 30
0.0
  0
VERTEX
  5
282
  8
SQUARES
 10
734321.21351351356
 20
4556088.9389189193
 30
0.0
  0
VERTEX
  5
283
  8
SQUARES
 10
734325.05378378381
 20
4556085.7372972975
 30
0.0
  0
SEQEND
  5
284
  8
SQUARES
  0
POLYLINE
  5
99
  8
SQUARES
 66
     1
 10
0.0
 20
0.0
 30
0.0
 70
     1
1001
DCO15
1071
        2
1071
        2
1000
colsq
1004
073130373200
1001
ADE
1011
-1.473532789968885
1021
0.0
1031
0.0
1021
0.5775345508009196
1031
0.0
  0
VERTEX
  5
285
  8
SQUARES
 10
734325.69243243255
 20
4556078.6954054059
 30
0.0
  0
VERTEX
  5
286
  8
SQUARES
 10
734321.85216216219
 20
4556081.8970270278
 30
0.0
  0
VERTEX
  5
287
  8
SQUARES
 10
734325.05378378381
 20
4556085.7372972975
 30
0.0
  0
VERTEX
  5
288
  8
SQUARES
 10
734328.89405405393
 20
4556082.5356756765
 30
0.0
  0
SEQEND
  5
289
  8
SQUARES
  0
POLYLINE
  5
9A
  8
SQUARES
 66
     1
 10
0.0
 20
0.0
 30
0.0
 70
     1
1001
DCO15
1071
        2
1071
        2
1000
colsq
1004
073131303200
1001
ADE
1011
-0.5539829703047872
1021
0.0
1031
0.0
1021
-1.482520771212875
1031
0.0
  0
VERTEX
  5
28A
  8
SQUARES
 10
734318.37857142847
 20
4556111.919999999
 30
0.0
  0
VERTEX
  5
28B
  8
SQUARES
 10
734315.23857142869
 20
4556108.0292857131
 30
0.0
  0
VERTEX
  5
28C
  8
SQUARES
 10
734311.34785714292
 20
4556111.1692857128
 30
0.0
  0
VERTEX
  5
28D
  8
SQUARES
 10
734314.48785714281
 20
4556115.0599999977
 30
0.0
  0
SEQEND
  5
28E
  8
SQUARES
  0
POLYLINE
  5
9B
  8
SQUARES
 66
     1
 10
0.0
 20
0.0
 30
0.0
 70
     1
1001
DCO15
1071
        2
1071
        2
1000
colsq
1004
073130393200
1001
ADE
1011
-0.5539829703047872
1021
0.0
1031
0.0
1021
-1.482520771212875
1031
0.0
  0
VERTEX
  5
28F
  8
SQUARES
 10
734295.03428571427
 20
4556130.7599999988
 30
0.0
  0
VERTEX
  5
290
  8
SQUARES
 10
734291.89428571425
 20
4556126.869285712
 30
0.0
  0
VERTEX
  5
291
  8
SQUARES
 10
734288.00357142859
 20
4556130.0092857126
 30
0.0
  0
VERTEX
  5
292
  8
SQUARES
 10
734291.14357142849
 20
4556133.8999999976
 30
0.0
  0
SEQEND
  5
293
  8
SQUARES
  0
POLYLINE
  5
9C
  8
SQUARES
 66
     1
 10
0.0
 20
0.0
 30
0.0
 70
     1
1001
DCO15
1071
        2
1071
        2
1000
colsq
1004
073130383600
1001
ADE
1011
-0.5539829703047872
1021
0.0
1031
0.0
1021
-1.482520772144198
1031
0.0
  0
VERTEX
  5
294
  8
SQUARES
 10
734279.47142857127
 20
4556143.3199999984
 30
0.0
  0
VERTEX
  5
295
  8
SQUARES
 10
734276.33142857149
 20
4556139.4292857125
 30
0.0
  0
VERTEX
  5
296
  8
SQUARES
 10
734272.44071428548
 20
4556142.5692857131
 30
0.0
  0
VERTEX
  5
297
  8
SQUARES
 10
734275.58071428549
 20
4556146.459999999
 30
0.0
  0
SEQEND
  5
298
  8
SQUARES
  0
POLYLINE
  5
9D
  8
SQUARES
 66
     1
 10
0.0
 20
0.0
 30
0.0
 70
     1
1001
DCO15
1071
        2
1071
        2
1000
colsq
1004
073131303300
1001
ADE
1011
-0.5539829703047872
1021
0.0
1031
0.0
1021
-1.482520772144198
1031
0.0
  0
VERTEX
  5
299
  8
SQUARES
 10
734321.51857142872
 20
4556115.8107142849
 30
0.0
  0
VERTEX
  5
29A
  8
SQUARES
 10
734318.37857142847
 20
4556111.919999999
 30
0.0
  0
VERTEX
  5
29B
  8
SQUARES
 10
734314.48785714281
 20
4556115.0599999977
 30
0.0
  0
VERTEX
  5
29C
  8
SQUARES
 10
734317.62785714283
 20
4556118.9507142836
 30
0.0
  0
SEQEND
  5
29D
  8
SQUARES
  0
POLYLINE
  5
9E
  8
SQUARES
 66
     1
 10
0.0
 20
0.0
 30
0.0
 70
     1
1001
DCO15
1071
        2
1071
        2
1000
colsq
1004
073131313900
1001
ADE
1011
-0.5217603376368061
1021
0.0
1031
0.0
1021
-1.494248297065496
1031
0.0
  0
VERTEX
  5
29E
  8
SQUARES
 10
734307.14571428578
 20
4556094.2271428574
 30
0.0
  0
VERTEX
  5
29F
  8
SQUARES
 10
734304.08999999997
 20
4556090.2700000014
 30
0.0
  0
VERTEX
  5
2A0
  8
SQUARES
 10
734300.13285714283
 20
4556093.3257142864
 30
0.0
  0
VERTEX
  5
2A1
  8
SQUARES
 10
734303.18857142853
 20
4556097.2828571443
 30
0.0
  0
SEQEND
  5
2A2
  8
SQUARES
  0
POLYLINE
  5
9F
  8
SQUARES
 66
     1
 10
0.0
 20
0.0
 30
0.0
 70
     1
1001
DCO15
1071
        2
1071
        2
1000
colsq
1004
073130343900
1001
ADE
1011
-1.537940703448839
1021
0.0
1031
0.0
1021
0.3748623691499233
1031
0.0
  0
VERTEX
  5
2A3
  8
SQUARES
 10
734259.4213483145
 20
4555874.3741573039
 30
0.0
  0
VERTEX
  5
2A4
  8
SQUARES
 10
734256.76359550527
 20
4555870.1377528086
 30
0.0
  0
VERTEX
  5
2A5
  8
SQUARES
 10
734252.52719101124
 20
4555872.7955056168
 30
0.0
  0
VERTEX
  5
2A6
  8
SQUARES
 10
734255.18494382035
 20
4555877.0319101121
 30
0.0
  0
SEQEND
  5
2A7
  8
SQUARES
  0
POLYLINE
  5
A0
  8
SQUARES
 66
     1
 10
0.0
 20
0.0
 30
0.0
 70
     1
1001
DCO15
1071
        2
1071
        2
1000
colsq
1004
073130323800
1001
ADE
1011
-1.069467427791096
1021
0.0
1031
0.0
1021
-1.16681598406285
1031
0.0
  0
VERTEX
  5
2A8
  8
SQUARES
 10
734205.43000000005
 20
4555871.0
 30
0.0
  0
VERTEX
  5
2A9
  8
SQUARES
 10
734203.0
 20
4555875.3700000001
 30
0.0
  0
VERTEX
  5
2AA
  8
SQUARES
 10
734198.63000000024
 20
4555872.9400000004
 30
0.0
  0
VERTEX
  5
2AB
  8
SQUARES
 10
734201.06000000029
 20
4555868.5700000003
 30
0.0
  0
SEQEND
  5
2AC
  8
SQUARES
  0
POLYLINE
  5
A1
  8
SQUARES
 66
     1
 10
0.0
 20
0.0
 30
0.0
 70
     1
1001
DCO15
1071
        2
1071
        2
1000
colsq
1004
073130383400
1001
ADE
1011
-1.4735327900852999
1021
0.0
1031
0.0
1021
0.5775345508009196
1031
0.0
  0
VERTEX
  5
2AD
  8
SQUARES
 10
734323.76810810843
 20
4556060.7713513533
 30
0.0
  0
VERTEX
  5
2AE
  8
SQUARES
 10
734323.90371156577
 20
4556060.9340045294
 30
0.0
  0
VERTEX
  5
2AF
  8
SQUARES
 10
734326.96972973004
 20
4556064.611621622
 30
0.0
  0
VERTEX
  5
2B0
  8
SQUARES
 10
734323.12945945992
 20
4556067.8132432429
 30
0.0
  0
VERTEX
  5
2B1
  8
SQUARES
 10
734319.92783783795
 20
4556063.9729729732
 30
0.0
  0
SEQEND
  5
2B2
  8
SQUARES
  0
POLYLINE
  5
A2
  8
SQUARES
 66
     1
 10
0.0
 20
0.0
 30
0.0
 70
     1
1001
DCO15
1071
        2
1071
        2
1000
colsq
1004
073130363100
1001
ADE
1011
-1.465350768296048
1021
0.0
1031
0.0
1021
0.5971704656258227
1031
0.0
  0
VERTEX
  5
2B3
  8
SQUARES
 10
734320.08647058811
 20
4556015.4258823516
 30
0.0
  0
VERTEX
  5
2B4
  8
SQUARES
 10
734323.33823529398
 20
4556019.222941176
 30
0.0
  0
VERTEX
  5
2B5
  8
SQUARES
 10
734319.5411764707
 20
4556022.4747058824
 30
0.0
  0
VERTEX
  5
2B6
  8
SQUARES
 10
734316.28941176459
 20
4556018.6776470579
 30
0.0
  0
SEQEND
  5
2B7
  8
SQUARES
  0
POLYLINE
  5
A3
  8
SQUARES
 66
     1
 10
0.0
 20
0.0
 30
0.0
 70
     1
1001
DCO15
1071
        2
1071
        2
1000
colsq
1004
073130343700
1001
ADE
1011
-1.5379407036816699
1021
0.0
1031
0.0
1021
0.3748623691499233
1031
0.0
  0
VERTEX
  5
2B8
  8
SQUARES
 10
734253.06674157304
 20
4555878.3607865162
 30
0.0
  0
VERTEX
  5
2B9
  8
SQUARES
 10
734255.72449438216
 20
4555882.5971910106
 30
0.0
  0
VERTEX
  5
2BA
  8
SQUARES
 10
734251.48808988766
 20
4555885.2549438206
 30
0.0
  0
VERTEX
  5
2BB
  8
SQUARES
 10
734248.83033707889
 20
4555881.0185393263
 30
0.0
  0
SEQEND
  5
2BC
  8
SQUARES
  0
POLYLINE
  5
A4
  8
SQUARES
 66
     1
 10
0.0
 20
0.0
 30
0.0
 70
     1
1001
DCO15
1071
        2
1071
        2
1000
colsq
1004
073130333700
1001
ADE
1011
-0.6761601745383814
1021
0.0
1031
0.0
1021
-1.4312139013782139
1031
0.0
  0
VERTEX
  5
2BD
  8
SQUARES
 10
734209.48499999964
 20
4555890.2350000003
 30
0.0
  0
VERTEX
  5
2BE
  8
SQUARES
 10
734205.86999999988
 20
4555893.6900000013
 30
0.0
  0
VERTEX
  5
2BF
  8
SQUARES
 10
734202.41499999992
 20
4555890.0750000002
 30
0.0
  0
VERTEX
  5
2C0
  8
SQUARES
 10
734206.02999999991
 20
4555886.6200000001
 30
0.0
  0
SEQEND
  5
2C1
  8
SQUARES
  0
POLYLINE
  5
A5
  8
SQUARES
 66
     1
 10
0.0
 20
0.0
 30
0.0
 70
     1
1001
DCO15
1071
        2
1071
        2
1000
colsq
1004
073130313700
1001
ADE
1011
-1.1589869174640619
1021
0.0
1031
0.0
1021
-1.0776310535147779
1031
0.0
  0
VERTEX
  5
2C2
  8
SQUARES
 10
734122.99319999991
 20
4555867.1824000003
 30
0.0
  0
VERTEX
  5
2C3
  8
SQUARES
 10
734120.91879999998
 20
4555871.7315999996
 30
0.0
  0
VERTEX
  5
2C4
  8
SQUARES
 10
734125.46799999999
 20
4555873.8060000008
 30
0.0
  0
VERTEX
  5
2C5
  8
SQUARES
 10
734127.54240000015
 20
4555869.2568000006
 30
0.0
  0
SEQEND
  5
2C6
  8
SQUARES
  0
POLYLINE
  5
A6
  8
SQUARES
 66
     1
 10
0.0
 20
0.0
 30
0.0
 70
     1
1001
DCO15
1071
        2
1071
        2
1000
colsq
1004
073130303900
1001
ADE
1011
-1.1589869174640619
1021
0.0
1031
0.0
1021
-1.077631054446101
1031
0.0
  0
VERTEX
  5
2C7
  8
SQUARES
 10
734118.84439999983
 20
4555876.2808000008
 30
0.0
  0
VERTEX
  5
2C8
  8
SQUARES
 10
734116.7699999999
 20
4555880.8300000001
 30
0.0
  0
VERTEX
  5
2C9
  8
SQUARES
 10
734121.31920000014
 20
4555882.9044000003
 30
0.0
  0
VERTEX
  5
2CA
  8
SQUARES
 10
734123.39359999995
 20
4555878.3552000001
 30
0.0
  0
SEQEND
  5
2CB
  8
SQUARES
  0
POLYLINE
  5
A7
  8
SQUARES
 66
     1
 10
0.0
 20
0.0
 30
0.0
 70
     1
1001
DCO15
1071
        2
1071
        2
1000
colsq
1004
073130313800
1001
ADE
1011
-1.158847602433525
1021
0.0
1031
0.0
1021
-1.0779365757480259
1031
0.0
  0
VERTEX
  5
2CC
  8
SQUARES
 10
734130.0172
 20
4555875.8804000001
 30
0.0
  0
VERTEX
  5
2CD
  8
SQUARES
 10
734132.09160000004
 20
4555871.3311999999
 30
0.0
  0
VERTEX
  5
2CE
  8
SQUARES
 10
734127.54240000015
 20
4555869.2568000006
 30
0.0
  0
VERTEX
  5
2CF
  8
SQUARES
 10
734125.46799999999
 20
4555873.8060000008
 30
0.0
  0
SEQEND
  5
2D0
  8
SQUARES
  0
POLYLINE
  5
A8
  8
SQUARES
 66
     1
 10
0.0
 20
0.0
 30
0.0
 70
     1
1001
DCO15
1071
        2
1071
        2
1000
colsq
1004
073130313400
1001
ADE
1011
-1.158986917347647
1021
0.0
1031
0.0
1021
-1.077631054446101
1031
0.0
  0
VERTEX
  5
2D1
  8
SQUARES
 10
734127.94279999984
 20
4555880.4296000013
 30
0.0
  0
VERTEX
  5
2D2
  8
SQUARES
 10
734130.0172
 20
4555875.8804000001
 30
0.0
  0
VERTEX
  5
2D3
  8
SQUARES
 10
734125.46799999999
 20
4555873.8060000008
 30
0.0
  0
VERTEX
  5
2D4
  8
SQUARES
 10
734123.39359999995
 20
4555878.3552000001
 30
0.0
  0
SEQEND
  5
2D5
  8
SQUARES
  0
POLYLINE
  5
A9
  8
SQUARES
 66
     1
 10
0.0
 20
0.0
 30
0.0
 70
     1
1001
DCO15
1071
        2
1071
        2
1000
colsq
1004
073130313000
1001
ADE
1011
-1.158986917580477
1021
0.0
1031
0.0
1021
-1.0776310535147779
1031
0.0
  0
VERTEX
  5
2D6
  8
SQUARES
 10
734125.86840000015
 20
4555884.9787999997
 30
0.0
  0
VERTEX
  5
2D7
  8
SQUARES
 10
734127.94279999984
 20
4555880.4296000013
 30
0.0
  0
VERTEX
  5
2D8
  8
SQUARES
 10
734123.39359999995
 20
4555878.3552000001
 30
0.0
  0
VERTEX
  5
2D9
  8
SQUARES
 10
734121.31920000014
 20
4555882.9044000003
 30
0.0
  0
SEQEND
  5
2DA
  8
SQUARES
  0
POLYLINE
  5
AA
  8
SQUARES
 66
     1
 10
0.0
 20
0.0
 30
0.0
 70
     1
1001
DCO15
1071
        2
1071
        2
1000
colsq
1004
073130303100
1001
ADE
1011
-1.1589869174640619
1021
0.0
1031
0.0
1021
-1.0776310535147779
1031
0.0
  0
VERTEX
  5
2DB
  8
SQUARES
 10
734119.64520000014
 20
4555898.6264000004
 30
0.0
  0
VERTEX
  5
2DC
  8
SQUARES
 10
734115.09600000002
 20
4555896.5520000001
 30
0.0
  0
VERTEX
  5
2DD
  8
SQUARES
 10
734113.02159999998
 20
4555901.1012000004
 30
0.0
  0
VERTEX
  5
2DE
  8
SQUARES
 10
734117.57079999999
 20
4555903.1756000007
 30
0.0
  0
SEQEND
  5
2DF
  8
SQUARES
  0
POLYLINE
  5
AB
  8
SQUARES
 66
     1
 10
0.0
 20
0.0
 30
0.0
 70
     1
1001
DCO15
1071
        2
1071
        2
1000
colsq
1004
073130323300
1001
ADE
1011
-1.158847602433525
1021
0.0
1031
0.0
1021
-1.0779365748167029
1031
0.0
  0
VERTEX
  5
2E0
  8
SQUARES
 10
734140.78960000013
 20
4555864.3072000006
 30
0.0
  0
VERTEX
  5
2E1
  8
SQUARES
 10
734138.71520000021
 20
4555868.8563999999
 30
0.0
  0
VERTEX
  5
2E2
  8
SQUARES
 10
734134.16600000008
 20
4555866.7820000006
 30
0.0
  0
VERTEX
  5
2E3
  8
SQUARES
 10
734136.24039999978
 20
4555862.2328000003
 30
0.0
  0
SEQEND
  5
2E4
  8
SQUARES
  0
POLYLINE
  5
AC
  8
SQUARES
 66
     1
 10
0.0
 20
0.0
 30
0.0
 70
     1
1001
DCO15
1071
        2
1071
        2
1000
colsq
1004
073130313900
1001
ADE
1011
-1.158986917347647
1021
0.0
1031
0.0
1021
-1.0776310535147779
1031
0.0
  0
VERTEX
  5
2E5
  8
SQUARES
 10
734136.64080000005
 20
4555873.4056000002
 30
0.0
  0
VERTEX
  5
2E6
  8
SQUARES
 10
734134.56640000013
 20
4555877.9548000004
 30
0.0
  0
VERTEX
  5
2E7
  8
SQUARES
 10
734130.0172
 20
4555875.8804000001
 30
0.0
  0
VERTEX
  5
2E8
  8
SQUARES
 10
734132.09160000004
 20
4555871.3311999999
 30
0.0
  0
SEQEND
  5
2E9
  8
SQUARES
  0
POLYLINE
  5
AD
  8
SQUARES
 66
     1
 10
0.0
 20
0.0
 30
0.0
 70
     1
1001
DCO15
1071
        2
1071
        2
1000
colsq
1004
073130313500
1001
ADE
1011
-1.1589869174640619
1021
0.0
1031
0.0
1021
-1.0776310535147779
1031
0.0
  0
VERTEX
  5
2EA
  8
SQUARES
 10
734134.56640000013
 20
4555877.9548000004
 30
0.0
  0
VERTEX
  5
2EB
  8
SQUARES
 10
734132.4920000002
 20
4555882.5040000007
 30
0.0
  0
VERTEX
  5
2EC
  8
SQUARES
 10
734127.94279999984
 20
4555880.4296000013
 30
0.0
  0
VERTEX
  5
2ED
  8
SQUARES
 10
734130.0172
 20
4555875.8804000001
 30
0.0
  0
SEQEND
  5
2EE
  8
SQUARES
  0
POLYLINE
  5
AE
  8
SQUARES
 66
     1
 10
0.0
 20
0.0
 30
0.0
 70
     1
1001
DCO15
1071
        2
1071
        2
1000
colsq
1004
073130303600
1001
ADE
1011
-1.1589869174640619
1021
0.0
1031
0.0
1021
-1.0776310535147779
1031
0.0
  0
VERTEX
  5
2EF
  8
SQUARES
 10
734128.3432
 20
4555891.6024000002
 30
0.0
  0
VERTEX
  5
2F0
  8
SQUARES
 10
734126.26879999996
 20
4555896.1516000004
 30
0.0
  0
VERTEX
  5
2F1
  8
SQUARES
 10
734121.71959999995
 20
4555894.0772000002
 30
0.0
  0
VERTEX
  5
2F2
  8
SQUARES
 10
734123.79399999999
 20
4555889.5280000009
 30
0.0
  0
SEQEND
  5
2F3
  8
SQUARES
  0
POLYLINE
  5
AF
  8
SQUARES
 66
     1
 10
0.0
 20
0.0
 30
0.0
 70
     1
1001
DCO15
1071
        2
1071
        2
1000
colsq
1004
073130303400
1001
ADE
1011
-1.1589869174640619
1021
0.0
1031
0.0
1021
-1.0776310535147779
1031
0.0
  0
VERTEX
  5
2F4
  8
SQUARES
 10
734126.26879999996
 20
4555896.1516000004
 30
0.0
  0
VERTEX
  5
2F5
  8
SQUARES
 10
734124.19440000004
 20
4555900.7008000007
 30
0.0
  0
VERTEX
  5
2F6
  8
SQUARES
 10
734119.64520000014
 20
4555898.6264000004
 30
0.0
  0
VERTEX
  5
2F7
  8
SQUARES
 10
734121.71959999995
 20
4555894.0772000002
 30
0.0
  0
SEQEND
  5
2F8
  8
SQUARES
  0
POLYLINE
  5
B0
  8
SQUARES
 66
     1
 10
0.0
 20
0.0
 30
0.0
 70
     1
1001
DCO15
1071
        2
1071
        2
1000
colsq
1004
073131323900
1001
ADE
1011
-1.5651086169527839
1021
0.0
1031
0.0
1021
0.2397069539874792
1031
0.0
  0
VERTEX
  5
2F9
  8
SQUARES
 10
734152.69653846137
 20
4555987.3273076918
 30
0.0
  0
VERTEX
  5
2FA
  8
SQUARES
 10
734148.24615384592
 20
4555989.6092307689
 30
0.0
  0
VERTEX
  5
2FB
  8
SQUARES
 10
734150.52807692275
 20
4555994.0596153839
 30
0.0
  0
VERTEX
  5
2FC
  8
SQUARES
 10
734154.97846153809
 20
4555991.7776923068
 30
0.0
  0
SEQEND
  5
2FD
  8
SQUARES
  0
POLYLINE
  5
B1
  8
SQUARES
 66
     1
 10
0.0
 20
0.0
 30
0.0
 70
     1
1001
DCO15
1071
        2
1071
        2
1000
colsq
1004
073131343300
1001
ADE
1011
-1.564802112989127
1021
0.0
1031
0.0
1021
0.2403047224506736
1031
0.0
  0
VERTEX
  5
2FE
  8
SQUARES
 10
734150.30115384609
 20
4555971.6942307679
 30
0.0
  0
VERTEX
  5
2FF
  8
SQUARES
 10
734145.85076923063
 20
4555973.976153845
 30
0.0
  0
VERTEX
  5
300
  8
SQUARES
 10
734148.13269230758
 20
4555978.4265384609
 30
0.0
  0
VERTEX
  5
301
  8
SQUARES
 10
734152.58307692315
 20
4555976.1446153829
 30
0.0
  0
SEQEND
  5
302
  8
SQUARES
  0
POLYLINE
  5
B2
  8
SQUARES
 66
     1
 10
0.0
 20
0.0
 30
0.0
 70
     1
1001
DCO15
1071
        2
1071
        2
1000
colsq
1004
073131333400
1001
ADE
1011
-1.5648021128727121
1021
0.0
1031
0.0
1021
0.2403047224506736
1031
0.0
  0
VERTEX
  5
303
  8
SQUARES
 10
734154.86499999987
 20
4555980.5949999988
 30
0.0
  0
VERTEX
  5
304
  8
SQUARES
 10
734150.41461538442
 20
4555982.8769230759
 30
0.0
  0
VERTEX
  5
305
  8
SQUARES
 10
734152.69653846137
 20
4555987.3273076918
 30
0.0
  0
VERTEX
  5
306
  8
SQUARES
 10
734157.14692307694
 20
4555985.0453846138
 30
0.0
  0
SEQEND
  5
307
  8
SQUARES
  0
POLYLINE
  5
B3
  8
SQUARES
 66
     1
 10
0.0
 20
0.0
 30
0.0
 70
     1
1001
DCO15
1071
        2
1071
        2
1000
colsq
1004
073131323400
1001
ADE
1011
-1.5695529264630741
1021
0.0
1031
0.0
1021
0.2310393145307898
1031
0.0
  0
VERTEX
  5
308
  8
SQUARES
 10
734159.42884615366
 20
4555989.4957692297
 30
0.0
  0
VERTEX
  5
309
  8
SQUARES
 10
734154.97846153809
 20
4555991.7776923068
 30
0.0
  0
VERTEX
  5
30A
  8
SQUARES
 10
734157.26038461505
 20
4555996.2280769227
 30
0.0
  0
VERTEX
  5
30B
  8
SQUARES
 10
734161.71076923038
 20
4555993.9461538447
 30
0.0
  0
SEQEND
  5
30C
  8
SQUARES
  0
POLYLINE
  5
B4
  8
SQUARES
 66
     1
 10
0.0
 20
0.0
 30
0.0
 70
     1
1001
DCO15
1071
        2
1071
        2
1000
colsq
1004
073131343000
1001
ADE
1011
-1.5646488609490909
1021
0.0
1031
0.0
1021
0.2406036062166095
1031
0.0
  0
VERTEX
  5
30D
  8
SQUARES
 10
734157.03346153849
 20
4555973.8626923077
 30
0.0
  0
VERTEX
  5
30E
  8
SQUARES
 10
734152.58307692315
 20
4555976.1446153829
 30
0.0
  0
VERTEX
  5
30F
  8
SQUARES
 10
734154.86499999987
 20
4555980.5949999988
 30
0.0
  0
VERTEX
  5
310
  8
SQUARES
 10
734159.3153846151
 20
4555978.3130769227
 30
0.0
  0
SEQEND
  5
311
  8
SQUARES
  0
POLYLINE
  5
B5
  8
SQUARES
 66
     1
 10
0.0
 20
0.0
 30
0.0
 70
     1
1001
DCO15
1071
        2
1071
        2
1000
colsq
1004
073131333500
1001
ADE
1011
-1.5648021128727121
1021
0.0
1031
0.0
1021
0.2403047224506736
1031
0.0
  0
VERTEX
  5
312
  8
SQUARES
 10
734163.76576923055
 20
4555976.0311538447
 30
0.0
  0
VERTEX
  5
313
  8
SQUARES
 10
734159.3153846151
 20
4555978.3130769227
 30
0.0
  0
VERTEX
  5
314
  8
SQUARES
 10
734161.59730769228
 20
4555982.7634615377
 30
0.0
  0
VERTEX
  5
315
  8
SQUARES
 10
734166.04769230762
 20
4555980.4815384606
 30
0.0
  0
SEQEND
  5
316
  8
SQUARES
  0
POLYLINE
  5
B6
  8
SQUARES
 66
     1
 10
0.0
 20
0.0
 30
0.0
 70
     1
1001
DCO15
1071
        2
1071
        2
1000
colsq
1004
073131333100
1001
ADE
1011
-1.564802112989127
1021
0.0
1031
0.0
1021
0.240304721519351
1031
0.0
  0
VERTEX
  5
317
  8
SQUARES
 10
734170.49807692284
 20
4555978.1996153845
 30
0.0
  0
VERTEX
  5
318
  8
SQUARES
 10
734166.04769230762
 20
4555980.4815384606
 30
0.0
  0
VERTEX
  5
319
  8
SQUARES
 10
734168.32961538434
 20
4555984.9319230756
 30
0.0
  0
VERTEX
  5
31A
  8
SQUARES
 10
734172.7799999998
 20
4555982.6499999994
 30
0.0
  0
SEQEND
  5
31B
  8
SQUARES
  0
POLYLINE
  5
B7
  8
SQUARES
 66
     1
 10
0.0
 20
0.0
 30
0.0
 70
     1
1001
DCO15
1071
        2
1071
        2
1000
colsq
1004
073131333600
1001
ADE
1011
-1.5648021127562961
1021
0.0
1031
0.0
1021
0.2403047224506736
1031
0.0
  0
VERTEX
  5
31C
  8
SQUARES
 10
734172.66653846158
 20
4555971.4673076915
 30
0.0
  0
VERTEX
  5
31D
  8
SQUARES
 10
734168.21615384589
 20
4555973.7492307676
 30
0.0
  0
VERTEX
  5
31E
  8
SQUARES
 10
734170.49807692284
 20
4555978.1996153845
 30
0.0
  0
VERTEX
  5
31F
  8
SQUARES
 10
734174.94846153865
 20
4555975.9176923074
 30
0.0
  0
SEQEND
  5
320
  8
SQUARES
  0
POLYLINE
  5
B8
  8
SQUARES
 66
     1
 10
0.0
 20
0.0
 30
0.0
 70
     1
1001
DCO15
1071
        2
1071
        2
1000
colsq
1004
073131323800
1001
ADE
1011
-1.5648021128727121
1021
0.0
1031
0.0
1021
0.2403047224506736
1031
0.0
  0
VERTEX
  5
321
  8
SQUARES
 10
734195.03192307684
 20
4555971.2403846141
 30
0.0
  0
VERTEX
  5
322
  8
SQUARES
 10
734197.31384615367
 20
4555975.69076923
 30
0.0
  0
VERTEX
  5
323
  8
SQUARES
 10
734192.86346153845
 20
4555977.9726923071
 30
0.0
  0
VERTEX
  5
324
  8
SQUARES
 10
734190.5815384615
 20
4555973.5223076921
 30
0.0
  0
SEQEND
  5
325
  8
SQUARES
  0
POLYLINE
  5
B9
  8
SQUARES
 66
     1
 10
0.0
 20
0.0
 30
0.0
 70
     1
1001
DCO15
1071
        2
1071
        2
1000
colsq
1004
073130373400
1001
ADE
1011
-1.473317771800793
1021
0.0
1031
0.0
1021
0.5777924600988627
1031
0.0
  0
VERTEX
  5
326
  8
SQUARES
 10
734310.97000000009
 20
4556084.4600000009
 30
0.0
  0
VERTEX
  5
327
  8
SQUARES
 10
734314.17162162182
 20
4556088.3002702696
 30
0.0
  0
VERTEX
  5
328
  8
SQUARES
 10
734318.01189189195
 20
4556085.0986486487
 30
0.0
  0
VERTEX
  5
329
  8
SQUARES
 10
734314.81027027033
 20
4556081.2583783781
 30
0.0
  0
SEQEND
  5
32A
  8
SQUARES
  0
POLYLINE
  5
BA
  8
SQUARES
 66
     1
 10
0.0
 20
0.0
 30
0.0
 70
     1
1001
DCO15
1071
        2
1071
        2
1000
colsq
1004
073130373000
1001
ADE
1011
-1.473317771800793
1021
0.0
1031
0.0
1021
0.5777924610301853
1031
0.0
  0
VERTEX
  5
32B
  8
SQUARES
 10
734318.01189189195
 20
4556085.0986486487
 30
0.0
  0
VERTEX
  5
32C
  8
SQUARES
 10
734314.17162162182
 20
4556088.3002702696
 30
0.0
  0
VERTEX
  5
32D
  8
SQUARES
 10
734317.3732432432
 20
4556092.1405405411
 30
0.0
  0
VERTEX
  5
32E
  8
SQUARES
 10
734321.21351351356
 20
4556088.9389189193
 30
0.0
  0
SEQEND
  5
32F
  8
SQUARES
  0
POLYLINE
  5
BB
  8
SQUARES
 66
     1
 10
0.0
 20
0.0
 30
0.0
 70
     1
1001
DCO15
1071
        2
1071
        2
1000
colsq
1004
073130383300
1001
ADE
1011
-1.4735327902017159
1021
0.0
1031
0.0
1021
0.5775345508009196
1031
0.0
  0
VERTEX
  5
330
  8
SQUARES
 10
734319.28918918956
 20
4556071.0148648648
 30
0.0
  0
VERTEX
  5
331
  8
SQUARES
 10
734316.08756756771
 20
4556067.1745945951
 30
0.0
  0
VERTEX
  5
332
  8
SQUARES
 10
734319.92783783795
 20
4556063.9729729732
 30
0.0
  0
VERTEX
  5
333
  8
SQUARES
 10
734323.12945945992
 20
4556067.8132432429
 30
0.0
  0
SEQEND
  5
334
  8
SQUARES
  0
POLYLINE
  5
BC
  8
SQUARES
 66
     1
 10
0.0
 20
0.0
 30
0.0
 70
     1
1001
DCO15
1071
        2
1071
        2
1000
colsq
1004
073130383000
1001
ADE
1011
-1.473532790318131
1021
0.0
1031
0.0
1021
0.5775345508009196
1031
0.0
  0
VERTEX
  5
335
  8
SQUARES
 10
734323.12945945992
 20
4556067.8132432429
 30
0.0
  0
VERTEX
  5
336
  8
SQUARES
 10
734319.28918918956
 20
4556071.0148648648
 30
0.0
  0
VERTEX
  5
337
  8
SQUARES
 10
734322.49081081082
 20
4556074.8551351363
 30
0.0
  0
VERTEX
  5
338
  8
SQUARES
 10
734326.3310810813
 20
4556071.6535135144
 30
0.0
  0
SEQEND
  5
339
  8
SQUARES
  0
POLYLINE
  5
BD
  8
SQUARES
 66
     1
 10
0.0
 20
0.0
 30
0.0
 70
     1
1001
DCO15
1071
        2
1071
        2
1000
colsq
1004
073130373700
1001
ADE
1011
-1.473317771800793
1021
0.0
1031
0.0
1021
0.5777924600988627
1031
0.0
  0
VERTEX
  5
33A
  8
SQUARES
 10
734326.3310810813
 20
4556071.6535135144
 30
0.0
  0
VERTEX
  5
33B
  8
SQUARES
 10
734322.49081081082
 20
4556074.8551351363
 30
0.0
  0
VERTEX
  5
33C
  8
SQUARES
 10
734325.69243243255
 20
4556078.6954054059
 30
0.0
  0
VERTEX
  5
33D
  8
SQUARES
 10
734329.5327027028
 20
4556075.4937837841
 30
0.0
  0
SEQEND
  5
33E
  8
SQUARES
  0
POLYLINE
  5
BE
  8
SQUARES
 66
     1
 10
0.0
 20
0.0
 30
0.0
 70
     1
1001
DCO15
1071
        2
1071
        2
1000
colsq
1004
073130383800
1001
ADE
1011
-0.5539829703047872
1021
0.0
1031
0.0
1021
-1.482520770281553
1031
0.0
  0
VERTEX
  5
33F
  8
SQUARES
 10
734280.9728571428
 20
4556129.2585714273
 30
0.0
  0
VERTEX
  5
340
  8
SQUARES
 10
734277.08214285725
 20
4556132.398571427
 30
0.0
  0
VERTEX
  5
341
  8
SQUARES
 10
734280.22214285715
 20
4556136.2892857129
 30
0.0
  0
VERTEX
  5
342
  8
SQUARES
 10
734284.11285714293
 20
4556133.1492857132
 30
0.0
  0
SEQEND
  5
343
  8
SQUARES
  0
POLYLINE
  5
BF
  8
SQUARES
 66
     1
 10
0.0
 20
0.0
 30
0.0
 70
     1
1001
DCO15
1071
        2
1071
        2
1000
colsq
1004
073130393400
1001
ADE
1011
-0.5542442675214261
1021
0.0
1031
0.0
1021
-1.4823098909109831
1031
0.0
  0
VERTEX
  5
344
  8
SQUARES
 10
734302.81571428583
 20
4556124.4799999977
 30
0.0
  0
VERTEX
  5
345
  8
SQUARES
 10
734298.92499999993
 20
4556127.6199999982
 30
0.0
  0
VERTEX
  5
346
  8
SQUARES
 10
734295.78499999992
 20
4556123.7292857133
 30
0.0
  0
VERTEX
  5
347
  8
SQUARES
 10
734299.67571428593
 20
4556120.5892857118
 30
0.0
  0
SEQEND
  5
348
  8
SQUARES
  0
POLYLINE
  5
C0
  8
SQUARES
 66
     1
 10
0.0
 20
0.0
 30
0.0
 70
     1
1001
DCO15
1071
        2
1071
        2
1000
colsq
1004
073130393100
1001
ADE
1011
-0.5542442674050108
1021
0.0
1031
0.0
1021
-1.4823098899796601
1031
0.0
  0
VERTEX
  5
349
  8
SQUARES
 10
734287.25285714294
 20
4556137.0399999982
 30
0.0
  0
VERTEX
  5
34A
  8
SQUARES
 10
734284.11285714293
 20
4556133.1492857132
 30
0.0
  0
VERTEX
  5
34B
  8
SQUARES
 10
734288.00357142859
 20
4556130.0092857126
 30
0.0
  0
VERTEX
  5
34C
  8
SQUARES
 10
734291.14357142849
 20
4556133.8999999976
 30
0.0
  0
SEQEND
  5
34D
  8
SQUARES
  0
POLYLINE
  5
C1
  8
SQUARES
 66
     1
 10
0.0
 20
0.0
 30
0.0
 70
     1
1001
DCO15
1071
        2
1071
        2
1000
colsq
1004
073130383700
1001
ADE
1011
-0.553982970188372
1021
0.0
1031
0.0
1021
-1.482520771212875
1031
0.0
  0
VERTEX
  5
34E
  8
SQUARES
 10
734283.36214285705
 20
4556140.1799999978
 30
0.0
  0
VERTEX
  5
34F
  8
SQUARES
 10
734279.47142857127
 20
4556143.3199999984
 30
0.0
  0
VERTEX
  5
350
  8
SQUARES
 10
734276.33142857149
 20
4556139.4292857125
 30
0.0
  0
VERTEX
  5
351
  8
SQUARES
 10
734280.22214285715
 20
4556136.2892857129
 30
0.0
  0
SEQEND
  5
352
  8
SQUARES
  0
POLYLINE
  5
C2
  8
SQUARES
 66
     1
 10
0.0
 20
0.0
 30
0.0
 70
     1
1001
DCO15
1071
        2
1071
        2
1000
colsq
1004
073130383500
1001
ADE
1011
-0.553982970188372
1021
0.0
1031
0.0
1021
-1.482520771212875
1031
0.0
  0
VERTEX
  5
353
  8
SQUARES
 10
734268.55000000005
 20
4556145.7092857128
 30
0.0
  0
VERTEX
  5
354
  8
SQUARES
 10
734271.68999999994
 20
4556149.5999999978
 30
0.0
  0
VERTEX
  5
355
  8
SQUARES
 10
734275.58071428549
 20
4556146.459999999
 30
0.0
  0
VERTEX
  5
356
  8
SQUARES
 10
734272.44071428548
 20
4556142.5692857131
 30
0.0
  0
SEQEND
  5
357
  8
SQUARES
  0
POLYLINE
  5
C3
  8
SQUARES
 66
     1
 10
0.0
 20
0.0
 30
0.0
 70
     1
1001
DCO15
1071
        2
1071
        2
1000
colsq
1004
073131303100
1001
ADE
1011
-0.5542442674050108
1021
0.0
1031
0.0
1021
-1.4823098899796601
1031
0.0
  0
VERTEX
  5
358
  8
SQUARES
 10
734313.73714285716
 20
4556122.0907142842
 30
0.0
  0
VERTEX
  5
359
  8
SQUARES
 10
734310.59714285715
 20
4556118.1999999983
 30
0.0
  0
VERTEX
  5
35A
  8
SQUARES
 10
734314.48785714281
 20
4556115.0599999977
 30
0.0
  0
VERTEX
  5
35B
  8
SQUARES
 10
734317.62785714283
 20
4556118.9507142836
 30
0.0
  0
SEQEND
  5
35C
  8
SQUARES
  0
POLYLINE
  5
C4
  8
SQUARES
 66
     1
 10
0.0
 20
0.0
 30
0.0
 70
     1
1001
DCO15
1071
        2
1071
        2
1000
colsq
1004
073131303800
1001
ADE
1011
-0.5539829703047872
1021
0.0
1031
0.0
1021
-1.482520771212875
1031
0.0
  0
VERTEX
  5
35D
  8
SQUARES
 10
734323.77071428578
 20
4556094.7185714282
 30
0.0
  0
VERTEX
  5
35E
  8
SQUARES
 10
734326.91071428556
 20
4556098.6092857122
 30
0.0
  0
VERTEX
  5
35F
  8
SQUARES
 10
734323.02000000025
 20
4556101.7492857128
 30
0.0
  0
VERTEX
  5
360
  8
SQUARES
 10
734319.88
 20
4556097.858571426
 30
0.0
  0
SEQEND
  5
361
  8
SQUARES
  0
POLYLINE
  5
C5
  8
SQUARES
 66
     1
 10
0.0
 20
0.0
 30
0.0
 70
     1
1001
DCO15
1071
        2
1071
        2
1000
colsq
1004
073131303700
1001
ADE
1011
-0.5542442674050108
1021
0.0
1031
0.0
1021
-1.4823098899796601
1031
0.0
  0
VERTEX
  5
362
  8
SQUARES
 10
734326.16000000015
 20
4556105.6399999987
 30
0.0
  0
VERTEX
  5
363
  8
SQUARES
 10
734322.26928571425
 20
4556108.7799999984
 30
0.0
  0
VERTEX
  5
364
  8
SQUARES
 10
734319.12928571424
 20
4556104.8892857134
 30
0.0
  0
VERTEX
  5
365
  8
SQUARES
 10
734323.02000000025
 20
4556101.7492857128
 30
0.0
  0
SEQEND
  5
366
  8
SQUARES
  0
POLYLINE
  5
C6
  8
SQUARES
 66
     1
 10
0.0
 20
0.0
 30
0.0
 70
     1
1001
DCO15
1071
        2
1071
        2
1000
colsq
1004
073131303400
1001
ADE
1011
-0.5542442674050108
1021
0.0
1031
0.0
1021
-1.4823098909109831
1031
0.0
  0
VERTEX
  5
367
  8
SQUARES
 10
734322.26928571425
 20
4556108.7799999984
 30
0.0
  0
VERTEX
  5
368
  8
SQUARES
 10
734318.37857142847
 20
4556111.919999999
 30
0.0
  0
VERTEX
  5
369
  8
SQUARES
 10
734315.23857142869
 20
4556108.0292857131
 30
0.0
  0
VERTEX
  5
36A
  8
SQUARES
 10
734319.12928571424
 20
4556104.8892857134
 30
0.0
  0
SEQEND
  5
36B
  8
SQUARES
  0
POLYLINE
  5
C7
  8
SQUARES
 66
     1
 10
0.0
 20
0.0
 30
0.0
 70
     1
1001
DCO15
1071
        2
1071
        2
1000
colsq
1004
073131303500
1001
ADE
1011
-0.5542442672885956
1021
0.0
1031
0.0
1021
-1.4823098909109831
1031
0.0
  0
VERTEX
  5
36C
  8
SQUARES
 10
734321.51857142872
 20
4556115.8107142849
 30
0.0
  0
VERTEX
  5
36D
  8
SQUARES
 10
734325.40928571427
 20
4556112.6707142843
 30
0.0
  0
VERTEX
  5
36E
  8
SQUARES
 10
734322.26928571425
 20
4556108.7799999984
 30
0.0
  0
VERTEX
  5
36F
  8
SQUARES
 10
734318.37857142847
 20
4556111.919999999
 30
0.0
  0
SEQEND
  5
370
  8
SQUARES
  0
POLYLINE
  5
C8
  8
SQUARES
 66
     1
 10
0.0
 20
0.0
 30
0.0
 70
     1
1001
DCO15
1071
        2
1071
        2
1000
colsq
1004
073131313800
1001
ADE
1011
-0.5220260961214081
1021
0.0
1031
0.0
1021
-1.494043077342212
1031
0.0
  0
VERTEX
  5
371
  8
SQUARES
 10
734304.08999999997
 20
4556090.2700000014
 30
0.0
  0
VERTEX
  5
372
  8
SQUARES
 10
734301.03428571415
 20
4556086.3128571426
 30
0.0
  0
VERTEX
  5
373
  8
SQUARES
 10
734297.07714285713
 20
4556089.3685714286
 30
0.0
  0
VERTEX
  5
374
  8
SQUARES
 10
734300.13285714283
 20
4556093.3257142864
 30
0.0
  0
SEQEND
  5
375
  8
SQUARES
  0
POLYLINE
  5
C9
  8
SQUARES
 66
     1
 10
0.0
 20
0.0
 30
0.0
 70
     1
1001
DCO15
1071
        2
1071
        2
1000
colsq
1004
073131313700
1001
ADE
1011
-0.5206973039312289
1021
0.0
1031
0.0
1021
-1.495069173164665
1031
0.0
  0
VERTEX
  5
376
  8
SQUARES
 10
734299.23142857151
 20
4556100.3385714293
 30
0.0
  0
VERTEX
  5
377
  8
SQUARES
 10
734296.17571428581
 20
4556096.3814285723
 30
0.0
  0
VERTEX
  5
378
  8
SQUARES
 10
734300.13285714283
 20
4556093.3257142864
 30
0.0
  0
VERTEX
  5
379
  8
SQUARES
 10
734303.18857142853
 20
4556097.2828571443
 30
0.0
  0
SEQEND
  5
37A
  8
SQUARES
  0
POLYLINE
  5
CA
  8
SQUARES
 66
     1
 10
0.0
 20
0.0
 30
0.0
 70
     1
1001
DCO15
1071
        2
1071
        2
1000
colsq
1004
073131313200
1001
ADE
1011
-0.5137875850778073
1021
0.0
1031
0.0
1021
-1.5004048738628619
1031
0.0
  0
VERTEX
  5
37B
  8
SQUARES
 10
734283.40285714273
 20
4556112.5614285711
 30
0.0
  0
VERTEX
  5
37C
  8
SQUARES
 10
734280.34714285703
 20
4556108.6042857151
 30
0.0
  0
VERTEX
  5
37D
  8
SQUARES
 10
734284.3042857144
 20
4556105.5485714292
 30
0.0
  0
VERTEX
  5
37E
  8
SQUARES
 10
734287.3600000001
 20
4556109.5057142861
 30
0.0
  0
SEQEND
  5
37F
  8
SQUARES
  0
POLYLINE
  5
CB
  8
SQUARES
 66
     1
 10
0.0
 20
0.0
 30
0.0
 70
     1
1001
DCO15
1071
        2
1071
        2
1000
colsq
1004
073131323000
1001
ADE
1011
-0.5220260962378234
1021
0.0
1031
0.0
1021
-1.494043077342212
1031
0.0
  0
VERTEX
  5
380
  8
SQUARES
 10
734307.14571428578
 20
4556094.2271428574
 30
0.0
  0
VERTEX
  5
381
  8
SQUARES
 10
734303.18857142853
 20
4556097.2828571443
 30
0.0
  0
VERTEX
  5
382
  8
SQUARES
 10
734306.24428571446
 20
4556101.2400000002
 30
0.0
  0
VERTEX
  5
383
  8
SQUARES
 10
734310.2014285716
 20
4556098.1842857143
 30
0.0
  0
SEQEND
  5
384
  8
SQUARES
  0
POLYLINE
  5
CC
  8
SQUARES
 66
     1
 10
0.0
 20
0.0
 30
0.0
 70
     1
1001
DCO15
1071
        2
1071
        2
1000
colsq
1004
073130363500
1001
ADE
1011
-1.465350768296048
1021
0.0
1031
0.0
1021
0.5971704656258227
1031
0.0
  0
VERTEX
  5
385
  8
SQUARES
 10
734305.98882352945
 20
4556014.3352941172
 30
0.0
  0
VERTEX
  5
386
  8
SQUARES
 10
734302.19176470593
 20
4556017.5870588236
 30
0.0
  0
VERTEX
  5
387
  8
SQUARES
 10
734305.4435294118
 20
4556021.3841176461
 30
0.0
  0
VERTEX
  5
388
  8
SQUARES
 10
734309.24058823509
 20
4556018.1323529398
 30
0.0
  0
SEQEND
  5
389
  8
SQUARES
  0
POLYLINE
  5
CD
  8
SQUARES
 66
     1
 10
0.0
 20
0.0
 30
0.0
 70
     1
1001
DCO15
1071
        2
1071
        2
1000
colsq
1004
073130353600
1001
ADE
1011
-1.465350768296048
1021
0.0
1031
0.0
1021
0.5971704665571452
1031
0.0
  0
VERTEX
  5
38A
  8
SQUARES
 10
734315.74411764694
 20
4556025.7264705878
 30
0.0
  0
VERTEX
  5
38B
  8
SQUARES
 10
734311.94705882377
 20
4556028.9782352941
 30
0.0
  0
VERTEX
  5
38C
  8
SQUARES
 10
734315.19882352964
 20
4556032.7752941158
 30
0.0
  0
VERTEX
  5
38D
  8
SQUARES
 10
734317.09735294117
 20
4556031.149411764
 30
0.0
  0
VERTEX
  5
38E
  8
SQUARES
 10
734318.99588235305
 20
4556029.5235294113
 30
0.0
  0
SEQEND
  5
38F
  8
SQUARES
  0
POLYLINE
  5
CE
  8
SQUARES
 66
     1
 10
0.0
 20
0.0
 30
0.0
 70
     1
1001
DCO15
1071
        2
1071
        2
1000
colsq
1004
073130363800
1001
ADE
1011
-1.4655691540101541
1021
0.0
1031
0.0
1021
0.596915458329022
1031
0.0
  0
VERTEX
  5
390
  8
SQUARES
 10
734302.73705882346
 20
4556010.5382352937
 30
0.0
  0
VERTEX
  5
391
  8
SQUARES
 10
734305.98882352945
 20
4556014.3352941172
 30
0.0
  0
VERTEX
  5
392
  8
SQUARES
 10
734309.7858823525
 20
4556011.08352941
 30
0.0
  0
VERTEX
  5
393
  8
SQUARES
 10
734306.53411764686
 20
4556007.2864705883
 30
0.0
  0
SEQEND
  5
394
  8
SQUARES
  0
POLYLINE
  5
CF
  8
SQUARES
 66
     1
 10
0.0
 20
0.0
 30
0.0
 70
     1
1001
DCO15
1071
        2
1071
        2
1000
colsq
1004
073130353300
1001
ADE
1011
-1.538119196076877
1021
0.0
1031
0.0
1021
0.3745778556913137
1031
0.0
  0
VERTEX
  5
395
  8
SQUARES
 10
734247.21168539335
 20
4555864.322696629
 30
0.0
  0
VERTEX
  5
396
  8
SQUARES
 10
734249.86943820224
 20
4555868.5591011234
 30
0.0
  0
VERTEX
  5
397
  8
SQUARES
 10
734254.10584269639
 20
4555865.9013483152
 30
0.0
  0
VERTEX
  5
398
  8
SQUARES
 10
734251.44808988762
 20
4555861.6649438208
 30
0.0
  0
SEQEND
  5
399
  8
SQUARES
  0
POLYLINE
  5
D0
  8
SQUARES
 66
     1
 10
0.0
 20
0.0
 30
0.0
 70
     1
1001
DCO15
1071
        2
1071
        2
1000
colsq
1004
073130353100
1001
ADE
1011
-1.5379407035652539
1021
0.0
1031
0.0
1021
0.3748623700812459
1031
0.0
  0
VERTEX
  5
39A
  8
SQUARES
 10
734256.76359550527
 20
4555870.1377528086
 30
0.0
  0
VERTEX
  5
39B
  8
SQUARES
 10
734254.10584269639
 20
4555865.9013483152
 30
0.0
  0
VERTEX
  5
39C
  8
SQUARES
 10
734249.86943820224
 20
4555868.5591011234
 30
0.0
  0
VERTEX
  5
39D
  8
SQUARES
 10
734252.52719101124
 20
4555872.7955056168
 30
0.0
  0
SEQEND
  5
39E
  8
SQUARES
  0
POLYLINE
  5
D1
  8
SQUARES
 66
     1
 10
0.0
 20
0.0
 30
0.0
 70
     1
1001
DCO15
1071
        2
1071
        2
1000
colsq
1004
073130333300
1001
ADE
1011
-0.6761601745383814
1021
0.0
1031
0.0
1021
-1.4312139013782139
1031
0.0
  0
VERTEX
  5
39F
  8
SQUARES
 10
734195.34499999997
 20
4555889.915
 30
0.0
  0
VERTEX
  5
3A0
  8
SQUARES
 10
734198.79999999993
 20
4555893.5300000003
 30
0.0
  0
VERTEX
  5
3A1
  8
SQUARES
 10
734195.18500000041
 20
4555896.9850000003
 30
0.0
  0
VERTEX
  5
3A2
  8
SQUARES
 10
734191.73000000021
 20
4555893.3700000001
 30
0.0
  0
SEQEND
  5
3A3
  8
SQUARES
  0
POLYLINE
  5
D2
  8
SQUARES
 66
     1
 10
0.0
 20
0.0
 30
0.0
 70
     1
1001
DCO15
1071
        2
1071
        2
1000
colsq
1004
073130333200
1001
ADE
1011
-1.069467427791096
1021
0.0
1031
0.0
1021
-1.16681598406285
1031
0.0
  0
VERTEX
  5
3A4
  8
SQUARES
 10
734203.49000000011
 20
4555864.2000000011
 30
0.0
  0
VERTEX
  5
3A5
  8
SQUARES
 10
734205.92000000027
 20
4555859.830000001
 30
0.0
  0
VERTEX
  5
3A6
  8
SQUARES
 10
734210.28999999992
 20
4555862.2599999998
 30
0.0
  0
VERTEX
  5
3A7
  8
SQUARES
 10
734207.85999999987
 20
4555866.6300000008
 30
0.0
  0
SEQEND
  5
3A8
  8
SQUARES
  0
POLYLINE
  5
D3
  8
SQUARES
 66
     1
 10
0.0
 20
0.0
 30
0.0
 70
     1
1001
DCO15
1071
        2
1071
        2
1000
colsq
1004
073130333000
1001
ADE
1011
-1.0694674279075109
1021
0.0
1031
0.0
1021
-1.16681598406285
1031
0.0
  0
VERTEX
  5
3A9
  8
SQUARES
 10
734205.43000000005
 20
4555871.0
 30
0.0
  0
VERTEX
  5
3AA
  8
SQUARES
 10
734207.85999999987
 20
4555866.6300000008
 30
0.0
  0
VERTEX
  5
3AB
  8
SQUARES
 10
734203.49000000011
 20
4555864.2000000011
 30
0.0
  0
VERTEX
  5
3AC
  8
SQUARES
 10
734201.06000000029
 20
4555868.5700000003
 30
0.0
  0
SEQEND
  5
3AD
  8
SQUARES
  0
POLYLINE
  5
D4
  8
SQUARES
 66
     1
 10
0.0
 20
0.0
 30
0.0
 70
     1
1001
DCO15
1071
        2
1071
        2
1000
colsq
1004
073130313300
1001
ADE
1011
-1.158847602433525
1021
0.0
1031
0.0
1021
-1.0779365748167029
1031
0.0
  0
VERTEX
  5
3AE
  8
SQUARES
 10
734120.91879999998
 20
4555871.7315999996
 30
0.0
  0
VERTEX
  5
3AF
  8
SQUARES
 10
734118.84439999994
 20
4555876.2808000008
 30
0.0
  0
VERTEX
  5
3B0
  8
SQUARES
 10
734123.39359999995
 20
4555878.3552000001
 30
0.0
  0
VERTEX
  5
3B1
  8
SQUARES
 10
734125.46799999999
 20
4555873.8060000008
 30
0.0
  0
SEQEND
  5
3B2
  8
SQUARES
  0
POLYLINE
  5
D5
  8
SQUARES
 66
     1
 10
0.0
 20
0.0
 30
0.0
 70
     1
1001
DCO15
1071
        2
1071
        2
1000
colsq
1004
073130303200
1001
ADE
1011
-1.158847602433525
1021
0.0
1031
0.0
1021
-1.0779365748167029
1031
0.0
  0
VERTEX
  5
3B3
  8
SQUARES
 10
734117.57079999999
 20
4555903.1756000007
 30
0.0
  0
VERTEX
  5
3B4
  8
SQUARES
 10
734119.64520000014
 20
4555898.6264000004
 30
0.0
  0
VERTEX
  5
3B5
  8
SQUARES
 10
734124.19440000004
 20
4555900.7008000007
 30
0.0
  0
VERTEX
  5
3B6
  8
SQUARES
 10
734122.11999999988
 20
4555905.2500000009
 30
0.0
  0
SEQEND
  5
3B7
  8
SQUARES
  0
POLYLINE
  5
D6
  8
SQUARES
 66
     1
 10
0.0
 20
0.0
 30
0.0
 70
     1
1001
DCO15
1071
        2
1071
        2
1000
colsq
1004
073130313200
1001
ADE
1011
-1.158847602433525
1021
0.0
1031
0.0
1021
-1.0779365748167029
1031
0.0
  0
VERTEX
  5
3B8
  8
SQUARES
 10
734134.96680000005
 20
4555889.1276000002
 30
0.0
  0
VERTEX
  5
3B9
  8
SQUARES
 10
734137.04120000021
 20
4555884.5784
 30
0.0
  0
VERTEX
  5
3BA
  8
SQUARES
 10
734132.4920000002
 20
4555882.5040000007
 30
0.0
  0
VERTEX
  5
3BB
  8
SQUARES
 10
734130.41760000004
 20
4555887.0532
 30
0.0
  0
SEQEND
  5
3BC
  8
SQUARES
  0
POLYLINE
  5
D7
  8
SQUARES
 66
     1
 10
0.0
 20
0.0
 30
0.0
 70
     1
1001
DCO15
1071
        2
1071
        2
1000
colsq
1004
073131333900
1001
ADE
1011
-1.5648021128727121
1021
0.0
1031
0.0
1021
0.2403047224506736
1031
0.0
  0
VERTEX
  5
3BD
  8
SQUARES
 10
734148.13269230758
 20
4555978.4265384609
 30
0.0
  0
VERTEX
  5
3BE
  8
SQUARES
 10
734143.68230769224
 20
4555980.708461538
 30
0.0
  0
VERTEX
  5
3BF
  8
SQUARES
 10
734145.96423076908
 20
4555985.1588461529
 30
0.0
  0
VERTEX
  5
3C0
  8
SQUARES
 10
734150.41461538442
 20
4555982.8769230759
 30
0.0
  0
SEQEND
  5
3C1
  8
SQUARES
  0
POLYLINE
  5
D8
  8
SQUARES
 66
     1
 10
0.0
 20
0.0
 30
0.0
 70
     1
1001
DCO15
1071
        2
1071
        2
1000
colsq
1004
073131343600
1001
ADE
1011
-1.564342356752604
1021
0.0
1031
0.0
1021
0.2412013746798038
1031
0.0
  0
VERTEX
  5
3C2
  8
SQUARES
 10
734150.18769230787
 20
4555960.5115384609
 30
0.0
  0
VERTEX
  5
3C3
  8
SQUARES
 10
734152.4696153847
 20
4555964.9619230768
 30
0.0
  0
VERTEX
  5
3C4
  8
SQUARES
 10
734156.92000000004
 20
4555962.6799999997
 30
0.0
  0
VERTEX
  5
3C5
  8
SQUARES
 10
734154.63807692321
 20
4555958.2296153829
 30
0.0
  0
SEQEND
  5
3C6
  8
SQUARES
  0
POLYLINE
  5
D9
  8
SQUARES
 66
     1
 10
0.0
 20
0.0
 30
0.0
 70
     1
1001
DCO15
1071
        2
1071
        2
1000
colsq
1004
073131333200
1001
ADE
1011
-1.564802112989127
1021
0.0
1031
0.0
1021
0.2403047224506736
1031
0.0
  0
VERTEX
  5
3C7
  8
SQUARES
 10
734179.3988461541
 20
4555973.6357692303
 30
0.0
  0
VERTEX
  5
3C8
  8
SQUARES
 10
734174.94846153865
 20
4555975.9176923074
 30
0.0
  0
VERTEX
  5
3C9
  8
SQUARES
 10
734177.23038461525
 20
4555980.3680769224
 30
0.0
  0
VERTEX
  5
3CA
  8
SQUARES
 10
734181.68076923082
 20
4555978.0861538453
 30
0.0
  0
SEQEND
  5
3CB
  8
SQUARES
  0
POLYLINE
  5
DA
  8
SQUARES
 66
     1
 10
0.0
 20
0.0
 30
0.0
 70
     1
1001
DCO15
1071
        2
1071
        2
1000
colsq
1004
073131323300
1001
ADE
1011
-1.5648021127562961
1021
0.0
1031
0.0
1021
0.2403047233819961
1031
0.0
  0
VERTEX
  5
3CC
  8
SQUARES
 10
734183.96269230742
 20
4555982.5365384603
 30
0.0
  0
VERTEX
  5
3CD
  8
SQUARES
 10
734179.51230769197
 20
4555984.8184615374
 30
0.0
  0
VERTEX
  5
3CE
  8
SQUARES
 10
734181.79423076916
 20
4555989.2688461533
 30
0.0
  0
VERTEX
  5
3CF
  8
SQUARES
 10
734186.24461538438
 20
4555986.9869230762
 30
0.0
  0
SEQEND
  5
3D0
  8
SQUARES
  0
POLYLINE
  5
DB
  8
SQUARES
 66
     1
 10
0.0
 20
0.0
 30
0.0
 70
     1
1001
DCO15
1071
        2
1071
        2
1000
colsq
1004
073131323700
1001
ADE
1011
-1.5695529265794901
1021
0.0
1031
0.0
1021
0.2310393145307898
1031
0.0
  0
VERTEX
  5
3D1
  8
SQUARES
 10
734186.13115384604
 20
4555975.8042307692
 30
0.0
  0
VERTEX
  5
3D2
  8
SQUARES
 10
734181.68076923082
 20
4555978.0861538453
 30
0.0
  0
VERTEX
  5
3D3
  8
SQUARES
 10
734183.96269230742
 20
4555982.5365384603
 30
0.0
  0
VERTEX
  5
3D4
  8
SQUARES
 10
734188.41307692265
 20
4555980.2546153842
 30
0.0
  0
SEQEND
  5
3D5
  8
SQUARES
  0
POLYLINE
  5
DC
  8
SQUARES
 66
     1
 10
0.0
 20
0.0
 30
0.0
 70
     1
1001
DCO15
1071
        2
1071
        2
1000
colsq
1004
073131333300
1001
ADE
1011
-1.5648021128727121
1021
0.0
1031
0.0
1021
0.2403047224506736
1031
0.0
  0
VERTEX
  5
3D6
  8
SQUARES
 10
734188.29961538478
 20
4555969.0719230771
 30
0.0
  0
VERTEX
  5
3D7
  8
SQUARES
 10
734183.84923076932
 20
4555971.3538461542
 30
0.0
  0
VERTEX
  5
3D8
  8
SQUARES
 10
734186.13115384604
 20
4555975.8042307692
 30
0.0
  0
VERTEX
  5
3D9
  8
SQUARES
 10
734190.5815384615
 20
4555973.5223076921
 30
0.0
  0
SEQEND
  5
3DA
  8
SQUARES
  0
POLYLINE
  5
DD
  8
SQUARES
 66
     1
 10
0.0
 20
0.0
 30
0.0
 70
     1
1001
DCO15
1071
        2
1071
        2
1000
colsq
1004
073130373900
1001
ADE
1011
-1.473317771800793
1021
0.0
1031
0.0
1021
0.5777924600988627
1031
0.0
  0
VERTEX
  5
3DB
  8
SQUARES
 10
734319.28918918956
 20
4556071.0148648648
 30
0.0
  0
VERTEX
  5
3DC
  8
SQUARES
 10
734315.4489189192
 20
4556074.2164864875
 30
0.0
  0
VERTEX
  5
3DD
  8
SQUARES
 10
734318.65054054046
 20
4556078.0567567572
 30
0.0
  0
VERTEX
  5
3DE
  8
SQUARES
 10
734322.49081081082
 20
4556074.8551351363
 30
0.0
  0
SEQEND
  5
3DF
  8
SQUARES
  0
POLYLINE
  5
DE
  8
SQUARES
 66
     1
 10
0.0
 20
0.0
 30
0.0
 70
     1
1001
DCO15
1071
        2
1071
        2
1000
colsq
1004
073130373600
1001
ADE
1011
-1.4733177716843779
1021
0.0
1031
0.0
1021
0.5777924600988627
1031
0.0
  0
VERTEX
  5
3E0
  8
SQUARES
 10
734322.49081081082
 20
4556074.8551351363
 30
0.0
  0
VERTEX
  5
3E1
  8
SQUARES
 10
734318.65054054046
 20
4556078.0567567572
 30
0.0
  0
VERTEX
  5
3E2
  8
SQUARES
 10
734321.85216216219
 20
4556081.8970270278
 30
0.0
  0
VERTEX
  5
3E3
  8
SQUARES
 10
734325.69243243255
 20
4556078.6954054059
 30
0.0
  0
SEQEND
  5
3E4
  8
SQUARES
  0
POLYLINE
  5
DF
  8
SQUARES
 66
     1
 10
0.0
 20
0.0
 30
0.0
 70
     1
1001
DCO15
1071
        2
1071
        2
1000
colsq
1004
073130383100
1001
ADE
1011
-1.4735327900852999
1021
0.0
1031
0.0
1021
0.5775345508009196
1031
0.0
  0
VERTEX
  5
3E5
  8
SQUARES
 10
734326.96972973004
 20
4556064.611621622
 30
0.0
  0
VERTEX
  5
3E6
  8
SQUARES
 10
734323.12945945992
 20
4556067.8132432429
 30
0.0
  0
VERTEX
  5
3E7
  8
SQUARES
 10
734326.3310810813
 20
4556071.6535135144
 30
0.0
  0
VERTEX
  5
3E8
  8
SQUARES
 10
734330.17135135131
 20
4556068.4518918926
 30
0.0
  0
SEQEND
  5
3E9
  8
SQUARES
  0
POLYLINE
  5
E0
  8
SQUARES
 66
     1
 10
0.0
 20
0.0
 30
0.0
 70
     1
1001
DCO15
1071
        2
1071
        2
1000
colsq
1004
073130393500
1001
ADE
1011
-0.5542442674050108
1021
0.0
1031
0.0
1021
-1.4823098899796601
1031
0.0
  0
VERTEX
  5
3EA
  8
SQUARES
 10
734302.06499999994
 20
4556131.5107142841
 30
0.0
  0
VERTEX
  5
3EB
  8
SQUARES
 10
734305.95571428572
 20
4556128.3707142854
 30
0.0
  0
VERTEX
  5
3EC
  8
SQUARES
 10
734302.81571428583
 20
4556124.4799999977
 30
0.0
  0
VERTEX
  5
3ED
  8
SQUARES
 10
734298.92499999993
 20
4556127.6199999982
 30
0.0
  0
SEQEND
  5
3EE
  8
SQUARES
  0
POLYLINE
  5
E1
  8
SQUARES
 66
     1
 10
0.0
 20
0.0
 30
0.0
 70
     1
1001
DCO15
1071
        2
1071
        2
1000
colsq
1004
073131313600
1001
ADE
1011
-0.5228233713423834
1021
0.0
1031
0.0
1021
-1.4934274200350039
1031
0.0
  0
VERTEX
  5
3EF
  8
SQUARES
 10
734299.23142857151
 20
4556100.3385714293
 30
0.0
  0
VERTEX
  5
3F0
  8
SQUARES
 10
734296.17571428581
 20
4556096.3814285723
 30
0.0
  0
VERTEX
  5
3F1
  8
SQUARES
 10
734292.21857142856
 20
4556099.4371428583
 30
0.0
  0
VERTEX
  5
3F2
  8
SQUARES
 10
734295.27428571414
 20
4556103.3942857152
 30
0.0
  0
SEQEND
  5
3F3
  8
SQUARES
  0
POLYLINE
  5
E2
  8
SQUARES
 66
     1
 10
0.0
 20
0.0
 30
0.0
 70
     1
1001
DCO15
1071
        2
1071
        2
1000
colsq
1004
073130363700
1001
ADE
1011
-1.465350768296048
1021
0.0
1031
0.0
1021
0.5971704656258227
1031
0.0
  0
VERTEX
  5
3F4
  8
SQUARES
 10
734302.73705882335
 20
4556010.5382352937
 30
0.0
  0
VERTEX
  5
3F5
  8
SQUARES
 10
734298.93999999994
 20
4556013.79
 30
0.0
  0
VERTEX
  5
3F6
  8
SQUARES
 10
734302.19176470593
 20
4556017.5870588236
 30
0.0
  0
VERTEX
  5
3F7
  8
SQUARES
 10
734305.98882352945
 20
4556014.3352941172
 30
0.0
  0
SEQEND
  5
3F8
  8
SQUARES
  0
POLYLINE
  5
E3
  8
SQUARES
 66
     1
 10
0.0
 20
0.0
 30
0.0
 70
     1
1001
DCO15
1071
        2
1071
        2
1000
colsq
1004
073130363200
1001
ADE
1011
-1.4655691540101541
1021
0.0
1031
0.0
1021
0.5969154592603445
1031
0.0
  0
VERTEX
  5
3F9
  8
SQUARES
 10
734309.24058823509
 20
4556018.1323529398
 30
0.0
  0
VERTEX
  5
3FA
  8
SQUARES
 10
734305.4435294118
 20
4556021.3841176461
 30
0.0
  0
VERTEX
  5
3FB
  8
SQUARES
 10
734308.69529411767
 20
4556025.1811764697
 30
0.0
  0
VERTEX
  5
3FC
  8
SQUARES
 10
734312.49235294119
 20
4556021.9294117643
 30
0.0
  0
SEQEND
  5
3FD
  8
SQUARES
  0
POLYLINE
  5
E4
  8
SQUARES
 66
     1
 10
0.0
 20
0.0
 30
0.0
 70
     1
1001
DCO15
1071
        2
1071
        2
1000
colsq
1004
073130363600
1001
ADE
1011
-1.465350768296048
1021
0.0
1031
0.0
1021
0.5971704656258227
1031
0.0
  0
VERTEX
  5
3FE
  8
SQUARES
 10
734309.7858823525
 20
4556011.08352941
 30
0.0
  0
VERTEX
  5
3FF
  8
SQUARES
 10
734305.98882352945
 20
4556014.3352941172
 30
0.0
  0
VERTEX
  5
400
  8
SQUARES
 10
734309.24058823509
 20
4556018.1323529398
 30
0.0
  0
VERTEX
  5
401
  8
SQUARES
 10
734313.03764705861
 20
4556014.8805882344
 30
0.0
  0
SEQEND
  5
402
  8
SQUARES
  0
POLYLINE
  5
E5
  8
SQUARES
 66
     1
 10
0.0
 20
0.0
 30
0.0
 70
     1
1001
DCO15
1071
        2
1071
        2
1000
colsq
1004
073130353700
1001
ADE
1011
-1.4653507681796321
1021
0.0
1031
0.0
1021
0.5971704656258227
1031
0.0
  0
VERTEX
  5
403
  8
SQUARES
 10
734319.5411764707
 20
4556022.4747058824
 30
0.0
  0
VERTEX
  5
404
  8
SQUARES
 10
734315.74411764694
 20
4556025.7264705878
 30
0.0
  0
VERTEX
  5
405
  8
SQUARES
 10
734318.99588235305
 20
4556029.5235294113
 30
0.0
  0
VERTEX
  5
406
  8
SQUARES
 10
734320.89441176481
 20
4556027.8976470577
 30
0.0
  0
VERTEX
  5
407
  8
SQUARES
 10
734322.79294117657
 20
4556026.271764705
 30
0.0
  0
SEQEND
  5
408
  8
SQUARES
  0
POLYLINE
  5
E6
  8
SQUARES
 66
     1
 10
0.0
 20
0.0
 30
0.0
 70
     1
1001
DCO15
1071
        2
1071
        2
1000
colsq
1004
073130343000
1001
ADE
1011
-1.5525381446350359
1021
0.0
1031
0.0
1021
0.3056603213772178
1031
0.0
  0
VERTEX
  5
409
  8
SQUARES
 10
734219.86108108098
 20
4555932.7164864866
 30
0.0
  0
VERTEX
  5
40A
  8
SQUARES
 10
734217.39621621615
 20
4555928.3672972973
 30
0.0
  0
VERTEX
  5
40B
  8
SQUARES
 10
734221.74540540541
 20
4555925.9024324333
 30
0.0
  0
VERTEX
  5
40C
  8
SQUARES
 10
734224.21027027024
 20
4555930.2516216217
 30
0.0
  0
SEQEND
  5
40D
  8
SQUARES
  0
POLYLINE
  5
E7
  8
SQUARES
 66
     1
 10
0.0
 20
0.0
 30
0.0
 70
     1
1001
DCO15
1071
        2
1071
        2
1000
colsq
1004
073130333900
1001
ADE
1011
-1.5527036829153069
1021
0.0
1031
0.0
1021
0.3053682325407863
1031
0.0
  0
VERTEX
  5
40E
  8
SQUARES
 10
734226.67513513518
 20
4555934.6008108109
 30
0.0
  0
VERTEX
  5
40F
  8
SQUARES
 10
734224.21027027024
 20
4555930.2516216217
 30
0.0
  0
VERTEX
  5
410
  8
SQUARES
 10
734219.86108108098
 20
4555932.7164864866
 30
0.0
  0
VERTEX
  5
411
  8
SQUARES
 10
734222.32594594581
 20
4555937.0656756759
 30
0.0
  0
SEQEND
  5
412
  8
SQUARES
  0
POLYLINE
  5
E8
  8
SQUARES
 66
     1
 10
0.0
 20
0.0
 30
0.0
 70
     1
1001
DCO15
1071
        2
1071
        2
1000
colsq
1004
073130333400
1001
ADE
1011
-0.6761601746547968
1021
0.0
1031
0.0
1021
-1.4312139004468909
1031
0.0
  0
VERTEX
  5
413
  8
SQUARES
 10
734195.18500000041
 20
4555896.9850000003
 30
0.0
  0
VERTEX
  5
414
  8
SQUARES
 10
734198.79999999993
 20
4555893.5300000003
 30
0.0
  0
VERTEX
  5
415
  8
SQUARES
 10
734202.25499999989
 20
4555897.1450000014
 30
0.0
  0
VERTEX
  5
416
  8
SQUARES
 10
734198.64000000001
 20
4555900.5999999996
 30
0.0
  0
SEQEND
  5
417
  8
SQUARES
  0
POLYLINE
  5
E9
  8
SQUARES
 66
     1
 10
0.0
 20
0.0
 30
0.0
 70
     1
1001
DCO15
1071
        2
1071
        2
1000
colsq
1004
073130323200
1001
ADE
1011
-1.158847602433525
1021
0.0
1031
0.0
1021
-1.0779365748167029
1031
0.0
  0
VERTEX
  5
418
  8
SQUARES
 10
734134.16600000008
 20
4555866.7820000006
 30
0.0
  0
VERTEX
  5
419
  8
SQUARES
 10
734136.24039999978
 20
4555862.2328000003
 30
0.0
  0
VERTEX
  5
41A
  8
SQUARES
 10
734131.6912
 20
4555860.1584000001
 30
0.0
  0
VERTEX
  5
41B
  8
SQUARES
 10
734129.61679999984
 20
4555864.7076000003
 30
0.0
  0
SEQEND
  5
41C
  8
SQUARES
  0
POLYLINE
  5
EA
  8
SQUARES
 66
     1
 10
0.0
 20
0.0
 30
0.0
 70
     1
1001
DCO15
1071
        2
1071
        2
1000
colsq
1004
073130303500
1001
ADE
1011
-1.1589869174640619
1021
0.0
1031
0.0
1021
-1.077631052583456
1031
0.0
  0
VERTEX
  5
41D
  8
SQUARES
 10
734121.71959999995
 20
4555894.0772000002
 30
0.0
  0
VERTEX
  5
41E
  8
SQUARES
 10
734123.79399999999
 20
4555889.5280000009
 30
0.0
  0
VERTEX
  5
41F
  8
SQUARES
 10
734119.24479999999
 20
4555887.4535999997
 30
0.0
  0
VERTEX
  5
420
  8
SQUARES
 10
734117.17039999994
 20
4555892.0028000008
 30
0.0
  0
SEQEND
  5
421
  8
SQUARES
  0
POLYLINE
  5
EB
  8
SQUARES
 66
     1
 10
0.0
 20
0.0
 30
0.0
 70
     1
1001
DCO15
1071
        2
1071
        2
1000
colsq
1004
073130303300
1001
ADE
1011
-1.158847602433525
1021
0.0
1031
0.0
1021
-1.0779365748167029
1031
0.0
  0
VERTEX
  5
422
  8
SQUARES
 10
734119.64520000014
 20
4555898.6264000004
 30
0.0
  0
VERTEX
  5
423
  8
SQUARES
 10
734121.71959999995
 20
4555894.0772000002
 30
0.0
  0
VERTEX
  5
424
  8
SQUARES
 10
734117.17039999994
 20
4555892.0028000008
 30
0.0
  0
VERTEX
  5
425
  8
SQUARES
 10
734115.0959999999
 20
4555896.5520000001
 30
0.0
  0
SEQEND
  5
426
  8
SQUARES
  0
POLYLINE
  5
EC
  8
SQUARES
 66
     1
 10
0.0
 20
0.0
 30
0.0
 70
     1
1001
DCO15
1071
        2
1071
        2
1000
colsq
1004
073130323500
1001
ADE
1011
-1.158847602433525
1021
0.0
1031
0.0
1021
-1.0779365748167029
1031
0.0
  0
VERTEX
  5
427
  8
SQUARES
 10
734142.86400000006
 20
4555859.7580000013
 30
0.0
  0
VERTEX
  5
428
  8
SQUARES
 10
734140.7895999999
 20
4555864.3072000006
 30
0.0
  0
VERTEX
  5
429
  8
SQUARES
 10
734136.24039999978
 20
4555862.2328000003
 30
0.0
  0
VERTEX
  5
42A
  8
SQUARES
 10
734138.31480000017
 20
4555857.6836000001
 30
0.0
  0
SEQEND
  5
42B
  8
SQUARES
  0
POLYLINE
  5
ED
  8
SQUARES
 66
     1
 10
0.0
 20
0.0
 30
0.0
 70
     1
1001
DCO15
1071
        2
1071
        2
1000
colsq
1004
073130323100
1001
ADE
1011
-1.158847602433525
1021
0.0
1031
0.0
1021
-1.0779365757480259
1031
0.0
  0
VERTEX
  5
42C
  8
SQUARES
 10
734138.71520000021
 20
4555868.8563999999
 30
0.0
  0
VERTEX
  5
42D
  8
SQUARES
 10
734136.64080000005
 20
4555873.4056000002
 30
0.0
  0
VERTEX
  5
42E
  8
SQUARES
 10
734132.09160000004
 20
4555871.3311999999
 30
0.0
  0
VERTEX
  5
42F
  8
SQUARES
 10
734134.16600000008
 20
4555866.7820000006
 30
0.0
  0
SEQEND
  5
430
  8
SQUARES
  0
POLYLINE
  5
EE
  8
SQUARES
 66
     1
 10
0.0
 20
0.0
 30
0.0
 70
     1
1001
DCO15
1071
        2
1071
        2
1000
colsq
1004
073131343400
1001
ADE
1011
-1.5655683731893071
1021
0.0
1031
0.0
1021
0.2388103017583489
1031
0.0
  0
VERTEX
  5
431
  8
SQUARES
 10
734159.20192307699
 20
4555967.1303846138
 30
0.0
  0
VERTEX
  5
432
  8
SQUARES
 10
734154.75153846154
 20
4555969.4123076918
 30
0.0
  0
VERTEX
  5
433
  8
SQUARES
 10
734157.03346153849
 20
4555973.8626923077
 30
0.0
  0
VERTEX
  5
434
  8
SQUARES
 10
734161.48384615395
 20
4555971.5807692306
 30
0.0
  0
SEQEND
  5
435
  8
SQUARES
  0
POLYLINE
  5
EF
  8
SQUARES
 66
     1
 10
0.0
 20
0.0
 30
0.0
 70
     1
1001
DCO15
1071
        2
1071
        2
1000
colsq
1004
073131323600
1001
ADE
1011
-1.5648021127562961
1021
0.0
1031
0.0
1021
0.2403047233819961
1031
0.0
  0
VERTEX
  5
436
  8
SQUARES
 10
734177.23038461525
 20
4555980.3680769224
 30
0.0
  0
VERTEX
  5
437
  8
SQUARES
 10
734172.7799999998
 20
4555982.6499999994
 30
0.0
  0
VERTEX
  5
438
  8
SQUARES
 10
734175.06192307652
 20
4555987.1003846154
 30
0.0
  0
VERTEX
  5
439
  8
SQUARES
 10
734179.51230769197
 20
4555984.8184615374
 30
0.0
  0
SEQEND
  5
43A
  8
SQUARES
  0
POLYLINE
  5
F0
  8
SQUARES
 66
     1
 10
0.0
 20
0.0
 30
0.0
 70
     1
1001
DCO15
1071
        2
1071
        2
1000
colsq
1004
073130373500
1001
ADE
1011
-1.473317771800793
1021
0.0
1031
0.0
1021
0.5777924600988627
1031
0.0
  0
VERTEX
  5
43B
  8
SQUARES
 10
734318.65054054046
 20
4556078.0567567572
 30
0.0
  0
VERTEX
  5
43C
  8
SQUARES
 10
734321.85216216219
 20
4556081.8970270278
 30
0.0
  0
VERTEX
  5
43D
  8
SQUARES
 10
734318.01189189195
 20
4556085.0986486487
 30
0.0
  0
VERTEX
  5
43E
  8
SQUARES
 10
734314.81027027033
 20
4556081.2583783781
 30
0.0
  0
SEQEND
  5
43F
  8
SQUARES
  0
POLYLINE
  5
F1
  8
SQUARES
 66
     1
 10
0.0
 20
0.0
 30
0.0
 70
     1
1001
DCO15
1071
        2
1071
        2
1000
colsq
1004
073130373800
1001
ADE
1011
-1.4735327902017159
1021
0.0
1031
0.0
1021
0.5775345508009196
1031
0.0
  0
VERTEX
  5
440
  8
SQUARES
 10
734333.37297297316
 20
4556072.2921621632
 30
0.0
  0
VERTEX
  5
441
  8
SQUARES
 10
734329.5327027028
 20
4556075.4937837841
 30
0.0
  0
VERTEX
  5
442
  8
SQUARES
 10
734326.3310810813
 20
4556071.6535135144
 30
0.0
  0
VERTEX
  5
443
  8
SQUARES
 10
734330.17135135131
 20
4556068.4518918926
 30
0.0
  0
SEQEND
  5
444
  8
SQUARES
  0
POLYLINE
  5
F2
  8
SQUARES
 66
     1
 10
0.0
 20
0.0
 30
0.0
 70
     1
1001
DCO15
1071
        2
1071
        2
1000
colsq
1004
073131303900
1001
ADE
1011
-0.5222918544895947
1021
0.0
1031
0.0
1021
-1.4938378585502501
1031
0.0
  0
VERTEX
  5
445
  8
SQUARES
 10
734280.34714285703
 20
4556108.6042857151
 30
0.0
  0
VERTEX
  5
446
  8
SQUARES
 10
734277.29142857133
 20
4556104.6471428582
 30
0.0
  0
VERTEX
  5
447
  8
SQUARES
 10
734273.33428571431
 20
4556107.7028571442
 30
0.0
  0
VERTEX
  5
448
  8
SQUARES
 10
734276.39000000001
 20
4556111.6600000011
 30
0.0
  0
SEQEND
  5
449
  8
SQUARES
  0
POLYLINE
  5
F3
  8
SQUARES
 66
     1
 10
0.0
 20
0.0
 30
0.0
 70
     1
1001
DCO15
1071
        2
1071
        2
1000
colsq
1004
073130343400
1001
ADE
1011
-1.5525381446350359
1021
0.0
1031
0.0
1021
0.3056603204458952
1031
0.0
  0
VERTEX
  5
44A
  8
SQUARES
 10
734218.69999999995
 20
4555910.3899999997
 30
0.0
  0
VERTEX
  5
44B
  8
SQUARES
 10
734221.1648648649
 20
4555914.7391891889
 30
0.0
  0
VERTEX
  5
44C
  8
SQUARES
 10
734216.81567567564
 20
4555917.2040540529
 30
0.0
  0
VERTEX
  5
44D
  8
SQUARES
 10
734214.35081081069
 20
4555912.8548648637
 30
0.0
  0
SEQEND
  5
44E
  8
SQUARES
  0
POLYLINE
  5
F4
  8
SQUARES
 66
     1
 10
0.0
 20
0.0
 30
0.0
 70
     1
1001
DCO15
1071
        2
1071
        2
1000
colsq
1004
073130343200
1001
ADE
1011
-1.552703683031722
1021
0.0
1031
0.0
1021
0.3053682334721088
1031
0.0
  0
VERTEX
  5
44F
  8
SQUARES
 10
734221.1648648649
 20
4555914.7391891889
 30
0.0
  0
VERTEX
  5
450
  8
SQUARES
 10
734223.62972972973
 20
4555919.0883783782
 30
0.0
  0
VERTEX
  5
451
  8
SQUARES
 10
734219.28054054047
 20
4555921.5532432431
 30
0.0
  0
VERTEX
  5
452
  8
SQUARES
 10
734216.81567567564
 20
4555917.2040540529
 30
0.0
  0
SEQEND
  5
453
  8
SQUARES
  0
POLYLINE
  5
F5
  8
SQUARES
 66
     1
 10
0.0
 20
0.0
 30
0.0
 70
     1
1001
DCO15
1071
        2
1071
        2
1000
colsq
1004
073130343100
1001
ADE
1011
-1.5525381446350359
1021
0.0
1031
0.0
1021
0.3056603204458952
1031
0.0
  0
VERTEX
  5
454
  8
SQUARES
 10
734223.62972972973
 20
4555919.0883783782
 30
0.0
  0
VERTEX
  5
455
  8
SQUARES
 10
734226.09459459456
 20
4555923.4375675675
 30
0.0
  0
VERTEX
  5
456
  8
SQUARES
 10
734221.74540540541
 20
4555925.9024324333
 30
0.0
  0
VERTEX
  5
457
  8
SQUARES
 10
734219.28054054047
 20
4555921.5532432431
 30
0.0
  0
SEQEND
  5
458
  8
SQUARES
  0
POLYLINE
  5
F6
  8
SQUARES
 66
     1
 10
0.0
 20
0.0
 30
0.0
 70
     1
1001
DCO15
1071
        2
1071
        2
1000
colsq
1004
073130333500
1001
ADE
1011
-0.6761601745383814
1021
0.0
1031
0.0
1021
-1.4312139013782139
1031
0.0
  0
VERTEX
  5
459
  8
SQUARES
 10
734198.79999999993
 20
4555893.5300000003
 30
0.0
  0
VERTEX
  5
45A
  8
SQUARES
 10
734202.41499999992
 20
4555890.0750000002
 30
0.0
  0
VERTEX
  5
45B
  8
SQUARES
 10
734198.95999999985
 20
4555886.46
 30
0.0
  0
VERTEX
  5
45C
  8
SQUARES
 10
734195.34499999997
 20
4555889.915
 30
0.0
  0
SEQEND
  5
45D
  8
SQUARES
  0
POLYLINE
  5
F7
  8
SQUARES
 66
     1
 10
0.0
 20
0.0
 30
0.0
 70
     1
1001
DCO15
1071
        2
1071
        2
1000
colsq
1004
073130323900
1001
ADE
1011
-1.069467427791096
1021
0.0
1031
0.0
1021
-1.166815983131527
1031
0.0
  0
VERTEX
  5
45E
  8
SQUARES
 10
734199.12000000011
 20
4555861.7699999996
 30
0.0
  0
VERTEX
  5
45F
  8
SQUARES
 10
734196.69000000018
 20
4555866.1399999997
 30
0.0
  0
VERTEX
  5
460
  8
SQUARES
 10
734201.06000000029
 20
4555868.5700000003
 30
0.0
  0
VERTEX
  5
461
  8
SQUARES
 10
734203.49000000011
 20
4555864.2000000011
 30
0.0
  0
SEQEND
  5
462
  8
SQUARES
  0
POLYLINE
  5
F8
  8
SQUARES
 66
     1
 10
0.0
 20
0.0
 30
0.0
 70
     1
1001
DCO15
1071
        2
1071
        2
1000
colsq
1004
073130313100
1001
ADE
1011
-1.158986917580477
1021
0.0
1031
0.0
1021
-1.077631052583456
1031
0.0
  0
VERTEX
  5
463
  8
SQUARES
 10
734132.4920000002
 20
4555882.5040000007
 30
0.0
  0
VERTEX
  5
464
  8
SQUARES
 10
734130.41760000004
 20
4555887.0532
 30
0.0
  0
VERTEX
  5
465
  8
SQUARES
 10
734125.86840000015
 20
4555884.9787999997
 30
0.0
  0
VERTEX
  5
466
  8
SQUARES
 10
734127.94279999984
 20
4555880.4296000013
 30
0.0
  0
SEQEND
  5
467
  8
SQUARES
  0
POLYLINE
  5
F9
  8
SQUARES
 66
     1
 10
0.0
 20
0.0
 30
0.0
 70
     1
1001
DCO15
1071
        2
1071
        2
1000
colsq
1004
073130313600
1001
ADE
1011
-1.1589869174640619
1021
0.0
1031
0.0
1021
-1.077631052583456
1031
0.0
  0
VERTEX
  5
468
  8
SQUARES
 10
734137.04120000021
 20
4555884.5784
 30
0.0
  0
VERTEX
  5
469
  8
SQUARES
 10
734139.11560000025
 20
4555880.0291999998
 30
0.0
  0
VERTEX
  5
46A
  8
SQUARES
 10
734134.56640000013
 20
4555877.9548000004
 30
0.0
  0
VERTEX
  5
46B
  8
SQUARES
 10
734132.4920000002
 20
4555882.5040000007
 30
0.0
  0
SEQEND
  5
46C
  8
SQUARES
  0
POLYLINE
  5
FA
  8
SQUARES
 66
     1
 10
0.0
 20
0.0
 30
0.0
 70
     1
1001
DCO15
1071
        2
1071
        2
1000
colsq
1004
073130383900
1001
ADE
1011
-0.5539829704212025
1021
0.0
1031
0.0
1021
-1.482520771212875
1031
0.0
  0
VERTEX
  5
46D
  8
SQUARES
 10
734287.25285714294
 20
4556137.0399999982
 30
0.0
  0
VERTEX
  5
46E
  8
SQUARES
 10
734283.36214285705
 20
4556140.1799999978
 30
0.0
  0
VERTEX
  5
46F
  8
SQUARES
 10
734280.22214285715
 20
4556136.2892857129
 30
0.0
  0
VERTEX
  5
470
  8
SQUARES
 10
734284.11285714293
 20
4556133.1492857132
 30
0.0
  0
SEQEND
  5
471
  8
SQUARES
  0
POLYLINE
  5
FB
  8
SQUARES
 66
     1
 10
0.0
 20
0.0
 30
0.0
 70
     1
1001
DCO15
1071
        2
1071
        2
1000
colsq
1004
073131313000
1001
ADE
1011
-0.5222918543731794
1021
0.0
1031
0.0
1021
-1.4938378585502501
1031
0.0
  0
VERTEX
  5
472
  8
SQUARES
 10
734283.40285714273
 20
4556112.5614285711
 30
0.0
  0
VERTEX
  5
473
  8
SQUARES
 10
734280.34714285703
 20
4556108.6042857151
 30
0.0
  0
VERTEX
  5
474
  8
SQUARES
 10
734276.39000000001
 20
4556111.6600000011
 30
0.0
  0
VERTEX
  5
475
  8
SQUARES
 10
734279.44571428583
 20
4556115.6171428571
 30
0.0
  0
SEQEND
  5
476
  8
SQUARES
  0
POLYLINE
  5
FC
  8
SQUARES
 66
     1
 10
0.0
 20
0.0
 30
0.0
 70
     1
1001
DCO15
1071
        2
1071
        2
1000
colsq
1004
073131313100
1001
ADE
1011
-0.5206973040476443
1021
0.0
1031
0.0
1021
-1.495069173164665
1031
0.0
  0
VERTEX
  5
477
  8
SQUARES
 10
734286.45857142878
 20
4556116.518571429
 30
0.0
  0
VERTEX
  5
478
  8
SQUARES
 10
734282.50142857165
 20
4556119.574285714
 30
0.0
  0
VERTEX
  5
479
  8
SQUARES
 10
734279.44571428583
 20
4556115.6171428571
 30
0.0
  0
VERTEX
  5
47A
  8
SQUARES
 10
734283.40285714273
 20
4556112.5614285711
 30
0.0
  0
SEQEND
  5
47B
  8
SQUARES
  0
POLYLINE
  5
FD
  8
SQUARES
 66
     1
 10
0.0
 20
0.0
 30
0.0
 70
     1
1001
DCO15
1071
        2
1071
        2
1000
colsq
1004
073130353500
1001
ADE
1011
-1.465350768296048
1021
0.0
1031
0.0
1021
0.5971704656258227
1031
0.0
  0
VERTEX
  5
47C
  8
SQUARES
 10
734324.14617647068
 20
4556031.6947058812
 30
0.0
  0
VERTEX
  5
47D
  8
SQUARES
 10
734327.94323529419
 20
4556028.4429411748
 30
0.0
  0
VERTEX
  5
47E
  8
SQUARES
 10
734324.69147058844
 20
4556024.6458823523
 30
0.0
  0
VERTEX
  5
47F
  8
SQUARES
 10
734322.79294117657
 20
4556026.271764705
 30
0.0
  0
VERTEX
  5
480
  8
SQUARES
 10
734320.89441176481
 20
4556027.8976470577
 30
0.0
  0
SEQEND
  5
481
  8
SQUARES
  0
POLYLINE
  5
FE
  8
SQUARES
 66
     1
 10
0.0
 20
0.0
 30
0.0
 70
     1
1001
DCO15
1071
        2
1071
        2
1000
colsq
1004
073130343800
1001
ADE
1011
-1.5381191961932921
1021
0.0
1031
0.0
1021
0.3745778556913137
1031
0.0
  0
VERTEX
  5
482
  8
SQUARES
 10
734250.40898876404
 20
4555874.1243820228
 30
0.0
  0
VERTEX
  5
483
  8
SQUARES
 10
734253.06674157304
 20
4555878.3607865162
 30
0.0
  0
VERTEX
  5
484
  8
SQUARES
 10
734248.83033707889
 20
4555881.0185393263
 30
0.0
  0
VERTEX
  5
485
  8
SQUARES
 10
734246.17258426978
 20
4555876.7821348319
 30
0.0
  0
SEQEND
  5
486
  8
SQUARES
  0
POLYLINE
  5
FF
  8
SQUARES
 66
     1
 10
0.0
 20
0.0
 30
0.0
 70
     1
1001
DCO15
1071
        2
1071
        2
1000
colsq
1004
073131333000
1001
ADE
1011
-1.5648021128727121
1021
0.0
1031
0.0
1021
0.2403047224506736
1031
0.0
  0
VERTEX
  5
487
  8
SQUARES
 10
734161.59730769228
 20
4555982.7634615377
 30
0.0
  0
VERTEX
  5
488
  8
SQUARES
 10
734157.14692307694
 20
4555985.0453846138
 30
0.0
  0
VERTEX
  5
489
  8
SQUARES
 10
734159.42884615366
 20
4555989.4957692297
 30
0.0
  0
VERTEX
  5
48A
  8
SQUARES
 10
734163.879230769
 20
4555987.2138461536
 30
0.0
  0
SEQEND
  5
48B
  8
SQUARES
  0
POLYLINE
  5
100
  8
SQUARES
 66
     1
 10
0.0
 20
0.0
 30
0.0
 70
     1
1001
DCO15
1071
        2
1071
        2
1000
colsq
1004
073130393300
1001
ADE
1011
-0.553982970188372
1021
0.0
1031
0.0
1021
-1.482520771212875
1031
0.0
  0
VERTEX
  5
48C
  8
SQUARES
 10
734298.92499999993
 20
4556127.6199999982
 30
0.0
  0
VERTEX
  5
48D
  8
SQUARES
 10
734295.03428571427
 20
4556130.7599999988
 30
0.0
  0
VERTEX
  5
48E
  8
SQUARES
 10
734291.89428571425
 20
4556126.869285712
 30
0.0
  0
VERTEX
  5
48F
  8
SQUARES
 10
734295.78499999992
 20
4556123.7292857133
 30
0.0
  0
SEQEND
  5
490
  8
SQUARES
  0
POLYLINE
  5
101
  8
SQUARES
 66
     1
 10
0.0
 20
0.0
 30
0.0
 70
     1
1001
DCO15
1071
        2
1071
        2
1000
colsq
1004
073130393000
1001
ADE
1011
-0.5542442674050108
1021
0.0
1031
0.0
1021
-1.4823098909109831
1031
0.0
  0
VERTEX
  5
491
  8
SQUARES
 10
734286.50214285706
 20
4556144.0707142837
 30
0.0
  0
VERTEX
  5
492
  8
SQUARES
 10
734290.39285714284
 20
4556140.9307142841
 30
0.0
  0
VERTEX
  5
493
  8
SQUARES
 10
734287.25285714294
 20
4556137.0399999982
 30
0.0
  0
VERTEX
  5
494
  8
SQUARES
 10
734283.36214285705
 20
4556140.1799999978
 30
0.0
  0
SEQEND
  5
495
  8
SQUARES
  0
POLYLINE
  5
102
  8
SQUARES
 66
     1
 10
0.0
 20
0.0
 30
0.0
 70
     1
1001
DCO15
1071
        2
1071
        2
1000
colsq
1004
073130323600
1001
ADE
1011
-1.158847602317109
1021
0.0
1031
0.0
1021
-1.0779365748167029
1031
0.0
  0
VERTEX
  5
496
  8
SQUARES
 10
734138.31480000017
 20
4555857.6836000001
 30
0.0
  0
VERTEX
  5
497
  8
SQUARES
 10
734140.38919999986
 20
4555853.1343999999
 30
0.0
  0
VERTEX
  5
498
  8
SQUARES
 10
734135.83999999997
 20
4555851.0600000015
 30
0.0
  0
VERTEX
  5
499
  8
SQUARES
 10
734133.76560000004
 20
4555855.6091999989
 30
0.0
  0
SEQEND
  5
49A
  8
SQUARES
  0
POLYLINE
  5
103
  8
SQUARES
 66
     1
 10
0.0
 20
0.0
 30
0.0
 70
     1
1001
DCO15
1071
        2
1071
        2
1000
colsq
1004
073131343100
1001
ADE
1011
-1.565568373072892
1021
0.0
1031
0.0
1021
0.2388103017583489
1031
0.0
  0
VERTEX
  5
49B
  8
SQUARES
 10
734165.93423076917
 20
4555969.2988461526
 30
0.0
  0
VERTEX
  5
49C
  8
SQUARES
 10
734161.48384615395
 20
4555971.5807692306
 30
0.0
  0
VERTEX
  5
49D
  8
SQUARES
 10
734163.76576923055
 20
4555976.0311538447
 30
0.0
  0
VERTEX
  5
49E
  8
SQUARES
 10
734168.21615384589
 20
4555973.7492307676
 30
0.0
  0
SEQEND
  5
49F
  8
SQUARES
  0
POLYLINE
  5
104
  8
SQUARES
 66
     1
 10
0.0
 20
0.0
 30
0.0
 70
     1
1001
DCO15
1071
        2
1071
        2
1000
colsq
1004
073131323200
1001
ADE
1011
-1.5695529264630741
1021
0.0
1031
0.0
1021
0.2310393145307898
1031
0.0
  0
VERTEX
  5
4A0
  8
SQUARES
 10
734175.06192307652
 20
4555987.1003846154
 30
0.0
  0
VERTEX
  5
4A1
  8
SQUARES
 10
734170.61153846094
 20
4555989.3823076924
 30
0.0
  0
VERTEX
  5
4A2
  8
SQUARES
 10
734172.89346153825
 20
4555993.8326923074
 30
0.0
  0
VERTEX
  5
4A3
  8
SQUARES
 10
734177.34384615358
 20
4555991.5507692304
 30
0.0
  0
SEQEND
  5
4A4
  8
SQUARES
  0
TEXT
  5
105
  8
SQ_NUMBERS
 10
734312.98146314663
 20
4556085.3952668244
 30
0.0
 40
0.9999611343770229
  1
1074
 50
320.18213571895762
 72
     4
 11
734314.49094594596
 21
4556084.7793243248
 31
0.0
  0
TEXT
  5
108
  8
SQ_NUMBERS
 10
734316.18308476824
 20
4556089.2355370931
 30
0.0
 40
0.9999611343770229
  1
1070
 50
320.18213571895762
 72
     4
 11
734317.69256756769
 21
4556088.6195945954
 31
0.0
  0
TEXT
  5
109
  8
SQ_NUMBERS
 10
734316.82173341699
 20
4556082.1936452016
 30
0.0
 40
0.9999611343770229
  1
1075
 50
320.18213571895762
 72
     4
 11
734318.33121621644
 21
4556081.577702703
 31
0.0
  0
TEXT
  5
10A
  8
SQ_NUMBERS
 10
734320.02335503849
 20
4556086.0339154722
 30
0.0
 40
0.9999611343770229
  1
1071
 50
320.18213571895762
 72
     4
 11
734321.53283783793
 21
4556085.4179729726
 31
0.0
  0
TEXT
  5
10B
  8
SQ_NUMBERS
 10
734317.46038206562
 20
4556075.151753311
 30
0.0
 40
0.9999611343770229
  1
1079
 50
320.18213571895762
 72
     4
 11
734318.96986486495
 21
4556074.5358108124
 31
0.0
  0
TEXT
  5
10C
  8
SQ_NUMBERS
 10
734320.66200368723
 20
4556078.9920235798
 30
0.0
 40
0.9999611343770229
  1
1076
 50
320.18213571895762
 72
     4
 11
734322.17148648656
 21
4556078.376081082
 31
0.0
  0
TEXT
  5
10D
  8
SQ_NUMBERS
 10
734323.86362530885
 20
4556082.8322938504
 30
0.0
 40
0.9999611343770229
  1
1072
 50
320.18213571895762
 72
     4
 11
734325.37310810806
 21
4556082.2163513508
 31
0.0
  0
TEXT
  5
10E
  8
SQ_NUMBERS
 10
734327.06524693035
 20
4556086.672564121
 30
0.0
 40
0.9999611343770229
  1
1069
 50
320.18213571895762
 72
     4
 11
734328.57472972968
 21
4556086.0566216223
 31
0.0
  0
TEXT
  5
10F
  8
SQ_NUMBERS
 10
734318.09924910613
 20
4556068.1101233754
 30
0.0
 40
0.9999611343770229
  1
1083
 50
320.18213571895762
 72
     4
 11
734319.6085135137
 21
4556067.4939189199
 31
0.0
  0
TEXT
  5
110
  8
SQ_NUMBERS
 10
734321.30065233598
 20
4556071.9501316883
 30
0.0
 40
0.9999611343770229
  1
1080
 50
320.18213571895762
 72
     4
 11
734322.81013513519
 21
4556071.3341891896
 31
0.0
  0
TEXT
  5
111
  8
SQ_NUMBERS
 10
734324.50227395748
 20
4556075.7904019579
 30
0.0
 40
0.9999611343770229
  1
1077
 50
320.18213571895762
 72
     4
 11
734326.01175675681
 21
4556075.1744594602
 31
0.0
  0
TEXT
  5
112
  8
SQ_NUMBERS
 10
734327.70411397074
 20
4556079.6309341853
 30
0.0
 40
0.9999611343770229
  1
1073
 50
320.18213571895762
 72
     4
 11
734329.21337837831
 21
4556079.0147297299
 31
0.0
  0
TEXT
  5
113
  8
SQ_NUMBERS
 10
734321.93930098461
 20
4556064.9082397968
 30
0.0
 40
0.9999611343770229
  1
1084
 50
320.18213571895762
 72
     4
 11
734323.44878378406
 21
4556064.2922972981
 31
0.0
  0
TEXT
  5
114
  8
SQ_NUMBERS
 10
734325.14092260634
 20
4556068.7485100674
 30
0.0
 40
0.9999611343770229
  1
1081
 50
320.18213571895762
 72
     4
 11
734326.65040540555
 21
4556068.1325675687
 31
0.0
  0
TEXT
  5
115
  8
SQ_NUMBERS
 10
734328.34254422772
 20
4556072.588780337
 30
0.0
 40
0.9999611343770229
  1
1078
 50
320.18213571895762
 72
     4
 11
734329.85202702705
 21
4556071.9728378383
 31
0.0
  0
TEXT
  5
116
  8
SQ_NUMBERS
 10
734328.98119287658
 20
4556065.5468884446
 30
0.0
 40
0.9999611343770229
  1
1082
 50
320.18213571895762
 72
     4
 11
734330.4906756758
 21
4556064.9309459468
 31
0.0
  0
TEXT
  5
117
  8
SQ_NUMBERS
 10
734280.00568714668
 20
4556131.2548511969
 30
0.0
 40
0.999945151557698
  1
1088
 50
51.094744003446451
 72
     4
 11
734280.59749999992
 21
4556132.7739285696
 31
0.0
  0
TEXT
  5
118
  8
SQ_NUMBERS
 10
734314.27140143258
 20
4556110.0255654836
 30
0.0
 40
0.999945151557698
  1
1102
 50
51.094744003446451
 72
     4
 11
734314.86321428581
 21
4556111.5446428563
 31
0.0
  0
TEXT
  5
119
  8
SQ_NUMBERS
 10
734310.3806871468
 20
4556113.1655654833
 30
0.0
 40
0.999945151557698
  1
1100
 50
51.094744003446451
 72
     4
 11
734310.97250000015
 21
4556114.684642856
 31
0.0
  0
TEXT
  5
11A
  8
SQ_NUMBERS
 10
734306.4899728609
 20
4556116.3055654829
 30
0.0
 40
0.999945151557698
  1
1098
 50
51.094744003446451
 72
     4
 11
734307.08178571425
 21
4556117.8246428547
 31
0.0
  0
TEXT
  5
11B
  8
SQ_NUMBERS
 10
734302.59925857536
 20
4556119.4455654826
 30
0.0
 40
0.999945151557698
  1
1096
 50
51.094744003446451
 72
     4
 11
734303.19107142859
 21
4556120.9646428563
 31
0.0
  0
TEXT
  5
11C
  8
SQ_NUMBERS
 10
734298.70854428958
 20
4556122.5855654832
 30
0.0
 40
0.999945151557698
  1
1094
 50
51.094744003446451
 72
     4
 11
734299.30035714281
 21
4556124.1046428559
 31
0.0
  0
TEXT
  5
11D
  8
SQ_NUMBERS
 10
734294.81756460748
 20
4556125.7257796712
 30
0.0
 40
0.999945151557698
  1
1093
 50
51.094744003446451
 72
     4
 11
734295.40964285715
 21
4556127.2446428556
 31
0.0
  0
TEXT
  5
11E
  8
SQ_NUMBERS
 10
734290.92711571814
 20
4556128.8655654835
 30
0.0
 40
0.999945151557698
  1
1092
 50
51.094744003446451
 72
     4
 11
734291.51892857125
 21
4556130.3846428562
 31
0.0
  0
TEXT
  5
11F
  8
SQ_NUMBERS
 10
734287.03640143247
 20
4556132.0055654831
 30
0.0
 40
0.999945151557698
  1
1091
 50
51.094744003446451
 72
     4
 11
734287.62821428571
 21
4556133.5246428559
 31
0.0
  0
TEXT
  5
120
  8
SQ_NUMBERS
 10
734283.14568714669
 20
4556135.1455654828
 30
0.0
 40
0.999945151557698
  1
1089
 50
51.094744003446451
 72
     4
 11
734283.73749999993
 21
4556136.6646428546
 31
0.0
  0
TEXT
  5
121
  8
SQ_NUMBERS
 10
734279.25497286115
 20
4556138.2855654834
 30
0.0
 40
0.999945151557698
  1
1087
 50
51.094744003446451
 72
     4
 11
734279.84678571427
 21
4556139.8046428561
 31
0.0
  0
TEXT
  5
122
  8
SQ_NUMBERS
 10
734275.36425857525
 20
4556141.425565483
 30
0.0
 40
0.999945151557698
  1
1086
 50
51.094744003446451
 72
     4
 11
734275.95607142837
 21
4556142.9446428549
 31
0.0
  0
TEXT
  5
123
  8
SQ_NUMBERS
 10
734271.47354428959
 20
4556144.5655654827
 30
0.0
 40
0.999945151557698
  1
1085
 50
51.094744003446451
 72
     4
 11
734272.06535714294
 21
4556146.0846428555
 31
0.0
  0
TEXT
  5
124
  8
SQ_NUMBERS
 10
734317.41113603592
 20
4556113.9164939569
 30
0.0
 40
0.999945151557698
  1
1103
 50
51.094744003446451
 72
     4
 11
734318.00321428571
 21
4556115.4353571413
 31
0.0
  0
TEXT
  5
125
  8
SQ_NUMBERS
 10
734313.52068714693
 20
4556117.0562797692
 30
0.0
 40
0.999945151557698
  1
1101
 50
51.094744003446451
 72
     4
 11
734314.11250000005
 21
4556118.5753571419
 31
0.0
  0
TEXT
  5
126
  8
SQ_NUMBERS
 10
734309.62997286103
 20
4556120.1962797688
 30
0.0
 40
0.999945151557698
  1
1099
 50
51.094744003446451
 72
     4
 11
734310.22178571427
 21
4556121.7153571416
 31
0.0
  0
TEXT
  5
127
  8
SQ_NUMBERS
 10
734305.73925857537
 20
4556123.3362797676
 30
0.0
 40
0.999945151557698
  1
1097
 50
51.094744003446451
 72
     4
 11
734306.33107142872
 21
4556124.8553571412
 31
0.0
  0
TEXT
  5
128
  8
SQ_NUMBERS
 10
734301.84854428959
 20
4556126.4762797691
 30
0.0
 40
0.999945151557698
  1
1095
 50
51.094744003446451
 72
     4
 11
734302.44035714283
 21
4556127.9953571418
 31
0.0
  0
TEXT
  5
129
  8
SQ_NUMBERS
 10
734286.28568714671
 20
4556139.0362797678
 30
0.0
 40
0.999945151557698
  1
1090
 50
51.094744003446451
 72
     4
 11
734286.87749999994
 21
4556140.5553571414
 31
0.0
  0
TEXT
  5
12A
  8
SQ_NUMBERS
 10
734322.80354428967
 20
4556096.7148511969
 30
0.0
 40
0.999945151557698
  1
1108
 50
51.094744003446451
 72
     4
 11
734323.3953571429
 21
4556098.2339285715
 31
0.0
  0
TEXT
  5
12B
  8
SQ_NUMBERS
 10
734318.91283000389
 20
4556099.8548511975
 30
0.0
 40
0.999945151557698
  1
1106
 50
51.094744003446451
 72
     4
 11
734319.50464285724
 21
4556101.3739285702
 31
0.0
  0
TEXT
  5
12C
  8
SQ_NUMBERS
 10
734322.05283000402
 20
4556103.7455654843
 30
0.0
 40
0.999945151557698
  1
1107
 50
51.094744003446451
 72
     4
 11
734322.64464285725
 21
4556105.2646428561
 31
0.0
  0
TEXT
  5
12D
  8
SQ_NUMBERS
 10
734318.16211571824
 20
4556106.8855654821
 30
0.0
 40
0.999945151557698
  1
1104
 50
51.094744003446451
 72
     4
 11
734318.75392857147
 21
4556108.4046428557
 31
0.0
  0
TEXT
  5
12E
  8
SQ_NUMBERS
 10
734321.30211571825
 20
4556110.776279768
 30
0.0
 40
0.999945151557698
  1
1105
 50
51.094744003446451
 72
     4
 11
734321.8939285716
 21
4556112.2953571416
 31
0.0
  0
TEXT
  5
12F
  8
SQ_NUMBERS
 10
734300.0245094524
 20
4556088.2878831616
 30
0.0
 40
0.999927385127997
  1
1118
 50
52.324602372674818
 72
     4
 11
734300.58357142855
 21
4556089.8192857141
 31
0.0
  0
TEXT
  5
130
  8
SQ_NUMBERS
 10
734276.28165230947
 20
4556106.6221688772
 30
0.0
 40
0.999927385127997
  1
1109
 50
52.324602372674818
 72
     4
 11
734276.84071428573
 21
4556108.1535714297
 31
0.0
  0
TEXT
  5
131
  8
SQ_NUMBERS
 10
734303.0802237381
 20
4556092.2450260203
 30
0.0
 40
0.999927385127997
  1
1119
 50
52.324602372674818
 72
     4
 11
734303.63928571425
 21
4556093.7764285719
 31
0.0
  0
TEXT
  5
132
  8
SQ_NUMBERS
 10
734299.12982907821
 20
4556095.2955293329
 30
0.0
 40
0.999927385127997
  1
1117
 50
52.324602372674818
 72
     4
 11
734299.68214285723
 21
4556096.8321428569
 31
0.0
  0
TEXT
  5
133
  8
SQ_NUMBERS
 10
734295.16593802394
 20
4556098.3564545913
 30
0.0
 40
0.999927385127997
  1
1116
 50
52.324602372674818
 72
     4
 11
734295.72500000009
 21
4556099.8878571428
 31
0.0
  0
TEXT
  5
134
  8
SQ_NUMBERS
 10
734291.21554336406
 20
4556101.4069579048
 30
0.0
 40
0.999927385127997
  1
1114
 50
52.324602372674818
 72
     4
 11
734291.76785714296
 21
4556102.9435714288
 31
0.0
  0
TEXT
  5
135
  8
SQ_NUMBERS
 10
734287.25138238166
 20
4556104.4680915996
 30
0.0
 40
0.999927385127997
  1
1113
 50
52.324602372674818
 72
     4
 11
734287.81071428582
 21
4556105.9992857147
 31
0.0
  0
TEXT
  5
136
  8
SQ_NUMBERS
 10
734283.30125764967
 20
4556107.5183864748
 30
0.0
 40
0.999927385127997
  1
1112
 50
52.324602372674818
 72
     4
 11
734283.85357142868
 21
4556109.0549999997
 31
0.0
  0
TEXT
  5
137
  8
SQ_NUMBERS
 10
734279.33736659517
 20
4556110.5793117341
 30
0.0
 40
0.999927385127997
  1
1110
 50
52.324602372674818
 72
     4
 11
734279.89642857155
 21
4556112.1107142866
 31
0.0
  0
TEXT
  5
138
  8
SQ_NUMBERS
 10
734306.1359380238
 20
4556096.2021688763
 30
0.0
 40
0.999927385127997
  1
1120
 50
52.324602372674818
 72
     4
 11
734306.69499999995
 21
4556097.7335714279
 31
0.0
  0
TEXT
  5
139
  8
SQ_NUMBERS
 10
734294.26450945239
 20
4556105.3693117341
 30
0.0
 40
0.999927385127997
  1
1115
 50
52.324602372674818
 72
     4
 11
734294.82357142866
 21
4556106.9007142857
 31
0.0
  0
TEXT
  5
13A
  8
SQ_NUMBERS
 10
734282.39982907823
 20
4556114.5312436176
 30
0.0
 40
0.999927385127997
  1
1111
 50
52.324602372674818
 72
     4
 11
734282.95214285725
 21
4556116.0678571425
 31
0.0
  0
TEXT
  5
13B
  8
SQ_NUMBERS
 10
734300.9634087953
 20
4556014.6984380474
 30
0.0
 40
0.999832574215096
  1
1067
 50
319.42356791685393
 72
     4
 11
734302.46441176464
 21
4556014.0626470577
 31
0.0
  0
TEXT
  5
13C
  8
SQ_NUMBERS
 10
734304.21517350117
 20
4556018.49549687
 30
0.0
 40
0.999832574215096
  1
1065
 50
319.42356791685393
 72
     4
 11
734305.71617647063
 21
4556017.8597058821
 31
0.0
  0
TEXT
  5
13D
  8
SQ_NUMBERS
 10
734307.46693820716
 20
4556022.2925556926
 30
0.0
 40
0.999832574215096
  1
1062
 50
319.42356791685393
 72
     4
 11
734308.9679411765
 21
4556021.6567647057
 31
0.0
  0
TEXT
  5
13E
  8
SQ_NUMBERS
 10
734310.71870291315
 20
4556026.0896145171
 30
0.0
 40
0.999832574215096
  1
1059
 50
319.42356791685393
 72
     4
 11
734312.21970588248
 21
4556025.4538235292
 31
0.0
  0
TEXT
  5
13F
  8
SQ_NUMBERS
 10
734313.97046761902
 20
4556029.8866733406
 30
0.0
 40
0.999832574215096
  1
1056
 50
319.42356791685393
 72
     4
 11
734315.47147058835
 21
4556029.2508823518
 31
0.0
  0
TEXT
  5
140
  8
SQ_NUMBERS
 10
734319.12076173665
 20
4556032.0578498114
 30
0.0
 40
0.999832574215096
  1
1054
 50
319.42356791685393
 72
     4
 11
734320.62176470587
 21
4556031.4220588226
 31
0.0
  0
TEXT
  5
141
  8
SQ_NUMBERS
 10
734304.76046761882
 20
4556011.4466733402
 30
0.0
 40
0.999832574215096
  1
1068
 50
319.42356791685393
 72
     4
 11
734306.26147058816
 21
4556010.8108823523
 31
0.0
  0
TEXT
  5
142
  8
SQ_NUMBERS
 10
734308.01223232481
 20
4556015.2437321628
 30
0.0
 40
0.999832574215096
  1
1066
 50
319.42356791685393
 72
     4
 11
734309.51323529414
 21
4556014.6079411749
 31
0.0
  0
TEXT
  5
143
  8
SQ_NUMBERS
 10
734311.26421884261
 20
4556019.0410499955
 30
0.0
 40
0.999832574215096
  1
1063
 50
319.42356791685393
 72
     4
 11
734312.7649999999
 21
4556018.4049999993
 31
0.0
  0
TEXT
  5
144
  8
SQ_NUMBERS
 10
734314.51576173655
 20
4556022.8378498098
 30
0.0
 40
0.999832574215096
  1
1060
 50
319.42356791685393
 72
     4
 11
734316.01676470588
 21
4556022.2020588228
 31
0.0
  0
TEXT
  5
145
  8
SQ_NUMBERS
 10
734317.76752644253
 20
4556026.6349086342
 30
0.0
 40
0.999832574215096
  1
1057
 50
319.42356791685393
 72
     4
 11
734319.26852941187
 21
4556025.9991176473
 31
0.0
  0
TEXT
  5
146
  8
SQ_NUMBERS
 10
734322.91782056028
 20
4556028.8060851051
 30
0.0
 40
0.999832574215096
  1
1055
 50
319.42356791685393
 72
     4
 11
734324.4188235295
 21
4556028.1702941172
 31
0.0
  0
TEXT
  5
147
  8
SQ_NUMBERS
 10
734315.0610558542
 20
4556015.7890262818
 30
0.0
 40
0.999832574215096
  1
1064
 50
319.42356791685393
 72
     4
 11
734316.56205882342
 21
4556015.1532352939
 31
0.0
  0
TEXT
  5
148
  8
SQ_NUMBERS
 10
734318.31282055995
 20
4556019.5860851044
 30
0.0
 40
0.999832574215096
  1
1061
 50
319.42356791685393
 72
     4
 11
734319.81382352929
 21
4556018.9502941156
 31
0.0
  0
TEXT
  5
149
  8
SQ_NUMBERS
 10
734321.56458526594
 20
4556023.383143927
 30
0.0
 40
0.999832574215096
  1
1058
 50
319.42356791685393
 72
     4
 11
734323.06558823527
 21
4556022.7473529391
 31
0.0
  0
TEXT
  5
14A
  8
SQ_NUMBERS
 10
734211.81389417779
 20
4555916.5989312343
 30
0.0
 40
0.9998200919414394
  1
1043
 50
330.45798373618749
 72
     4
 11
734213.40864864865
 21
4555916.2618918922
 31
0.0
  0
TEXT
  5
14B
  8
SQ_NUMBERS
 10
734219.208320637
 20
4555929.6462021312
 30
0.0
 40
0.9998200919414394
  1
1040
 50
330.45798373618749
 72
     4
 11
734220.80324324314
 21
4555929.30945946
 31
0.0
  0
TEXT
  5
14C
  8
SQ_NUMBERS
 10
734221.67335363745
 20
4555933.9956879923
 30
0.0
 40
0.9998200919414394
  1
1039
 50
330.45798373618749
 72
     4
 11
734223.2681081082
 21
4555933.6586486492
 31
0.0
  0
TEXT
  5
14D
  8
SQ_NUMBERS
 10
734224.13821850205
 20
4555938.3448771806
 30
0.0
 40
0.9998200919414394
  1
1038
 50
330.45798373618749
 72
     4
 11
734225.73297297291
 21
4555938.0078378394
 31
0.0
  0
TEXT
  5
14E
  8
SQ_NUMBERS
 10
734216.16291523154
 20
4555914.1337696984
 30
0.0
 40
0.9998200919414394
  1
1044
 50
330.45798373618749
 72
     4
 11
734217.75783783791
 21
4555913.7970270272
 31
0.0
  0
TEXT
  5
14F
  8
SQ_NUMBERS
 10
734218.62778009661
 20
4555918.4829588877
 30
0.0
 40
0.9998200919414394
  1
1042
 50
330.45798373618749
 72
     4
 11
734220.22270270262
 21
4555918.1462162174
 31
0.0
  0
TEXT
  5
150
  8
SQ_NUMBERS
 10
734221.09264496143
 20
4555922.832148077
 30
0.0
 40
0.9998200919414394
  1
1041
 50
330.45798373618749
 72
     4
 11
734222.68756756769
 21
4555922.4954054058
 31
0.0
  0
TEXT
  5
151
  8
SQ_NUMBERS
 10
734248.04075247189
 20
4555877.9792808993
 30
0.0
 40
1.00021543746119
  1
1048
 50
327.89746422785532
 72
     4
 11
734249.61966292141
 21
4555877.5714606736
 31
0.0
  0
TEXT
  5
152
  8
SQ_NUMBERS
 10
734250.69850528089
 20
4555882.2156853927
 30
0.0
 40
1.00021543746119
  1
1047
 50
327.89746422785532
 72
     4
 11
734252.27741573041
 21
4555881.807865168
 31
0.0
  0
TEXT
  5
153
  8
SQ_NUMBERS
 10
734253.35625809
 20
4555886.452089888
 30
0.0
 40
1.00021543746119
  1
1046
 50
327.89746422785532
 72
     4
 11
734254.93516853952
 21
4555886.0442696633
 31
0.0
  0
TEXT
  5
154
  8
SQ_NUMBERS
 10
734256.01401089877
 20
4555890.6884943834
 30
0.0
 40
1.00021543746119
  1
1045
 50
327.89746422785532
 72
     4
 11
734257.59292134829
 21
4555890.2806741567
 31
0.0
  0
TEXT
  5
155
  8
SQ_NUMBERS
 10
734249.08003488823
 20
4555865.5201316727
 30
0.0
 40
1.00021543746119
  1
1053
 50
327.89746422785532
 72
     4
 11
734250.65876404499
 21
4555865.1120224716
 31
0.0
  0
TEXT
  5
156
  8
SQ_NUMBERS
 10
734251.73760640435
 20
4555869.7562471908
 30
0.0
 40
1.00021543746119
  1
1051
 50
327.89746422785532
 72
     4
 11
734253.31651685387
 21
4555869.3484269669
 31
0.0
  0
TEXT
  5
157
  8
SQ_NUMBERS
 10
734254.39535921346
 20
4555873.9926516861
 30
0.0
 40
1.00021543746119
  1
1049
 50
327.89746422785532
 72
     4
 11
734255.97426966298
 21
4555873.5848314613
 31
0.0
  0
TEXT
  5
158
  8
SQ_NUMBERS
 10
734255.97401089873
 20
4555867.0984943826
 30
0.0
 40
1.00021543746119
  1
1052
 50
327.89746422785532
 72
     4
 11
734257.55292134825
 21
4555866.6906741569
 31
0.0
  0
TEXT
  5
159
  8
SQ_NUMBERS
 10
734258.63176370785
 20
4555871.334898877
 30
0.0
 40
1.00021543746119
  1
1050
 50
327.89746422785532
 72
     4
 11
734260.21067415725
 21
4555870.9270786522
 31
0.0
  0
TEXT
  5
15A
  8
SQ_NUMBERS
 10
734198.16283151426
 20
4555888.5307523869
 30
0.0
 40
1.000104994464295
  1
1035
 50
46.296430010211971
 72
     4
 11
734198.87999999989
 21
4555889.9950000001
 31
0.0
  0
TEXT
  5
15B
  8
SQ_NUMBERS
 10
734194.54783151427
 20
4555891.985752387
 30
0.0
 40
1.000104994464295
  1
1033
 50
46.296430010211971
 72
     4
 11
734195.26500000001
 21
4555893.4500000002
 31
0.0
  0
TEXT
  5
15C
  8
SQ_NUMBERS
 10
734205.23283151409
 20
4555888.690752387
 30
0.0
 40
1.000104994464295
  1
1037
 50
46.296430010211971
 72
     4
 11
734205.94999999972
 21
4555890.1550000012
 31
0.0
  0
TEXT
  5
15D
  8
SQ_NUMBERS
 10
734201.61783151433
 20
4555892.1457523871
 30
0.0
 40
1.000104994464295
  1
1036
 50
46.296430010211971
 72
     4
 11
734202.33499999985
 21
4555893.6100000003
 31
0.0
  0
TEXT
  5
15E
  8
SQ_NUMBERS
 10
734198.00283151434
 20
4555895.6007523872
 30
0.0
 40
1.000104994464295
  1
1034
 50
46.296430010211971
 72
     4
 11
734198.71999999997
 21
4555897.0650000004
 31
0.0
  0
TEXT
  5
15F
  8
SQ_NUMBERS
 10
734201.40158663027
 20
4555859.6137721688
 30
0.0
 40
1.0000359993373971
  1
1031
 50
29.076863530638381
 72
     4
 11
734202.52000000014
 21
4555860.8000000007
 31
0.0
  0
TEXT
  5
160
  8
SQ_NUMBERS
 10
734198.97175238736
 20
4555863.9834740786
 30
0.0
 40
1.0000359993373971
  1
1029
 50
29.076863530638381
 72
     4
 11
734200.09000000008
 21
4555865.1700000009
 31
0.0
  0
TEXT
  5
161
  8
SQ_NUMBERS
 10
734205.77158663026
 20
4555862.0437721703
 30
0.0
 40
1.0000359993373971
  1
1032
 50
29.076863530638381
 72
     4
 11
734206.89000000013
 21
4555863.2300000004
 31
0.0
  0
TEXT
  5
162
  8
SQ_NUMBERS
 10
734203.34158663021
 20
4555866.4137721686
 30
0.0
 40
1.0000359993373971
  1
1030
 50
29.076863530638381
 72
     4
 11
734204.45999999996
 21
4555867.5999999996
 31
0.0
  0
TEXT
  5
163
  8
SQ_NUMBERS
 10
734200.91175238742
 20
4555870.7834740793
 30
0.0
 40
1.0000359993373971
  1
1028
 50
29.076863530638381
 72
     4
 11
734202.03000000003
 21
4555871.9699999997
 31
0.0
  0
TEXT
  5
164
  8
SQ_NUMBERS
 10
734123.02156191005
 20
4555869.400498854
 30
0.0
 40
0.9999671194664186
  1
1017
 50
24.512618788331402
 72
     4
 11
734124.23060000013
 21
4555870.4941999996
 31
0.0
  0
TEXT
  5
165
  8
SQ_NUMBERS
 10
734120.94702040928
 20
4555873.9500091681
 30
0.0
 40
0.9999671194664186
  1
1013
 50
24.512618788331402
 72
     4
 11
734122.15619999997
 21
4555875.0434000008
 31
0.0
  0
TEXT
  5
166
  8
SQ_NUMBERS
 10
734118.87276190985
 20
4555878.4988988526
 30
0.0
 40
0.9999671194664186
  1
1009
 50
24.512618788331402
 72
     4
 11
734120.08180000004
 21
4555879.5926000001
 31
0.0
  0
TEXT
  5
167
  8
SQ_NUMBERS
 10
734135.86836190999
 20
4555853.2780988542
 30
0.0
 40
0.9999671194664186
  1
1026
 50
24.512618788331402
 72
     4
 11
734137.07740000007
 21
4555854.3717999989
 31
0.0
  0
TEXT
  5
168
  8
SQ_NUMBERS
 10
734133.79396190995
 20
4555857.8272988526
 30
0.0
 40
0.9999671194664186
  1
1024
 50
24.512618788331402
 72
     4
 11
734135.00300000003
 21
4555858.9210000001
 31
0.0
  0
TEXT
  5
169
  8
SQ_NUMBERS
 10
734131.71956190991
 20
4555862.3764988529
 30
0.0
 40
0.9999671194664186
  1
1022
 50
24.512618788331402
 72
     4
 11
734132.92859999998
 21
4555863.4702000013
 31
0.0
  0
TEXT
  5
16A
  8
SQ_NUMBERS
 10
734129.64516190998
 20
4555866.925698854
 30
0.0
 40
0.9999671194664186
  1
1020
 50
24.512618788331402
 72
     4
 11
734130.85420000006
 21
4555868.0193999996
 31
0.0
  0
TEXT
  5
16B
  8
SQ_NUMBERS
 10
734127.57076191006
 20
4555871.4748988533
 30
0.0
 40
0.9999671194664186
  1
1018
 50
24.512618788331402
 72
     4
 11
734128.77980000002
 21
4555872.5685999999
 31
0.0
  0
TEXT
  5
16C
  8
SQ_NUMBERS
 10
734125.4963619099
 20
4555876.0240988536
 30
0.0
 40
0.9999671194664186
  1
1014
 50
24.512618788331402
 72
     4
 11
734126.70540000009
 21
4555877.1178000001
 31
0.0
  0
TEXT
  5
16D
  8
SQ_NUMBERS
 10
734123.42196190986
 20
4555880.5732988538
 30
0.0
 40
0.9999671194664186
  1
1010
 50
24.512618788331402
 72
     4
 11
734124.63099999994
 21
4555881.6670000004
 31
0.0
  0
TEXT
  5
16E
  8
SQ_NUMBERS
 10
734121.34756190993
 20
4555885.1224988541
 30
0.0
 40
0.9999671194664186
  1
1007
 50
24.512618788331402
 72
     4
 11
734122.55660000001
 21
4555886.2162000006
 31
0.0
  0
TEXT
  5
16F
  8
SQ_NUMBERS
 10
734119.27316190989
 20
4555889.6716988543
 30
0.0
 40
0.9999671194664186
  1
1005
 50
24.512618788331402
 72
     4
 11
734120.48219999997
 21
4555890.7653999999
 31
0.0
  0
TEXT
  5
170
  8
SQ_NUMBERS
 10
734117.19862040924
 20
4555894.2212091666
 30
0.0
 40
0.9999671194664186
  1
1003
 50
24.512618788331402
 72
     4
 11
734118.40779999993
 21
4555895.3146000002
 31
0.0
  0
TEXT
  5
171
  8
SQ_NUMBERS
 10
734115.12436190993
 20
4555898.7700988539
 30
0.0
 40
0.9999671194664186
  1
1001
 50
24.512618788331402
 72
     4
 11
734116.3334
 21
4555899.8638000004
 31
0.0
  0
TEXT
  5
172
  8
SQ_NUMBERS
 10
734140.41756191
 20
4555855.3524988526
 30
0.0
 40
0.9999671194664186
  1
1027
 50
24.512618788331402
 72
     4
 11
734141.62660000019
 21
4555856.4462000001
 31
0.0
  0
TEXT
  5
173
  8
SQ_NUMBERS
 10
734138.34316190996
 20
4555859.9016988538
 30
0.0
 40
0.9999671194664186
  1
1025
 50
24.512618788331402
 72
     4
 11
734139.55220000003
 21
4555860.9954000004
 31
0.0
  0
TEXT
  5
174
  8
SQ_NUMBERS
 10
734136.26862040919
 20
4555864.4512091679
 30
0.0
 40
0.9999671194664186
  1
1023
 50
24.512618788331402
 72
     4
 11
734137.47780000011
 21
4555865.5445999997
 31
0.0
  0
TEXT
  5
175
  8
SQ_NUMBERS
 10
734134.19436190999
 20
4555869.0000988534
 30
0.0
 40
0.9999671194664186
  1
1021
 50
24.512618788331402
 72
     4
 11
734135.40340000007
 21
4555870.0937999999
 31
0.0
  0
TEXT
  5
176
  8
SQ_NUMBERS
 10
734132.11996190995
 20
4555873.5492988536
 30
0.0
 40
0.9999671194664186
  1
1019
 50
24.512618788331402
 72
     4
 11
734133.32900000003
 21
4555874.6430000002
 31
0.0
  0
TEXT
  5
177
  8
SQ_NUMBERS
 10
734130.04556191002
 20
4555878.0984988539
 30
0.0
 40
0.9999671194664186
  1
1015
 50
24.512618788331402
 72
     4
 11
734131.2546000001
 21
4555879.1922000004
 31
0.0
  0
TEXT
  5
178
  8
SQ_NUMBERS
 10
734127.97116190998
 20
4555882.6476988541
 30
0.0
 40
0.9999671194664186
  1
1011
 50
24.512618788331402
 72
     4
 11
734129.18019999994
 21
4555883.7414000006
 31
0.0
  0
TEXT
  5
179
  8
SQ_NUMBERS
 10
734125.89676191006
 20
4555887.1968988543
 30
0.0
 40
0.9999671194664186
  1
1008
 50
24.512618788331402
 72
     4
 11
734127.10580000014
 21
4555888.2906000009
 31
0.0
  0
TEXT
  5
17A
  8
SQ_NUMBERS
 10
734123.8223619099
 20
4555891.7460988527
 30
0.0
 40
0.9999671194664186
  1
1006
 50
24.512618788331402
 72
     4
 11
734125.03139999986
 21
4555892.8398000011
 31
0.0
  0
TEXT
  5
17B
  8
SQ_NUMBERS
 10
734121.74796190998
 20
4555896.2952988539
 30
0.0
 40
0.9999671194664186
  1
1004
 50
24.512618788331402
 72
     4
 11
734122.95700000017
 21
4555897.3890000004
 31
0.0
  0
TEXT
  5
17C
  8
SQ_NUMBERS
 10
734119.67356190993
 20
4555900.8444988541
 30
0.0
 40
0.9999671194664186
  1
1002
 50
24.512618788331402
 72
     4
 11
734120.88260000001
 21
4555901.9381999997
 31
0.0
  0
TEXT
  5
17D
  8
SQ_NUMBERS
 10
734134.59476191003
 20
4555880.1728988541
 30
0.0
 40
0.9999671194664186
  1
1016
 50
24.512618788331402
 72
     4
 11
734135.80380000011
 21
4555881.2666000007
 31
0.0
  0
TEXT
  5
17E
  8
SQ_NUMBERS
 10
734132.52036190988
 20
4555884.7220988534
 30
0.0
 40
0.9999671194664186
  1
1012
 50
24.512618788331402
 72
     4
 11
734133.72940000019
 21
4555885.8158
 31
0.0
  0
TEXT
  5
17F
  8
SQ_NUMBERS
 10
734145.44030239247
 20
4555982.062895949
 30
0.0
 40
1.0002618887839601
  1
1139
 50
332.8536358400641
 72
     4
 11
734147.04846153816
 21
4555981.7926923074
 31
0.0
  0
TEXT
  5
180
  8
SQ_NUMBERS
 10
734150.00399289001
 20
4555990.9633616051
 30
0.0
 40
1.0002618887839601
  1
1129
 50
332.8536358400641
 72
     4
 11
734151.61230769206
 21
4555990.6934615374
 31
0.0
  0
TEXT
  5
181
  8
SQ_NUMBERS
 10
734147.60876393109
 20
4555975.330588256
 30
0.0
 40
1.0002618887839601
  1
1143
 50
332.8536358400641
 72
     4
 11
734149.21692307678
 21
4555975.0603846144
 31
0.0
  0
TEXT
  5
182
  8
SQ_NUMBERS
 10
734152.17261008476
 20
4555984.2313574869
 30
0.0
 40
1.0002618887839601
  1
1134
 50
332.8536358400641
 72
     4
 11
734153.78076923057
 21
4555983.9611538453
 31
0.0
  0
TEXT
  5
183
  8
SQ_NUMBERS
 10
734156.73240917188
 20
4555993.1242338112
 30
0.0
 40
1.0002618887839601
  1
1124
 50
332.8536358400641
 72
     4
 11
734158.34461538435
 21
4555992.8619230762
 31
0.0
  0
TEXT
  5
184
  8
SQ_NUMBERS
 10
734149.77706981334
 20
4555968.59797699
 30
0.0
 40
1.0002618887839601
  1
1145
 50
332.8536358400641
 72
     4
 11
734151.38538461551
 21
4555968.3280769223
 31
0.0
  0
TEXT
  5
185
  8
SQ_NUMBERS
 10
734154.3409159669
 20
4555977.498746221
 30
0.0
 40
1.0002618887839601
  1
1140
 50
332.8536358400641
 72
     4
 11
734155.94923076907
 21
4555977.2288461532
 31
0.0
  0
TEXT
  5
186
  8
SQ_NUMBERS
 10
734158.90491777705
 20
4555986.3998190248
 30
0.0
 40
1.0002618887839601
  1
1130
 50
332.8536358400641
 72
     4
 11
734160.51307692286
 21
4555986.1296153842
 31
0.0
  0
TEXT
  5
187
  8
SQ_NUMBERS
 10
734163.46471686405
 20
4555995.2926953491
 30
0.0
 40
1.0002618887839601
  1
1121
 50
332.8536358400641
 72
     4
 11
734165.07692307665
 21
4555995.0303846151
 31
0.0
  0
TEXT
  5
188
  8
SQ_NUMBERS
 10
734151.94553135184
 20
4555961.8656692971
 30
0.0
 40
1.0002618887839601
  1
1146
 50
332.8536358400641
 72
     4
 11
734153.5538461539
 21
4555961.5957692312
 31
0.0
  0
TEXT
  5
189
  8
SQ_NUMBERS
 10
734156.50548609497
 20
4555970.7588491971
 30
0.0
 40
1.0002618887839601
  1
1144
 50
332.8536358400641
 72
     4
 11
734158.11769230769
 21
4555970.4965384612
 31
0.0
  0
TEXT
  5
18A
  8
SQ_NUMBERS
 10
734161.07337931567
 20
4555979.6675113328
 30
0.0
 40
1.0002618887839601
  1
1135
 50
332.8536358400641
 72
     4
 11
734162.68153846124
 21
4555979.3973076921
 31
0.0
  0
TEXT
  5
18B
  8
SQ_NUMBERS
 10
734165.63706981309
 20
4555988.5679769898
 30
0.0
 40
1.0002618887839601
  1
1125
 50
332.8536358400641
 72
     4
 11
734167.24538461515
 21
4555988.2980769221
 31
0.0
  0
TEXT
  5
18C
  8
SQ_NUMBERS
 10
734163.23779378738
 20
4555972.9273107341
 30
0.0
 40
1.0002618887839601
  1
1141
 50
332.8536358400641
 72
     4
 11
734164.84999999986
 21
4555972.6649999991
 31
0.0
  0
TEXT
  5
18D
  8
SQ_NUMBERS
 10
734167.80568700784
 20
4555981.8359728707
 30
0.0
 40
1.0002618887839601
  1
1131
 50
332.8536358400641
 72
     4
 11
734169.41384615365
 21
4555981.56576923
 31
0.0
  0
TEXT
  5
18E
  8
SQ_NUMBERS
 10
734172.36548609484
 20
4555990.7288491959
 30
0.0
 40
1.0002618887839601
  1
1122
 50
332.8536358400641
 72
     4
 11
734173.97769230744
 21
4555990.4665384609
 31
0.0
  0
TEXT
  5
18F
  8
SQ_NUMBERS
 10
734169.97414854646
 20
4555975.1036651786
 30
0.0
 40
1.0002618887839601
  1
1136
 50
332.8536358400641
 72
     4
 11
734171.58230769227
 21
4555974.833461537
 31
0.0
  0
TEXT
  5
190
  8
SQ_NUMBERS
 10
734174.53783904377
 20
4555984.0041308356
 30
0.0
 40
1.0002618887839601
  1
1126
 50
332.8536358400641
 72
     4
 11
734176.14615384594
 21
4555983.7342307679
 31
0.0
  0
TEXT
  5
191
  8
SQ_NUMBERS
 10
734172.13856301829
 20
4555968.3634645808
 30
0.0
 40
1.0002618887839601
  1
1142
 50
332.8536358400641
 72
     4
 11
734173.75076923065
 21
4555968.1011538459
 31
0.0
  0
TEXT
  5
192
  8
SQ_NUMBERS
 10
734176.70645623875
 20
4555977.2721267184
 30
0.0
 40
1.0002618887839601
  1
1132
 50
332.8536358400641
 72
     4
 11
734178.31461538444
 21
4555977.0019230768
 31
0.0
  0
TEXT
  5
193
  8
SQ_NUMBERS
 10
734181.27030239254
 20
4555986.1728959493
 30
0.0
 40
1.0002618887839601
  1
1123
 50
332.8536358400641
 72
     4
 11
734182.87846153835
 21
4555985.9026923077
 31
0.0
  0
TEXT
  5
194
  8
SQ_NUMBERS
 10
734178.87491777726
 20
4555970.5398190254
 30
0.0
 40
1.0002618887839601
  1
1137
 50
332.8536358400641
 72
     4
 11
734180.48307692306
 21
4555970.2696153838
 31
0.0
  0
TEXT
  5
195
  8
SQ_NUMBERS
 10
734183.43471686414
 20
4555979.4326953497
 30
0.0
 40
1.0002618887839601
  1
1127
 50
332.8536358400641
 72
     4
 11
734185.04692307685
 21
4555979.1703846147
 31
0.0
  0
TEXT
  5
196
  8
SQ_NUMBERS
 10
734185.60722546955
 20
4555972.7082805643
 30
0.0
 40
1.0002618887839601
  1
1133
 50
332.8536358400641
 72
     4
 11
734187.21538461535
 21
4555972.4380769217
 31
0.0
  0
TEXT
  5
197
  8
SQ_NUMBERS
 10
734187.77568700805
 20
4555965.9759728722
 30
0.0
 40
1.0002618887839601
  1
1138
 50
332.8536358400641
 72
     4
 11
734189.38384615385
 21
4555965.7057692306
 31
0.0
  0
TEXT
  5
198
  8
SQ_NUMBERS
 10
734192.33937750536
 20
4555974.8764385292
 30
0.0
 40
1.0002618887839601
  1
1128
 50
332.8536358400641
 72
     4
 11
734193.94769230764
 21
4555974.6065384625
 31
0.0
  0
ENDSEC
  0
EOF
