  0
SECTION
  2
HEADER
  9
$ACADVER
  1
AC1009
  9
$INSBASE
 10
0.0
 20
0.0
 30
0.0
  9
$EXTMIN
 10
726280.76676332369
 20
4549147.5506131947
 30
-0.7628812463517534
  9
$EXTMAX
 10
744106.25365814043
 20
4572870.821518993
 30
1.1444382848494561
  9
$LIMMIN
 10
0.0
 20
0.0
  9
$LIMMAX
 10
12.0
 20
9.0
  9
$ORTHOMODE
 70
     0
  9
$REGENMODE
 70
     1
  9
$FILLMODE
 70
     1
  9
$QTEXTMODE
 70
     0
  9
$MIRRTEXT
 70
     1
  9
$DRAGMODE
 70
     2
  9
$LTSCALE
 40
0.05
  9
$OSMODE
 70
   613
  9
$ATTMODE
 70
     1
  9
$TEXTSIZE
 40
0.2
  9
$TRACEWID
 40
0.05
  9
$TEXTSTYLE
  7
STANDARD
  9
$CLAYER
  8
CLUSTERS
  9
$CELTYPE
  6
BYLAYER
  9
$CECOLOR
 62
   256
  9
$DIMSCALE
 40
1.0
  9
$DIMASZ
 40
0.18
  9
$DIMEXO
 40
0.0625
  9
$DIMDLI
 40
0.38
  9
$DIMRND
 40
0.0
  9
$DIMDLE
 40
0.0
  9
$DIMEXE
 40
0.18
  9
$DIMTP
 40
0.0
  9
$DIMTM
 40
0.0
  9
$DIMTXT
 40
0.18
  9
$DIMCEN
 40
0.09
  9
$DIMTSZ
 40
0.0
  9
$DIMTOL
 70
     0
  9
$DIMLIM
 70
     0
  9
$DIMTIH
 70
     1
  9
$DIMTOH
 70
     1
  9
$DIMSE1
 70
     0
  9
$DIMSE2
 70
     0
  9
$DIMTAD
 70
     0
  9
$DIMZIN
 70
     0
  9
$DIMBLK
  1

  9
$DIMASO
 70
     1
  9
$DIMSHO
 70
     1
  9
$DIMPOST
  1

  9
$DIMAPOST
  1

  9
$DIMALT
 70
     0
  9
$DIMALTD
 70
     2
  9
$DIMALTF
 40
25.399999999999999
  9
$DIMLFAC
 40
1.0
  9
$DIMTOFL
 70
     0
  9
$DIMTVP
 40
0.0
  9
$DIMTIX
 70
     0
  9
$DIMSOXD
 70
     0
  9
$DIMSAH
 70
     0
  9
$DIMBLK1
  1

  9
$DIMBLK2
  1

  9
$DIMSTYLE
  2
STANDARD
  9
$DIMCLRD
 70
     0
  9
$DIMCLRE
 70
     0
  9
$DIMCLRT
 70
     0
  9
$DIMTFAC
 40
1.0
  9
$DIMGAP
 40
0.09
  9
$LUNITS
 70
     2
  9
$LUPREC
 70
     4
  9
$SKETCHINC
 40
0.1
  9
$FILLETRAD
 40
0.5
  9
$AUNITS
 70
     0
  9
$AUPREC
 70
     0
  9
$MENU
  1
.
  9
$ELEVATION
 40
0.0
  9
$PELEVATION
 40
0.0
  9
$THICKNESS
 40
0.0
  9
$LIMCHECK
 70
     0
  9
$BLIPMODE
 70
     0
  9
$CHAMFERA
 40
0.5
  9
$CHAMFERB
 40
0.5
  9
$SKPOLY
 70
     0
  9
$TDCREATE
 40
2455395.9464814821
  9
$TDUPDATE
 40
2456131.2251509489
  9
$TDINDWG
 40
0.4363797338
  9
$TDUSRTIMER
 40
0.4363797338
  9
$USRTIMER
 70
     1
  9
$ANGBASE
 50
0.0
  9
$ANGDIR
 70
     1
  9
$PDMODE
 70
    66
  9
$PDSIZE
 40
0.0
  9
$PLINEWID
 40
0.0
  9
$COORDS
 70
     1
  9
$SPLFRAME
 70
     0
  9
$SPLINETYPE
 70
     6
  9
$SPLINESEGS
 70
     8
  9
$ATTDIA
 70
     0
  9
$ATTREQ
 70
     1
  9
$HANDLING
 70
     1
  9
$HANDSEED
  5
D41
  9
$SURFTAB1
 70
     6
  9
$SURFTAB2
 70
     6
  9
$SURFTYPE
 70
     6
  9
$SURFU
 70
     6
  9
$SURFV
 70
     6
  9
$UCSNAME
  2

  9
$UCSORG
 10
0.0
 20
0.0
 30
0.0
  9
$UCSXDIR
 10
1.0
 20
0.0
 30
0.0
  9
$UCSYDIR
 10
0.0
 20
1.0
 30
0.0
  9
$PUCSNAME
  2

  9
$PUCSORG
 10
0.0
 20
0.0
 30
0.0
  9
$PUCSXDIR
 10
1.0
 20
0.0
 30
0.0
  9
$PUCSYDIR
 10
0.0
 20
1.0
 30
0.0
  9
$USERI1
 70
     0
  9
$USERI2
 70
     0
  9
$USERI3
 70
     0
  9
$USERI4
 70
     0
  9
$USERI5
 70
     0
  9
$USERR1
 40
0.0
  9
$USERR2
 40
0.0
  9
$USERR3
 40
0.0
  9
$USERR4
 40
0.0
  9
$USERR5
 40
0.0
  9
$WORLDVIEW
 70
     1
  9
$SHADEDGE
 70
     3
  9
$SHADEDIF
 70
    70
  9
$TILEMODE
 70
     1
  9
$MAXACTVP
 70
    64
  9
$PLIMCHECK
 70
     0
  9
$PEXTMIN
 10
0.0
 20
0.0
 30
0.0
  9
$PEXTMAX
 10
0.0
 20
0.0
 30
0.0
  9
$PLIMMIN
 10
0.0
 20
0.0
  9
$PLIMMAX
 10
12.0
 20
9.0
  9
$UNITMODE
 70
     0
  9
$VISRETAIN
 70
     1
  9
$PLINEGEN
 70
     0
  9
$PSLTSCALE
 70
     1
  0
ENDSEC
  0
SECTION
  2
TABLES
  0
TABLE
  2
VPORT
 70
     1
  0
VPORT
  2
*ACTIVE
 70
     0
 10
0.0
 20
0.0
 11
1.0
 21
1.0
 12
734637.0765900407
 22
4561894.9409630839
 13
0.0
 23
0.0
 14
0.5
 24
0.5
 15
0.5
 25
0.5
 16
0.0
 26
0.0
 36
1.0
 17
0.0
 27
0.0
 37
0.0
 40
38203.461125473128
 41
1.4411764705882351
 42
50.0
 43
0.0
 44
0.0
 50
0.0
 51
0.0
 71
     0
 72
   100
 73
     1
 74
     2
 75
     0
 76
     0
 77
     0
 78
     0
  0
ENDTAB
  0
TABLE
  2
LTYPE
 70
     1
  0
LTYPE
  2
CONTINUOUS
 70
     0
  3
Solid line
 72
    65
 73
     0
 40
0.0
  0
ENDTAB
  0
TABLE
  2
LAYER
 70
     2
  0
LAYER
  2
0
 70
     0
 62
    -7
  6
CONTINUOUS
  0
LAYER
  2
CLUSTERS
 70
     0
 62
     6
  6
CONTINUOUS
  0
ENDTAB
  0
TABLE
  2
STYLE
 70
     1
  0
STYLE
  2
STANDARD
 70
     0
 40
0.0
 41
1.0
 50
0.0
 71
     0
 42
0.2
  3
txt
  4

  0
ENDTAB
  0
TABLE
  2
VIEW
 70
     0
  0
ENDTAB
  0
TABLE
  2
UCS
 70
     0
  0
ENDTAB
  0
TABLE
  2
APPID
 70
     2
  0
APPID
  2
ACAD
 70
     0
  0
APPID
  2
ADE
 70
     0
  0
ENDTAB
  0
TABLE
  2
DIMSTYLE
 70
     1
  0
DIMSTYLE
  2
STANDARD
 70
     0
  3

  4

  5

  6

  7

 40
1.0
 41
0.18
 42
0.0625
 43
0.38
 44
0.18
 45
0.0
 46
0.0
 47
0.0
 48
0.0
140
0.18
141
0.09
142
0.0
143
25.399999999999999
144
1.0
145
0.0
146
1.0
147
0.09
 71
     0
 72
     0
 73
     1
 74
     1
 75
     0
 76
     0
 77
     0
 78
     0
170
     0
171
     2
172
     0
173
     0
174
     0
175
     0
176
     0
177
     0
178
     0
  0
ENDTAB
  0
ENDSEC
  0
SECTION
  2
BLOCKS
  0
BLOCK
  8
0
  2
$MODEL_SPACE
 70
     0
 10
0.0
 20
0.0
 30
0.0
  3
$MODEL_SPACE
  1

  0
ENDBLK
  5
17
  8
0
  0
BLOCK
 67
     1
  8
0
  2
$PAPER_SPACE
 70
     0
 10
0.0
 20
0.0
 30
0.0
  3
$PAPER_SPACE
  1

  0
ENDBLK
  5
1E
 67
     1
  8
0
  0
ENDSEC
  0
SECTION
  2
ENTITIES
  0
POLYLINE
  5
71
  8
CLUSTERS
 66
     1
 10
0.0
 20
0.0
 30
0.0
 70
     1
  0
VERTEX
  5
1D5
  8
CLUSTERS
 10
726812.37935521419
 20
4551456.5327151893
 30
0.0
  0
VERTEX
  5
1D6
  8
CLUSTERS
 10
726927.91369013523
 20
4551456.5327151893
 30
0.0
  0
VERTEX
  5
1D7
  8
CLUSTERS
 10
726927.91369013523
 20
4551556.2576089902
 30
0.0
  0
VERTEX
  5
1D8
  8
CLUSTERS
 10
726812.37935521419
 20
4551556.2576089902
 30
0.0
  0
SEQEND
  5
1D9
  8
CLUSTERS
  0
POLYLINE
  5
72
  8
CLUSTERS
 66
     1
 10
0.0
 20
0.0
 30
0.0
 70
     1
  0
VERTEX
  5
1DA
  8
CLUSTERS
 10
733601.20624277764
 20
4554432.5389754996
 30
0.0
  0
VERTEX
  5
1DB
  8
CLUSTERS
 10
733685.23130729608
 20
4554432.5389754996
 30
0.0
  0
VERTEX
  5
1DC
  8
CLUSTERS
 10
733702.07895261305
 20
4554456.7733314997
 30
0.0
  0
VERTEX
  5
1DD
  8
CLUSTERS
 10
733624.06051801646
 20
4554516.3696486959
 30
0.0
  0
SEQEND
  5
1DE
  8
CLUSTERS
  0
POLYLINE
  5
73
  8
CLUSTERS
 66
     1
 10
0.0
 20
0.0
 30
0.0
 70
     1
  0
VERTEX
  5
1DF
  8
CLUSTERS
 10
734640.59805216303
 20
4559050.5358722387
 30
0.0
  0
VERTEX
  5
1E0
  8
CLUSTERS
 10
734719.3714857531
 20
4559050.5358722387
 30
0.0
  0
VERTEX
  5
1E1
  8
CLUSTERS
 10
734719.3714857531
 20
4559134.5146930832
 30
0.0
  0
VERTEX
  5
1E2
  8
CLUSTERS
 10
734640.59805216303
 20
4559134.5146930832
 30
0.0
  0
SEQEND
  5
1E3
  8
CLUSTERS
  0
POLYLINE
  5
74
  8
CLUSTERS
 66
     1
 10
0.0
 20
0.0
 30
0.0
 70
     1
  0
VERTEX
  5
1E4
  8
CLUSTERS
 10
741354.95495330007
 20
4561054.310447325
 30
0.0
  0
VERTEX
  5
1E5
  8
CLUSTERS
 10
741480.99255007796
 20
4561054.310447325
 30
0.0
  0
VERTEX
  5
1E6
  8
CLUSTERS
 10
741480.99255007796
 20
4561164.5326376716
 30
0.0
  0
VERTEX
  5
1E7
  8
CLUSTERS
 10
741354.95495330007
 20
4561164.5326376716
 30
0.0
  0
SEQEND
  5
1E8
  8
CLUSTERS
  0
POLYLINE
  5
75
  8
CLUSTERS
 66
     1
 10
0.0
 20
0.0
 30
0.0
 70
     1
  0
VERTEX
  5
1E9
  8
CLUSTERS
 10
742938.94835501642
 20
4568559.2849751869
 30
0.0
  0
VERTEX
  5
1EA
  8
CLUSTERS
 10
743033.47655260004
 20
4568559.2849751869
 30
0.0
  0
VERTEX
  5
1EB
  8
CLUSTERS
 10
743033.47655260004
 20
4568638.0151477586
 30
0.0
  0
VERTEX
  5
1EC
  8
CLUSTERS
 10
742938.94835501642
 20
4568638.0151477586
 30
0.0
  0
SEQEND
  5
1ED
  8
CLUSTERS
  0
POLYLINE
  5
76
  8
CLUSTERS
 66
     1
 10
0.0
 20
0.0
 30
0.0
 70
     1
  0
VERTEX
  5
1EE
  8
CLUSTERS
 10
742341.83702497836
 20
4571256.4387100022
 30
0.0
  0
VERTEX
  5
1EF
  8
CLUSTERS
 10
742425.86208949715
 20
4571256.4387100022
 30
0.0
  0
VERTEX
  5
1F0
  8
CLUSTERS
 10
742425.86208949715
 20
4571335.168882574
 30
0.0
  0
VERTEX
  5
1F1
  8
CLUSTERS
 10
742341.83702497836
 20
4571335.168882574
 30
0.0
  0
SEQEND
  5
1F2
  8
CLUSTERS
  0
POLYLINE
  5
77
  8
CLUSTERS
 66
     1
 10
0.0
 20
0.0
 30
0.0
 70
     1
  0
VERTEX
  5
1F3
  8
CLUSTERS
 10
743889.23640066164
 20
4572621.0399982249
 30
0.0
  0
VERTEX
  5
1F4
  8
CLUSTERS
 10
744083.54429796489
 20
4572621.0399982249
 30
0.0
  0
VERTEX
  5
1F5
  8
CLUSTERS
 10
744083.54429796489
 20
4572731.2621885706
 30
0.0
  0
VERTEX
  5
1F6
  8
CLUSTERS
 10
743889.23640066164
 20
4572731.2621885706
 30
0.0
  0
SEQEND
  5
1F7
  8
CLUSTERS
  0
POLYLINE
  5
78
  8
CLUSTERS
 66
     1
 10
0.0
 20
0.0
 30
0.0
 70
     1
  0
VERTEX
  5
1F8
  8
CLUSTERS
 10
742424.05030405894
 20
4571870.4792588931
 30
0.0
  0
VERTEX
  5
1F9
  8
CLUSTERS
 10
742502.82373764913
 20
4571870.4792588931
 30
0.0
  0
VERTEX
  5
1FA
  8
CLUSTERS
 10
742502.82373764913
 20
4571954.4580797385
 30
0.0
  0
VERTEX
  5
1FB
  8
CLUSTERS
 10
742424.05030405894
 20
4571954.4580797385
 30
0.0
  0
SEQEND
  5
1FC
  8
CLUSTERS
  0
POLYLINE
  5
79
  8
CLUSTERS
 66
     1
 10
0.0
 20
0.0
 30
0.0
 70
     1
  0
VERTEX
  5
1FD
  8
CLUSTERS
 10
741930.40343638835
 20
4571765.5057808887
 30
0.0
  0
VERTEX
  5
1FE
  8
CLUSTERS
 10
742019.68000304326
 20
4571765.5057808887
 30
0.0
  0
VERTEX
  5
1FF
  8
CLUSTERS
 10
742019.68000304326
 20
4571859.981898278
 30
0.0
  0
VERTEX
  5
200
  8
CLUSTERS
 10
741930.40343638835
 20
4571859.981898278
 30
0.0
  0
SEQEND
  5
201
  8
CLUSTERS
  0
POLYLINE
  5
7A
  8
CLUSTERS
 66
     1
 10
0.0
 20
0.0
 30
0.0
 70
     1
  0
VERTEX
  5
202
  8
CLUSTERS
 10
741604.80656896287
 20
4571642.379932086
 30
0.0
  0
VERTEX
  5
203
  8
CLUSTERS
 10
741704.58626868285
 20
4571642.379932086
 30
0.0
  0
VERTEX
  5
204
  8
CLUSTERS
 10
741704.58626868285
 20
4571721.1101046577
 30
0.0
  0
VERTEX
  5
205
  8
CLUSTERS
 10
741604.80656896287
 20
4571721.1101046577
 30
0.0
  0
SEQEND
  5
206
  8
CLUSTERS
  0
POLYLINE
  5
7B
  8
CLUSTERS
 66
     1
 10
0.0
 20
0.0
 30
0.0
 70
     1
  0
VERTEX
  5
207
  8
CLUSTERS
 10
743027.98013330635
 20
4571532.1577417403
 30
0.0
  0
VERTEX
  5
208
  8
CLUSTERS
 10
743196.03013355145
 20
4571532.1577417403
 30
0.0
  0
VERTEX
  5
209
  8
CLUSTERS
 10
743196.03013355145
 20
4571652.8772927001
 30
0.0
  0
VERTEX
  5
20A
  8
CLUSTERS
 10
743027.98013330635
 20
4571652.8772927001
 30
0.0
  0
SEQEND
  5
20B
  8
CLUSTERS
  0
POLYLINE
  5
7C
  8
CLUSTERS
 66
     1
 10
0.0
 20
0.0
 30
0.0
 70
     1
  0
VERTEX
  5
20C
  8
CLUSTERS
 10
743637.16146469
 20
4570403.69227657
 30
0.0
  0
VERTEX
  5
20D
  8
CLUSTERS
 10
743705.43176521524
 20
4570403.69227657
 30
0.0
  0
VERTEX
  5
20E
  8
CLUSTERS
 10
743705.43176521524
 20
4570477.1738008698
 30
0.0
  0
VERTEX
  5
20F
  8
CLUSTERS
 10
743637.16146469
 20
4570477.1738008698
 30
0.0
  0
SEQEND
  5
210
  8
CLUSTERS
  0
POLYLINE
  5
7D
  8
CLUSTERS
 66
     1
 10
0.0
 20
0.0
 30
0.0
 70
     1
  0
VERTEX
  5
211
  8
CLUSTERS
 10
742975.46446798218
 20
4570204.242617107
 30
0.0
  0
VERTEX
  5
212
  8
CLUSTERS
 10
743064.74103463709
 20
4570204.242617107
 30
0.0
  0
VERTEX
  5
213
  8
CLUSTERS
 10
743064.74103463709
 20
4570282.9727256102
 30
0.0
  0
VERTEX
  5
214
  8
CLUSTERS
 10
742975.46446798218
 20
4570282.9727256102
 30
0.0
  0
SEQEND
  5
215
  8
CLUSTERS
  0
POLYLINE
  5
7E
  8
CLUSTERS
 66
     1
 10
0.0
 20
0.0
 30
0.0
 70
     1
  0
VERTEX
  5
216
  8
CLUSTERS
 10
742665.62223575776
 20
4570078.274353805
 30
0.0
  0
VERTEX
  5
217
  8
CLUSTERS
 10
742754.89880241291
 20
4570078.274353805
 30
0.0
  0
VERTEX
  5
218
  8
CLUSTERS
 10
742754.89880241291
 20
4570141.2584534222
 30
0.0
  0
VERTEX
  5
219
  8
CLUSTERS
 10
742665.62223575776
 20
4570141.2584534222
 30
0.0
  0
SEQEND
  5
21A
  8
CLUSTERS
  0
POLYLINE
  5
7F
  8
CLUSTERS
 66
     1
 10
0.0
 20
0.0
 30
0.0
 70
     1
  0
VERTEX
  5
21B
  8
CLUSTERS
 10
742264.06063513679
 20
4569764.4127856642
 30
0.0
  0
VERTEX
  5
21C
  8
CLUSTERS
 10
742333.65491952375
 20
4569764.4127856642
 30
0.0
  0
VERTEX
  5
21D
  8
CLUSTERS
 10
742333.65491952375
 20
4569823.6642341185
 30
0.0
  0
VERTEX
  5
21E
  8
CLUSTERS
 10
742264.06063513679
 20
4569823.6642341185
 30
0.0
  0
SEQEND
  5
21F
  8
CLUSTERS
  0
POLYLINE
  5
80
  8
CLUSTERS
 66
     1
 10
0.0
 20
0.0
 30
0.0
 70
     1
  0
VERTEX
  5
220
  8
CLUSTERS
 10
742673.89378629625
 20
4569759.2604969405
 30
0.0
  0
VERTEX
  5
221
  8
CLUSTERS
 10
742746.06571786315
 20
4569759.2604969405
 30
0.0
  0
VERTEX
  5
222
  8
CLUSTERS
 10
742746.06571786315
 20
4569818.5119453957
 30
0.0
  0
VERTEX
  5
223
  8
CLUSTERS
 10
742673.89378629625
 20
4569818.5119453957
 30
0.0
  0
SEQEND
  5
224
  8
CLUSTERS
  0
POLYLINE
  5
81
  8
CLUSTERS
 66
     1
 10
0.0
 20
0.0
 30
0.0
 70
     1
  0
VERTEX
  5
225
  8
CLUSTERS
 10
742740.91055229562
 20
4568736.5287507419
 30
0.0
  0
VERTEX
  5
226
  8
CLUSTERS
 10
742797.61698716041
 20
4568736.5287507419
 30
0.0
  0
VERTEX
  5
227
  8
CLUSTERS
 10
742797.61698716041
 20
4568785.4756217506
 30
0.0
  0
VERTEX
  5
228
  8
CLUSTERS
 10
742740.91055229562
 20
4568785.4756217506
 30
0.0
  0
SEQEND
  5
229
  8
CLUSTERS
  0
POLYLINE
  5
82
  8
CLUSTERS
 66
     1
 10
0.0
 20
0.0
 30
0.0
 70
     1
  0
VERTEX
  5
22A
  8
CLUSTERS
 10
741972.41596864758
 20
4569117.766594395
 30
0.0
  0
VERTEX
  5
22B
  8
CLUSTERS
 10
742051.18940223788
 20
4569117.766594395
 30
0.0
  0
VERTEX
  5
22C
  8
CLUSTERS
 10
742051.18940223788
 20
4569196.4967028992
 30
0.0
  0
VERTEX
  5
22D
  8
CLUSTERS
 10
741972.41596864758
 20
4569196.4967028992
 30
0.0
  0
SEQEND
  5
22E
  8
CLUSTERS
  0
POLYLINE
  5
83
  8
CLUSTERS
 66
     1
 10
0.0
 20
0.0
 30
0.0
 70
     1
  0
VERTEX
  5
22F
  8
CLUSTERS
 10
742408.29566885775
 20
4568330.465124947
 30
0.0
  0
VERTEX
  5
230
  8
CLUSTERS
 10
742492.3206045843
 20
4568330.465124947
 30
0.0
  0
VERTEX
  5
231
  8
CLUSTERS
 10
742492.3206045843
 20
4568409.1952334512
 30
0.0
  0
VERTEX
  5
232
  8
CLUSTERS
 10
742408.29566885775
 20
4568409.1952334512
 30
0.0
  0
SEQEND
  5
233
  8
CLUSTERS
  0
POLYLINE
  5
84
  8
CLUSTERS
 66
     1
 10
0.0
 20
0.0
 30
0.0
 70
     1
  0
VERTEX
  5
234
  8
CLUSTERS
 10
742613.10657043383
 20
4568110.0206801863
 30
0.0
  0
VERTEX
  5
235
  8
CLUSTERS
 10
742707.63476801722
 20
4568110.0206801863
 30
0.0
  0
VERTEX
  5
236
  8
CLUSTERS
 10
742707.63476801722
 20
4568188.750852759
 30
0.0
  0
VERTEX
  5
237
  8
CLUSTERS
 10
742613.10657043383
 20
4568188.750852759
 30
0.0
  0
SEQEND
  5
238
  8
CLUSTERS
  0
POLYLINE
  5
85
  8
CLUSTERS
 66
     1
 10
0.0
 20
0.0
 30
0.0
 70
     1
  0
VERTEX
  5
239
  8
CLUSTERS
 10
740045.09227477666
 20
4569863.0786213847
 30
0.0
  0
VERTEX
  5
23A
  8
CLUSTERS
 10
740129.11733929545
 20
4569863.0786213847
 30
0.0
  0
VERTEX
  5
23B
  8
CLUSTERS
 10
740129.11733929545
 20
4569941.8087939573
 30
0.0
  0
VERTEX
  5
23C
  8
CLUSTERS
 10
740045.09227477666
 20
4569941.8087939573
 30
0.0
  0
SEQEND
  5
23D
  8
CLUSTERS
  0
POLYLINE
  5
86
  8
CLUSTERS
 66
     1
 10
0.0
 20
0.0
 30
0.0
 70
     1
  0
VERTEX
  5
23E
  8
CLUSTERS
 10
741762.55190493015
 20
4568828.0650049131
 30
0.0
  0
VERTEX
  5
23F
  8
CLUSTERS
 10
741832.14618931746
 20
4568828.0650049131
 30
0.0
  0
VERTEX
  5
240
  8
CLUSTERS
 10
741832.14618931746
 20
4568889.8925977312
 30
0.0
  0
VERTEX
  5
241
  8
CLUSTERS
 10
741762.55190493015
 20
4568889.8925977312
 30
0.0
  0
SEQEND
  5
242
  8
CLUSTERS
  0
POLYLINE
  5
87
  8
CLUSTERS
 66
     1
 10
0.0
 20
0.0
 30
0.0
 70
     1
  0
VERTEX
  5
243
  8
CLUSTERS
 10
740672.2408914339
 20
4569255.7059940509
 30
0.0
  0
VERTEX
  5
244
  8
CLUSTERS
 10
740731.52497347852
 20
4569255.7059940509
 30
0.0
  0
VERTEX
  5
245
  8
CLUSTERS
 10
740731.52497347852
 20
4569307.2290094234
 30
0.0
  0
VERTEX
  5
246
  8
CLUSTERS
 10
740672.2408914339
 20
4569307.2290094234
 30
0.0
  0
SEQEND
  5
247
  8
CLUSTERS
  0
POLYLINE
  5
88
  8
CLUSTERS
 66
     1
 10
0.0
 20
0.0
 30
0.0
 70
     1
  0
VERTEX
  5
248
  8
CLUSTERS
 10
739806.17822780088
 20
4569196.4545455957
 30
0.0
  0
VERTEX
  5
249
  8
CLUSTERS
 10
739868.03982823296
 20
4569196.4545455957
 30
0.0
  0
VERTEX
  5
24A
  8
CLUSTERS
 10
739868.03982823296
 20
4569253.12984969
 30
0.0
  0
VERTEX
  5
24B
  8
CLUSTERS
 10
739806.17822780088
 20
4569253.12984969
 30
0.0
  0
SEQEND
  5
24C
  8
CLUSTERS
  0
POLYLINE
  5
89
  8
CLUSTERS
 66
     1
 10
0.0
 20
0.0
 30
0.0
 70
     1
  0
VERTEX
  5
24D
  8
CLUSTERS
 10
739597.39524584764
 20
4568307.6825624797
 30
0.0
  0
VERTEX
  5
24E
  8
CLUSTERS
 10
739638.63644159446
 20
4568307.6825624797
 30
0.0
  0
VERTEX
  5
24F
  8
CLUSTERS
 10
739638.63644159446
 20
4568356.6294334875
 30
0.0
  0
VERTEX
  5
250
  8
CLUSTERS
 10
739597.39524584764
 20
4568356.6294334875
 30
0.0
  0
SEQEND
  5
251
  8
CLUSTERS
  0
POLYLINE
  5
8A
  8
CLUSTERS
 66
     1
 10
0.0
 20
0.0
 30
0.0
 70
     1
  0
VERTEX
  5
252
  8
CLUSTERS
 10
739759.7819952789
 20
4568305.1064181169
 30
0.0
  0
VERTEX
  5
253
  8
CLUSTERS
 10
739824.22124289081
 20
4568305.1064181169
 30
0.0
  0
VERTEX
  5
254
  8
CLUSTERS
 10
739824.22124289081
 20
4568364.3579306416
 30
0.0
  0
VERTEX
  5
255
  8
CLUSTERS
 10
739759.7819952789
 20
4568364.3579306416
 30
0.0
  0
SEQEND
  5
256
  8
CLUSTERS
  0
POLYLINE
  5
8B
  8
CLUSTERS
 66
     1
 10
0.0
 20
0.0
 30
0.0
 70
     1
  0
VERTEX
  5
257
  8
CLUSTERS
 10
739241.69101116527
 20
4567880.0415733401
 30
0.0
  0
VERTEX
  5
258
  8
CLUSTERS
 10
739316.44046111975
 20
4567880.0415733401
 30
0.0
  0
VERTEX
  5
259
  8
CLUSTERS
 10
739316.44046111975
 20
4567944.4453745894
 30
0.0
  0
VERTEX
  5
25A
  8
CLUSTERS
 10
739241.69101116527
 20
4567944.4453745894
 30
0.0
  0
SEQEND
  5
25B
  8
CLUSTERS
  0
POLYLINE
  5
8C
  8
CLUSTERS
 66
     1
 10
0.0
 20
0.0
 30
0.0
 70
     1
  0
VERTEX
  5
25C
  8
CLUSTERS
 10
738586.99734815862
 20
4567813.8922803607
 30
0.0
  0
VERTEX
  5
25D
  8
CLUSTERS
 10
738671.02228388505
 20
4567813.8922803607
 30
0.0
  0
VERTEX
  5
25E
  8
CLUSTERS
 10
738671.02228388505
 20
4567892.6223888658
 30
0.0
  0
VERTEX
  5
25F
  8
CLUSTERS
 10
738586.99734815862
 20
4567892.6223888658
 30
0.0
  0
SEQEND
  5
260
  8
CLUSTERS
  0
POLYLINE
  5
8D
  8
CLUSTERS
 66
     1
 10
0.0
 20
0.0
 30
0.0
 70
     1
  0
VERTEX
  5
261
  8
CLUSTERS
 10
739960.83229327726
 20
4567889.1897080569
 30
0.0
  0
VERTEX
  5
262
  8
CLUSTERS
 10
740039.60572686722
 20
4567889.1897080569
 30
0.0
  0
VERTEX
  5
263
  8
CLUSTERS
 10
740039.60572686722
 20
4567952.1738076741
 30
0.0
  0
VERTEX
  5
264
  8
CLUSTERS
 10
739960.83229327726
 20
4567952.1738076741
 30
0.0
  0
SEQEND
  5
265
  8
CLUSTERS
  0
POLYLINE
  5
8E
  8
CLUSTERS
 66
     1
 10
0.0
 20
0.0
 30
0.0
 70
     1
  0
VERTEX
  5
266
  8
CLUSTERS
 10
741926.99134451605
 20
4567357.2573819533
 30
0.0
  0
VERTEX
  5
267
  8
CLUSTERS
 10
742005.76477810601
 20
4567357.2573819533
 30
0.0
  0
VERTEX
  5
268
  8
CLUSTERS
 10
742005.76477810601
 20
4567435.9875545241
 30
0.0
  0
VERTEX
  5
269
  8
CLUSTERS
 10
741926.99134451605
 20
4567435.9875545241
 30
0.0
  0
SEQEND
  5
26A
  8
CLUSTERS
  0
POLYLINE
  5
8F
  8
CLUSTERS
 66
     1
 10
0.0
 20
0.0
 30
0.0
 70
     1
  0
VERTEX
  5
26B
  8
CLUSTERS
 10
741506.86627950694
 20
4567603.9451962151
 30
0.0
  0
VERTEX
  5
26C
  8
CLUSTERS
 10
741585.63984188938
 20
4567603.9451962151
 30
0.0
  0
VERTEX
  5
26D
  8
CLUSTERS
 10
741585.63984188938
 20
4567682.6753687877
 30
0.0
  0
VERTEX
  5
26E
  8
CLUSTERS
 10
741506.86627950694
 20
4567682.6753687877
 30
0.0
  0
SEQEND
  5
26F
  8
CLUSTERS
  0
POLYLINE
  5
90
  8
CLUSTERS
 66
     1
 10
0.0
 20
0.0
 30
0.0
 70
     1
  0
VERTEX
  5
270
  8
CLUSTERS
 10
740514.32091323752
 20
4567756.1568290181
 30
0.0
  0
VERTEX
  5
271
  8
CLUSTERS
 10
740577.33971162629
 20
4567756.1568290181
 30
0.0
  0
VERTEX
  5
272
  8
CLUSTERS
 10
740577.33971162629
 20
4567829.6382892476
 30
0.0
  0
VERTEX
  5
273
  8
CLUSTERS
 10
740514.32091323752
 20
4567829.6382892476
 30
0.0
  0
SEQEND
  5
274
  8
CLUSTERS
  0
POLYLINE
  5
91
  8
CLUSTERS
 66
     1
 10
0.0
 20
0.0
 30
0.0
 70
     1
  0
VERTEX
  5
275
  8
CLUSTERS
 10
740509.06941110105
 20
4567483.2256452544
 30
0.0
  0
VERTEX
  5
276
  8
CLUSTERS
 10
740572.08808069781
 20
4567483.2256452544
 30
0.0
  0
VERTEX
  5
277
  8
CLUSTERS
 10
740572.08808069781
 20
4567556.7071054848
 30
0.0
  0
VERTEX
  5
278
  8
CLUSTERS
 10
740509.06941110105
 20
4567556.7071054848
 30
0.0
  0
SEQEND
  5
279
  8
CLUSTERS
  0
POLYLINE
  5
92
  8
CLUSTERS
 66
     1
 10
0.0
 20
0.0
 30
0.0
 70
     1
  0
VERTEX
  5
27A
  8
CLUSTERS
 10
740388.28344525164
 20
4567289.0246340642
 30
0.0
  0
VERTEX
  5
27B
  8
CLUSTERS
 10
740509.06941110105
 20
4567289.0246340642
 30
0.0
  0
VERTEX
  5
27C
  8
CLUSTERS
 10
740509.06941110105
 20
4567373.0034549087
 30
0.0
  0
VERTEX
  5
27D
  8
CLUSTERS
 10
740388.28344525164
 20
4567373.0034549087
 30
0.0
  0
SEQEND
  5
27E
  8
CLUSTERS
  0
POLYLINE
  5
93
  8
CLUSTERS
 66
     1
 10
0.0
 20
0.0
 30
0.0
 70
     1
  0
VERTEX
  5
27F
  8
CLUSTERS
 10
738965.10988090816
 20
4567352.0087336795
 30
0.0
  0
VERTEX
  5
280
  8
CLUSTERS
 10
739064.88958062814
 20
4567352.0087336795
 30
0.0
  0
VERTEX
  5
281
  8
CLUSTERS
 10
739064.88958062814
 20
4567430.7389062522
 30
0.0
  0
VERTEX
  5
282
  8
CLUSTERS
 10
738965.10988090816
 20
4567430.7389062522
 30
0.0
  0
SEQEND
  5
283
  8
CLUSTERS
  0
POLYLINE
  5
94
  8
CLUSTERS
 66
     1
 10
0.0
 20
0.0
 30
0.0
 70
     1
  0
VERTEX
  5
284
  8
CLUSTERS
 10
735681.78960619564
 20
4565339.4897639388
 30
0.0
  0
VERTEX
  5
285
  8
CLUSTERS
 10
735751.6937646264
 20
4565339.4897639388
 30
0.0
  0
VERTEX
  5
286
  8
CLUSTERS
 10
735751.6937646264
 20
4565409.35543459
 30
0.0
  0
VERTEX
  5
287
  8
CLUSTERS
 10
735681.78960619564
 20
4565409.35543459
 30
0.0
  0
SEQEND
  5
288
  8
CLUSTERS
  0
POLYLINE
  5
95
  8
CLUSTERS
 66
     1
 10
0.0
 20
0.0
 30
0.0
 70
     1
  0
VERTEX
  5
289
  8
CLUSTERS
 10
739651.60877880291
 20
4566324.9640006842
 30
0.0
  0
VERTEX
  5
28A
  8
CLUSTERS
 10
739747.26712798036
 20
4566324.9640006842
 30
0.0
  0
VERTEX
  5
28B
  8
CLUSTERS
 10
739747.26712798036
 20
4566402.1840064097
 30
0.0
  0
VERTEX
  5
28C
  8
CLUSTERS
 10
739651.60877880291
 20
4566402.1840064097
 30
0.0
  0
SEQEND
  5
28D
  8
CLUSTERS
  0
POLYLINE
  5
96
  8
CLUSTERS
 66
     1
 10
0.0
 20
0.0
 30
0.0
 70
     1
  0
VERTEX
  5
28E
  8
CLUSTERS
 10
736292.53099755174
 20
4565784.424024676
 30
0.0
  0
VERTEX
  5
28F
  8
CLUSTERS
 10
736351.39766406151
 20
4565784.424024676
 30
0.0
  0
VERTEX
  5
290
  8
CLUSTERS
 10
736351.39766406151
 20
4565850.612591858
 30
0.0
  0
VERTEX
  5
291
  8
CLUSTERS
 10
736292.53099755174
 20
4565850.612591858
 30
0.0
  0
SEQEND
  5
292
  8
CLUSTERS
  0
POLYLINE
  5
97
  8
CLUSTERS
 66
     1
 10
0.0
 20
0.0
 30
0.0
 70
     1
  0
VERTEX
  5
293
  8
CLUSTERS
 10
737657.5013040303
 20
4566405.8611739464
 30
0.0
  0
VERTEX
  5
294
  8
CLUSTERS
 10
737716.3679705403
 20
4566405.8611739464
 30
0.0
  0
VERTEX
  5
295
  8
CLUSTERS
 10
737716.3679705403
 20
4566461.0183025878
 30
0.0
  0
VERTEX
  5
296
  8
CLUSTERS
 10
737657.5013040303
 20
4566461.0183025878
 30
0.0
  0
SEQEND
  5
297
  8
CLUSTERS
  0
POLYLINE
  5
98
  8
CLUSTERS
 66
     1
 10
0.0
 20
0.0
 30
0.0
 70
     1
  0
VERTEX
  5
298
  8
CLUSTERS
 10
737870.89285743539
 20
4566126.3982991343
 30
0.0
  0
VERTEX
  5
299
  8
CLUSTERS
 10
737937.11780896166
 20
4566126.3982991343
 30
0.0
  0
VERTEX
  5
29A
  8
CLUSTERS
 10
737937.11780896166
 20
4566181.5554277757
 30
0.0
  0
VERTEX
  5
29B
  8
CLUSTERS
 10
737870.89285743539
 20
4566181.5554277757
 30
0.0
  0
SEQEND
  5
29C
  8
CLUSTERS
  0
POLYLINE
  5
99
  8
CLUSTERS
 66
     1
 10
0.0
 20
0.0
 30
0.0
 70
     1
  0
VERTEX
  5
29D
  8
CLUSTERS
 10
738349.18434573861
 20
4565082.0897662109
 30
0.0
  0
VERTEX
  5
29E
  8
CLUSTERS
 10
738444.84269491618
 20
4565082.0897662109
 30
0.0
  0
VERTEX
  5
29F
  8
CLUSTERS
 10
738444.84269491618
 20
4565159.3097719364
 30
0.0
  0
VERTEX
  5
2A0
  8
CLUSTERS
 10
738349.18434573861
 20
4565159.3097719364
 30
0.0
  0
SEQEND
  5
2A1
  8
CLUSTERS
  0
POLYLINE
  5
9A
  8
CLUSTERS
 66
     1
 10
0.0
 20
0.0
 30
0.0
 70
     1
  0
VERTEX
  5
2A2
  8
CLUSTERS
 10
738801.72164329526
 20
4564876.1697295867
 30
0.0
  0
VERTEX
  5
2A3
  8
CLUSTERS
 10
738897.37999247271
 20
4564876.1697295867
 30
0.0
  0
VERTEX
  5
2A4
  8
CLUSTERS
 10
738897.37999247271
 20
4564946.0354643082
 30
0.0
  0
VERTEX
  5
2A5
  8
CLUSTERS
 10
738801.72164329526
 20
4564946.0354643082
 30
0.0
  0
SEQEND
  5
2A6
  8
CLUSTERS
  0
POLYLINE
  5
9B
  8
CLUSTERS
 66
     1
 10
0.0
 20
0.0
 30
0.0
 70
     1
  0
VERTEX
  5
2A7
  8
CLUSTERS
 10
738809.08005710412
 20
4564589.3525837688
 30
0.0
  0
VERTEX
  5
2A8
  8
CLUSTERS
 10
738875.30500863073
 20
4564589.3525837688
 30
0.0
  0
VERTEX
  5
2A9
  8
CLUSTERS
 10
738875.30500863073
 20
4564670.2497570319
 30
0.0
  0
VERTEX
  5
2AA
  8
CLUSTERS
 10
738809.08005710412
 20
4564670.2497570319
 30
0.0
  0
SEQEND
  5
2AB
  8
CLUSTERS
  0
POLYLINE
  5
9C
  8
CLUSTERS
 66
     1
 10
0.0
 20
0.0
 30
0.0
 70
     1
  0
VERTEX
  5
2AC
  8
CLUSTERS
 10
740354.32931243221
 20
4565817.5183403017
 30
0.0
  0
VERTEX
  5
2AD
  8
CLUSTERS
 10
740442.62937659328
 20
4565817.5183403017
 30
0.0
  0
VERTEX
  5
2AE
  8
CLUSTERS
 10
740442.62937659328
 20
4565898.4154494954
 30
0.0
  0
VERTEX
  5
2AF
  8
CLUSTERS
 10
740354.32931243221
 20
4565898.4154494954
 30
0.0
  0
SEQEND
  5
2B0
  8
CLUSTERS
  0
POLYLINE
  5
9D
  8
CLUSTERS
 66
     1
 10
0.0
 20
0.0
 30
0.0
 70
     1
  0
VERTEX
  5
2B1
  8
CLUSTERS
 10
741391.85393939074
 20
4565585.8583231261
 30
0.0
  0
VERTEX
  5
2B2
  8
CLUSTERS
 10
741458.07889091712
 20
4565585.8583231261
 30
0.0
  0
VERTEX
  5
2B3
  8
CLUSTERS
 10
741458.07889091712
 20
4565641.0154517666
 30
0.0
  0
VERTEX
  5
2B4
  8
CLUSTERS
 10
741391.85393939074
 20
4565641.0154517666
 30
0.0
  0
SEQEND
  5
2B5
  8
CLUSTERS
  0
POLYLINE
  5
9E
  8
CLUSTERS
 66
     1
 10
0.0
 20
0.0
 30
0.0
 70
     1
  0
VERTEX
  5
2B6
  8
CLUSTERS
 10
740983.46660951851
 20
4565420.3868731325
 30
0.0
  0
VERTEX
  5
2B7
  8
CLUSTERS
 10
741042.33327602805
 20
4565420.3868731325
 30
0.0
  0
VERTEX
  5
2B8
  8
CLUSTERS
 10
741042.33327602805
 20
4565475.5440017739
 30
0.0
  0
VERTEX
  5
2B9
  8
CLUSTERS
 10
740983.46660951851
 20
4565475.5440017739
 30
0.0
  0
SEQEND
  5
2BA
  8
CLUSTERS
  0
POLYLINE
  5
9F
  8
CLUSTERS
 66
     1
 10
0.0
 20
0.0
 30
0.0
 70
     1
  0
VERTEX
  5
2BB
  8
CLUSTERS
 10
741115.91651257139
 20
4564942.3582967706
 30
0.0
  0
VERTEX
  5
2BC
  8
CLUSTERS
 10
741193.17895601911
 20
4564942.3582967706
 30
0.0
  0
VERTEX
  5
2BD
  8
CLUSTERS
 10
741193.17895601911
 20
4565015.9011990279
 30
0.0
  0
VERTEX
  5
2BE
  8
CLUSTERS
 10
741115.91651257139
 20
4565015.9011990279
 30
0.0
  0
SEQEND
  5
2BF
  8
CLUSTERS
  0
POLYLINE
  5
A0
  8
CLUSTERS
 66
     1
 10
0.0
 20
0.0
 30
0.0
 70
     1
  0
VERTEX
  5
2C0
  8
CLUSTERS
 10
740637.62502426829
 20
4564780.5640143147
 30
0.0
  0
VERTEX
  5
2C1
  8
CLUSTERS
 10
740722.24588152475
 20
4564780.5640143147
 30
0.0
  0
VERTEX
  5
2C2
  8
CLUSTERS
 10
740722.24588152475
 20
4564868.8154585827
 30
0.0
  0
VERTEX
  5
2C3
  8
CLUSTERS
 10
740637.62502426829
 20
4564868.8154585827
 30
0.0
  0
SEQEND
  5
2C4
  8
CLUSTERS
  0
POLYLINE
  5
A1
  8
CLUSTERS
 66
     1
 10
0.0
 20
0.0
 30
0.0
 70
     1
  0
VERTEX
  5
2C5
  8
CLUSTERS
 10
740472.06264545186
 20
4564817.3354334086
 30
0.0
  0
VERTEX
  5
2C6
  8
CLUSTERS
 10
740534.60839007399
 20
4564817.3354334086
 30
0.0
  0
VERTEX
  5
2C7
  8
CLUSTERS
 10
740534.60839007399
 20
4564868.8154585827
 30
0.0
  0
VERTEX
  5
2C8
  8
CLUSTERS
 10
740472.06264545186
 20
4564868.8154585827
 30
0.0
  0
SEQEND
  5
2C9
  8
CLUSTERS
  0
POLYLINE
  5
A2
  8
CLUSTERS
 66
     1
 10
0.0
 20
0.0
 30
0.0
 70
     1
  0
VERTEX
  5
2CA
  8
CLUSTERS
 10
740247.63360012579
 20
4564769.5325757731
 30
0.0
  0
VERTEX
  5
2CB
  8
CLUSTERS
 10
740324.89604357339
 20
4564769.5325757731
 30
0.0
  0
VERTEX
  5
2CC
  8
CLUSTERS
 10
740324.89604357339
 20
4564824.6897684829
 30
0.0
  0
VERTEX
  5
2CD
  8
CLUSTERS
 10
740247.63360012579
 20
4564824.6897684829
 30
0.0
  0
SEQEND
  5
2CE
  8
CLUSTERS
  0
POLYLINE
  5
A3
  8
CLUSTERS
 66
     1
 10
0.0
 20
0.0
 30
0.0
 70
     1
  0
VERTEX
  5
2CF
  8
CLUSTERS
 10
740243.95439322153
 20
4564637.1554414062
 30
0.0
  0
VERTEX
  5
2D0
  8
CLUSTERS
 10
740332.25432859012
 20
4564637.1554414062
 30
0.0
  0
VERTEX
  5
2D1
  8
CLUSTERS
 10
740332.25432859012
 20
4564714.3754471308
 30
0.0
  0
VERTEX
  5
2D2
  8
CLUSTERS
 10
740243.95439322153
 20
4564714.3754471308
 30
0.0
  0
SEQEND
  5
2D3
  8
CLUSTERS
  0
POLYLINE
  5
A4
  8
CLUSTERS
 66
     1
 10
0.0
 20
0.0
 30
0.0
 70
     1
  0
VERTEX
  5
2D4
  8
CLUSTERS
 10
741853.46954185434
 20
4561795.9702951098
 30
0.0
  0
VERTEX
  5
2D5
  8
CLUSTERS
 10
741926.99134451605
 20
4561795.9702951098
 30
0.0
  0
VERTEX
  5
2D6
  8
CLUSTERS
 10
741926.99134451605
 20
4561869.4518194096
 30
0.0
  0
VERTEX
  5
2D7
  8
CLUSTERS
 10
741853.46954185434
 20
4561869.4518194096
 30
0.0
  0
SEQEND
  5
2D8
  8
CLUSTERS
  0
POLYLINE
  5
A5
  8
CLUSTERS
 66
     1
 10
0.0
 20
0.0
 30
0.0
 70
     1
  0
VERTEX
  5
2D9
  8
CLUSTERS
 10
738786.55674759834
 20
4562420.5628352091
 30
0.0
  0
VERTEX
  5
2DA
  8
CLUSTERS
 10
738860.07855025982
 20
4562420.5628352091
 30
0.0
  0
VERTEX
  5
2DB
  8
CLUSTERS
 10
738860.07855025982
 20
4562504.5416560536
 30
0.0
  0
VERTEX
  5
2DC
  8
CLUSTERS
 10
738786.55674759834
 20
4562504.5416560536
 30
0.0
  0
SEQEND
  5
2DD
  8
CLUSTERS
  0
POLYLINE
  5
A6
  8
CLUSTERS
 66
     1
 10
0.0
 20
0.0
 30
0.0
 70
     1
  0
VERTEX
  5
2DE
  8
CLUSTERS
 10
738739.29258441029
 20
4562562.277107399
 30
0.0
  0
VERTEX
  5
2DF
  8
CLUSTERS
 10
738807.56288493564
 20
4562562.277107399
 30
0.0
  0
VERTEX
  5
2E0
  8
CLUSTERS
 10
738807.56288493564
 20
4562646.2559282426
 30
0.0
  0
VERTEX
  5
2E1
  8
CLUSTERS
 10
738739.29258441029
 20
4562646.2559282426
 30
0.0
  0
SEQEND
  5
2E2
  8
CLUSTERS
  0
POLYLINE
  5
A7
  8
CLUSTERS
 66
     1
 10
0.0
 20
0.0
 30
0.0
 70
     1
  0
VERTEX
  5
2E3
  8
CLUSTERS
 10
737484.16902031214
 20
4561937.6845672997
 30
0.0
  0
VERTEX
  5
2E4
  8
CLUSTERS
 10
737688.98005068023
 20
4561937.6845672997
 30
0.0
  0
VERTEX
  5
2E5
  8
CLUSTERS
 10
737688.98005068023
 20
4562126.636930218
 30
0.0
  0
VERTEX
  5
2E6
  8
CLUSTERS
 10
737484.16902031214
 20
4562126.636930218
 30
0.0
  0
SEQEND
  5
2E7
  8
CLUSTERS
  0
POLYLINE
  5
A8
  8
CLUSTERS
 66
     1
 10
0.0
 20
0.0
 30
0.0
 70
     1
  0
VERTEX
  5
2E8
  8
CLUSTERS
 10
734825.96257421875
 20
4563899.1754535297
 30
0.0
  0
VERTEX
  5
2E9
  8
CLUSTERS
 10
734911.02222651569
 20
4563899.1754535297
 30
0.0
  0
VERTEX
  5
2EA
  8
CLUSTERS
 10
734911.02222651569
 20
4563968.7315435009
 30
0.0
  0
VERTEX
  5
2EB
  8
CLUSTERS
 10
734825.96257421875
 20
4563968.7315435009
 30
0.0
  0
SEQEND
  5
2EC
  8
CLUSTERS
  0
POLYLINE
  5
A9
  8
CLUSTERS
 66
     1
 10
0.0
 20
0.0
 30
0.0
 70
     1
  0
VERTEX
  5
2ED
  8
CLUSTERS
 10
733921.23649081076
 20
4564473.656991628
 30
0.0
  0
VERTEX
  5
2EE
  8
CLUSTERS
 10
734021.76151101768
 20
4564473.656991628
 30
0.0
  0
VERTEX
  5
2EF
  8
CLUSTERS
 10
734021.76151101768
 20
4564558.670011838
 30
0.0
  0
VERTEX
  5
2F0
  8
CLUSTERS
 10
733921.23649081076
 20
4564558.670011838
 30
0.0
  0
SEQEND
  5
2F1
  8
CLUSTERS
  0
POLYLINE
  5
AA
  8
CLUSTERS
 66
     1
 10
0.0
 20
0.0
 30
0.0
 70
     1
  0
VERTEX
  5
2F2
  8
CLUSTERS
 10
735244.81285398791
 20
4563570.0229575383
 30
0.0
  0
VERTEX
  5
2F3
  8
CLUSTERS
 10
735323.58628757822
 20
4563570.0229575383
 30
0.0
  0
VERTEX
  5
2F4
  8
CLUSTERS
 10
735323.58628757822
 20
4563648.75313011
 30
0.0
  0
VERTEX
  5
2F5
  8
CLUSTERS
 10
735244.81285398791
 20
4563648.75313011
 30
0.0
  0
SEQEND
  5
2F6
  8
CLUSTERS
  0
POLYLINE
  5
AB
  8
CLUSTERS
 66
     1
 10
0.0
 20
0.0
 30
0.0
 70
     1
  0
VERTEX
  5
2F7
  8
CLUSTERS
 10
735475.88165262213
 20
4565160.3719053203
 30
0.0
  0
VERTEX
  5
2F8
  8
CLUSTERS
 10
735544.15195314738
 20
4565160.3719053203
 30
0.0
  0
VERTEX
  5
2F9
  8
CLUSTERS
 10
735544.15195314738
 20
4565212.8587083919
 30
0.0
  0
VERTEX
  5
2FA
  8
CLUSTERS
 10
735475.88165262213
 20
4565212.8587083919
 30
0.0
  0
SEQEND
  5
2FB
  8
CLUSTERS
  0
POLYLINE
  5
AC
  8
CLUSTERS
 66
     1
 10
0.0
 20
0.0
 30
0.0
 70
     1
  0
VERTEX
  5
2FC
  8
CLUSTERS
 10
735764.71761871676
 20
4564771.9698829381
 30
0.0
  0
VERTEX
  5
2FD
  8
CLUSTERS
 10
735838.23955017061
 20
4564771.9698829381
 30
0.0
  0
VERTEX
  5
2FE
  8
CLUSTERS
 10
735838.23955017061
 20
4564845.4513431694
 30
0.0
  0
VERTEX
  5
2FF
  8
CLUSTERS
 10
735764.71761871676
 20
4564845.4513431694
 30
0.0
  0
SEQEND
  5
300
  8
CLUSTERS
  0
POLYLINE
  5
AD
  8
CLUSTERS
 66
     1
 10
0.0
 20
0.0
 30
0.0
 70
     1
  0
VERTEX
  5
301
  8
CLUSTERS
 10
736552.45208341035
 20
4564173.6207764102
 30
0.0
  0
VERTEX
  5
302
  8
CLUSTERS
 10
736620.72238393594
 20
4564173.6207764102
 30
0.0
  0
VERTEX
  5
303
  8
CLUSTERS
 10
736620.72238393594
 20
4564236.6048760246
 30
0.0
  0
VERTEX
  5
304
  8
CLUSTERS
 10
736552.45208341035
 20
4564236.6048760246
 30
0.0
  0
SEQEND
  5
305
  8
CLUSTERS
  0
POLYLINE
  5
AE
  8
CLUSTERS
 66
     1
 10
0.0
 20
0.0
 30
0.0
 70
     1
  0
VERTEX
  5
306
  8
CLUSTERS
 10
736562.95521647541
 20
4563176.3722228147
 30
0.0
  0
VERTEX
  5
307
  8
CLUSTERS
 10
736620.72238393594
 20
4563176.3722228147
 30
0.0
  0
VERTEX
  5
308
  8
CLUSTERS
 10
736620.72238393594
 20
4563228.8589618169
 30
0.0
  0
VERTEX
  5
309
  8
CLUSTERS
 10
736562.95521647541
 20
4563228.8589618169
 30
0.0
  0
SEQEND
  5
30A
  8
CLUSTERS
  0
POLYLINE
  5
AF
  8
CLUSTERS
 66
     1
 10
0.0
 20
0.0
 30
0.0
 70
     1
  0
VERTEX
  5
30B
  8
CLUSTERS
 10
736725.75371458405
 20
4563055.652671854
 30
0.0
  0
VERTEX
  5
30C
  8
CLUSTERS
 10
736820.28178337531
 20
4563055.652671854
 30
0.0
  0
VERTEX
  5
30D
  8
CLUSTERS
 10
736820.28178337531
 20
4563129.1341320844
 30
0.0
  0
VERTEX
  5
30E
  8
CLUSTERS
 10
736725.75371458405
 20
4563129.1341320844
 30
0.0
  0
SEQEND
  5
30F
  8
CLUSTERS
  0
POLYLINE
  5
B0
  8
CLUSTERS
 66
     1
 10
0.0
 20
0.0
 30
0.0
 70
     1
  0
VERTEX
  5
310
  8
CLUSTERS
 10
736825.53328551166
 20
4562798.4674969772
 30
0.0
  0
VERTEX
  5
311
  8
CLUSTERS
 10
736904.30684789422
 20
4562798.4674969772
 30
0.0
  0
VERTEX
  5
312
  8
CLUSTERS
 10
736904.30684789422
 20
4562877.1976695489
 30
0.0
  0
VERTEX
  5
313
  8
CLUSTERS
 10
736825.53328551166
 20
4562877.1976695489
 30
0.0
  0
SEQEND
  5
314
  8
CLUSTERS
  0
POLYLINE
  5
B1
  8
CLUSTERS
 66
     1
 10
0.0
 20
0.0
 30
0.0
 70
     1
  0
VERTEX
  5
315
  8
CLUSTERS
 10
736636.47701913689
 20
4561732.9861954954
 30
0.0
  0
VERTEX
  5
316
  8
CLUSTERS
 10
736725.75371458405
 20
4561732.9861954954
 30
0.0
  0
VERTEX
  5
317
  8
CLUSTERS
 10
736725.75371458405
 20
4561822.2137286812
 30
0.0
  0
VERTEX
  5
318
  8
CLUSTERS
 10
736636.47701913689
 20
4561822.2137286812
 30
0.0
  0
SEQEND
  5
319
  8
CLUSTERS
  0
POLYLINE
  5
B2
  8
CLUSTERS
 66
     1
 10
0.0
 20
0.0
 30
0.0
 70
     1
  0
VERTEX
  5
31A
  8
CLUSTERS
 10
735542.62666707009
 20
4562748.3227306921
 30
0.0
  0
VERTEX
  5
31B
  8
CLUSTERS
 10
735599.33323072712
 20
4562748.3227306921
 30
0.0
  0
VERTEX
  5
31C
  8
CLUSTERS
 10
735599.33323072712
 20
4562794.6934573399
 30
0.0
  0
VERTEX
  5
31D
  8
CLUSTERS
 10
735561.60509994079
 20
4562805.4381877817
 30
0.0
  0
SEQEND
  5
31E
  8
CLUSTERS
  0
POLYLINE
  5
B3
  8
CLUSTERS
 66
     1
 10
0.0
 20
0.0
 30
0.0
 70
     1
  0
VERTEX
  5
31F
  8
CLUSTERS
 10
735699.85825093405
 20
4562771.5080940174
 30
0.0
  0
VERTEX
  5
320
  8
CLUSTERS
 10
735759.14233297855
 20
4562771.5080940174
 30
0.0
  0
VERTEX
  5
321
  8
CLUSTERS
 10
735759.14233297855
 20
4562828.1833981108
 30
0.0
  0
VERTEX
  5
322
  8
CLUSTERS
 10
735699.85825093405
 20
4562828.1833981108
 30
0.0
  0
SEQEND
  5
323
  8
CLUSTERS
  0
POLYLINE
  5
B4
  8
CLUSTERS
 66
     1
 10
0.0
 20
0.0
 30
0.0
 70
     1
  0
VERTEX
  5
324
  8
CLUSTERS
 10
734972.98428486707
 20
4562377.3570456477
 30
0.0
  0
VERTEX
  5
325
  8
CLUSTERS
 10
735032.26836691168
 20
4562377.3570456477
 30
0.0
  0
VERTEX
  5
326
  8
CLUSTERS
 10
735032.26836691168
 20
4562431.4562053811
 30
0.0
  0
VERTEX
  5
327
  8
CLUSTERS
 10
734972.98428486707
 20
4562431.4562053811
 30
0.0
  0
SEQEND
  5
328
  8
CLUSTERS
  0
POLYLINE
  5
B5
  8
CLUSTERS
 66
     1
 10
0.0
 20
0.0
 30
0.0
 70
     1
  0
VERTEX
  5
329
  8
CLUSTERS
 10
735359.61938416166
 20
4561993.5106387967
 30
0.0
  0
VERTEX
  5
32A
  8
CLUSTERS
 10
735429.21366854862
 20
4561993.5106387967
 30
0.0
  0
VERTEX
  5
32B
  8
CLUSTERS
 10
735429.21366854862
 20
4562039.8813013751
 30
0.0
  0
VERTEX
  5
32C
  8
CLUSTERS
 10
735359.61938416166
 20
4562039.8813013751
 30
0.0
  0
SEQEND
  5
32D
  8
CLUSTERS
  0
POLYLINE
  5
B6
  8
CLUSTERS
 66
     1
 10
0.0
 20
0.0
 30
0.0
 70
     1
  0
VERTEX
  5
32E
  8
CLUSTERS
 10
733913.41558419575
 20
4564026.0841834703
 30
0.0
  0
VERTEX
  5
32F
  8
CLUSTERS
 10
733988.16503415024
 20
4564026.0841834703
 30
0.0
  0
VERTEX
  5
330
  8
CLUSTERS
 10
733988.16503415024
 20
4564100.7925621653
 30
0.0
  0
VERTEX
  5
331
  8
CLUSTERS
 10
733913.41558419575
 20
4564100.7925621653
 30
0.0
  0
SEQEND
  5
332
  8
CLUSTERS
  0
POLYLINE
  5
B7
  8
CLUSTERS
 66
     1
 10
0.0
 20
0.0
 30
0.0
 70
     1
  0
VERTEX
  5
333
  8
CLUSTERS
 10
732972.44428344374
 20
4563585.2863998516
 30
0.0
  0
VERTEX
  5
334
  8
CLUSTERS
 10
733035.64751226932
 20
4563585.2863998516
 30
0.0
  0
VERTEX
  5
335
  8
CLUSTERS
 10
733035.64751226932
 20
4563644.8451865781
 30
0.0
  0
VERTEX
  5
336
  8
CLUSTERS
 10
732972.44428344374
 20
4563644.8451865781
 30
0.0
  0
SEQEND
  5
337
  8
CLUSTERS
  0
POLYLINE
  5
B8
  8
CLUSTERS
 66
     1
 10
0.0
 20
0.0
 30
0.0
 70
     1
  0
VERTEX
  5
338
  8
CLUSTERS
 10
732147.61264097318
 20
4563270.8484042734
 30
0.0
  0
VERTEX
  5
339
  8
CLUSTERS
 10
732247.39234069304
 20
4563270.8484042734
 30
0.0
  0
VERTEX
  5
33A
  8
CLUSTERS
 10
732247.39234069304
 20
4563354.8272251179
 30
0.0
  0
VERTEX
  5
33B
  8
CLUSTERS
 10
732147.61264097318
 20
4563354.8272251179
 30
0.0
  0
SEQEND
  5
33C
  8
CLUSTERS
  0
POLYLINE
  5
B9
  8
CLUSTERS
 66
     1
 10
0.0
 20
0.0
 30
0.0
 70
     1
  0
VERTEX
  5
33D
  8
CLUSTERS
 10
734636.85350304004
 20
4562756.4781185891
 30
0.0
  0
VERTEX
  5
33E
  8
CLUSTERS
 10
734715.62693663035
 20
4562756.4781185891
 30
0.0
  0
VERTEX
  5
33F
  8
CLUSTERS
 10
734715.62693663035
 20
4562829.9595788196
 30
0.0
  0
VERTEX
  5
340
  8
CLUSTERS
 10
734636.85350304004
 20
4562829.9595788196
 30
0.0
  0
SEQEND
  5
341
  8
CLUSTERS
  0
POLYLINE
  5
BA
  8
CLUSTERS
 66
     1
 10
0.0
 20
0.0
 30
0.0
 70
     1
  0
VERTEX
  5
342
  8
CLUSTERS
 10
734274.49573428393
 20
4562011.1660275301
 30
0.0
  0
VERTEX
  5
343
  8
CLUSTERS
 10
734358.52067001036
 20
4562011.1660275301
 30
0.0
  0
VERTEX
  5
344
  8
CLUSTERS
 10
734358.52067001036
 20
4562089.8962001009
 30
0.0
  0
VERTEX
  5
345
  8
CLUSTERS
 10
734274.49573428393
 20
4562089.8962001009
 30
0.0
  0
SEQEND
  5
346
  8
CLUSTERS
  0
POLYLINE
  5
BB
  8
CLUSTERS
 66
     1
 10
0.0
 20
0.0
 30
0.0
 70
     1
  0
VERTEX
  5
347
  8
CLUSTERS
 10
734747.13633582485
 20
4562032.1607487584
 30
0.0
  0
VERTEX
  5
348
  8
CLUSTERS
 10
734810.15513421386
 20
4562032.1607487584
 30
0.0
  0
VERTEX
  5
349
  8
CLUSTERS
 10
734810.15513421386
 20
4562121.3882819451
 30
0.0
  0
VERTEX
  5
34A
  8
CLUSTERS
 10
734747.13633582485
 20
4562121.3882819451
 30
0.0
  0
SEQEND
  5
34B
  8
CLUSTERS
  0
POLYLINE
  5
BC
  8
CLUSTERS
 66
     1
 10
0.0
 20
0.0
 30
0.0
 70
     1
  0
VERTEX
  5
34C
  8
CLUSTERS
 10
734509.02221723075
 20
4561666.3394719679
 30
0.0
  0
VERTEX
  5
34D
  8
CLUSTERS
 10
734619.30505001533
 20
4561666.3394719679
 30
0.0
  0
VERTEX
  5
34E
  8
CLUSTERS
 10
734619.30505001533
 20
4561776.5616623154
 30
0.0
  0
VERTEX
  5
34F
  8
CLUSTERS
 10
734509.02221723075
 20
4561776.5616623154
 30
0.0
  0
SEQEND
  5
350
  8
CLUSTERS
  0
POLYLINE
  5
BD
  8
CLUSTERS
 66
     1
 10
0.0
 20
0.0
 30
0.0
 70
     1
  0
VERTEX
  5
351
  8
CLUSTERS
 10
733140.15800724295
 20
4564640.7529713633
 30
0.0
  0
VERTEX
  5
352
  8
CLUSTERS
 10
733250.44084002753
 20
4564640.7529713633
 30
0.0
  0
VERTEX
  5
353
  8
CLUSTERS
 10
733250.44084002753
 20
4564766.7211705968
 30
0.0
  0
VERTEX
  5
354
  8
CLUSTERS
 10
733140.15800724295
 20
4564766.7211705968
 30
0.0
  0
SEQEND
  5
355
  8
CLUSTERS
  0
POLYLINE
  5
BE
  8
CLUSTERS
 66
     1
 10
0.0
 20
0.0
 30
0.0
 70
     1
  0
VERTEX
  5
356
  8
CLUSTERS
 10
733544.52843705064
 20
4564210.3615065236
 30
0.0
  0
VERTEX
  5
357
  8
CLUSTERS
 10
733618.0503685046
 20
4564210.3615065236
 30
0.0
  0
VERTEX
  5
358
  8
CLUSTERS
 10
733618.0503685046
 20
4564294.340327369
 30
0.0
  0
VERTEX
  5
359
  8
CLUSTERS
 10
733544.52843705064
 20
4564294.340327369
 30
0.0
  0
SEQEND
  5
35A
  8
CLUSTERS
  0
POLYLINE
  5
BF
  8
CLUSTERS
 66
     1
 10
0.0
 20
0.0
 30
0.0
 70
     1
  0
VERTEX
  5
35B
  8
CLUSTERS
 10
733660.06277197145
 20
4563837.7054289598
 30
0.0
  0
VERTEX
  5
35C
  8
CLUSTERS
 10
733759.84247169143
 20
4563837.7054289598
 30
0.0
  0
VERTEX
  5
35D
  8
CLUSTERS
 10
733759.84247169143
 20
4563916.4356015334
 30
0.0
  0
VERTEX
  5
35E
  8
CLUSTERS
 10
733660.06277197145
 20
4563916.4356015334
 30
0.0
  0
SEQEND
  5
35F
  8
CLUSTERS
  0
POLYLINE
  5
C0
  8
CLUSTERS
 66
     1
 10
0.0
 20
0.0
 30
0.0
 70
     1
  0
VERTEX
  5
360
  8
CLUSTERS
 10
734027.67217165639
 20
4563055.652671854
 30
0.0
  0
VERTEX
  5
361
  8
CLUSTERS
 10
734148.45813750592
 20
4563055.652671854
 30
0.0
  0
VERTEX
  5
362
  8
CLUSTERS
 10
734148.45813750592
 20
4563144.8801409714
 30
0.0
  0
VERTEX
  5
363
  8
CLUSTERS
 10
734027.67217165639
 20
4563144.8801409714
 30
0.0
  0
SEQEND
  5
364
  8
CLUSTERS
  0
POLYLINE
  5
C1
  8
CLUSTERS
 66
     1
 10
0.0
 20
0.0
 30
0.0
 70
     1
  0
VERTEX
  5
365
  8
CLUSTERS
 10
733723.08157036046
 20
4562955.9278421206
 30
0.0
  0
VERTEX
  5
366
  8
CLUSTERS
 10
733801.85500395077
 20
4562955.9278421206
 30
0.0
  0
VERTEX
  5
367
  8
CLUSTERS
 10
733801.85500395077
 20
4563034.6579506258
 30
0.0
  0
VERTEX
  5
368
  8
CLUSTERS
 10
733723.08157036046
 20
4563034.6579506258
 30
0.0
  0
SEQEND
  5
369
  8
CLUSTERS
  0
POLYLINE
  5
C2
  8
CLUSTERS
 66
     1
 10
0.0
 20
0.0
 30
0.0
 70
     1
  0
VERTEX
  5
36A
  8
CLUSTERS
 10
733628.55337277707
 20
4562425.8114834819
 30
0.0
  0
VERTEX
  5
36B
  8
CLUSTERS
 10
733738.83620556188
 20
4562425.8114834819
 30
0.0
  0
VERTEX
  5
36C
  8
CLUSTERS
 10
733738.83620556188
 20
4562546.5310344426
 30
0.0
  0
VERTEX
  5
36D
  8
CLUSTERS
 10
733628.55337277707
 20
4562546.5310344426
 30
0.0
  0
SEQEND
  5
36E
  8
CLUSTERS
  0
POLYLINE
  5
C3
  8
CLUSTERS
 66
     1
 10
0.0
 20
0.0
 30
0.0
 70
     1
  0
VERTEX
  5
36F
  8
CLUSTERS
 10
733218.93156962516
 20
4562614.7638464021
 30
0.0
  0
VERTEX
  5
370
  8
CLUSTERS
 10
733302.95650535158
 20
4562614.7638464021
 30
0.0
  0
VERTEX
  5
371
  8
CLUSTERS
 10
733302.95650535158
 20
4562693.4940189729
 30
0.0
  0
VERTEX
  5
372
  8
CLUSTERS
 10
733218.93156962516
 20
4562693.4940189729
 30
0.0
  0
SEQEND
  5
373
  8
CLUSTERS
  0
POLYLINE
  5
C4
  8
CLUSTERS
 66
     1
 10
0.0
 20
0.0
 30
0.0
 70
     1
  0
VERTEX
  5
374
  8
CLUSTERS
 10
732956.35337179655
 20
4562677.7479460174
 30
0.0
  0
VERTEX
  5
375
  8
CLUSTERS
 10
733050.88144058781
 20
4562677.7479460174
 30
0.0
  0
VERTEX
  5
376
  8
CLUSTERS
 10
733050.88144058781
 20
4562782.7214880912
 30
0.0
  0
VERTEX
  5
377
  8
CLUSTERS
 10
732956.35337179655
 20
4562782.7214880912
 30
0.0
  0
SEQEND
  5
378
  8
CLUSTERS
  0
POLYLINE
  5
C5
  8
CLUSTERS
 66
     1
 10
0.0
 20
0.0
 30
0.0
 70
     1
  0
VERTEX
  5
379
  8
CLUSTERS
 10
730808.46414114861
 20
4562924.4357602792
 30
0.0
  0
VERTEX
  5
37A
  8
CLUSTERS
 10
730908.24384086835
 20
4562924.4357602792
 30
0.0
  0
VERTEX
  5
37B
  8
CLUSTERS
 10
730908.24384086835
 20
4563003.1659328518
 30
0.0
  0
VERTEX
  5
37C
  8
CLUSTERS
 10
730808.46414114861
 20
4563003.1659328518
 30
0.0
  0
SEQEND
  5
37D
  8
CLUSTERS
  0
POLYLINE
  5
C6
  8
CLUSTERS
 66
     1
 10
0.0
 20
0.0
 30
0.0
 70
     1
  0
VERTEX
  5
37E
  8
CLUSTERS
 10
728713.09044703224
 20
4562903.44103905
 30
0.0
  0
VERTEX
  5
37F
  8
CLUSTERS
 10
728797.11538275878
 20
4562903.44103905
 30
0.0
  0
VERTEX
  5
380
  8
CLUSTERS
 10
728797.11538275878
 20
4562992.6685722368
 30
0.0
  0
VERTEX
  5
381
  8
CLUSTERS
 10
728713.09044703224
 20
4562992.6685722368
 30
0.0
  0
SEQEND
  5
382
  8
CLUSTERS
  0
POLYLINE
  5
C7
  8
CLUSTERS
 66
     1
 10
0.0
 20
0.0
 30
0.0
 70
     1
  0
VERTEX
  5
383
  8
CLUSTERS
 10
728429.50598307408
 20
4562515.0390166678
 30
0.0
  0
VERTEX
  5
384
  8
CLUSTERS
 10
728571.29821505316
 20
4562515.0390166678
 30
0.0
  0
VERTEX
  5
385
  8
CLUSTERS
 10
728571.29821505316
 20
4562688.2453066306
 30
0.0
  0
VERTEX
  5
386
  8
CLUSTERS
 10
728429.50598307408
 20
4562688.2453066306
 30
0.0
  0
SEQEND
  5
387
  8
CLUSTERS
  0
POLYLINE
  5
C8
  8
CLUSTERS
 66
     1
 10
0.0
 20
0.0
 30
0.0
 70
     1
  0
VERTEX
  5
388
  8
CLUSTERS
 10
728508.27941666415
 20
4562079.3988394868
 30
0.0
  0
VERTEX
  5
389
  8
CLUSTERS
 10
728634.31701344217
 20
4562079.3988394868
 30
0.0
  0
VERTEX
  5
38A
  8
CLUSTERS
 10
728634.31701344217
 20
4562189.6210298343
 30
0.0
  0
VERTEX
  5
38B
  8
CLUSTERS
 10
728508.27941666415
 20
4562189.6210298343
 30
0.0
  0
SEQEND
  5
38C
  8
CLUSTERS
  0
POLYLINE
  5
C9
  8
CLUSTERS
 66
     1
 10
0.0
 20
0.0
 30
0.0
 70
     1
  0
VERTEX
  5
38D
  8
CLUSTERS
 10
729945.05936223862
 20
4560824.6493797274
 30
0.0
  0
VERTEX
  5
38E
  8
CLUSTERS
 10
730034.33592889365
 20
4560824.6493797274
 30
0.0
  0
VERTEX
  5
38F
  8
CLUSTERS
 10
730034.33592889365
 20
4560892.882191686
 30
0.0
  0
VERTEX
  5
390
  8
CLUSTERS
 10
729945.05936223862
 20
4560892.882191686
 30
0.0
  0
SEQEND
  5
391
  8
CLUSTERS
  0
POLYLINE
  5
CA
  8
CLUSTERS
 66
     1
 10
0.0
 20
0.0
 30
0.0
 70
     1
  0
VERTEX
  5
392
  8
CLUSTERS
 10
730864.08292584657
 20
4559066.3427902563
 30
0.0
  0
VERTEX
  5
393
  8
CLUSTERS
 10
730953.35949250148
 20
4559066.3427902563
 30
0.0
  0
VERTEX
  5
394
  8
CLUSTERS
 10
730953.35949250148
 20
4559145.0728987586
 30
0.0
  0
VERTEX
  5
395
  8
CLUSTERS
 10
730864.08292584657
 20
4559145.0728987586
 30
0.0
  0
SEQEND
  5
396
  8
CLUSTERS
  0
POLYLINE
  5
CB
  8
CLUSTERS
 66
     1
 10
0.0
 20
0.0
 30
0.0
 70
     1
  0
VERTEX
  5
397
  8
CLUSTERS
 10
732480.34253584966
 20
4561281.2842140682
 30
0.0
  0
VERTEX
  5
398
  8
CLUSTERS
 10
732532.8580723817
 20
4561281.2842140682
 30
0.0
  0
VERTEX
  5
399
  8
CLUSTERS
 10
732532.8580723817
 20
4561349.5170260267
 30
0.0
  0
VERTEX
  5
39A
  8
CLUSTERS
 10
732480.34253584966
 20
4561349.5170260267
 30
0.0
  0
SEQEND
  5
39B
  8
CLUSTERS
  0
POLYLINE
  5
CC
  8
CLUSTERS
 66
     1
 10
0.0
 20
0.0
 30
0.0
 70
     1
  0
VERTEX
  5
39C
  8
CLUSTERS
 10
733336.34730106883
 20
4560593.707638422
 30
0.0
  0
VERTEX
  5
39D
  8
CLUSTERS
 10
733441.37850292481
 20
4560593.707638422
 30
0.0
  0
VERTEX
  5
39E
  8
CLUSTERS
 10
733465.83678651019
 20
4560645.9971735058
 30
0.0
  0
VERTEX
  5
39F
  8
CLUSTERS
 10
733336.95842007874
 20
4560710.4009106848
 30
0.0
  0
SEQEND
  5
3A0
  8
CLUSTERS
  0
POLYLINE
  5
CD
  8
CLUSTERS
 66
     1
 10
0.0
 20
0.0
 30
0.0
 70
     1
  0
VERTEX
  5
3A1
  8
CLUSTERS
 10
733504.39730131393
 20
4560200.0569036966
 30
0.0
  0
VERTEX
  5
3A2
  8
CLUSTERS
 10
733567.41597091057
 20
4560200.0569036966
 30
0.0
  0
VERTEX
  5
3A3
  8
CLUSTERS
 10
733567.41597091057
 20
4560268.2896515857
 30
0.0
  0
VERTEX
  5
3A4
  8
CLUSTERS
 10
733504.39730131393
 20
4560268.2896515857
 30
0.0
  0
SEQEND
  5
3A5
  8
CLUSTERS
  0
POLYLINE
  5
CE
  8
CLUSTERS
 66
     1
 10
0.0
 20
0.0
 30
0.0
 70
     1
  0
VERTEX
  5
3A6
  8
CLUSTERS
 10
732401.56897346734
 20
4558074.3428849354
 30
0.0
  0
VERTEX
  5
3A7
  8
CLUSTERS
 10
732590.62536863436
 20
4558074.3428849354
 30
0.0
  0
VERTEX
  5
3A8
  8
CLUSTERS
 10
732590.62536863436
 20
4558263.2952478528
 30
0.0
  0
VERTEX
  5
3A9
  8
CLUSTERS
 10
732401.56897346734
 20
4558263.2952478528
 30
0.0
  0
SEQEND
  5
3AA
  8
CLUSTERS
  0
POLYLINE
  5
CF
  8
CLUSTERS
 66
     1
 10
0.0
 20
0.0
 30
0.0
 70
     1
  0
VERTEX
  5
3AB
  8
CLUSTERS
 10
732821.69403847621
 20
4559328.776613405
 30
0.0
  0
VERTEX
  5
3AC
  8
CLUSTERS
 10
732947.73163525434
 20
4559328.776613405
 30
0.0
  0
VERTEX
  5
3AD
  8
CLUSTERS
 10
732947.73163525434
 20
4559449.4961643657
 30
0.0
  0
VERTEX
  5
3AE
  8
CLUSTERS
 10
732821.69403847621
 20
4559449.4961643657
 30
0.0
  0
SEQEND
  5
3AF
  8
CLUSTERS
  0
POLYLINE
  5
D0
  8
CLUSTERS
 66
     1
 10
0.0
 20
0.0
 30
0.0
 70
     1
  0
VERTEX
  5
3B0
  8
CLUSTERS
 10
732737.6691027499
 20
4559087.337447416
 30
0.0
  0
VERTEX
  5
3B1
  8
CLUSTERS
 10
732826.94566940481
 20
4559087.337447416
 30
0.0
  0
VERTEX
  5
3B2
  8
CLUSTERS
 10
732826.94566940481
 20
4559197.5597018311
 30
0.0
  0
VERTEX
  5
3B3
  8
CLUSTERS
 10
732737.6691027499
 20
4559197.5597018311
 30
0.0
  0
SEQEND
  5
3B4
  8
CLUSTERS
  0
POLYLINE
  5
D1
  8
CLUSTERS
 66
     1
 10
0.0
 20
0.0
 30
0.0
 70
     1
  0
VERTEX
  5
3B5
  8
CLUSTERS
 10
732532.8580723817
 20
4559066.3427902563
 30
0.0
  0
VERTEX
  5
3B6
  8
CLUSTERS
 10
732622.13463903661
 20
4559066.3427902563
 30
0.0
  0
VERTEX
  5
3B7
  8
CLUSTERS
 10
732622.13463903661
 20
4559176.5649806019
 30
0.0
  0
VERTEX
  5
3B8
  8
CLUSTERS
 10
732532.8580723817
 20
4559176.5649806019
 30
0.0
  0
SEQEND
  5
3B9
  8
CLUSTERS
  0
POLYLINE
  5
D2
  8
CLUSTERS
 66
     1
 10
0.0
 20
0.0
 30
0.0
 70
     1
  0
VERTEX
  5
3BA
  8
CLUSTERS
 10
732349.05343693541
 20
4559260.5438014474
 30
0.0
  0
VERTEX
  5
3BB
  8
CLUSTERS
 10
732469.83940278483
 20
4559260.5438014474
 30
0.0
  0
VERTEX
  5
3BC
  8
CLUSTERS
 10
732469.83940278483
 20
4559381.2633524071
 30
0.0
  0
VERTEX
  5
3BD
  8
CLUSTERS
 10
732349.05343693541
 20
4559381.2633524071
 30
0.0
  0
SEQEND
  5
3BE
  8
CLUSTERS
  0
POLYLINE
  5
D3
  8
CLUSTERS
 66
     1
 10
0.0
 20
0.0
 30
0.0
 70
     1
  0
VERTEX
  5
3BF
  8
CLUSTERS
 10
732349.05343693541
 20
4560089.8346492816
 30
0.0
  0
VERTEX
  5
3C0
  8
CLUSTERS
 10
732427.82687052561
 20
4560089.8346492816
 30
0.0
  0
VERTEX
  5
3C1
  8
CLUSTERS
 10
732427.82687052561
 20
4560179.0621824693
 30
0.0
  0
VERTEX
  5
3C2
  8
CLUSTERS
 10
732349.05343693541
 20
4560179.0621824693
 30
0.0
  0
SEQEND
  5
3C3
  8
CLUSTERS
  0
POLYLINE
  5
D4
  8
CLUSTERS
 66
     1
 10
0.0
 20
0.0
 30
0.0
 70
     1
  0
VERTEX
  5
3C4
  8
CLUSTERS
 10
731939.43150499125
 20
4560614.7022955799
 30
0.0
  0
VERTEX
  5
3C5
  8
CLUSTERS
 10
732007.70180551673
 20
4560614.7022955799
 30
0.0
  0
VERTEX
  5
3C6
  8
CLUSTERS
 10
732007.70180551673
 20
4560709.1784770414
 30
0.0
  0
VERTEX
  5
3C7
  8
CLUSTERS
 10
731939.43150499125
 20
4560709.1784770414
 30
0.0
  0
SEQEND
  5
3C8
  8
CLUSTERS
  0
POLYLINE
  5
D5
  8
CLUSTERS
 66
     1
 10
0.0
 20
0.0
 30
0.0
 70
     1
  0
VERTEX
  5
3C9
  8
CLUSTERS
 10
731802.89090394066
 20
4560011.1045407793
 30
0.0
  0
VERTEX
  5
3CA
  8
CLUSTERS
 10
731871.16120446601
 20
4560011.1045407793
 30
0.0
  0
VERTEX
  5
3CB
  8
CLUSTERS
 10
731871.16120446601
 20
4560074.0886403946
 30
0.0
  0
VERTEX
  5
3CC
  8
CLUSTERS
 10
731802.89090394066
 20
4560074.0886403946
 30
0.0
  0
SEQEND
  5
3CD
  8
CLUSTERS
  0
POLYLINE
  5
D6
  8
CLUSTERS
 66
     1
 10
0.0
 20
0.0
 30
0.0
 70
     1
  0
VERTEX
  5
3CE
  8
CLUSTERS
 10
731367.01107493835
 20
4559732.9246446742
 30
0.0
  0
VERTEX
  5
3CF
  8
CLUSTERS
 10
731619.08613970212
 20
4559732.9246446742
 30
0.0
  0
VERTEX
  5
3D0
  8
CLUSTERS
 10
731619.08613970212
 20
4559948.120441162
 30
0.0
  0
VERTEX
  5
3D1
  8
CLUSTERS
 10
731367.01107493835
 20
4559948.120441162
 30
0.0
  0
SEQEND
  5
3D2
  8
CLUSTERS
  0
POLYLINE
  5
D7
  8
CLUSTERS
 66
     1
 10
0.0
 20
0.0
 30
0.0
 70
     1
  0
VERTEX
  5
3D3
  8
CLUSTERS
 10
733829.08116080204
 20
4560021.6019013934
 30
0.0
  0
VERTEX
  5
3D4
  8
CLUSTERS
 10
733928.86086052191
 20
4560021.6019013934
 30
0.0
  0
VERTEX
  5
3D5
  8
CLUSTERS
 10
733928.86086052191
 20
4560105.5807222379
 30
0.0
  0
VERTEX
  5
3D6
  8
CLUSTERS
 10
733829.08116080204
 20
4560105.5807222379
 30
0.0
  0
SEQEND
  5
3D7
  8
CLUSTERS
  0
POLYLINE
  5
D8
  8
CLUSTERS
 66
     1
 10
0.0
 20
0.0
 30
0.0
 70
     1
  0
VERTEX
  5
3D8
  8
CLUSTERS
 10
734569.55159110005
 20
4559286.7871709485
 30
0.0
  0
VERTEX
  5
3D9
  8
CLUSTERS
 10
734632.57038948894
 20
4559286.7871709485
 30
0.0
  0
VERTEX
  5
3DA
  8
CLUSTERS
 10
734632.57038948894
 20
4559349.7712705638
 30
0.0
  0
VERTEX
  5
3DB
  8
CLUSTERS
 10
734569.55159110005
 20
4559349.7712705638
 30
0.0
  0
SEQEND
  5
3DC
  8
CLUSTERS
  0
POLYLINE
  5
D9
  8
CLUSTERS
 66
     1
 10
0.0
 20
0.0
 30
0.0
 70
     1
  0
VERTEX
  5
3DD
  8
CLUSTERS
 10
733865.00272569642
 20
4558876.3313886216
 30
0.0
  0
VERTEX
  5
3DE
  8
CLUSTERS
 10
733943.7761592865
 20
4558876.3313886216
 30
0.0
  0
VERTEX
  5
3DF
  8
CLUSTERS
 10
733943.7761592865
 20
4558960.3102094671
 30
0.0
  0
VERTEX
  5
3E0
  8
CLUSTERS
 10
733865.00272569642
 20
4558960.3102094671
 30
0.0
  0
SEQEND
  5
3E1
  8
CLUSTERS
  0
POLYLINE
  5
DA
  8
CLUSTERS
 66
     1
 10
0.0
 20
0.0
 30
0.0
 70
     1
  0
VERTEX
  5
3E2
  8
CLUSTERS
 10
735231.24845901562
 20
4561192.0567449508
 30
0.0
  0
VERTEX
  5
3E3
  8
CLUSTERS
 10
735325.77665659925
 20
4561192.0567449508
 30
0.0
  0
VERTEX
  5
3E4
  8
CLUSTERS
 10
735325.77665659925
 20
4561302.2789352965
 30
0.0
  0
VERTEX
  5
3E5
  8
CLUSTERS
 10
735231.24845901562
 20
4561302.2789352965
 30
0.0
  0
SEQEND
  5
3E6
  8
CLUSTERS
  0
POLYLINE
  5
DB
  8
CLUSTERS
 66
     1
 10
0.0
 20
0.0
 30
0.0
 70
     1
  0
VERTEX
  5
3E7
  8
CLUSTERS
 10
735310.02202139806
 20
4560168.5648218552
 30
0.0
  0
VERTEX
  5
3E8
  8
CLUSTERS
 10
735378.29232192354
 20
4560168.5648218552
 30
0.0
  0
VERTEX
  5
3E9
  8
CLUSTERS
 10
735378.29232192354
 20
4560236.7976338118
 30
0.0
  0
VERTEX
  5
3EA
  8
CLUSTERS
 10
735310.02202139806
 20
4560236.7976338118
 30
0.0
  0
SEQEND
  5
3EB
  8
CLUSTERS
  0
POLYLINE
  5
DC
  8
CLUSTERS
 66
     1
 10
0.0
 20
0.0
 30
0.0
 70
     1
  0
VERTEX
  5
3EC
  8
CLUSTERS
 10
735525.33605603885
 20
4560546.4695476918
 30
0.0
  0
VERTEX
  5
3ED
  8
CLUSTERS
 10
735677.63142108277
 20
4560546.4695476918
 30
0.0
  0
VERTEX
  5
3EE
  8
CLUSTERS
 10
735677.63142108277
 20
4560719.6758376537
 30
0.0
  0
VERTEX
  5
3EF
  8
CLUSTERS
 10
735525.33605603885
 20
4560719.6758376537
 30
0.0
  0
SEQEND
  5
3F0
  8
CLUSTERS
  0
POLYLINE
  5
DD
  8
CLUSTERS
 66
     1
 10
0.0
 20
0.0
 30
0.0
 70
     1
  0
VERTEX
  5
3F1
  8
CLUSTERS
 10
735861.43605652906
 20
4560856.1414615698
 30
0.0
  0
VERTEX
  5
3F2
  8
CLUSTERS
 10
735961.21575624892
 20
4560856.1414615698
 30
0.0
  0
VERTEX
  5
3F3
  8
CLUSTERS
 10
735961.21575624892
 20
4560955.8662913023
 30
0.0
  0
VERTEX
  5
3F4
  8
CLUSTERS
 10
735861.43605652906
 20
4560955.8662913023
 30
0.0
  0
SEQEND
  5
3F5
  8
CLUSTERS
  0
POLYLINE
  5
DE
  8
CLUSTERS
 66
     1
 10
0.0
 20
0.0
 30
0.0
 70
     1
  0
VERTEX
  5
3F6
  8
CLUSTERS
 10
741139.25687982235
 20
4561260.6052881982
 30
0.0
  0
VERTEX
  5
3F7
  8
CLUSTERS
 10
741265.29447660025
 20
4561260.6052881982
 30
0.0
  0
VERTEX
  5
3F8
  8
CLUSTERS
 10
741265.29447660025
 20
4561370.8274785448
 30
0.0
  0
VERTEX
  5
3F9
  8
CLUSTERS
 10
741139.25687982235
 20
4561370.8274785448
 30
0.0
  0
SEQEND
  5
3FA
  8
CLUSTERS
  0
POLYLINE
  5
DF
  8
CLUSTERS
 66
     1
 10
0.0
 20
0.0
 30
0.0
 70
     1
  0
VERTEX
  5
3FB
  8
CLUSTERS
 10
736088.78379079245
 20
4557915.7263533352
 30
0.0
  0
VERTEX
  5
3FC
  8
CLUSTERS
 10
736235.82765370002
 20
4557915.7263533352
 30
0.0
  0
VERTEX
  5
3FD
  8
CLUSTERS
 10
736235.82765370002
 20
4558052.1919131828
 30
0.0
  0
VERTEX
  5
3FE
  8
CLUSTERS
 10
736088.78379079245
 20
4558052.1919131828
 30
0.0
  0
SEQEND
  5
3FF
  8
CLUSTERS
  0
POLYLINE
  5
E0
  8
CLUSTERS
 66
     1
 10
0.0
 20
0.0
 30
0.0
 70
     1
  0
VERTEX
  5
400
  8
CLUSTERS
 10
734279.74723642017
 20
4557732.0226386879
 30
0.0
  0
VERTEX
  5
401
  8
CLUSTERS
 10
734353.26916787401
 20
4557732.0226386879
 30
0.0
  0
VERTEX
  5
402
  8
CLUSTERS
 10
734353.26916787401
 20
4557810.7528112624
 30
0.0
  0
VERTEX
  5
403
  8
CLUSTERS
 10
734279.74723642017
 20
4557810.7528112624
 30
0.0
  0
SEQEND
  5
404
  8
CLUSTERS
  0
POLYLINE
  5
E1
  8
CLUSTERS
 66
     1
 10
0.0
 20
0.0
 30
0.0
 70
     1
  0
VERTEX
  5
405
  8
CLUSTERS
 10
734011.91753645497
 20
4557842.2448290354
 30
0.0
  0
VERTEX
  5
406
  8
CLUSTERS
 10
734122.20036924002
 20
4557842.2448290354
 30
0.0
  0
VERTEX
  5
407
  8
CLUSTERS
 10
734122.20036924002
 20
4557920.975001608
 30
0.0
  0
VERTEX
  5
408
  8
CLUSTERS
 10
734011.91753645497
 20
4557920.975001608
 30
0.0
  0
SEQEND
  5
409
  8
CLUSTERS
  0
POLYLINE
  5
E2
  8
CLUSTERS
 66
     1
 10
0.0
 20
0.0
 30
0.0
 70
     1
  0
VERTEX
  5
40A
  8
CLUSTERS
 10
732715.20040113875
 20
4556331.2797482936
 30
0.0
  0
VERTEX
  5
40B
  8
CLUSTERS
 10
732820.88058691297
 20
4556331.2797482936
 30
0.0
  0
VERTEX
  5
40C
  8
CLUSTERS
 10
732820.88058691297
 20
4556475.5441528931
 30
0.0
  0
VERTEX
  5
40D
  8
CLUSTERS
 10
732715.20040113875
 20
4556475.5441528931
 30
0.0
  0
SEQEND
  5
40E
  8
CLUSTERS
  0
POLYLINE
  5
E3
  8
CLUSTERS
 66
     1
 10
0.0
 20
0.0
 30
0.0
 70
     1
  0
VERTEX
  5
40F
  8
CLUSTERS
 10
734295.2490525241
 20
4556560.5571090346
 30
0.0
  0
VERTEX
  5
410
  8
CLUSTERS
 10
734372.57602086605
 20
4556560.5571090346
 30
0.0
  0
VERTEX
  5
411
  8
CLUSTERS
 10
734372.57602086605
 20
4556658.450851053
 30
0.0
  0
VERTEX
  5
412
  8
CLUSTERS
 10
734295.2490525241
 20
4556658.450851053
 30
0.0
  0
SEQEND
  5
413
  8
CLUSTERS
  0
POLYLINE
  5
E4
  8
CLUSTERS
 66
     1
 10
0.0
 20
0.0
 30
0.0
 70
     1
  0
VERTEX
  5
414
  8
CLUSTERS
 10
734287.51636856899
 20
4557060.3303325074
 30
0.0
  0
VERTEX
  5
415
  8
CLUSTERS
 10
734351.95548738865
 20
4557060.3303325074
 30
0.0
  0
VERTEX
  5
416
  8
CLUSTERS
 10
734351.95548738865
 20
4557111.853347878
 30
0.0
  0
VERTEX
  5
417
  8
CLUSTERS
 10
734287.51636856899
 20
4557111.853347878
 30
0.0
  0
SEQEND
  5
418
  8
CLUSTERS
  0
POLYLINE
  5
E5
  8
CLUSTERS
 66
     1
 10
0.0
 20
0.0
 30
0.0
 70
     1
  0
VERTEX
  5
419
  8
CLUSTERS
 10
734235.96497047949
 20
4557310.2169122072
 30
0.0
  0
VERTEX
  5
41A
  8
CLUSTERS
 10
734290.09388695657
 20
4557310.2169122072
 30
0.0
  0
VERTEX
  5
41B
  8
CLUSTERS
 10
734290.09388695657
 20
4557372.0445050262
 30
0.0
  0
VERTEX
  5
41C
  8
CLUSTERS
 10
734235.96497047949
 20
4557372.0445050262
 30
0.0
  0
SEQEND
  5
41D
  8
CLUSTERS
  0
POLYLINE
  5
E6
  8
CLUSTERS
 66
     1
 10
0.0
 20
0.0
 30
0.0
 70
     1
  0
VERTEX
  5
41E
  8
CLUSTERS
 10
733759.11505332065
 20
4557093.8202732764
 30
0.0
  0
VERTEX
  5
41F
  8
CLUSTERS
 10
733826.13181932014
 20
4557093.8202732764
 30
0.0
  0
VERTEX
  5
420
  8
CLUSTERS
 10
733826.13181932014
 20
4557140.1909999251
 30
0.0
  0
VERTEX
  5
421
  8
CLUSTERS
 10
733759.11505332065
 20
4557140.1909999251
 30
0.0
  0
SEQEND
  5
422
  8
CLUSTERS
  0
POLYLINE
  5
E7
  8
CLUSTERS
 66
     1
 10
0.0
 20
0.0
 30
0.0
 70
     1
  0
VERTEX
  5
423
  8
CLUSTERS
 10
732771.74108043616
 20
4557073.5687507
 30
0.0
  0
VERTEX
  5
424
  8
CLUSTERS
 10
732842.16749125614
 20
4557073.5687507
 30
0.0
  0
VERTEX
  5
425
  8
CLUSTERS
 10
732842.16749125614
 20
4557138.5419318117
 30
0.0
  0
VERTEX
  5
426
  8
CLUSTERS
 10
732771.74108043616
 20
4557138.5419318117
 30
0.0
  0
SEQEND
  5
427
  8
CLUSTERS
  0
POLYLINE
  5
E8
  8
CLUSTERS
 66
     1
 10
0.0
 20
0.0
 30
0.0
 70
     1
  0
VERTEX
  5
428
  8
CLUSTERS
 10
730183.07031827664
 20
4558215.4582415186
 30
0.0
  0
VERTEX
  5
429
  8
CLUSTERS
 10
730242.35440032126
 20
4558215.4582415186
 30
0.0
  0
VERTEX
  5
42A
  8
CLUSTERS
 10
730242.35440032126
 20
4558251.5243266514
 30
0.0
  0
VERTEX
  5
42B
  8
CLUSTERS
 10
730183.07031827664
 20
4558251.5243266514
 30
0.0
  0
SEQEND
  5
42C
  8
CLUSTERS
  0
POLYLINE
  5
E9
  8
CLUSTERS
 66
     1
 10
0.0
 20
0.0
 30
0.0
 70
     1
  0
VERTEX
  5
42D
  8
CLUSTERS
 10
727079.85435018456
 20
4554777.0179002276
 30
0.0
  0
VERTEX
  5
42E
  8
CLUSTERS
 10
727190.13718296925
 20
4554777.0179002276
 30
0.0
  0
VERTEX
  5
42F
  8
CLUSTERS
 10
727190.13718296925
 20
4554855.7480087308
 30
0.0
  0
VERTEX
  5
430
  8
CLUSTERS
 10
727079.85435018456
 20
4554855.7480087308
 30
0.0
  0
SEQEND
  5
431
  8
CLUSTERS
  0
POLYLINE
  5
EA
  8
CLUSTERS
 66
     1
 10
0.0
 20
0.0
 30
0.0
 70
     1
  0
VERTEX
  5
432
  8
CLUSTERS
 10
727924.13087608654
 20
4554585.1345485477
 30
0.0
  0
VERTEX
  5
433
  8
CLUSTERS
 10
728043.45328465605
 20
4554566.7972419206
 30
0.0
  0
VERTEX
  5
434
  8
CLUSTERS
 10
728033.40298245405
 20
4554704.1598299025
 30
0.0
  0
VERTEX
  5
435
  8
CLUSTERS
 10
727952.14179864293
 20
4554704.1598299025
 30
0.0
  0
SEQEND
  5
436
  8
CLUSTERS
  0
POLYLINE
  5
EB
  8
CLUSTERS
 66
     1
 10
0.0
 20
0.0
 30
0.0
 70
     1
  0
VERTEX
  5
437
  8
CLUSTERS
 10
728145.92164790793
 20
4554063.1978910118
 30
0.0
  0
VERTEX
  5
438
  8
CLUSTERS
 10
728229.94658363436
 20
4554063.1978910118
 30
0.0
  0
VERTEX
  5
439
  8
CLUSTERS
 10
728229.94658363436
 20
4554152.4253601292
 30
0.0
  0
VERTEX
  5
43A
  8
CLUSTERS
 10
728145.92164790793
 20
4554152.4253601292
 30
0.0
  0
SEQEND
  5
43B
  8
CLUSTERS
  0
POLYLINE
  5
EC
  8
CLUSTERS
 66
     1
 10
0.0
 20
0.0
 30
0.0
 70
     1
  0
VERTEX
  5
43C
  8
CLUSTERS
 10
728350.732549484
 20
4554078.9438998979
 30
0.0
  0
VERTEX
  5
43D
  8
CLUSTERS
 10
728445.26074706751
 20
4554078.9438998979
 30
0.0
  0
VERTEX
  5
43E
  8
CLUSTERS
 10
728552.86654927442
 20
4554177.1292641191
 30
0.0
  0
VERTEX
  5
43F
  8
CLUSTERS
 10
728337.16847579658
 20
4554218.3882040298
 30
0.0
  0
SEQEND
  5
440
  8
CLUSTERS
  0
POLYLINE
  5
ED
  8
CLUSTERS
 66
     1
 10
0.0
 20
0.0
 30
0.0
 70
     1
  0
VERTEX
  5
441
  8
CLUSTERS
 10
728728.84508223366
 20
4553795.51535552
 30
0.0
  0
VERTEX
  5
442
  8
CLUSTERS
 10
728807.61851582362
 20
4553795.51535552
 30
0.0
  0
VERTEX
  5
443
  8
CLUSTERS
 10
728807.61851582362
 20
4553858.4995192057
 30
0.0
  0
VERTEX
  5
444
  8
CLUSTERS
 10
728728.84508223366
 20
4553858.4995192057
 30
0.0
  0
SEQEND
  5
445
  8
CLUSTERS
  0
POLYLINE
  5
EE
  8
CLUSTERS
 66
     1
 10
0.0
 20
0.0
 30
0.0
 70
     1
  0
VERTEX
  5
446
  8
CLUSTERS
 10
732890.58189762197
 20
4555464.5944758747
 30
0.0
  0
VERTEX
  5
447
  8
CLUSTERS
 10
732754.04129657138
 20
4555464.5944758747
 30
0.0
  0
VERTEX
  5
448
  8
CLUSTERS
 10
732754.04129657138
 20
4555543.3246484473
 30
0.0
  0
VERTEX
  5
449
  8
CLUSTERS
 10
732890.58189762197
 20
4555543.3246484473
 30
0.0
  0
SEQEND
  5
44A
  8
CLUSTERS
  0
POLYLINE
  5
EF
  8
CLUSTERS
 66
     1
 10
0.0
 20
0.0
 30
0.0
 70
     1
  0
VERTEX
  5
44B
  8
CLUSTERS
 10
732717.28039524052
 20
4555343.874924914
 30
0.0
  0
VERTEX
  5
44C
  8
CLUSTERS
 10
732801.30533096695
 20
4555343.874924914
 30
0.0
  0
VERTEX
  5
44D
  8
CLUSTERS
 10
732801.30533096695
 20
4555433.1024581008
 30
0.0
  0
VERTEX
  5
44E
  8
CLUSTERS
 10
732717.28039524052
 20
4555433.1024581008
 30
0.0
  0
SEQEND
  5
44F
  8
CLUSTERS
  0
POLYLINE
  5
F0
  8
CLUSTERS
 66
     1
 10
0.0
 20
0.0
 30
0.0
 70
     1
  0
VERTEX
  5
450
  8
CLUSTERS
 10
733342.21636182535
 20
4555480.3405488301
 30
0.0
  0
VERTEX
  5
451
  8
CLUSTERS
 10
733441.99606154521
 20
4555480.3405488301
 30
0.0
  0
VERTEX
  5
452
  8
CLUSTERS
 10
733441.99606154521
 20
4555611.5574604049
 30
0.0
  0
VERTEX
  5
453
  8
CLUSTERS
 10
733342.21636182535
 20
4555611.5574604049
 30
0.0
  0
SEQEND
  5
454
  8
CLUSTERS
  0
POLYLINE
  5
F1
  8
CLUSTERS
 66
     1
 10
0.0
 20
0.0
 30
0.0
 70
     1
  0
VERTEX
  5
455
  8
CLUSTERS
 10
733137.40546024952
 20
4555170.668634952
 30
0.0
  0
VERTEX
  5
456
  8
CLUSTERS
 10
733231.93352904066
 20
4555170.668634952
 30
0.0
  0
VERTEX
  5
457
  8
CLUSTERS
 10
733231.93352904066
 20
4555244.1500951834
 30
0.0
  0
VERTEX
  5
458
  8
CLUSTERS
 10
733137.40546024952
 20
4555244.1500951834
 30
0.0
  0
SEQEND
  5
459
  8
CLUSTERS
  0
POLYLINE
  5
F2
  8
CLUSTERS
 66
     1
 10
0.0
 20
0.0
 30
0.0
 70
     1
  0
VERTEX
  5
45A
  8
CLUSTERS
 10
732444.19906434696
 20
4555086.6898141056
 30
0.0
  0
VERTEX
  5
45B
  8
CLUSTERS
 10
732538.72726193047
 20
4555086.6898141056
 30
0.0
  0
VERTEX
  5
45C
  8
CLUSTERS
 10
732538.72726193047
 20
4555186.4146438381
 30
0.0
  0
VERTEX
  5
45D
  8
CLUSTERS
 10
732444.19906434696
 20
4555186.4146438381
 30
0.0
  0
SEQEND
  5
45E
  8
CLUSTERS
  0
POLYLINE
  5
F3
  8
CLUSTERS
 66
     1
 10
0.0
 20
0.0
 30
0.0
 70
     1
  0
VERTEX
  5
45F
  8
CLUSTERS
 10
733601.11393897224
 20
4554575.9658952337
 30
0.0
  0
VERTEX
  5
460
  8
CLUSTERS
 10
733770.91885436187
 20
4554484.2793620992
 30
0.0
  0
VERTEX
  5
461
  8
CLUSTERS
 10
733812.22282833455
 20
4554566.7972419206
 30
0.0
  0
VERTEX
  5
462
  8
CLUSTERS
 10
733652.25410061597
 20
4554661.1939141117
 30
0.0
  0
SEQEND
  5
463
  8
CLUSTERS
  0
POLYLINE
  5
F4
  8
CLUSTERS
 66
     1
 10
0.0
 20
0.0
 30
0.0
 70
     1
  0
VERTEX
  5
464
  8
CLUSTERS
 10
734550.07589152805
 20
4555580.0653785616
 30
0.0
  0
VERTEX
  5
465
  8
CLUSTERS
 10
734655.10709338414
 20
4555580.0653785616
 30
0.0
  0
VERTEX
  5
466
  8
CLUSTERS
 10
734655.10709338414
 20
4555637.800829906
 30
0.0
  0
VERTEX
  5
467
  8
CLUSTERS
 10
734550.07589152805
 20
4555637.800829906
 30
0.0
  0
SEQEND
  5
468
  8
CLUSTERS
  0
POLYLINE
  5
F5
  8
CLUSTERS
 66
     1
 10
0.0
 20
0.0
 30
0.0
 70
     1
  0
VERTEX
  5
469
  8
CLUSTERS
 10
736997.30422133557
 20
4553685.2931651743
 30
0.0
  0
VERTEX
  5
46A
  8
CLUSTERS
 10
737081.32928585412
 20
4553685.2931651743
 30
0.0
  0
VERTEX
  5
46B
  8
CLUSTERS
 10
737081.32928585412
 20
4553753.5259771319
 30
0.0
  0
VERTEX
  5
46C
  8
CLUSTERS
 10
736997.30422133557
 20
4553753.5259771319
 30
0.0
  0
SEQEND
  5
46D
  8
CLUSTERS
  0
POLYLINE
  5
F6
  8
CLUSTERS
 66
     1
 10
0.0
 20
0.0
 30
0.0
 70
     1
  0
VERTEX
  5
46E
  8
CLUSTERS
 10
729507.93385503476
 20
4551811.5157370828
 30
0.0
  0
VERTEX
  5
46F
  8
CLUSTERS
 10
729597.2104216899
 20
4551811.5157370828
 30
0.0
  0
VERTEX
  5
470
  8
CLUSTERS
 10
729597.2104216899
 20
4551895.4945579292
 30
0.0
  0
VERTEX
  5
471
  8
CLUSTERS
 10
729507.93385503476
 20
4551895.4945579292
 30
0.0
  0
SEQEND
  5
472
  8
CLUSTERS
  0
POLYLINE
  5
F7
  8
CLUSTERS
 66
     1
 10
0.0
 20
0.0
 30
0.0
 70
     1
  0
VERTEX
  5
473
  8
CLUSTERS
 10
731640.06845048175
 20
4550163.4313379582
 30
0.0
  0
VERTEX
  5
474
  8
CLUSTERS
 10
731787.11231338955
 20
4550163.4313379582
 30
0.0
  0
VERTEX
  5
475
  8
CLUSTERS
 10
731808.99161382695
 20
4550395.5192648079
 30
0.0
  0
VERTEX
  5
476
  8
CLUSTERS
 10
731634.59734970529
 20
4550409.2722447785
 30
0.0
  0
SEQEND
  5
477
  8
CLUSTERS
  0
POLYLINE
  5
F8
  8
CLUSTERS
 66
     1
 10
0.0
 20
0.0
 30
0.0
 70
     1
  0
VERTEX
  5
478
  8
CLUSTERS
 10
729334.63235265354
 20
4552551.5791158006
 30
0.0
  0
VERTEX
  5
479
  8
CLUSTERS
 10
729434.41205237317
 20
4552551.5791158006
 30
0.0
  0
VERTEX
  5
47A
  8
CLUSTERS
 10
729434.41205237317
 20
4552693.2933879904
 30
0.0
  0
VERTEX
  5
47B
  8
CLUSTERS
 10
729334.63235265354
 20
4552693.2933879904
 30
0.0
  0
SEQEND
  5
47C
  8
CLUSTERS
  0
POLYLINE
  5
F9
  8
CLUSTERS
 66
     1
 10
0.0
 20
0.0
 30
0.0
 70
     1
  0
VERTEX
  5
47D
  8
CLUSTERS
 10
728221.30102053424
 20
4551433.6110112462
 30
0.0
  0
VERTEX
  5
47E
  8
CLUSTERS
 10
728336.83535545529
 20
4551433.6110112462
 30
0.0
  0
VERTEX
  5
47F
  8
CLUSTERS
 10
728336.83535545529
 20
4551533.3359050471
 30
0.0
  0
VERTEX
  5
480
  8
CLUSTERS
 10
728221.30102053424
 20
4551533.3359050471
 30
0.0
  0
SEQEND
  5
481
  8
CLUSTERS
  0
POLYLINE
  5
FA
  8
CLUSTERS
 66
     1
 10
0.0
 20
0.0
 30
0.0
 70
     1
  0
VERTEX
  5
482
  8
CLUSTERS
 10
731225.19501640135
 20
4552945.229850526
 30
0.0
  0
VERTEX
  5
483
  8
CLUSTERS
 10
731324.97471612121
 20
4552945.229850526
 30
0.0
  0
VERTEX
  5
484
  8
CLUSTERS
 10
731324.97471612121
 20
4553029.2086713696
 30
0.0
  0
VERTEX
  5
485
  8
CLUSTERS
 10
731225.19501640135
 20
4553029.2086713696
 30
0.0
  0
SEQEND
  5
486
  8
CLUSTERS
  0
POLYLINE
  5
FB
  8
CLUSTERS
 66
     1
 10
0.0
 20
0.0
 30
0.0
 70
     1
  0
VERTEX
  5
487
  8
CLUSTERS
 10
732723.87520006916
 20
4551852.8961410597
 30
0.0
  0
VERTEX
  5
488
  8
CLUSTERS
 10
732795.41231486038
 20
4551869.2511884272
 30
0.0
  0
VERTEX
  5
489
  8
CLUSTERS
 10
732795.41231486038
 20
4551958.4786575446
 30
0.0
  0
VERTEX
  5
48A
  8
CLUSTERS
 10
732679.87797993945
 20
4551958.4786575446
 30
0.0
  0
SEQEND
  5
48B
  8
CLUSTERS
  0
POLYLINE
  5
FC
  8
CLUSTERS
 66
     1
 10
0.0
 20
0.0
 30
0.0
 70
     1
  0
VERTEX
  5
48C
  8
CLUSTERS
 10
732601.10454634915
 20
4551748.5316374656
 30
0.0
  0
VERTEX
  5
48D
  8
CLUSTERS
 10
732700.88424606912
 20
4551748.5316374656
 30
0.0
  0
VERTEX
  5
48E
  8
CLUSTERS
 10
732687.78916988964
 20
4551834.8630664591
 30
0.0
  0
VERTEX
  5
48F
  8
CLUSTERS
 10
732601.10454634915
 20
4551843.0078189271
 30
0.0
  0
SEQEND
  5
490
  8
CLUSTERS
  0
POLYLINE
  5
FD
  8
CLUSTERS
 66
     1
 10
0.0
 20
0.0
 30
0.0
 70
     1
  0
VERTEX
  5
491
  8
CLUSTERS
 10
729696.99012140965
 20
4551722.2882679664
 30
0.0
  0
VERTEX
  5
492
  8
CLUSTERS
 10
729796.76982112939
 20
4551722.2882679664
 30
0.0
  0
VERTEX
  5
493
  8
CLUSTERS
 10
729796.76982112939
 20
4551843.0078189271
 30
0.0
  0
VERTEX
  5
494
  8
CLUSTERS
 10
729696.99012140965
 20
4551843.0078189271
 30
0.0
  0
SEQEND
  5
495
  8
CLUSTERS
  0
POLYLINE
  5
FE
  8
CLUSTERS
 66
     1
 10
0.0
 20
0.0
 30
0.0
 70
     1
  0
VERTEX
  5
496
  8
CLUSTERS
 10
726813.88209139218
 20
4552388.8701223843
 30
0.0
  0
VERTEX
  5
497
  8
CLUSTERS
 10
726913.66179111192
 20
4552388.8701223843
 30
0.0
  0
VERTEX
  5
498
  8
CLUSTERS
 10
726913.66179111192
 20
4552478.0976555701
 30
0.0
  0
VERTEX
  5
499
  8
CLUSTERS
 10
726813.88209139218
 20
4552478.0976555701
 30
0.0
  0
SEQEND
  5
49A
  8
CLUSTERS
  0
POLYLINE
  5
FF
  8
CLUSTERS
 66
     1
 10
0.0
 20
0.0
 30
0.0
 70
     1
  0
VERTEX
  5
49B
  8
CLUSTERS
 10
726492.04041827167
 20
4551682.2467107354
 30
0.0
  0
VERTEX
  5
49C
  8
CLUSTERS
 10
726628.58101932239
 20
4551682.2467107354
 30
0.0
  0
VERTEX
  5
49D
  8
CLUSTERS
 10
726628.58101932239
 20
4551781.971540466
 30
0.0
  0
VERTEX
  5
49E
  8
CLUSTERS
 10
726492.04041827167
 20
4551781.971540466
 30
0.0
  0
SEQEND
  5
49F
  8
CLUSTERS
  0
POLYLINE
  5
100
  8
CLUSTERS
 66
     1
 10
0.0
 20
0.0
 30
0.0
 70
     1
  0
VERTEX
  5
4A0
  8
CLUSTERS
 10
728000.73535496509
 20
4550798.5211746022
 30
0.0
  0
VERTEX
  5
4A1
  8
CLUSTERS
 10
728095.26342375635
 20
4550798.5211746022
 30
0.0
  0
VERTEX
  5
4A2
  8
CLUSTERS
 10
728095.26342375635
 20
4550882.4999954468
 30
0.0
  0
VERTEX
  5
4A3
  8
CLUSTERS
 10
728000.73535496509
 20
4550882.4999954468
 30
0.0
  0
SEQEND
  5
4A4
  8
CLUSTERS
  0
POLYLINE
  5
101
  8
CLUSTERS
 66
     1
 10
0.0
 20
0.0
 30
0.0
 70
     1
  0
VERTEX
  5
4A5
  8
CLUSTERS
 10
728431.36342424655
 20
4551013.7169070216
 30
0.0
  0
VERTEX
  5
4A6
  8
CLUSTERS
 10
728520.64011969394
 20
4551013.7169070216
 30
0.0
  0
VERTEX
  5
4A7
  8
CLUSTERS
 10
728520.64011969394
 20
4551108.1930884812
 30
0.0
  0
VERTEX
  5
4A8
  8
CLUSTERS
 10
728431.36342424655
 20
4551108.1930884812
 30
0.0
  0
SEQEND
  5
4A9
  8
CLUSTERS
  0
POLYLINE
  5
102
  8
CLUSTERS
 66
     1
 10
0.0
 20
0.0
 30
0.0
 70
     1
  0
VERTEX
  5
4AA
  8
CLUSTERS
 10
728536.39475489478
 20
4550772.2778051011
 30
0.0
  0
VERTEX
  5
4AB
  8
CLUSTERS
 10
728725.45102126955
 20
4550772.2778051011
 30
0.0
  0
VERTEX
  5
4AC
  8
CLUSTERS
 10
728725.45102126955
 20
4550929.738086177
 30
0.0
  0
VERTEX
  5
4AD
  8
CLUSTERS
 10
728536.39475489478
 20
4550929.738086177
 30
0.0
  0
SEQEND
  5
4AE
  8
CLUSTERS
  0
POLYLINE
  5
103
  8
CLUSTERS
 66
     1
 10
0.0
 20
0.0
 30
0.0
 70
     1
  0
VERTEX
  5
4AF
  8
CLUSTERS
 10
728819.97909006104
 20
4550908.7433649478
 30
0.0
  0
VERTEX
  5
4B0
  8
CLUSTERS
 10
728914.50728764432
 20
4550908.7433649478
 30
0.0
  0
VERTEX
  5
4B1
  8
CLUSTERS
 10
728914.50728764432
 20
4550976.9761769064
 30
0.0
  0
VERTEX
  5
4B2
  8
CLUSTERS
 10
728819.97909006104
 20
4550976.9761769064
 30
0.0
  0
SEQEND
  5
4B3
  8
CLUSTERS
  0
POLYLINE
  5
104
  8
CLUSTERS
 66
     1
 10
0.0
 20
0.0
 30
0.0
 70
     1
  0
VERTEX
  5
4B4
  8
CLUSTERS
 10
728615.16818848508
 20
4550614.8175240252
 30
0.0
  0
VERTEX
  5
4B5
  8
CLUSTERS
 10
728709.69638606871
 20
4550614.8175240252
 30
0.0
  0
VERTEX
  5
4B6
  8
CLUSTERS
 10
728709.69638606871
 20
4550677.8016236424
 30
0.0
  0
VERTEX
  5
4B7
  8
CLUSTERS
 10
728615.16818848508
 20
4550677.8016236424
 30
0.0
  0
SEQEND
  5
4B8
  8
CLUSTERS
  0
POLYLINE
  5
105
  8
CLUSTERS
 66
     1
 10
0.0
 20
0.0
 30
0.0
 70
     1
  0
VERTEX
  5
4B9
  8
CLUSTERS
 10
728567.9041540894
 20
4549654.3097005459
 30
0.0
  0
VERTEX
  5
4BA
  8
CLUSTERS
 10
728636.17445461475
 20
4549654.3097005459
 30
0.0
  0
VERTEX
  5
4BB
  8
CLUSTERS
 10
728636.17445461475
 20
4549717.2938642306
 30
0.0
  0
VERTEX
  5
4BC
  8
CLUSTERS
 10
728567.9041540894
 20
4549717.2938642306
 30
0.0
  0
SEQEND
  5
4BD
  8
CLUSTERS
  0
POLYLINE
  5
106
  8
CLUSTERS
 66
     1
 10
0.0
 20
0.0
 30
0.0
 70
     1
  0
VERTEX
  5
4BE
  8
CLUSTERS
 10
727244.51028946566
 20
4550231.6641499149
 30
0.0
  0
VERTEX
  5
4BF
  8
CLUSTERS
 10
727339.03835825704
 20
4550231.6641499149
 30
0.0
  0
VERTEX
  5
4C0
  8
CLUSTERS
 10
727339.03835825704
 20
4550315.6429707604
 30
0.0
  0
VERTEX
  5
4C1
  8
CLUSTERS
 10
727244.51028946566
 20
4550315.6429707604
 30
0.0
  0
SEQEND
  5
4C2
  8
CLUSTERS
  0
POLYLINE
  5
107
  8
CLUSTERS
 66
     1
 10
0.0
 20
0.0
 30
0.0
 70
     1
  0
VERTEX
  5
4C3
  8
CLUSTERS
 10
726824.38522445702
 20
4550441.6111699929
 30
0.0
  0
VERTEX
  5
4C4
  8
CLUSTERS
 10
726945.17119030654
 20
4550441.6111699929
 30
0.0
  0
VERTEX
  5
4C5
  8
CLUSTERS
 10
726945.17119030654
 20
4550536.0873514526
 30
0.0
  0
VERTEX
  5
4C6
  8
CLUSTERS
 10
726824.38522445702
 20
4550536.0873514526
 30
0.0
  0
SEQEND
  5
4C7
  8
CLUSTERS
  0
POLYLINE
  5
108
  8
CLUSTERS
 66
     1
 10
0.0
 20
0.0
 30
0.0
 70
     1
  0
VERTEX
  5
4C8
  8
CLUSTERS
 10
726488.28522396646
 20
4550604.3201634111
 30
0.0
  0
VERTEX
  5
4C9
  8
CLUSTERS
 10
726603.81955888763
 20
4550604.3201634111
 30
0.0
  0
VERTEX
  5
4CA
  8
CLUSTERS
 10
726603.81955888763
 20
4550698.7963448688
 30
0.0
  0
VERTEX
  5
4CB
  8
CLUSTERS
 10
726488.28522396646
 20
4550698.7963448688
 30
0.0
  0
SEQEND
  5
4CC
  8
CLUSTERS
  0
POLYLINE
  5
109
  8
CLUSTERS
 66
     1
 10
0.0
 20
0.0
 30
0.0
 70
   129
  0
VERTEX
  5
4CD
  8
CLUSTERS
 10
743044.42492899986
 20
4572397.7695200006
 30
0.0
  0
VERTEX
  5
4CE
  8
CLUSTERS
 10
743014.98230000003
 20
4572498.141259999
 30
0.0
  0
VERTEX
  5
4CF
  8
CLUSTERS
 10
743041.09103199991
 20
4572598.5130099989
 30
0.0
  0
VERTEX
  5
4D0
  8
CLUSTERS
 10
743089.94709000003
 20
4572647.3308199998
 30
0.0
  0
VERTEX
  5
4D1
  8
CLUSTERS
 10
743190.47619000019
 20
4572683.6663499996
 30
0.0
  0
VERTEX
  5
4D2
  8
CLUSTERS
 10
743291.00529100001
 20
4572674.8912300002
 30
0.0
  0
VERTEX
  5
4D3
  8
CLUSTERS
 10
743371.39025199995
 20
4572598.5130099989
 30
0.0
  0
VERTEX
  5
4D4
  8
CLUSTERS
 10
743371.59079899988
 20
4572498.141259999
 30
0.0
  0
VERTEX
  5
4D5
  8
CLUSTERS
 10
743291.00529100001
 20
4572407.99725
 30
0.0
  0
VERTEX
  5
4D6
  8
CLUSTERS
 10
743280.68800299999
 20
4572397.7695200006
 30
0.0
  0
VERTEX
  5
4D7
  8
CLUSTERS
 10
743190.47619000019
 20
4572321.1179099986
 30
0.0
  0
VERTEX
  5
4D8
  8
CLUSTERS
 10
743089.94709000003
 20
4572352.7633599993
 30
0.0
  0
VERTEX
  5
4D9
  8
CLUSTERS
 10
743044.42492899986
 20
4572397.7695200006
 30
0.0
  0
SEQEND
  5
4DA
  8
CLUSTERS
  0
POLYLINE
  5
10A
  8
CLUSTERS
 66
     1
 10
0.0
 20
0.0
 30
0.0
 70
   129
  0
VERTEX
  5
4DB
  8
CLUSTERS
 10
742523.11882400012
 20
4572197.0260199988
 30
0.0
  0
VERTEX
  5
4DC
  8
CLUSTERS
 10
742486.7724870001
 20
4572201.2135899998
 30
0.0
  0
VERTEX
  5
4DD
  8
CLUSTERS
 10
742371.5347675269
 20
4572253.6326330015
 30
0.0
  0
VERTEX
  5
4DE
  8
CLUSTERS
 10
742398.87517800007
 20
4572397.7695200006
 30
0.0
  0
VERTEX
  5
4DF
  8
CLUSTERS
 10
742448.21417800011
 20
4572498.141259999
 30
0.0
  0
VERTEX
  5
4E0
  8
CLUSTERS
 10
742486.7724870001
 20
4572567.4898699988
 30
0.0
  0
VERTEX
  5
4E1
  8
CLUSTERS
 10
742492.28338600008
 20
4572598.5130099989
 30
0.0
  0
VERTEX
  5
4E2
  8
CLUSTERS
 10
742587.30158699991
 20
4572683.6837600013
 30
0.0
  0
VERTEX
  5
4E3
  8
CLUSTERS
 10
742687.83068799996
 20
4572691.3546599988
 30
0.0
  0
VERTEX
  5
4E4
  8
CLUSTERS
 10
742781.79380600015
 20
4572598.5130099989
 30
0.0
  0
VERTEX
  5
4E5
  8
CLUSTERS
 10
742788.35978800012
 20
4572499.3119799998
 30
0.0
  0
VERTEX
  5
4E6
  8
CLUSTERS
 10
742789.17811600014
 20
4572498.141259999
 30
0.0
  0
VERTEX
  5
4E7
  8
CLUSTERS
 10
742788.35978800012
 20
4572494.6396199996
 30
0.0
  0
VERTEX
  5
4E8
  8
CLUSTERS
 10
742785.3694940001
 20
4572397.7695200006
 30
0.0
  0
VERTEX
  5
4E9
  8
CLUSTERS
 10
742788.35978800012
 20
4572385.9338700008
 30
0.0
  0
VERTEX
  5
4EA
  8
CLUSTERS
 10
742851.81978399993
 20
4572297.3977699997
 30
0.0
  0
VERTEX
  5
4EB
  8
CLUSTERS
 10
742836.66484299989
 20
4572197.0260199988
 30
0.0
  0
VERTEX
  5
4EC
  8
CLUSTERS
 10
742788.35978800012
 20
4572149.0777500002
 30
0.0
  0
VERTEX
  5
4ED
  8
CLUSTERS
 10
742687.83068799996
 20
4572124.1421599993
 30
0.0
  0
VERTEX
  5
4EE
  8
CLUSTERS
 10
742587.30158699991
 20
4572183.9671499999
 30
0.0
  0
VERTEX
  5
4EF
  8
CLUSTERS
 10
742523.11882400012
 20
4572197.0260199988
 30
0.0
  0
SEQEND
  5
4F0
  8
CLUSTERS
  0
POLYLINE
  5
10B
  8
CLUSTERS
 66
     1
 10
0.0
 20
0.0
 30
0.0
 70
   129
  0
VERTEX
  5
4F1
  8
CLUSTERS
 10
741374.21520700003
 20
4571895.9107800014
 30
0.0
  0
VERTEX
  5
4F2
  8
CLUSTERS
 10
741350.94134500006
 20
4571996.2825299986
 30
0.0
  0
VERTEX
  5
4F3
  8
CLUSTERS
 10
741380.95238100016
 20
4572029.6775500001
 30
0.0
  0
VERTEX
  5
4F4
  8
CLUSTERS
 10
741481.48148099997
 20
4572093.4948999994
 30
0.0
  0
VERTEX
  5
4F5
  8
CLUSTERS
 10
741498.69432499993
 20
4572096.6542799994
 30
0.0
  0
VERTEX
  5
4F6
  8
CLUSTERS
 10
741510.66772100015
 20
4572197.0260199988
 30
0.0
  0
VERTEX
  5
4F7
  8
CLUSTERS
 10
741582.0105819999
 20
4572277.1958100004
 30
0.0
  0
VERTEX
  5
4F8
  8
CLUSTERS
 10
741682.53968300007
 20
4572293.0131000001
 30
0.0
  0
VERTEX
  5
4F9
  8
CLUSTERS
 10
741783.06878300011
 20
4572256.19723
 30
0.0
  0
VERTEX
  5
4FA
  8
CLUSTERS
 10
741883.59788399993
 20
4572282.66732
 30
0.0
  0
VERTEX
  5
4FB
  8
CLUSTERS
 10
741970.07101100008
 20
4572197.0260199988
 30
0.0
  0
VERTEX
  5
4FC
  8
CLUSTERS
 10
741975.40128400014
 20
4572096.6542799994
 30
0.0
  0
VERTEX
  5
4FD
  8
CLUSTERS
 10
741966.16664099996
 20
4571996.2825299986
 30
0.0
  0
VERTEX
  5
4FE
  8
CLUSTERS
 10
741935.65493852459
 20
4571954.4580797385
 30
0.0
  0
VERTEX
  5
4FF
  8
CLUSTERS
 10
741893.64253505762
 20
4571954.4580797385
 30
0.0
  0
VERTEX
  5
500
  8
CLUSTERS
 10
741830.62373666849
 20
4571938.7120708516
 30
0.0
  0
VERTEX
  5
501
  8
CLUSTERS
 10
741783.06878300011
 20
4571915.5650800001
 30
0.0
  0
VERTEX
  5
502
  8
CLUSTERS
 10
741690.35279399995
 20
4571996.2825299986
 30
0.0
  0
VERTEX
  5
503
  8
CLUSTERS
 10
741682.53968300007
 20
4572000.1651700009
 30
0.0
  0
VERTEX
  5
504
  8
CLUSTERS
 10
741635.39951899997
 20
4571996.2825299986
 30
0.0
  0
VERTEX
  5
505
  8
CLUSTERS
 10
741582.0105819999
 20
4571947.8127199998
 30
0.0
  0
VERTEX
  5
506
  8
CLUSTERS
 10
741575.26520600007
 20
4571895.9107800014
 30
0.0
  0
VERTEX
  5
507
  8
CLUSTERS
 10
741481.48148099997
 20
4571816.4351500003
 30
0.0
  0
VERTEX
  5
508
  8
CLUSTERS
 10
741380.95238100016
 20
4571888.9168400001
 30
0.0
  0
VERTEX
  5
509
  8
CLUSTERS
 10
741374.21520700003
 20
4571895.9107800014
 30
0.0
  0
SEQEND
  5
50A
  8
CLUSTERS
  0
POLYLINE
  5
10C
  8
CLUSTERS
 66
     1
 10
0.0
 20
0.0
 30
0.0
 70
   129
  0
VERTEX
  5
50B
  8
CLUSTERS
 10
743193.78597800015
 20
4571795.5390299996
 30
0.0
  0
VERTEX
  5
50C
  8
CLUSTERS
 10
743190.47619000019
 20
4571859.9125199988
 30
0.0
  0
VERTEX
  5
50D
  8
CLUSTERS
 10
743187.6882819999
 20
4571895.9107800014
 30
0.0
  0
VERTEX
  5
50E
  8
CLUSTERS
 10
743190.47619000019
 20
4571899.8162400005
 30
0.0
  0
VERTEX
  5
50F
  8
CLUSTERS
 10
743290.55820234271
 20
4572048.9342611963
 30
0.0
  0
VERTEX
  5
510
  8
CLUSTERS
 10
743391.53439199994
 20
4571918.7258299999
 30
0.0
  0
VERTEX
  5
511
  8
CLUSTERS
 10
743403.94984500005
 20
4571895.9107800014
 30
0.0
  0
VERTEX
  5
512
  8
CLUSTERS
 10
743403.61947399995
 20
4571795.5390299996
 30
0.0
  0
VERTEX
  5
513
  8
CLUSTERS
 10
743391.53439199994
 20
4571777.1667600004
 30
0.0
  0
VERTEX
  5
514
  8
CLUSTERS
 10
743291.00529100001
 20
4571711.4003299996
 30
0.0
  0
VERTEX
  5
515
  8
CLUSTERS
 10
743193.78597800015
 20
4571795.5390299996
 30
0.0
  0
SEQEND
  5
516
  8
CLUSTERS
  0
POLYLINE
  5
10D
  8
CLUSTERS
 66
     1
 10
0.0
 20
0.0
 30
0.0
 70
   129
  0
VERTEX
  5
517
  8
CLUSTERS
 10
741104.62612899998
 20
4571193.3085500002
 30
0.0
  0
VERTEX
  5
518
  8
CLUSTERS
 10
741079.36507899989
 20
4571206.8819800001
 30
0.0
  0
VERTEX
  5
519
  8
CLUSTERS
 10
741003.89448000002
 20
4571293.6803000001
 30
0.0
  0
VERTEX
  5
51A
  8
CLUSTERS
 10
740998.39835699997
 20
4571394.0520400004
 30
0.0
  0
VERTEX
  5
51B
  8
CLUSTERS
 10
741079.36507899989
 20
4571486.5710399998
 30
0.0
  0
VERTEX
  5
51C
  8
CLUSTERS
 10
741090.60384800006
 20
4571494.4237900004
 30
0.0
  0
VERTEX
  5
51D
  8
CLUSTERS
 10
741179.89417999994
 20
4571566.7879999997
 30
0.0
  0
VERTEX
  5
51E
  8
CLUSTERS
 10
741280.4232800001
 20
4571559.2204999998
 30
0.0
  0
VERTEX
  5
51F
  8
CLUSTERS
 10
741316.14719500009
 20
4571594.7955400003
 30
0.0
  0
VERTEX
  5
520
  8
CLUSTERS
 10
741380.95238100016
 20
4571653.80425
 30
0.0
  0
VERTEX
  5
521
  8
CLUSTERS
 10
741481.48148099997
 20
4571684.2533199992
 30
0.0
  0
VERTEX
  5
522
  8
CLUSTERS
 10
741574.90989300003
 20
4571594.7955400003
 30
0.0
  0
VERTEX
  5
523
  8
CLUSTERS
 10
741582.0105819999
 20
4571589.2141399998
 30
0.0
  0
VERTEX
  5
524
  8
CLUSTERS
 10
741674.52603499987
 20
4571494.4237900004
 30
0.0
  0
VERTEX
  5
525
  8
CLUSTERS
 10
741668.09390500002
 20
4571394.0520400004
 30
0.0
  0
VERTEX
  5
526
  8
CLUSTERS
 10
741582.0105819999
 20
4571303.4232399995
 30
0.0
  0
VERTEX
  5
527
  8
CLUSTERS
 10
741481.48148099997
 20
4571321.6090500001
 30
0.0
  0
VERTEX
  5
528
  8
CLUSTERS
 10
741380.95238100016
 20
4571324.3957099998
 30
0.0
  0
VERTEX
  5
529
  8
CLUSTERS
 10
741378.970799
 20
4571293.6803000001
 30
0.0
  0
VERTEX
  5
52A
  8
CLUSTERS
 10
741280.4232800001
 20
4571193.3907700004
 30
0.0
  0
VERTEX
  5
52B
  8
CLUSTERS
 10
741279.39089300018
 20
4571193.3085500002
 30
0.0
  0
VERTEX
  5
52C
  8
CLUSTERS
 10
741179.89417999994
 20
4571137.7134499988
 30
0.0
  0
VERTEX
  5
52D
  8
CLUSTERS
 10
741104.62612899998
 20
4571193.3085500002
 30
0.0
  0
SEQEND
  5
52E
  8
CLUSTERS
  0
POLYLINE
  5
10E
  8
CLUSTERS
 66
     1
 10
0.0
 20
0.0
 30
0.0
 70
   129
  0
VERTEX
  5
52F
  8
CLUSTERS
 10
742072.99913399993
 20
4570791.8215600001
 30
0.0
  0
VERTEX
  5
530
  8
CLUSTERS
 10
742011.36994400003
 20
4570892.19331
 30
0.0
  0
VERTEX
  5
531
  8
CLUSTERS
 10
742018.77486600005
 20
4570992.5650599999
 30
0.0
  0
VERTEX
  5
532
  8
CLUSTERS
 10
742084.65608500014
 20
4571059.3017800003
 30
0.0
  0
VERTEX
  5
533
  8
CLUSTERS
 10
742185.18518499995
 20
4571085.2308299998
 30
0.0
  0
VERTEX
  5
534
  8
CLUSTERS
 10
742278.50054899976
 20
4570992.5650599999
 30
0.0
  0
VERTEX
  5
535
  8
CLUSTERS
 10
742279.66467300022
 20
4570892.19331
 30
0.0
  0
VERTEX
  5
536
  8
CLUSTERS
 10
742255.78059399989
 20
4570791.8215600001
 30
0.0
  0
VERTEX
  5
537
  8
CLUSTERS
 10
742185.18518499995
 20
4570723.1304000001
 30
0.0
  0
VERTEX
  5
538
  8
CLUSTERS
 10
742084.65608500014
 20
4570780.2798100011
 30
0.0
  0
VERTEX
  5
539
  8
CLUSTERS
 10
742072.99913399993
 20
4570791.8215600001
 30
0.0
  0
SEQEND
  5
53A
  8
CLUSTERS
  0
POLYLINE
  5
10F
  8
CLUSTERS
 66
     1
 10
0.0
 20
0.0
 30
0.0
 70
   129
  0
VERTEX
  5
53B
  8
CLUSTERS
 10
743121.52784800006
 20
4570390.334569999
 30
0.0
  0
VERTEX
  5
53C
  8
CLUSTERS
 10
743089.94709000003
 20
4570424.7901900001
 30
0.0
  0
VERTEX
  5
53D
  8
CLUSTERS
 10
743058.02715900005
 20
4570490.7063199999
 30
0.0
  0
VERTEX
  5
53E
  8
CLUSTERS
 10
743089.94709000003
 20
4570567.0986799989
 30
0.0
  0
VERTEX
  5
53F
  8
CLUSTERS
 10
743119.52771399985
 20
4570591.0780699989
 30
0.0
  0
VERTEX
  5
540
  8
CLUSTERS
 10
743089.94709000003
 20
4570606.2673399989
 30
0.0
  0
VERTEX
  5
541
  8
CLUSTERS
 10
743038.62738099997
 20
4570691.4498099992
 30
0.0
  0
VERTEX
  5
542
  8
CLUSTERS
 10
743089.94709000003
 20
4570759.8242800003
 30
0.0
  0
VERTEX
  5
543
  8
CLUSTERS
 10
743133.01133516245
 20
4570870.8245355934
 30
0.0
  0
VERTEX
  5
544
  8
CLUSTERS
 10
743217.03639968124
 20
4570881.321832139
 30
0.0
  0
VERTEX
  5
545
  8
CLUSTERS
 10
743264.30043407669
 20
4570786.8457147479
 30
0.0
  0
VERTEX
  5
546
  8
CLUSTERS
 10
743273.471945
 20
4570691.4498099992
 30
0.0
  0
VERTEX
  5
547
  8
CLUSTERS
 10
743222.02011000004
 20
4570591.0780699989
 30
0.0
  0
VERTEX
  5
548
  8
CLUSTERS
 10
743272.03647300007
 20
4570490.7063199999
 30
0.0
  0
VERTEX
  5
549
  8
CLUSTERS
 10
743228.3459539999
 20
4570390.334569999
 30
0.0
  0
VERTEX
  5
54A
  8
CLUSTERS
 10
743190.47619000019
 20
4570355.0238800002
 30
0.0
  0
VERTEX
  5
54B
  8
CLUSTERS
 10
743121.52784800006
 20
4570390.334569999
 30
0.0
  0
SEQEND
  5
54C
  8
CLUSTERS
  0
POLYLINE
  5
110
  8
CLUSTERS
 66
     1
 10
0.0
 20
0.0
 30
0.0
 70
   129
  0
VERTEX
  5
54D
  8
CLUSTERS
 10
743037.13913800009
 20
4569988.8475799998
 30
0.0
  0
VERTEX
  5
54E
  8
CLUSTERS
 10
742993.04680400004
 20
4570089.2193299988
 30
0.0
  0
VERTEX
  5
54F
  8
CLUSTERS
 10
743101.50193596794
 20
4570109.7664356474
 30
0.0
  0
VERTEX
  5
550
  8
CLUSTERS
 10
743196.03013355145
 20
4570120.2637962624
 30
0.0
  0
VERTEX
  5
551
  8
CLUSTERS
 10
743270.69619799999
 20
4570089.2193299988
 30
0.0
  0
VERTEX
  5
552
  8
CLUSTERS
 10
743229.94389600016
 20
4569988.8475799998
 30
0.0
  0
VERTEX
  5
553
  8
CLUSTERS
 10
743190.47619000019
 20
4569949.9265000001
 30
0.0
  0
VERTEX
  5
554
  8
CLUSTERS
 10
743089.94709000003
 20
4569949.10525
 30
0.0
  0
VERTEX
  5
555
  8
CLUSTERS
 10
743037.13913800009
 20
4569988.8475799998
 30
0.0
  0
SEQEND
  5
556
  8
CLUSTERS
  0
POLYLINE
  5
111
  8
CLUSTERS
 66
     1
 10
0.0
 20
0.0
 30
0.0
 70
   129
  0
VERTEX
  5
557
  8
CLUSTERS
 10
740906.79944363981
 20
4569335.5666614696
 30
0.0
  0
VERTEX
  5
558
  8
CLUSTERS
 10
740850.09300877503
 20
4569387.0896768412
 30
0.0
  0
VERTEX
  5
559
  8
CLUSTERS
 10
740807.6589360002
 20
4569486.9888499994
 30
0.0
  0
VERTEX
  5
55A
  8
CLUSTERS
 10
740878.30687800003
 20
4569551.3278700002
 30
0.0
  0
VERTEX
  5
55B
  8
CLUSTERS
 10
740978.83597899985
 20
4569524.9347900003
 30
0.0
  0
VERTEX
  5
55C
  8
CLUSTERS
 10
741016.94293899985
 20
4569486.9888499994
 30
0.0
  0
VERTEX
  5
55D
  8
CLUSTERS
 10
741032.75670199993
 20
4569386.6171000013
 30
0.0
  0
VERTEX
  5
55E
  8
CLUSTERS
 10
740978.83597899985
 20
4569323.21973
 30
0.0
  0
VERTEX
  5
55F
  8
CLUSTERS
 10
740906.79944363981
 20
4569335.5666614696
 30
0.0
  0
SEQEND
  5
560
  8
CLUSTERS
  0
POLYLINE
  5
112
  8
CLUSTERS
 66
     1
 10
0.0
 20
0.0
 30
0.0
 70
   129
  0
VERTEX
  5
561
  8
CLUSTERS
 10
741623.99005699984
 20
4569185.8736100001
 30
0.0
  0
VERTEX
  5
562
  8
CLUSTERS
 10
741541.78777057386
 20
4569196.4967028992
 30
0.0
  0
VERTEX
  5
563
  8
CLUSTERS
 10
741521.38707100006
 20
4569286.2453500004
 30
0.0
  0
VERTEX
  5
564
  8
CLUSTERS
 10
741397.91340400011
 20
4569486.9888499994
 30
0.0
  0
VERTEX
  5
565
  8
CLUSTERS
 10
741403.70565499994
 20
4569587.3605899988
 30
0.0
  0
VERTEX
  5
566
  8
CLUSTERS
 10
741481.48148099997
 20
4569657.7706899997
 30
0.0
  0
VERTEX
  5
567
  8
CLUSTERS
 10
741575.64971399994
 20
4569687.7323400006
 30
0.0
  0
VERTEX
  5
568
  8
CLUSTERS
 10
741519.20059899997
 20
4569788.1040899996
 30
0.0
  0
VERTEX
  5
569
  8
CLUSTERS
 10
741582.0105819999
 20
4569848.1538800001
 30
0.0
  0
VERTEX
  5
56A
  8
CLUSTERS
 10
741682.53968300007
 20
4569878.4003600013
 30
0.0
  0
VERTEX
  5
56B
  8
CLUSTERS
 10
741773.51471699995
 20
4569788.1040899996
 30
0.0
  0
VERTEX
  5
56C
  8
CLUSTERS
 10
741984.12698399986
 20
4569687.4207100011
 30
0.0
  0
VERTEX
  5
56D
  8
CLUSTERS
 10
741998.0826330001
 20
4569687.7323400006
 30
0.0
  0
VERTEX
  5
56E
  8
CLUSTERS
 10
742084.65608500014
 20
4569712.6752199996
 30
0.0
  0
VERTEX
  5
56F
  8
CLUSTERS
 10
742116.93382200005
 20
4569687.7323400006
 30
0.0
  0
VERTEX
  5
570
  8
CLUSTERS
 10
742185.18518499995
 20
4569624.6393699991
 30
0.0
  0
VERTEX
  5
571
  8
CLUSTERS
 10
742214.71825100004
 20
4569587.3605899988
 30
0.0
  0
VERTEX
  5
572
  8
CLUSTERS
 10
742190.28515500005
 20
4569486.9888499994
 30
0.0
  0
VERTEX
  5
573
  8
CLUSTERS
 10
742185.18518499995
 20
4569481.1600399986
 30
0.0
  0
VERTEX
  5
574
  8
CLUSTERS
 10
742168.16738728387
 20
4569394.0040782988
 30
0.0
  0
VERTEX
  5
575
  8
CLUSTERS
 10
742076.3871619252
 20
4569306.9018011624
 30
0.0
  0
VERTEX
  5
576
  8
CLUSTERS
 10
741984.12698399986
 20
4569329.1944900006
 30
0.0
  0
VERTEX
  5
577
  8
CLUSTERS
 10
741926.27677800006
 20
4569286.2453500004
 30
0.0
  0
VERTEX
  5
578
  8
CLUSTERS
 10
741856.8815049344
 20
4569275.22687547
 30
0.0
  0
VERTEX
  5
579
  8
CLUSTERS
 10
741804.36596840248
 20
4569227.9887847397
 30
0.0
  0
VERTEX
  5
57A
  8
CLUSTERS
 10
741772.85656920797
 20
4569180.7506940113
 30
0.0
  0
VERTEX
  5
57B
  8
CLUSTERS
 10
741682.53968300007
 20
4569145.08495
 30
0.0
  0
VERTEX
  5
57C
  8
CLUSTERS
 10
741623.99005699984
 20
4569185.8736100001
 30
0.0
  0
SEQEND
  5
57D
  8
CLUSTERS
  0
POLYLINE
  5
113
  8
CLUSTERS
 66
     1
 10
0.0
 20
0.0
 30
0.0
 70
   129
  0
VERTEX
  5
57E
  8
CLUSTERS
 10
742709.97968768352
 20
4569094.6136499085
 30
0.0
  0
VERTEX
  5
57F
  8
CLUSTERS
 10
742758.95356738544
 20
4569164.1697398787
 30
0.0
  0
VERTEX
  5
580
  8
CLUSTERS
 10
742788.35978800012
 20
4569217.2072699992
 30
0.0
  0
VERTEX
  5
581
  8
CLUSTERS
 10
742845.04870699998
 20
4569185.8736100001
 30
0.0
  0
VERTEX
  5
582
  8
CLUSTERS
 10
742888.88888899994
 20
4569153.5719800014
 30
0.0
  0
VERTEX
  5
583
  8
CLUSTERS
 10
742931.71499000012
 20
4569085.5018600002
 30
0.0
  0
VERTEX
  5
584
  8
CLUSTERS
 10
742888.88888899994
 20
4569031.8968499992
 30
0.0
  0
VERTEX
  5
585
  8
CLUSTERS
 10
742788.35978800012
 20
4569031.0197599996
 30
0.0
  0
VERTEX
  5
586
  8
CLUSTERS
 10
742709.97968768352
 20
4569094.6136499085
 30
0.0
  0
SEQEND
  5
587
  8
CLUSTERS
  0
POLYLINE
  5
114
  8
CLUSTERS
 66
     1
 10
0.0
 20
0.0
 30
0.0
 70
   129
  0
VERTEX
  5
588
  8
CLUSTERS
 10
742480.57630104513
 20
4569019.9052712154
 30
0.0
  0
VERTEX
  5
589
  8
CLUSTERS
 10
742538.83465500013
 20
4569185.8736100001
 30
0.0
  0
VERTEX
  5
58A
  8
CLUSTERS
 10
742587.30158699991
 20
4569222.6175199999
 30
0.0
  0
VERTEX
  5
58B
  8
CLUSTERS
 10
742614.60970425175
 20
4569189.9312475659
 30
0.0
  0
VERTEX
  5
58C
  8
CLUSTERS
 10
742578.52380286448
 20
4569112.64672451
 30
0.0
  0
VERTEX
  5
58D
  8
CLUSTERS
 10
742557.90326938708
 20
4569009.600693767
 30
0.0
  0
VERTEX
  5
58E
  8
CLUSTERS
 10
742480.57630104513
 20
4569019.9052712154
 30
0.0
  0
SEQEND
  5
58F
  8
CLUSTERS
  0
POLYLINE
  5
115
  8
CLUSTERS
 66
     1
 10
0.0
 20
0.0
 30
0.0
 70
   129
  0
VERTEX
  5
590
  8
CLUSTERS
 10
743516.75826927216
 20
4568981.2630417189
 30
0.0
  0
VERTEX
  5
591
  8
CLUSTERS
 10
743592.59259300004
 20
4569025.4116100008
 30
0.0
  0
VERTEX
  5
592
  8
CLUSTERS
 10
743632.65946
 20
4568985.1301099993
 30
0.0
  0
VERTEX
  5
593
  8
CLUSTERS
 10
743542.53396831686
 20
4568927.1638819873
 30
0.0
  0
VERTEX
  5
594
  8
CLUSTERS
 10
743516.75826927216
 20
4568981.2630417189
 30
0.0
  0
SEQEND
  5
595
  8
CLUSTERS
  0
POLYLINE
  5
116
  8
CLUSTERS
 66
     1
 10
0.0
 20
0.0
 30
0.0
 70
   129
  0
VERTEX
  5
596
  8
CLUSTERS
 10
740465.21733978554
 20
4568991.798331093
 30
0.0
  0
VERTEX
  5
597
  8
CLUSTERS
 10
740521.81068399991
 20
4569085.5018600002
 30
0.0
  0
VERTEX
  5
598
  8
CLUSTERS
 10
740576.71957700001
 20
4569136.52159
 30
0.0
  0
VERTEX
  5
599
  8
CLUSTERS
 10
740672.72202900006
 20
4569085.5018600002
 30
0.0
  0
VERTEX
  5
59A
  8
CLUSTERS
 10
740643.81095599988
 20
4568985.1301099993
 30
0.0
  0
VERTEX
  5
59B
  8
CLUSTERS
 10
740576.71957700001
 20
4568913.3110100003
 30
0.0
  0
VERTEX
  5
59C
  8
CLUSTERS
 10
740465.21733978554
 20
4568991.798331093
 30
0.0
  0
SEQEND
  5
59D
  8
CLUSTERS
  0
POLYLINE
  5
117
  8
CLUSTERS
 66
     1
 10
0.0
 20
0.0
 30
0.0
 70
   129
  0
VERTEX
  5
59E
  8
CLUSTERS
 10
743236.99676100025
 20
4568684.0148700001
 30
0.0
  0
VERTEX
  5
59F
  8
CLUSTERS
 10
743168.78671854478
 20
4568788.0517661134
 30
0.0
  0
VERTEX
  5
5A0
  8
CLUSTERS
 10
743291.00529100001
 20
4568854.3858700003
 30
0.0
  0
VERTEX
  5
5A1
  8
CLUSTERS
 10
743363.07995499985
 20
4568884.7583600003
 30
0.0
  0
VERTEX
  5
5A2
  8
CLUSTERS
 10
743291.00529100001
 20
4568943.1791200005
 30
0.0
  0
VERTEX
  5
5A3
  8
CLUSTERS
 10
743191.98477040976
 20
4568999.2961163204
 30
0.0
  0
VERTEX
  5
5A4
  8
CLUSTERS
 10
743268.10696
 20
4569085.5018600002
 30
0.0
  0
VERTEX
  5
5A5
  8
CLUSTERS
 10
743291.00529100001
 20
4569100.3617599998
 30
0.0
  0
VERTEX
  5
5A6
  8
CLUSTERS
 10
743306.65616799996
 20
4569085.5018600002
 30
0.0
  0
VERTEX
  5
5A7
  8
CLUSTERS
 10
743391.53439199994
 20
4569048.5782599999
 30
0.0
  0
VERTEX
  5
5A8
  8
CLUSTERS
 10
743413.65560188552
 20
4568981.2630417189
 30
0.0
  0
VERTEX
  5
5A9
  8
CLUSTERS
 10
743409.18542999995
 20
4568884.7583600003
 30
0.0
  0
VERTEX
  5
5AA
  8
CLUSTERS
 10
743411.20809800003
 20
4568784.3866199991
 30
0.0
  0
VERTEX
  5
5AB
  8
CLUSTERS
 10
743431.97106400004
 20
4568684.0148700001
 30
0.0
  0
VERTEX
  5
5AC
  8
CLUSTERS
 10
743391.53439199994
 20
4568635.1360900011
 30
0.0
  0
VERTEX
  5
5AD
  8
CLUSTERS
 10
743291.00529100001
 20
4568634.7069800012
 30
0.0
  0
VERTEX
  5
5AE
  8
CLUSTERS
 10
743236.99676100025
 20
4568684.0148700001
 30
0.0
  0
SEQEND
  5
5AF
  8
CLUSTERS
  0
POLYLINE
  5
118
  8
CLUSTERS
 66
     1
 10
0.0
 20
0.0
 30
0.0
 70
   129
  0
VERTEX
  5
5B0
  8
CLUSTERS
 10
742697.09196695348
 20
4568514.9798230873
 30
0.0
  0
VERTEX
  5
5B1
  8
CLUSTERS
 10
742627.49755377416
 20
4568633.4827199997
 30
0.0
  0
VERTEX
  5
5B2
  8
CLUSTERS
 10
742617.18735143158
 20
4568705.6149543328
 30
0.0
  0
VERTEX
  5
5B3
  8
CLUSTERS
 10
742679.04895186354
 20
4568708.1910986947
 30
0.0
  0
VERTEX
  5
5B4
  8
CLUSTERS
 10
742728.02270277333
 20
4568625.7542869141
 30
0.0
  0
VERTEX
  5
5B5
  8
CLUSTERS
 10
742756.37592020561
 20
4568594.840490506
 30
0.0
  0
VERTEX
  5
5B6
  8
CLUSTERS
 10
742795.03946877259
 20
4568556.1981969429
 30
0.0
  0
VERTEX
  5
5B7
  8
CLUSTERS
 10
742758.95356738544
 20
4568478.9136738861
 30
0.0
  0
VERTEX
  5
5B8
  8
CLUSTERS
 10
742697.09196695348
 20
4568514.9798230873
 30
0.0
  0
SEQEND
  5
5B9
  8
CLUSTERS
  0
POLYLINE
  5
119
  8
CLUSTERS
 66
     1
 10
0.0
 20
0.0
 30
0.0
 70
   129
  0
VERTEX
  5
5BA
  8
CLUSTERS
 10
740386.13094113872
 20
4568562.7214949727
 30
0.0
  0
VERTEX
  5
5BB
  8
CLUSTERS
 10
740370.66544443648
 20
4568686.3767446773
 30
0.0
  0
VERTEX
  5
5BC
  8
CLUSTERS
 10
740476.19047599996
 20
4568738.7244600011
 30
0.0
  0
VERTEX
  5
5BD
  8
CLUSTERS
 10
740531.07644900004
 20
4568684.0148700001
 30
0.0
  0
VERTEX
  5
5BE
  8
CLUSTERS
 10
740552.32450000022
 20
4568583.6431199992
 30
0.0
  0
VERTEX
  5
5BF
  8
CLUSTERS
 10
740476.19047599996
 20
4568498.9051999999
 30
0.0
  0
VERTEX
  5
5C0
  8
CLUSTERS
 10
740386.13094113872
 20
4568562.7214949727
 30
0.0
  0
SEQEND
  5
5C1
  8
CLUSTERS
  0
POLYLINE
  5
11A
  8
CLUSTERS
 66
     1
 10
0.0
 20
0.0
 30
0.0
 70
   129
  0
VERTEX
  5
5C2
  8
CLUSTERS
 10
741071.76384025055
 20
4568297.3779850313
 30
0.0
  0
VERTEX
  5
5C3
  8
CLUSTERS
 10
741167.13382368255
 20
4568405.5763044981
 30
0.0
  0
VERTEX
  5
5C4
  8
CLUSTERS
 10
741248.66058899974
 20
4568382.8996299999
 30
0.0
  0
VERTEX
  5
5C5
  8
CLUSTERS
 10
741190.33187554765
 20
4568276.7687660689
 30
0.0
  0
VERTEX
  5
5C6
  8
CLUSTERS
 10
741071.76384025055
 20
4568297.3779850313
 30
0.0
  0
SEQEND
  5
5C7
  8
CLUSTERS
  0
POLYLINE
  5
11B
  8
CLUSTERS
 66
     1
 10
0.0
 20
0.0
 30
0.0
 70
   129
  0
VERTEX
  5
5C8
  8
CLUSTERS
 10
739953.09960932203
 20
4568315.4110596329
 30
0.0
  0
VERTEX
  5
5C9
  8
CLUSTERS
 10
740110.33119318588
 20
4568457.0993198687
 30
0.0
  0
VERTEX
  5
5CA
  8
CLUSTERS
 10
740169.61527523038
 20
4568403.0001601363
 30
0.0
  0
VERTEX
  5
5CB
  8
CLUSTERS
 10
740030.4265776641
 20
4568274.1926217088
 30
0.0
  0
VERTEX
  5
5CC
  8
CLUSTERS
 10
739953.09960932203
 20
4568315.4110596329
 30
0.0
  0
SEQEND
  5
5CD
  8
CLUSTERS
  0
POLYLINE
  5
11C
  8
CLUSTERS
 66
     1
 10
0.0
 20
0.0
 30
0.0
 70
   129
  0
VERTEX
  5
5CE
  8
CLUSTERS
 10
742965.98816600011
 20
4568282.52788
 30
0.0
  0
VERTEX
  5
5CF
  8
CLUSTERS
 10
742921.3403168167
 20
4568409.3576479843
 30
0.0
  0
VERTEX
  5
5D0
  8
CLUSTERS
 10
742943.95506878768
 20
4568487.9254060229
 30
0.0
  0
VERTEX
  5
5D1
  8
CLUSTERS
 10
743089.94709000003
 20
4568476.1287399996
 30
0.0
  0
VERTEX
  5
5D2
  8
CLUSTERS
 10
743182.93868999998
 20
4568382.8996299999
 30
0.0
  0
VERTEX
  5
5D3
  8
CLUSTERS
 10
743145.64449600002
 20
4568282.52788
 30
0.0
  0
VERTEX
  5
5D4
  8
CLUSTERS
 10
743089.94709000003
 20
4568228.2243999997
 30
0.0
  0
VERTEX
  5
5D5
  8
CLUSTERS
 10
742989.41798899975
 20
4568260.4950699992
 30
0.0
  0
VERTEX
  5
5D6
  8
CLUSTERS
 10
742965.98816600011
 20
4568282.52788
 30
0.0
  0
SEQEND
  5
5D7
  8
CLUSTERS
  0
POLYLINE
  5
11D
  8
CLUSTERS
 66
     1
 10
0.0
 20
0.0
 30
0.0
 70
   129
  0
VERTEX
  5
5D8
  8
CLUSTERS
 10
738424.41861057642
 20
4568158.9189373758
 30
0.0
  0
VERTEX
  5
5D9
  8
CLUSTERS
 10
738468.42081257631
 20
4568202.0603873748
 30
0.0
  0
VERTEX
  5
5DA
  8
CLUSTERS
 10
738511.8459885763
 20
4568158.9189373758
 30
0.0
  0
VERTEX
  5
5DB
  8
CLUSTERS
 10
738468.42081257631
 20
4568112.9527973756
 30
0.0
  0
VERTEX
  5
5DC
  8
CLUSTERS
 10
738424.41861057642
 20
4568158.9189373758
 30
0.0
  0
SEQEND
  5
5DD
  8
CLUSTERS
  0
POLYLINE
  5
11E
  8
CLUSTERS
 66
     1
 10
0.0
 20
0.0
 30
0.0
 70
   129
  0
VERTEX
  5
5DE
  8
CLUSTERS
 10
739710.80824436911
 20
4568032.0344750909
 30
0.0
  0
VERTEX
  5
5DF
  8
CLUSTERS
 10
739772.48677199997
 20
4568131.0164599987
 30
0.0
  0
VERTEX
  5
5E0
  8
CLUSTERS
 10
739865.46230984526
 20
4568099.0144207021
 30
0.0
  0
VERTEX
  5
5E1
  8
CLUSTERS
 10
739811.33339336829
 20
4568014.0014004912
 30
0.0
  0
VERTEX
  5
5E2
  8
CLUSTERS
 10
739710.80824436911
 20
4568032.0344750909
 30
0.0
  0
SEQEND
  5
5E3
  8
CLUSTERS
  0
POLYLINE
  5
11F
  8
CLUSTERS
 66
     1
 10
0.0
 20
0.0
 30
0.0
 70
   129
  0
VERTEX
  5
5E4
  8
CLUSTERS
 10
738707.18406400003
 20
4568081.7843900006
 30
0.0
  0
VERTEX
  5
5E5
  8
CLUSTERS
 10
738734.28069799999
 20
4568182.1561299991
 30
0.0
  0
VERTEX
  5
5E6
  8
CLUSTERS
 10
738767.19576699997
 20
4568214.3267200002
 30
0.0
  0
VERTEX
  5
5E7
  8
CLUSTERS
 10
738867.72486800014
 20
4568237.9818600006
 30
0.0
  0
VERTEX
  5
5E8
  8
CLUSTERS
 10
738968.25396799995
 20
4568259.5412799995
 30
0.0
  0
VERTEX
  5
5E9
  8
CLUSTERS
 10
739046.24456400005
 20
4568182.1561299991
 30
0.0
  0
VERTEX
  5
5EA
  8
CLUSTERS
 10
738981.35675991466
 20
4568068.1005602237
 30
0.0
  0
VERTEX
  5
5EB
  8
CLUSTERS
 10
738878.25396373565
 20
4568050.0675496915
 30
0.0
  0
VERTEX
  5
5EC
  8
CLUSTERS
 10
738813.81484491611
 20
4568014.0014004912
 30
0.0
  0
VERTEX
  5
5ED
  8
CLUSTERS
 10
738767.19576699997
 20
4568019.61252
 30
0.0
  0
VERTEX
  5
5EE
  8
CLUSTERS
 10
738707.18406400003
 20
4568081.7843900006
 30
0.0
  0
SEQEND
  5
5EF
  8
CLUSTERS
  0
POLYLINE
  5
120
  8
CLUSTERS
 66
     1
 10
0.0
 20
0.0
 30
0.0
 70
   129
  0
VERTEX
  5
5F0
  8
CLUSTERS
 10
741079.727587
 20
4567981.4126399998
 30
0.0
  0
VERTEX
  5
5F1
  8
CLUSTERS
 10
741079.36507899989
 20
4567981.8969799997
 30
0.0
  0
VERTEX
  5
5F2
  8
CLUSTERS
 10
741014.75426600024
 20
4568081.7843900006
 30
0.0
  0
VERTEX
  5
5F3
  8
CLUSTERS
 10
741069.18619307084
 20
4568080.9813461024
 30
0.0
  0
VERTEX
  5
5F4
  8
CLUSTERS
 10
741185.17670998001
 20
4568088.7097791862
 30
0.0
  0
VERTEX
  5
5F5
  8
CLUSTERS
 10
741298.58970850159
 20
4568104.166709424
 30
0.0
  0
VERTEX
  5
5F6
  8
CLUSTERS
 10
741386.22700797836
 20
4568104.166709424
 30
0.0
  0
VERTEX
  5
5F7
  8
CLUSTERS
 10
741463.84028200002
 20
4568081.7843900006
 30
0.0
  0
VERTEX
  5
5F8
  8
CLUSTERS
 10
741442.1062390001
 20
4567981.4126399998
 30
0.0
  0
VERTEX
  5
5F9
  8
CLUSTERS
 10
741380.95238100016
 20
4567915.4852900002
 30
0.0
  0
VERTEX
  5
5FA
  8
CLUSTERS
 10
741275.39165663661
 20
4567903.2269366644
 30
0.0
  0
VERTEX
  5
5FB
  8
CLUSTERS
 10
741179.89417999994
 20
4567909.124929999
 30
0.0
  0
VERTEX
  5
5FC
  8
CLUSTERS
 10
741079.727587
 20
4567981.4126399998
 30
0.0
  0
SEQEND
  5
5FD
  8
CLUSTERS
  0
POLYLINE
  5
121
  8
CLUSTERS
 66
     1
 10
0.0
 20
0.0
 30
0.0
 70
   129
  0
VERTEX
  5
5FE
  8
CLUSTERS
 10
742605.10557300015
 20
4567881.0408899989
 30
0.0
  0
VERTEX
  5
5FF
  8
CLUSTERS
 10
742687.83068799996
 20
4567949.5579900006
 30
0.0
  0
VERTEX
  5
600
  8
CLUSTERS
 10
742788.35978800012
 20
4567941.4630899997
 30
0.0
  0
VERTEX
  5
601
  8
CLUSTERS
 10
742847.23742200003
 20
4567881.0408899989
 30
0.0
  0
VERTEX
  5
602
  8
CLUSTERS
 10
742788.35978800012
 20
4567812.5355900005
 30
0.0
  0
VERTEX
  5
603
  8
CLUSTERS
 10
742687.83068799996
 20
4567800.2693800004
 30
0.0
  0
VERTEX
  5
604
  8
CLUSTERS
 10
742605.10557300015
 20
4567881.0408899989
 30
0.0
  0
SEQEND
  5
605
  8
CLUSTERS
  0
POLYLINE
  5
122
  8
CLUSTERS
 66
     1
 10
0.0
 20
0.0
 30
0.0
 70
   129
  0
VERTEX
  5
606
  8
CLUSTERS
 10
738989.72175499995
 20
4567881.0408899989
 30
0.0
  0
VERTEX
  5
607
  8
CLUSTERS
 10
738968.89999499999
 20
4567981.4126399998
 30
0.0
  0
VERTEX
  5
608
  8
CLUSTERS
 10
739071.57157777913
 20
4568016.5775448531
 30
0.0
  0
VERTEX
  5
609
  8
CLUSTERS
 10
739133.22299899999
 20
4568081.7843900006
 30
0.0
  0
VERTEX
  5
60A
  8
CLUSTERS
 10
739169.31216900004
 20
4568112.5136999991
 30
0.0
  0
VERTEX
  5
60B
  8
CLUSTERS
 10
739228.80316164298
 20
4568039.7629081784
 30
0.0
  0
VERTEX
  5
60C
  8
CLUSTERS
 10
739180.99248400005
 20
4567981.4126399998
 30
0.0
  0
VERTEX
  5
60D
  8
CLUSTERS
 10
739151.47619330091
 20
4567892.9223592179
 30
0.0
  0
VERTEX
  5
60E
  8
CLUSTERS
 10
739133.4331782111
 20
4567859.432418447
 30
0.0
  0
VERTEX
  5
60F
  8
CLUSTERS
 10
739068.783069
 20
4567807.9198799999
 30
0.0
  0
VERTEX
  5
610
  8
CLUSTERS
 10
738989.72175499995
 20
4567881.0408899989
 30
0.0
  0
SEQEND
  5
611
  8
CLUSTERS
  0
POLYLINE
  5
123
  8
CLUSTERS
 66
     1
 10
0.0
 20
0.0
 30
0.0
 70
   129
  0
VERTEX
  5
612
  8
CLUSTERS
 10
740992.21314570669
 20
4567645.9346386706
 30
0.0
  0
VERTEX
  5
613
  8
CLUSTERS
 10
741034.5974480001
 20
4567780.6691399999
 30
0.0
  0
VERTEX
  5
614
  8
CLUSTERS
 10
741079.36507899989
 20
4567823.7246700013
 30
0.0
  0
VERTEX
  5
615
  8
CLUSTERS
 10
741123.35609999998
 20
4567780.6691399999
 30
0.0
  0
VERTEX
  5
616
  8
CLUSTERS
 10
741170.76627901685
 20
4567693.1727294
 30
0.0
  0
VERTEX
  5
617
  8
CLUSTERS
 10
741079.36507899989
 20
4567634.3310000002
 30
0.0
  0
VERTEX
  5
618
  8
CLUSTERS
 10
740992.21314570669
 20
4567645.9346386706
 30
0.0
  0
SEQEND
  5
619
  8
CLUSTERS
  0
POLYLINE
  5
124
  8
CLUSTERS
 66
     1
 10
0.0
 20
0.0
 30
0.0
 70
   129
  0
VERTEX
  5
61A
  8
CLUSTERS
 10
740225.48494714289
 20
4567645.9346386706
 30
0.0
  0
VERTEX
  5
61B
  8
CLUSTERS
 10
740225.48494714289
 20
4567693.1727294
 30
0.0
  0
VERTEX
  5
61C
  8
CLUSTERS
 10
740209.73031194159
 20
4567771.9028379051
 30
0.0
  0
VERTEX
  5
61D
  8
CLUSTERS
 10
740214.98181407771
 20
4567829.6382892476
 30
0.0
  0
VERTEX
  5
61E
  8
CLUSTERS
 10
740275.13227499987
 20
4567879.5952499993
 30
0.0
  0
VERTEX
  5
61F
  8
CLUSTERS
 10
740330.516277791
 20
4567824.3896409757
 30
0.0
  0
VERTEX
  5
620
  8
CLUSTERS
 10
740346.27091299219
 20
4567761.405477291
 30
0.0
  0
VERTEX
  5
621
  8
CLUSTERS
 10
740375.66137600015
 20
4567681.3060299987
 30
0.0
  0
VERTEX
  5
622
  8
CLUSTERS
 10
740372.79484600015
 20
4567680.2973999996
 30
0.0
  0
VERTEX
  5
623
  8
CLUSTERS
 10
740275.13227499987
 20
4567604.8569400003
 30
0.0
  0
VERTEX
  5
624
  8
CLUSTERS
 10
740225.48494714289
 20
4567645.9346386706
 30
0.0
  0
SEQEND
  5
625
  8
CLUSTERS
  0
POLYLINE
  5
125
  8
CLUSTERS
 66
     1
 10
0.0
 20
0.0
 30
0.0
 70
   129
  0
VERTEX
  5
626
  8
CLUSTERS
 10
739491.13143800001
 20
4567479.5538999997
 30
0.0
  0
VERTEX
  5
627
  8
CLUSTERS
 10
739474.04132199998
 20
4567579.9256499996
 30
0.0
  0
VERTEX
  5
628
  8
CLUSTERS
 10
739571.42857100011
 20
4567679.3641999988
 30
0.0
  0
VERTEX
  5
629
  8
CLUSTERS
 10
739572.58379700012
 20
4567680.2973999996
 30
0.0
  0
VERTEX
  5
62A
  8
CLUSTERS
 10
739645.82625699998
 20
4567780.6691399999
 30
0.0
  0
VERTEX
  5
62B
  8
CLUSTERS
 10
739671.95767199993
 20
4567805.0908700004
 30
0.0
  0
VERTEX
  5
62C
  8
CLUSTERS
 10
739772.48677199997
 20
4567853.0526200011
 30
0.0
  0
VERTEX
  5
62D
  8
CLUSTERS
 10
739878.88181358762
 20
4567824.3896409757
 30
0.0
  0
VERTEX
  5
62E
  8
CLUSTERS
 10
739978.66151330748
 20
4567787.6488467921
 30
0.0
  0
VERTEX
  5
62F
  8
CLUSTERS
 10
740031.17717863165
 20
4567735.1621077899
 30
0.0
  0
VERTEX
  5
630
  8
CLUSTERS
 10
740069.19983000006
 20
4567680.2973999996
 30
0.0
  0
VERTEX
  5
631
  8
CLUSTERS
 10
739973.54497399984
 20
4567580.0424199998
 30
0.0
  0
VERTEX
  5
632
  8
CLUSTERS
 10
739973.49804500001
 20
4567579.9256499996
 30
0.0
  0
VERTEX
  5
633
  8
CLUSTERS
 10
739946.84746499988
 20
4567479.5538999997
 30
0.0
  0
VERTEX
  5
634
  8
CLUSTERS
 10
739873.01587300014
 20
4567405.8551099999
 30
0.0
  0
VERTEX
  5
635
  8
CLUSTERS
 10
739772.48677199997
 20
4567444.5294199996
 30
0.0
  0
VERTEX
  5
636
  8
CLUSTERS
 10
739671.95767199993
 20
4567394.2650600001
 30
0.0
  0
VERTEX
  5
637
  8
CLUSTERS
 10
739571.42857100011
 20
4567400.5945499996
 30
0.0
  0
VERTEX
  5
638
  8
CLUSTERS
 10
739491.13143800001
 20
4567479.5538999997
 30
0.0
  0
SEQEND
  5
639
  8
CLUSTERS
  0
POLYLINE
  5
126
  8
CLUSTERS
 66
     1
 10
0.0
 20
0.0
 30
0.0
 70
   129
  0
VERTEX
  5
63A
  8
CLUSTERS
 10
738776.05361453351
 20
4567441.2362027979
 30
0.0
  0
VERTEX
  5
63B
  8
CLUSTERS
 10
738838.04414453346
 20
4567502.0330727976
 30
0.0
  0
VERTEX
  5
63C
  8
CLUSTERS
 10
738902.2171605333
 20
4567441.2362027979
 30
0.0
  0
VERTEX
  5
63D
  8
CLUSTERS
 10
738838.04414453346
 20
4567377.312732799
 30
0.0
  0
VERTEX
  5
63E
  8
CLUSTERS
 10
738776.05361453351
 20
4567441.2362027979
 30
0.0
  0
SEQEND
  5
63F
  8
CLUSTERS
  0
POLYLINE
  5
127
  8
CLUSTERS
 66
     1
 10
0.0
 20
0.0
 30
0.0
 70
   129
  0
VERTEX
  5
640
  8
CLUSTERS
 10
739479.76301470853
 20
4567226.0404703775
 30
0.0
  0
VERTEX
  5
641
  8
CLUSTERS
 10
739553.55429770856
 20
4567303.1205403786
 30
0.0
  0
VERTEX
  5
642
  8
CLUSTERS
 10
739625.83175670833
 20
4567226.0404703775
 30
0.0
  0
VERTEX
  5
643
  8
CLUSTERS
 10
739553.55429770856
 20
4567150.8906503785
 30
0.0
  0
VERTEX
  5
644
  8
CLUSTERS
 10
739479.76301470853
 20
4567226.0404703775
 30
0.0
  0
SEQEND
  5
645
  8
CLUSTERS
  0
POLYLINE
  5
128
  8
CLUSTERS
 66
     1
 10
0.0
 20
0.0
 30
0.0
 70
   129
  0
VERTEX
  5
646
  8
CLUSTERS
 10
739278.04752399994
 20
4566977.6951699993
 30
0.0
  0
VERTEX
  5
647
  8
CLUSTERS
 10
739370.37037000014
 20
4567068.05865
 30
0.0
  0
VERTEX
  5
648
  8
CLUSTERS
 10
739470.89947100007
 20
4567064.7821700014
 30
0.0
  0
VERTEX
  5
649
  8
CLUSTERS
 10
739469.25988164369
 20
4567005.5960896863
 30
0.0
  0
VERTEX
  5
64A
  8
CLUSTERS
 10
739470.89947100007
 20
4566885.8913500002
 30
0.0
  0
VERTEX
  5
64B
  8
CLUSTERS
 10
739370.37037000014
 20
4566883.2509599999
 30
0.0
  0
VERTEX
  5
64C
  8
CLUSTERS
 10
739278.04752399994
 20
4566977.6951699993
 30
0.0
  0
SEQEND
  5
64D
  8
CLUSTERS
  0
POLYLINE
  5
129
  8
CLUSTERS
 66
     1
 10
0.0
 20
0.0
 30
0.0
 70
   129
  0
VERTEX
  5
64E
  8
CLUSTERS
 10
738799.59226499998
 20
4566877.3234200003
 30
0.0
  0
VERTEX
  5
64F
  8
CLUSTERS
 10
738769.87075800018
 20
4566977.6951699993
 30
0.0
  0
VERTEX
  5
650
  8
CLUSTERS
 10
738771.06568800018
 20
4567078.0669099996
 30
0.0
  0
VERTEX
  5
651
  8
CLUSTERS
 10
738867.72486800014
 20
4567174.2264400003
 30
0.0
  0
VERTEX
  5
652
  8
CLUSTERS
 10
738876.22738900012
 20
4567178.4386600005
 30
0.0
  0
VERTEX
  5
653
  8
CLUSTERS
 10
738980.86451610923
 20
4567205.0458132187
 30
0.0
  0
VERTEX
  5
654
  8
CLUSTERS
 10
739062.85326100013
 20
4567178.4386600005
 30
0.0
  0
VERTEX
  5
655
  8
CLUSTERS
 10
739068.783069
 20
4567147.0667300001
 30
0.0
  0
VERTEX
  5
656
  8
CLUSTERS
 10
739091.14734889404
 20
4567100.0722711449
 30
0.0
  0
VERTEX
  5
657
  8
CLUSTERS
 10
739068.783069
 20
4567021.6771000009
 30
0.0
  0
VERTEX
  5
658
  8
CLUSTERS
 10
739047.90641399985
 20
4566977.6951699993
 30
0.0
  0
VERTEX
  5
659
  8
CLUSTERS
 10
739038.17555299995
 20
4566877.3234200003
 30
0.0
  0
VERTEX
  5
65A
  8
CLUSTERS
 10
738933.60048171366
 20
4566764.1569877649
 30
0.0
  0
VERTEX
  5
65B
  8
CLUSTERS
 10
738807.56288493564
 20
4566769.4056360377
 30
0.0
  0
VERTEX
  5
65C
  8
CLUSTERS
 10
738799.59226499998
 20
4566877.3234200003
 30
0.0
  0
SEQEND
  5
65D
  8
CLUSTERS
  0
POLYLINE
  5
12A
  8
CLUSTERS
 66
     1
 10
0.0
 20
0.0
 30
0.0
 70
   129
  0
VERTEX
  5
65E
  8
CLUSTERS
 10
740256.99434633728
 20
4566680.1781669203
 30
0.0
  0
VERTEX
  5
65F
  8
CLUSTERS
 10
740337.25024199986
 20
4566776.9516700003
 30
0.0
  0
VERTEX
  5
660
  8
CLUSTERS
 10
740375.66137600015
 20
4566813.5743900007
 30
0.0
  0
VERTEX
  5
661
  8
CLUSTERS
 10
740412.418909
 20
4566776.9516700003
 30
0.0
  0
VERTEX
  5
662
  8
CLUSTERS
 10
740439.1864619999
 20
4566676.57993
 30
0.0
  0
VERTEX
  5
663
  8
CLUSTERS
 10
740375.66137600015
 20
4566610.5308600003
 30
0.0
  0
VERTEX
  5
664
  8
CLUSTERS
 10
740256.99434633728
 20
4566680.1781669203
 30
0.0
  0
SEQEND
  5
665
  8
CLUSTERS
  0
POLYLINE
  5
12B
  8
CLUSTERS
 66
     1
 10
0.0
 20
0.0
 30
0.0
 70
   129
  0
VERTEX
  5
666
  8
CLUSTERS
 10
739521.77554696775
 20
4566727.4162576487
 30
0.0
  0
VERTEX
  5
667
  8
CLUSTERS
 10
739569.03958136344
 20
4566800.897717881
 30
0.0
  0
VERTEX
  5
668
  8
CLUSTERS
 10
739616.30361575924
 20
4566863.8818174964
 30
0.0
  0
VERTEX
  5
669
  8
CLUSTERS
 10
739671.95767199993
 20
4566877.2412799997
 30
0.0
  0
VERTEX
  5
66A
  8
CLUSTERS
 10
739772.47370399989
 20
4566776.9516700003
 30
0.0
  0
VERTEX
  5
66B
  8
CLUSTERS
 10
739737.08958160854
 20
4566722.1675453084
 30
0.0
  0
VERTEX
  5
66C
  8
CLUSTERS
 10
739642.56151281728
 20
4566680.1781669203
 30
0.0
  0
VERTEX
  5
66D
  8
CLUSTERS
 10
739569.03958136344
 20
4566695.9241758063
 30
0.0
  0
VERTEX
  5
66E
  8
CLUSTERS
 10
739521.77554696775
 20
4566727.4162576487
 30
0.0
  0
SEQEND
  5
66F
  8
CLUSTERS
  0
POLYLINE
  5
12C
  8
CLUSTERS
 66
     1
 10
0.0
 20
0.0
 30
0.0
 70
   129
  0
VERTEX
  5
670
  8
CLUSTERS
 10
740122.54198208952
 20
4566247.7439949578
 30
0.0
  0
VERTEX
  5
671
  8
CLUSTERS
 10
740188.76693361613
 20
4566354.3811487732
 30
0.0
  0
VERTEX
  5
672
  8
CLUSTERS
 10
740266.02937706362
 20
4566269.8068720428
 30
0.0
  0
VERTEX
  5
673
  8
CLUSTERS
 10
740203.48363244149
 20
4566207.2954723956
 30
0.0
  0
VERTEX
  5
674
  8
CLUSTERS
 10
740122.54198208952
 20
4566247.7439949578
 30
0.0
  0
SEQEND
  5
675
  8
CLUSTERS
  0
POLYLINE
  5
12D
  8
CLUSTERS
 66
     1
 10
0.0
 20
0.0
 30
0.0
 70
   129
  0
VERTEX
  5
676
  8
CLUSTERS
 10
740753.92660100025
 20
4566174.72119
 30
0.0
  0
VERTEX
  5
677
  8
CLUSTERS
 10
740731.15242299996
 20
4566275.092939999
 30
0.0
  0
VERTEX
  5
678
  8
CLUSTERS
 10
740777.77777800011
 20
4566324.36479
 30
0.0
  0
VERTEX
  5
679
  8
CLUSTERS
 10
740878.30687800003
 20
4566373.5571900001
 30
0.0
  0
VERTEX
  5
67A
  8
CLUSTERS
 10
740978.83597899985
 20
4566373.8780100001
 30
0.0
  0
VERTEX
  5
67B
  8
CLUSTERS
 10
741077.64583800023
 20
4566275.092939999
 30
0.0
  0
VERTEX
  5
67C
  8
CLUSTERS
 10
741071.05535600008
 20
4566174.72119
 30
0.0
  0
VERTEX
  5
67D
  8
CLUSTERS
 10
740978.83597899985
 20
4566080.0185899986
 30
0.0
  0
VERTEX
  5
67E
  8
CLUSTERS
 10
740878.30687800003
 20
4566075.4377199998
 30
0.0
  0
VERTEX
  5
67F
  8
CLUSTERS
 10
740777.77777800011
 20
4566146.1595000001
 30
0.0
  0
VERTEX
  5
680
  8
CLUSTERS
 10
740753.92660100025
 20
4566174.72119
 30
0.0
  0
SEQEND
  5
681
  8
CLUSTERS
  0
POLYLINE
  5
12E
  8
CLUSTERS
 66
     1
 10
0.0
 20
0.0
 30
0.0
 70
   129
  0
VERTEX
  5
682
  8
CLUSTERS
 10
741101.19981374603
 20
4565784.424024676
 30
0.0
  0
VERTEX
  5
683
  8
CLUSTERS
 10
741179.89417999994
 20
4565905.4090700001
 30
0.0
  0
VERTEX
  5
684
  8
CLUSTERS
 10
741263.57404100022
 20
4565973.9776999988
 30
0.0
  0
VERTEX
  5
685
  8
CLUSTERS
 10
741280.4232800001
 20
4565989.5028399993
 30
0.0
  0
VERTEX
  5
686
  8
CLUSTERS
 10
741295.89258800005
 20
4565973.9776999988
 30
0.0
  0
VERTEX
  5
687
  8
CLUSTERS
 10
741280.4232800001
 20
4565944.3424399989
 30
0.0
  0
VERTEX
  5
688
  8
CLUSTERS
 10
741277.79981327534
 20
4565861.6440303996
 30
0.0
  0
VERTEX
  5
689
  8
CLUSTERS
 10
741160.06648025569
 20
4565747.652605582
 30
0.0
  0
VERTEX
  5
68A
  8
CLUSTERS
 10
741101.19981374603
 20
4565784.424024676
 30
0.0
  0
SEQEND
  5
68B
  8
CLUSTERS
  0
POLYLINE
  5
12F
  8
CLUSTERS
 66
     1
 10
0.0
 20
0.0
 30
0.0
 70
   129
  0
VERTEX
  5
68C
  8
CLUSTERS
 10
740605.83763800014
 20
4565873.6059499998
 30
0.0
  0
VERTEX
  5
68D
  8
CLUSTERS
 10
740677.24867699994
 20
4565942.5584800001
 30
0.0
  0
VERTEX
  5
68E
  8
CLUSTERS
 10
740777.77777800011
 20
4565946.7410899997
 30
0.0
  0
VERTEX
  5
68F
  8
CLUSTERS
 10
740850.41130899999
 20
4565873.6059499998
 30
0.0
  0
VERTEX
  5
690
  8
CLUSTERS
 10
740777.77777800011
 20
4565798.6501200004
 30
0.0
  0
VERTEX
  5
691
  8
CLUSTERS
 10
740677.24867699994
 20
4565802.0666799992
 30
0.0
  0
VERTEX
  5
692
  8
CLUSTERS
 10
740605.83763800014
 20
4565873.6059499998
 30
0.0
  0
SEQEND
  5
693
  8
CLUSTERS
  0
POLYLINE
  5
130
  8
CLUSTERS
 66
     1
 10
0.0
 20
0.0
 30
0.0
 70
   129
  0
VERTEX
  5
694
  8
CLUSTERS
 10
738087.96361774486
 20
4565799.1325666849
 30
0.0
  0
VERTEX
  5
695
  8
CLUSTERS
 10
738164.02116400003
 20
4565830.3189000003
 30
0.0
  0
VERTEX
  5
696
  8
CLUSTERS
 10
738221.33191499999
 20
4565773.2341999998
 30
0.0
  0
VERTEX
  5
697
  8
CLUSTERS
 10
738124.75530041265
 20
4565729.2668960346
 30
0.0
  0
VERTEX
  5
698
  8
CLUSTERS
 10
738087.96361774486
 20
4565799.1325666849
 30
0.0
  0
SEQEND
  5
699
  8
CLUSTERS
  0
POLYLINE
  5
131
  8
CLUSTERS
 66
     1
 10
0.0
 20
0.0
 30
0.0
 70
   129
  0
VERTEX
  5
69A
  8
CLUSTERS
 10
738165.22606119246
 20
4565644.6926193032
 30
0.0
  0
VERTEX
  5
69B
  8
CLUSTERS
 10
738216.73444268573
 20
4565685.1411418654
 30
0.0
  0
VERTEX
  5
69C
  8
CLUSTERS
 10
738290.31767922884
 20
4565574.8268845826
 30
0.0
  0
VERTEX
  5
69D
  8
CLUSTERS
 10
738235.13021962345
 20
4565512.3154849373
 30
0.0
  0
VERTEX
  5
69E
  8
CLUSTERS
 10
738165.22606119246
 20
4565644.6926193032
 30
0.0
  0
SEQEND
  5
69F
  8
CLUSTERS
  0
POLYLINE
  5
132
  8
CLUSTERS
 66
     1
 10
0.0
 20
0.0
 30
0.0
 70
   129
  0
VERTEX
  5
6A0
  8
CLUSTERS
 10
736795.08971199999
 20
4565572.4907100014
 30
0.0
  0
VERTEX
  5
6A1
  8
CLUSTERS
 10
736840.30105500005
 20
4565672.862449999
 30
0.0
  0
VERTEX
  5
6A2
  8
CLUSTERS
 10
736851.76413620694
 20
4565721.9126250288
 30
0.0
  0
VERTEX
  5
6A3
  8
CLUSTERS
 10
736957.67195800005
 20
4565754.7767100008
 30
0.0
  0
VERTEX
  5
6A4
  8
CLUSTERS
 10
737035.62407300004
 20
4565672.862449999
 30
0.0
  0
VERTEX
  5
6A5
  8
CLUSTERS
 10
737058.20105799998
 20
4565661.606639999
 30
0.0
  0
VERTEX
  5
6A6
  8
CLUSTERS
 10
737147.39496700012
 20
4565572.4907100014
 30
0.0
  0
VERTEX
  5
6A7
  8
CLUSTERS
 10
737058.20105799998
 20
4565482.8202799987
 30
0.0
  0
VERTEX
  5
6A8
  8
CLUSTERS
 10
736957.67195800005
 20
4565484.1813300001
 30
0.0
  0
VERTEX
  5
6A9
  8
CLUSTERS
 10
736833.36835926923
 20
4565475.5440017739
 30
0.0
  0
VERTEX
  5
6AA
  8
CLUSTERS
 10
736795.08971199999
 20
4565572.4907100014
 30
0.0
  0
SEQEND
  5
6AB
  8
CLUSTERS
  0
POLYLINE
  5
133
  8
CLUSTERS
 66
     1
 10
0.0
 20
0.0
 30
0.0
 70
   129
  0
VERTEX
  5
6AC
  8
CLUSTERS
 10
736259.41852178844
 20
4565519.6697559422
 30
0.0
  0
VERTEX
  5
6AD
  8
CLUSTERS
 10
736354.49735399976
 20
4565653.2872099988
 30
0.0
  0
VERTEX
  5
6AE
  8
CLUSTERS
 10
736435.48669799999
 20
4565572.4907100014
 30
0.0
  0
VERTEX
  5
6AF
  8
CLUSTERS
 10
736333.0018871238
 20
4565460.8354597641
 30
0.0
  0
VERTEX
  5
6B0
  8
CLUSTERS
 10
736259.41852178844
 20
4565519.6697559422
 30
0.0
  0
SEQEND
  5
6B1
  8
CLUSTERS
  0
POLYLINE
  5
134
  8
CLUSTERS
 66
     1
 10
0.0
 20
0.0
 30
0.0
 70
   129
  0
VERTEX
  5
6B2
  8
CLUSTERS
 10
740694.32011800003
 20
4565371.7472099997
 30
0.0
  0
VERTEX
  5
6B3
  8
CLUSTERS
 10
740677.24867699994
 20
4565428.7304800004
 30
0.0
  0
VERTEX
  5
6B4
  8
CLUSTERS
 10
740576.71957700001
 20
4565432.3438499998
 30
0.0
  0
VERTEX
  5
6B5
  8
CLUSTERS
 10
740537.07496899995
 20
4565472.1189599996
 30
0.0
  0
VERTEX
  5
6B6
  8
CLUSTERS
 10
740586.11677156715
 20
4565530.7011944838
 30
0.0
  0
VERTEX
  5
6B7
  8
CLUSTERS
 10
740677.24867699994
 20
4565515.6288700001
 30
0.0
  0
VERTEX
  5
6B8
  8
CLUSTERS
 10
740714.43041000003
 20
4565472.1189599996
 30
0.0
  0
VERTEX
  5
6B9
  8
CLUSTERS
 10
740777.77777800011
 20
4565451.0701000011
 30
0.0
  0
VERTEX
  5
6BA
  8
CLUSTERS
 10
740825.26251571893
 20
4565365.2297444912
 30
0.0
  0
VERTEX
  5
6BB
  8
CLUSTERS
 10
740718.56667462026
 20
4565302.7183448439
 30
0.0
  0
VERTEX
  5
6BC
  8
CLUSTERS
 10
740694.32011800003
 20
4565371.7472099997
 30
0.0
  0
SEQEND
  5
6BD
  8
CLUSTERS
  0
POLYLINE
  5
135
  8
CLUSTERS
 66
     1
 10
0.0
 20
0.0
 30
0.0
 70
   129
  0
VERTEX
  5
6BE
  8
CLUSTERS
 10
741783.99646899989
 20
4565271.3754599998
 30
0.0
  0
VERTEX
  5
6BF
  8
CLUSTERS
 10
741802.67793500004
 20
4565371.7472099997
 30
0.0
  0
VERTEX
  5
6C0
  8
CLUSTERS
 10
741883.59788399993
 20
4565444.5058700014
 30
0.0
  0
VERTEX
  5
6C1
  8
CLUSTERS
 10
741984.12698399986
 20
4565403.9419600004
 30
0.0
  0
VERTEX
  5
6C2
  8
CLUSTERS
 10
742016.28636199993
 20
4565371.7472099997
 30
0.0
  0
VERTEX
  5
6C3
  8
CLUSTERS
 10
742059.09057399991
 20
4565271.3754599998
 30
0.0
  0
VERTEX
  5
6C4
  8
CLUSTERS
 10
741984.12698399986
 20
4565192.9384599999
 30
0.0
  0
VERTEX
  5
6C5
  8
CLUSTERS
 10
741883.59788399993
 20
4565177.2537599988
 30
0.0
  0
VERTEX
  5
6C6
  8
CLUSTERS
 10
741783.99646899989
 20
4565271.3754599998
 30
0.0
  0
SEQEND
  5
6C7
  8
CLUSTERS
  0
POLYLINE
  5
136
  8
CLUSTERS
 66
     1
 10
0.0
 20
0.0
 30
0.0
 70
   129
  0
VERTEX
  5
6C8
  8
CLUSTERS
 10
737085.03666700004
 20
4565271.3754599998
 30
0.0
  0
VERTEX
  5
6C9
  8
CLUSTERS
 10
737158.73015900003
 20
4565354.4294699999
 30
0.0
  0
VERTEX
  5
6CA
  8
CLUSTERS
 10
737232.20806800004
 20
4565271.3754599998
 30
0.0
  0
VERTEX
  5
6CB
  8
CLUSTERS
 10
737158.73015900003
 20
4565197.5738899987
 30
0.0
  0
VERTEX
  5
6CC
  8
CLUSTERS
 10
737085.03666700004
 20
4565271.3754599998
 30
0.0
  0
SEQEND
  5
6CD
  8
CLUSTERS
  0
POLYLINE
  5
137
  8
CLUSTERS
 66
     1
 10
0.0
 20
0.0
 30
0.0
 70
   129
  0
VERTEX
  5
6CE
  8
CLUSTERS
 10
740637.62502426829
 20
4565177.6954814829
 30
0.0
  0
VERTEX
  5
6CF
  8
CLUSTERS
 10
740685.45419885695
 20
4565214.4669005768
 30
0.0
  0
VERTEX
  5
6D0
  8
CLUSTERS
 10
740777.77777800011
 20
4565205.4041999988
 30
0.0
  0
VERTEX
  5
6D1
  8
CLUSTERS
 10
740808.75210799999
 20
4565171.0037200004
 30
0.0
  0
VERTEX
  5
6D2
  8
CLUSTERS
 10
740777.77777800011
 20
4565139.2972200001
 30
0.0
  0
VERTEX
  5
6D3
  8
CLUSTERS
 10
740674.41670693585
 20
4565126.2154563088
 30
0.0
  0
VERTEX
  5
6D4
  8
CLUSTERS
 10
740637.62502426829
 20
4565177.6954814829
 30
0.0
  0
SEQEND
  5
6D5
  8
CLUSTERS
  0
POLYLINE
  5
138
  8
CLUSTERS
 66
     1
 10
0.0
 20
0.0
 30
0.0
 70
   129
  0
VERTEX
  5
6D6
  8
CLUSTERS
 10
740359.63324876747
 20
4565166.5768901249
 30
0.0
  0
VERTEX
  5
6D7
  8
CLUSTERS
 10
740427.91267776769
 20
4565232.8526101243
 30
0.0
  0
VERTEX
  5
6D8
  8
CLUSTERS
 10
740495.26980876748
 20
4565166.5768901249
 30
0.0
  0
VERTEX
  5
6D9
  8
CLUSTERS
 10
740427.91267776769
 20
4565098.9593801247
 30
0.0
  0
VERTEX
  5
6DA
  8
CLUSTERS
 10
740359.63324876747
 20
4565166.5768901249
 30
0.0
  0
SEQEND
  5
6DB
  8
CLUSTERS
  0
POLYLINE
  5
139
  8
CLUSTERS
 66
     1
 10
0.0
 20
0.0
 30
0.0
 70
   129
  0
VERTEX
  5
6DC
  8
CLUSTERS
 10
741285.55946300016
 20
4565070.6319700014
 30
0.0
  0
VERTEX
  5
6DD
  8
CLUSTERS
 10
741311.92960999988
 20
4565171.0037200004
 30
0.0
  0
VERTEX
  5
6DE
  8
CLUSTERS
 10
741380.95238100016
 20
4565238.2820800012
 30
0.0
  0
VERTEX
  5
6DF
  8
CLUSTERS
 10
741481.48148099997
 20
4565266.9482300002
 30
0.0
  0
VERTEX
  5
6E0
  8
CLUSTERS
 10
741582.0105819999
 20
4565267.6797200004
 30
0.0
  0
VERTEX
  5
6E1
  8
CLUSTERS
 10
741678.61684100004
 20
4565171.0037200004
 30
0.0
  0
VERTEX
  5
6E2
  8
CLUSTERS
 10
741582.0105819999
 20
4565071.0916300006
 30
0.0
  0
VERTEX
  5
6E3
  8
CLUSTERS
 10
741576.22222899995
 20
4565070.6319700014
 30
0.0
  0
VERTEX
  5
6E4
  8
CLUSTERS
 10
741481.48148099997
 20
4565006.3702299995
 30
0.0
  0
VERTEX
  5
6E5
  8
CLUSTERS
 10
741380.95238100016
 20
4564978.3239300009
 30
0.0
  0
VERTEX
  5
6E6
  8
CLUSTERS
 10
741285.55946300016
 20
4565070.6319700014
 30
0.0
  0
SEQEND
  5
6E7
  8
CLUSTERS
  0
POLYLINE
  5
13A
  8
CLUSTERS
 66
     1
 10
0.0
 20
0.0
 30
0.0
 70
   129
  0
VERTEX
  5
6E8
  8
CLUSTERS
 10
739107.09233897331
 20
4564993.8383219428
 30
0.0
  0
VERTEX
  5
6E9
  8
CLUSTERS
 10
739070.30078509764
 20
4565012.2240314903
 30
0.0
  0
VERTEX
  5
6EA
  8
CLUSTERS
 10
739011.43411858799
 20
4565015.9011990279
 30
0.0
  0
VERTEX
  5
6EB
  8
CLUSTERS
 10
738867.94659482164
 20
4565026.932573501
 30
0.0
  0
VERTEX
  5
6EC
  8
CLUSTERS
 10
738764.92996062769
 20
4565015.9011990279
 30
0.0
  0
VERTEX
  5
6ED
  8
CLUSTERS
 10
738666.66666700004
 20
4565023.7214199994
 30
0.0
  0
VERTEX
  5
6EE
  8
CLUSTERS
 10
738562.57589914359
 20
4565012.2240314903
 30
0.0
  0
VERTEX
  5
6EF
  8
CLUSTERS
 10
738525.78434526816
 20
4565067.3811601307
 30
0.0
  0
VERTEX
  5
6F0
  8
CLUSTERS
 10
738566.13756600011
 20
4565156.1300299997
 30
0.0
  0
VERTEX
  5
6F1
  8
CLUSTERS
 10
738566.13756600011
 20
4565327.8232300002
 30
0.0
  0
VERTEX
  5
6F2
  8
CLUSTERS
 10
738525.77876000002
 20
4565371.7472099997
 30
0.0
  0
VERTEX
  5
6F3
  8
CLUSTERS
 10
738477.68955100002
 20
4565472.1189599996
 30
0.0
  0
VERTEX
  5
6F4
  8
CLUSTERS
 10
738566.13756600011
 20
4565571.5866200002
 30
0.0
  0
VERTEX
  5
6F5
  8
CLUSTERS
 10
738568.27372799988
 20
4565572.4907100014
 30
0.0
  0
VERTEX
  5
6F6
  8
CLUSTERS
 10
738566.13756600011
 20
4565573.4619500004
 30
0.0
  0
VERTEX
  5
6F7
  8
CLUSTERS
 10
738478.80422399996
 20
4565672.862449999
 30
0.0
  0
VERTEX
  5
6F8
  8
CLUSTERS
 10
738566.13756600011
 20
4565759.6946400004
 30
0.0
  0
VERTEX
  5
6F9
  8
CLUSTERS
 10
738665.86106699996
 20
4565773.2341999998
 30
0.0
  0
VERTEX
  5
6FA
  8
CLUSTERS
 10
738666.66666700004
 20
4565774.0243699988
 30
0.0
  0
VERTEX
  5
6FB
  8
CLUSTERS
 10
738767.19576699997
 20
4565868.6077199997
 30
0.0
  0
VERTEX
  5
6FC
  8
CLUSTERS
 10
738788.844851
 20
4565873.6059499998
 30
0.0
  0
VERTEX
  5
6FD
  8
CLUSTERS
 10
738867.72486800014
 20
4565950.3814300001
 30
0.0
  0
VERTEX
  5
6FE
  8
CLUSTERS
 10
738945.06863200001
 20
4565873.6059499998
 30
0.0
  0
VERTEX
  5
6FF
  8
CLUSTERS
 10
738876.480171
 20
4565773.2341999998
 30
0.0
  0
VERTEX
  5
700
  8
CLUSTERS
 10
738968.25396799995
 20
4565768.5072699999
 30
0.0
  0
VERTEX
  5
701
  8
CLUSTERS
 10
739068.783069
 20
4565768.7166400002
 30
0.0
  0
VERTEX
  5
702
  8
CLUSTERS
 10
739169.31216900004
 20
4565771.7742799986
 30
0.0
  0
VERTEX
  5
703
  8
CLUSTERS
 10
739268.50543300004
 20
4565672.862449999
 30
0.0
  0
VERTEX
  5
704
  8
CLUSTERS
 10
739269.311842
 20
4565572.4907100014
 30
0.0
  0
VERTEX
  5
705
  8
CLUSTERS
 10
739223.59495899989
 20
4565472.1189599996
 30
0.0
  0
VERTEX
  5
706
  8
CLUSTERS
 10
739169.31216900004
 20
4565419.8323799996
 30
0.0
  0
VERTEX
  5
707
  8
CLUSTERS
 10
739150.06502199988
 20
4565371.7472099997
 30
0.0
  0
VERTEX
  5
708
  8
CLUSTERS
 10
739169.31216900004
 20
4565317.1167200003
 30
0.0
  0
VERTEX
  5
709
  8
CLUSTERS
 10
739212.11854199995
 20
4565271.3754599998
 30
0.0
  0
VERTEX
  5
70A
  8
CLUSTERS
 10
739263.92104899988
 20
4565171.0037200004
 30
0.0
  0
VERTEX
  5
70B
  8
CLUSTERS
 10
739268.043649
 20
4565070.6319700014
 30
0.0
  0
VERTEX
  5
70C
  8
CLUSTERS
 10
739265.55078799999
 20
4564970.2602199987
 30
0.0
  0
VERTEX
  5
70D
  8
CLUSTERS
 10
739162.27979857882
 20
4564938.6811933033
 30
0.0
  0
VERTEX
  5
70E
  8
CLUSTERS
 10
739107.09233897331
 20
4564993.8383219428
 30
0.0
  0
SEQEND
  5
70F
  8
CLUSTERS
  0
POLYLINE
  5
13B
  8
CLUSTERS
 66
     1
 10
0.0
 20
0.0
 30
0.0
 70
   129
  0
VERTEX
  5
710
  8
CLUSTERS
 10
740350.65023432008
 20
4564883.5240005907
 30
0.0
  0
VERTEX
  5
711
  8
CLUSTERS
 10
740375.66137600015
 20
4564919.0435199989
 30
0.0
  0
VERTEX
  5
712
  8
CLUSTERS
 10
740435.27096278418
 20
4564879.8468971243
 30
0.0
  0
VERTEX
  5
713
  8
CLUSTERS
 10
740402.15848702111
 20
4564835.7211429561
 30
0.0
  0
VERTEX
  5
714
  8
CLUSTERS
 10
740350.65023432008
 20
4564883.5240005907
 30
0.0
  0
SEQEND
  5
715
  8
CLUSTERS
  0
POLYLINE
  5
13C
  8
CLUSTERS
 66
     1
 10
0.0
 20
0.0
 30
0.0
 70
   129
  0
VERTEX
  5
716
  8
CLUSTERS
 10
737285.25165899994
 20
4564869.8884799993
 30
0.0
  0
VERTEX
  5
717
  8
CLUSTERS
 10
737359.78836000001
 20
4564955.6987500004
 30
0.0
  0
VERTEX
  5
718
  8
CLUSTERS
 10
737364.28873499995
 20
4564970.2602199987
 30
0.0
  0
VERTEX
  5
719
  8
CLUSTERS
 10
737460.31746000005
 20
4565066.9078299999
 30
0.0
  0
VERTEX
  5
71A
  8
CLUSTERS
 10
737560.8465610001
 20
4564988.1063000001
 30
0.0
  0
VERTEX
  5
71B
  8
CLUSTERS
 10
737586.01192500012
 20
4565070.6319700014
 30
0.0
  0
VERTEX
  5
71C
  8
CLUSTERS
 10
737661.37566100003
 20
4565145.5200800002
 30
0.0
  0
VERTEX
  5
71D
  8
CLUSTERS
 10
737736.41697699996
 20
4565070.6319700014
 30
0.0
  0
VERTEX
  5
71E
  8
CLUSTERS
 10
737678.76060699997
 20
4564970.2602199987
 30
0.0
  0
VERTEX
  5
71F
  8
CLUSTERS
 10
737661.37566100003
 20
4564952.8177300002
 30
0.0
  0
VERTEX
  5
720
  8
CLUSTERS
 10
737620.70975015487
 20
4564876.9434250109
 30
0.0
  0
VERTEX
  5
721
  8
CLUSTERS
 10
737550.40044100012
 20
4564869.8884799993
 30
0.0
  0
VERTEX
  5
722
  8
CLUSTERS
 10
737460.31746000005
 20
4564781.02049
 30
0.0
  0
VERTEX
  5
723
  8
CLUSTERS
 10
737359.78836000001
 20
4564795.1851199986
 30
0.0
  0
VERTEX
  5
724
  8
CLUSTERS
 10
737285.25165899994
 20
4564869.8884799993
 30
0.0
  0
SEQEND
  5
725
  8
CLUSTERS
  0
POLYLINE
  5
13D
  8
CLUSTERS
 66
     1
 10
0.0
 20
0.0
 30
0.0
 70
   129
  0
VERTEX
  5
726
  8
CLUSTERS
 10
740755.35835728783
 20
4564747.4697627574
 30
0.0
  0
VERTEX
  5
727
  8
CLUSTERS
 10
740770.0750561133
 20
4564854.106916572
 30
0.0
  0
VERTEX
  5
728
  8
CLUSTERS
 10
740878.30687800003
 20
4564886.0378099997
 30
0.0
  0
VERTEX
  5
729
  8
CLUSTERS
 10
740894.55963199993
 20
4564869.8884799993
 30
0.0
  0
VERTEX
  5
72A
  8
CLUSTERS
 10
740967.58028100012
 20
4564769.5167300003
 30
0.0
  0
VERTEX
  5
72B
  8
CLUSTERS
 10
740878.30687800003
 20
4564683.3084299993
 30
0.0
  0
VERTEX
  5
72C
  8
CLUSTERS
 10
740755.35835728783
 20
4564747.4697627574
 30
0.0
  0
SEQEND
  5
72D
  8
CLUSTERS
  0
POLYLINE
  5
13E
  8
CLUSTERS
 66
     1
 10
0.0
 20
0.0
 30
0.0
 70
   129
  0
VERTEX
  5
72E
  8
CLUSTERS
 10
734075.99348199985
 20
4564669.1449800003
 30
0.0
  0
VERTEX
  5
72F
  8
CLUSTERS
 10
734088.42575000005
 20
4564769.5167300003
 30
0.0
  0
VERTEX
  5
730
  8
CLUSTERS
 10
734142.857143
 20
4564823.8279499989
 30
0.0
  0
VERTEX
  5
731
  8
CLUSTERS
 10
734228.56464999996
 20
4564769.5167300003
 30
0.0
  0
VERTEX
  5
732
  8
CLUSTERS
 10
734234.20845699986
 20
4564669.1449800003
 30
0.0
  0
VERTEX
  5
733
  8
CLUSTERS
 10
734142.857143
 20
4564602.2421999993
 30
0.0
  0
VERTEX
  5
734
  8
CLUSTERS
 10
734075.99348199985
 20
4564669.1449800003
 30
0.0
  0
SEQEND
  5
735
  8
CLUSTERS
  0
POLYLINE
  5
13F
  8
CLUSTERS
 66
     1
 10
0.0
 20
0.0
 30
0.0
 70
   129
  0
VERTEX
  5
736
  8
CLUSTERS
 10
737941.04251630686
 20
4564517.3818306327
 30
0.0
  0
VERTEX
  5
737
  8
CLUSTERS
 10
738030.33155330678
 20
4564593.5148806339
 30
0.0
  0
VERTEX
  5
738
  8
CLUSTERS
 10
738106.62173330679
 20
4564517.3818306327
 30
0.0
  0
VERTEX
  5
739
  8
CLUSTERS
 10
738030.33155330678
 20
4564431.8931406336
 30
0.0
  0
VERTEX
  5
73A
  8
CLUSTERS
 10
737941.04251630686
 20
4564517.3818306327
 30
0.0
  0
SEQEND
  5
73B
  8
CLUSTERS
  0
POLYLINE
  5
140
  8
CLUSTERS
 66
     1
 10
0.0
 20
0.0
 30
0.0
 70
   129
  0
VERTEX
  5
73C
  8
CLUSTERS
 10
736665.33685600013
 20
4564568.7732300004
 30
0.0
  0
VERTEX
  5
73D
  8
CLUSTERS
 10
736656.08465600002
 20
4564574.2481399989
 30
0.0
  0
VERTEX
  5
73E
  8
CLUSTERS
 10
736561.31729599996
 20
4564669.1449800003
 30
0.0
  0
VERTEX
  5
73F
  8
CLUSTERS
 10
736555.55555600021
 20
4564691.9817700014
 30
0.0
  0
VERTEX
  5
740
  8
CLUSTERS
 10
736478.708874
 20
4564769.5167300003
 30
0.0
  0
VERTEX
  5
741
  8
CLUSTERS
 10
736462.40675400011
 20
4564869.8884799993
 30
0.0
  0
VERTEX
  5
742
  8
CLUSTERS
 10
736555.55555600021
 20
4564965.5359099992
 30
0.0
  0
VERTEX
  5
743
  8
CLUSTERS
 10
736562.33040600014
 20
4564970.2602199987
 30
0.0
  0
VERTEX
  5
744
  8
CLUSTERS
 10
736656.08465600002
 20
4565060.0645599989
 30
0.0
  0
VERTEX
  5
745
  8
CLUSTERS
 10
736756.61375699996
 20
4564993.7204600014
 30
0.0
  0
VERTEX
  5
746
  8
CLUSTERS
 10
736761.21976399992
 20
4565070.6319700014
 30
0.0
  0
VERTEX
  5
747
  8
CLUSTERS
 10
736857.142857
 20
4565170.1738700001
 30
0.0
  0
VERTEX
  5
748
  8
CLUSTERS
 10
736862.31093399995
 20
4565171.0037200004
 30
0.0
  0
VERTEX
  5
749
  8
CLUSTERS
 10
736957.67195800005
 20
4565246.4118100004
 30
0.0
  0
VERTEX
  5
74A
  8
CLUSTERS
 10
737033.55398300011
 20
4565171.0037200004
 30
0.0
  0
VERTEX
  5
74B
  8
CLUSTERS
 10
737058.20105799998
 20
4565146.4838700006
 30
0.0
  0
VERTEX
  5
74C
  8
CLUSTERS
 10
737133.84484800021
 20
4565070.6319700014
 30
0.0
  0
VERTEX
  5
74D
  8
CLUSTERS
 10
737058.20105799998
 20
4564994.39011
 30
0.0
  0
VERTEX
  5
74E
  8
CLUSTERS
 10
736979.96590000007
 20
4564970.2602199987
 30
0.0
  0
VERTEX
  5
74F
  8
CLUSTERS
 10
736957.67195800005
 20
4564948.5025599999
 30
0.0
  0
VERTEX
  5
750
  8
CLUSTERS
 10
736857.142857
 20
4564912.4785800008
 30
0.0
  0
VERTEX
  5
751
  8
CLUSTERS
 10
736846.05854300002
 20
4564869.8884799993
 30
0.0
  0
VERTEX
  5
752
  8
CLUSTERS
 10
736856.41468399984
 20
4564769.5167300003
 30
0.0
  0
VERTEX
  5
753
  8
CLUSTERS
 10
736857.142857
 20
4564765.5802600002
 30
0.0
  0
VERTEX
  5
754
  8
CLUSTERS
 10
736952.93632800004
 20
4564669.1449800003
 30
0.0
  0
VERTEX
  5
755
  8
CLUSTERS
 10
736904.05965700012
 20
4564568.7732300004
 30
0.0
  0
VERTEX
  5
756
  8
CLUSTERS
 10
736857.142857
 20
4564521.8921600003
 30
0.0
  0
VERTEX
  5
757
  8
CLUSTERS
 10
736756.61375699996
 20
4564478.3038799996
 30
0.0
  0
VERTEX
  5
758
  8
CLUSTERS
 10
736665.33685600013
 20
4564568.7732300004
 30
0.0
  0
SEQEND
  5
759
  8
CLUSTERS
  0
POLYLINE
  5
141
  8
CLUSTERS
 66
     1
 10
0.0
 20
0.0
 30
0.0
 70
   129
  0
VERTEX
  5
75A
  8
CLUSTERS
 10
738243.72123739473
 20
4564408.3069691751
 30
0.0
  0
VERTEX
  5
75B
  8
CLUSTERS
 10
738334.92228339484
 20
4564499.0386991752
 30
0.0
  0
VERTEX
  5
75C
  8
CLUSTERS
 10
738425.81035039469
 20
4564408.3069691751
 30
0.0
  0
VERTEX
  5
75D
  8
CLUSTERS
 10
738334.92228339484
 20
4564317.1485291738
 30
0.0
  0
VERTEX
  5
75E
  8
CLUSTERS
 10
738243.72123739473
 20
4564408.3069691751
 30
0.0
  0
SEQEND
  5
75F
  8
CLUSTERS
  0
POLYLINE
  5
142
  8
CLUSTERS
 66
     1
 10
0.0
 20
0.0
 30
0.0
 70
   129
  0
VERTEX
  5
760
  8
CLUSTERS
 10
733648.55030281225
 20
4564426.3965175049
 30
0.0
  0
VERTEX
  5
761
  8
CLUSTERS
 10
733720.18619281251
 20
4564486.537777504
 30
0.0
  0
VERTEX
  5
762
  8
CLUSTERS
 10
733780.51652981236
 20
4564426.3965175049
 30
0.0
  0
VERTEX
  5
763
  8
CLUSTERS
 10
733720.18619281251
 20
4564366.0893075047
 30
0.0
  0
VERTEX
  5
764
  8
CLUSTERS
 10
733648.55030281225
 20
4564426.3965175049
 30
0.0
  0
SEQEND
  5
765
  8
CLUSTERS
  0
POLYLINE
  5
143
  8
CLUSTERS
 66
     1
 10
0.0
 20
0.0
 30
0.0
 70
   129
  0
VERTEX
  5
766
  8
CLUSTERS
 10
733377.52877900004
 20
4564468.4014900001
 30
0.0
  0
VERTEX
  5
767
  8
CLUSTERS
 10
733380.97456800006
 20
4564568.7732300004
 30
0.0
  0
VERTEX
  5
768
  8
CLUSTERS
 10
733439.1534389999
 20
4564626.8186299996
 30
0.0
  0
VERTEX
  5
769
  8
CLUSTERS
 10
733497.4221020001
 20
4564568.7732300004
 30
0.0
  0
VERTEX
  5
76A
  8
CLUSTERS
 10
733516.55837642646
 20
4564486.537777504
 30
0.0
  0
VERTEX
  5
76B
  8
CLUSTERS
 10
733485.62751181447
 20
4564447.8955480121
 30
0.0
  0
VERTEX
  5
76C
  8
CLUSTERS
 10
733377.52877900004
 20
4564468.4014900001
 30
0.0
  0
SEQEND
  5
76D
  8
CLUSTERS
  0
POLYLINE
  5
144
  8
CLUSTERS
 66
     1
 10
0.0
 20
0.0
 30
0.0
 70
   129
  0
VERTEX
  5
76E
  8
CLUSTERS
 10
739780.03893499996
 20
4564368.0297399992
 30
0.0
  0
VERTEX
  5
76F
  8
CLUSTERS
 10
739810.11339300009
 20
4564468.4014900001
 30
0.0
  0
VERTEX
  5
770
  8
CLUSTERS
 10
739842.92534836591
 20
4564552.5811646748
 30
0.0
  0
VERTEX
  5
771
  8
CLUSTERS
 10
739885.61996500008
 20
4564568.7732300004
 30
0.0
  0
VERTEX
  5
772
  8
CLUSTERS
 10
739973.54497399984
 20
4564647.7179300003
 30
0.0
  0
VERTEX
  5
773
  8
CLUSTERS
 10
740074.07407399989
 20
4564633.6651299987
 30
0.0
  0
VERTEX
  5
774
  8
CLUSTERS
 10
740139.05765199999
 20
4564568.7732300004
 30
0.0
  0
VERTEX
  5
775
  8
CLUSTERS
 10
740074.07407399989
 20
4564502.77434
 30
0.0
  0
VERTEX
  5
776
  8
CLUSTERS
 10
740056.31703056302
 20
4564471.684055482
 30
0.0
  0
VERTEX
  5
777
  8
CLUSTERS
 10
740048.95861675416
 20
4564434.9125723196
 30
0.0
  0
VERTEX
  5
778
  8
CLUSTERS
 10
740052.63782365865
 20
4564401.8183207614
 30
0.0
  0
VERTEX
  5
779
  8
CLUSTERS
 10
740030.56283981644
 20
4564346.6611921201
 30
0.0
  0
VERTEX
  5
77A
  8
CLUSTERS
 10
739973.54497399984
 20
4564280.8028899999
 30
0.0
  0
VERTEX
  5
77B
  8
CLUSTERS
 10
739873.01587300014
 20
4564275.4085300006
 30
0.0
  0
VERTEX
  5
77C
  8
CLUSTERS
 10
739780.03893499996
 20
4564368.0297399992
 30
0.0
  0
SEQEND
  5
77D
  8
CLUSTERS
  0
POLYLINE
  5
145
  8
CLUSTERS
 66
     1
 10
0.0
 20
0.0
 30
0.0
 70
   129
  0
VERTEX
  5
77E
  8
CLUSTERS
 10
732633.2694978643
 20
4564355.9851958277
 30
0.0
  0
VERTEX
  5
77F
  8
CLUSTERS
 10
732684.52419086418
 20
4564407.1507058293
 30
0.0
  0
VERTEX
  5
780
  8
CLUSTERS
 10
732735.94620986446
 20
4564355.9851958277
 30
0.0
  0
VERTEX
  5
781
  8
CLUSTERS
 10
732684.52419086418
 20
4564304.5912458291
 30
0.0
  0
VERTEX
  5
782
  8
CLUSTERS
 10
732633.2694978643
 20
4564355.9851958277
 30
0.0
  0
SEQEND
  5
783
  8
CLUSTERS
  0
POLYLINE
  5
146
  8
CLUSTERS
 66
     1
 10
0.0
 20
0.0
 30
0.0
 70
   129
  0
VERTEX
  5
784
  8
CLUSTERS
 10
734101.57790387946
 20
4564160.0440106224
 30
0.0
  0
VERTEX
  5
785
  8
CLUSTERS
 10
734181.07348587934
 20
4564239.3911606213
 30
0.0
  0
VERTEX
  5
786
  8
CLUSTERS
 10
734264.06819687935
 20
4564160.0440106224
 30
0.0
  0
VERTEX
  5
787
  8
CLUSTERS
 10
734181.07348587934
 20
4564080.5622706199
 30
0.0
  0
VERTEX
  5
788
  8
CLUSTERS
 10
734101.57790387946
 20
4564160.0440106224
 30
0.0
  0
SEQEND
  5
789
  8
CLUSTERS
  0
POLYLINE
  5
147
  8
CLUSTERS
 66
     1
 10
0.0
 20
0.0
 30
0.0
 70
   129
  0
VERTEX
  5
78A
  8
CLUSTERS
 10
731970.84752600023
 20
4564167.2862499999
 30
0.0
  0
VERTEX
  5
78B
  8
CLUSTERS
 10
732031.74603200005
 20
4564228.0804000003
 30
0.0
  0
VERTEX
  5
78C
  8
CLUSTERS
 10
732092.97371800011
 20
4564167.2862499999
 30
0.0
  0
VERTEX
  5
78D
  8
CLUSTERS
 10
731990.06577379291
 20
4564058.1498737214
 30
0.0
  0
VERTEX
  5
78E
  8
CLUSTERS
 10
731970.84752600023
 20
4564167.2862499999
 30
0.0
  0
SEQEND
  5
78F
  8
CLUSTERS
  0
POLYLINE
  5
148
  8
CLUSTERS
 66
     1
 10
0.0
 20
0.0
 30
0.0
 70
   129
  0
VERTEX
  5
790
  8
CLUSTERS
 10
737704.46016699995
 20
4564066.9145
 30
0.0
  0
VERTEX
  5
791
  8
CLUSTERS
 10
737665.96123399993
 20
4564167.2862499999
 30
0.0
  0
VERTEX
  5
792
  8
CLUSTERS
 10
737761.90476199996
 20
4564259.9899000004
 30
0.0
  0
VERTEX
  5
793
  8
CLUSTERS
 10
737862.43386199989
 20
4564258.3857899997
 30
0.0
  0
VERTEX
  5
794
  8
CLUSTERS
 10
737953.66854800005
 20
4564167.2862499999
 30
0.0
  0
VERTEX
  5
795
  8
CLUSTERS
 10
737862.43386199989
 20
4564075.8891500002
 30
0.0
  0
VERTEX
  5
796
  8
CLUSTERS
 10
737820.17155100009
 20
4564066.9145
 30
0.0
  0
VERTEX
  5
797
  8
CLUSTERS
 10
737761.90476199996
 20
4564009.7506900001
 30
0.0
  0
VERTEX
  5
798
  8
CLUSTERS
 10
737704.46016699995
 20
4564066.9145
 30
0.0
  0
SEQEND
  5
799
  8
CLUSTERS
  0
POLYLINE
  5
149
  8
CLUSTERS
 66
     1
 10
0.0
 20
0.0
 30
0.0
 70
   129
  0
VERTEX
  5
79A
  8
CLUSTERS
 10
735870.98061434762
 20
4563866.1211168654
 30
0.0
  0
VERTEX
  5
79B
  8
CLUSTERS
 10
735915.46102534747
 20
4563910.504086866
 30
0.0
  0
VERTEX
  5
79C
  8
CLUSTERS
 10
735959.92216734739
 20
4563866.1211168654
 30
0.0
  0
VERTEX
  5
79D
  8
CLUSTERS
 10
735915.46102534747
 20
4563821.6844768664
 30
0.0
  0
VERTEX
  5
79E
  8
CLUSTERS
 10
735870.98061434762
 20
4563866.1211168654
 30
0.0
  0
SEQEND
  5
79F
  8
CLUSTERS
  0
POLYLINE
  5
14A
  8
CLUSTERS
 66
     1
 10
0.0
 20
0.0
 30
0.0
 70
   129
  0
VERTEX
  5
7A0
  8
CLUSTERS
 10
733082.29791600001
 20
4563866.1709999992
 30
0.0
  0
VERTEX
  5
7A1
  8
CLUSTERS
 10
733046.69019300013
 20
4563966.54275
 30
0.0
  0
VERTEX
  5
7A2
  8
CLUSTERS
 10
733100.01797799999
 20
4564066.9145
 30
0.0
  0
VERTEX
  5
7A3
  8
CLUSTERS
 10
733137.56613799999
 20
4564104.5662700003
 30
0.0
  0
VERTEX
  5
7A4
  8
CLUSTERS
 10
733179.34470974433
 20
4564124.9692627937
 30
0.0
  0
VERTEX
  5
7A5
  8
CLUSTERS
 10
733182.2340340591
 20
4564165.3970270501
 30
0.0
  0
VERTEX
  5
7A6
  8
CLUSTERS
 10
733069.55180250539
 20
4564191.3862994937
 30
0.0
  0
VERTEX
  5
7A7
  8
CLUSTERS
 10
733090.00764700002
 20
4564267.6579900002
 30
0.0
  0
VERTEX
  5
7A8
  8
CLUSTERS
 10
733137.56613799999
 20
4564320.6878300002
 30
0.0
  0
VERTEX
  5
7A9
  8
CLUSTERS
 10
733226.2690300002
 20
4564368.0297399992
 30
0.0
  0
VERTEX
  5
7AA
  8
CLUSTERS
 10
733238.09523800015
 20
4564377.7114799982
 30
0.0
  0
VERTEX
  5
7AB
  8
CLUSTERS
 10
733247.83654000005
 20
4564368.0297399992
 30
0.0
  0
VERTEX
  5
7AC
  8
CLUSTERS
 10
733338.62433899986
 20
4564274.5359299993
 30
0.0
  0
VERTEX
  5
7AD
  8
CLUSTERS
 10
733349.64902000013
 20
4564267.6579900002
 30
0.0
  0
VERTEX
  5
7AE
  8
CLUSTERS
 10
733439.1534389999
 20
4564259.0519599998
 30
0.0
  0
VERTEX
  5
7AF
  8
CLUSTERS
 10
733526.19648299995
 20
4564167.2862499999
 30
0.0
  0
VERTEX
  5
7B0
  8
CLUSTERS
 10
733439.1534389999
 20
4564080.2945100004
 30
0.0
  0
VERTEX
  5
7B1
  8
CLUSTERS
 10
733338.62433899986
 20
4564134.4808599986
 30
0.0
  0
VERTEX
  5
7B2
  8
CLUSTERS
 10
733255.04839999985
 20
4564066.9145
 30
0.0
  0
VERTEX
  5
7B3
  8
CLUSTERS
 10
733338.62433899986
 20
4563983.1318899998
 30
0.0
  0
VERTEX
  5
7B4
  8
CLUSTERS
 10
733439.1534389999
 20
4563993.1591899991
 30
0.0
  0
VERTEX
  5
7B5
  8
CLUSTERS
 10
733447.37094661337
 20
4563964.2968899589
 30
0.0
  0
VERTEX
  5
7B6
  8
CLUSTERS
 10
733440.14763582696
 20
4563913.7621365888
 30
0.0
  0
VERTEX
  5
7B7
  8
CLUSTERS
 10
733404.03159706376
 20
4563888.494791938
 30
0.0
  0
VERTEX
  5
7B8
  8
CLUSTERS
 10
733238.09523800015
 20
4563948.0279400004
 30
0.0
  0
VERTEX
  5
7B9
  8
CLUSTERS
 10
733193.09614100005
 20
4563866.1709999992
 30
0.0
  0
VERTEX
  5
7BA
  8
CLUSTERS
 10
733137.56613799999
 20
4563810.9237500001
 30
0.0
  0
VERTEX
  5
7BB
  8
CLUSTERS
 10
733082.29791600001
 20
4563866.1709999992
 30
0.0
  0
SEQEND
  5
7BC
  8
CLUSTERS
  0
POLYLINE
  5
14B
  8
CLUSTERS
 66
     1
 10
0.0
 20
0.0
 30
0.0
 70
   129
  0
VERTEX
  5
7BD
  8
CLUSTERS
 10
731814.51228499995
 20
4563866.1709999992
 30
0.0
  0
VERTEX
  5
7BE
  8
CLUSTERS
 10
731760.43091300002
 20
4563966.54275
 30
0.0
  0
VERTEX
  5
7BF
  8
CLUSTERS
 10
731830.68783100008
 20
4564036.6956799999
 30
0.0
  0
VERTEX
  5
7C0
  8
CLUSTERS
 10
731901.40793400002
 20
4563966.54275
 30
0.0
  0
VERTEX
  5
7C1
  8
CLUSTERS
 10
731885.34998404549
 20
4563890.2996114232
 30
0.0
  0
VERTEX
  5
7C2
  8
CLUSTERS
 10
731830.68783100008
 20
4563849.9676600005
 30
0.0
  0
VERTEX
  5
7C3
  8
CLUSTERS
 10
731814.51228499995
 20
4563866.1709999992
 30
0.0
  0
SEQEND
  5
7C4
  8
CLUSTERS
  0
POLYLINE
  5
14C
  8
CLUSTERS
 66
     1
 10
0.0
 20
0.0
 30
0.0
 70
   129
  0
VERTEX
  5
7C5
  8
CLUSTERS
 10
738788.05495000002
 20
4563765.7992599988
 30
0.0
  0
VERTEX
  5
7C6
  8
CLUSTERS
 10
738867.72486800014
 20
4563845.0424300004
 30
0.0
  0
VERTEX
  5
7C7
  8
CLUSTERS
 10
738968.25396799995
 20
4563813.1856099991
 30
0.0
  0
VERTEX
  5
7C8
  8
CLUSTERS
 10
739015.85239500005
 20
4563765.7992599988
 30
0.0
  0
VERTEX
  5
7C9
  8
CLUSTERS
 10
738968.25396799995
 20
4563718.1692900006
 30
0.0
  0
VERTEX
  5
7CA
  8
CLUSTERS
 10
738867.72486800014
 20
4563686.2315400001
 30
0.0
  0
VERTEX
  5
7CB
  8
CLUSTERS
 10
738788.05495000002
 20
4563765.7992599988
 30
0.0
  0
SEQEND
  5
7CC
  8
CLUSTERS
  0
POLYLINE
  5
14D
  8
CLUSTERS
 66
     1
 10
0.0
 20
0.0
 30
0.0
 70
   129
  0
VERTEX
  5
7CD
  8
CLUSTERS
 10
734019.09576996998
 20
4563637.0854878938
 30
0.0
  0
VERTEX
  5
7CE
  8
CLUSTERS
 10
734073.72313097003
 20
4563691.6096878937
 30
0.0
  0
VERTEX
  5
7CF
  8
CLUSTERS
 10
734128.36359097005
 20
4563637.0854878938
 30
0.0
  0
VERTEX
  5
7D0
  8
CLUSTERS
 10
734073.72313097003
 20
4563582.483217895
 30
0.0
  0
VERTEX
  5
7D1
  8
CLUSTERS
 10
734019.09576996998
 20
4563637.0854878938
 30
0.0
  0
SEQEND
  5
7D2
  8
CLUSTERS
  0
POLYLINE
  5
14E
  8
CLUSTERS
 66
     1
 10
0.0
 20
0.0
 30
0.0
 70
   129
  0
VERTEX
  5
7D3
  8
CLUSTERS
 10
739271.56476699992
 20
4563565.0557599999
 30
0.0
  0
VERTEX
  5
7D4
  8
CLUSTERS
 10
739269.84126999986
 20
4563640.9531500004
 30
0.0
  0
VERTEX
  5
7D5
  8
CLUSTERS
 10
739255.80139899987
 20
4563665.4275099998
 30
0.0
  0
VERTEX
  5
7D6
  8
CLUSTERS
 10
739269.84126999986
 20
4563681.1813599998
 30
0.0
  0
VERTEX
  5
7D7
  8
CLUSTERS
 10
739370.37037000014
 20
4563765.5676599992
 30
0.0
  0
VERTEX
  5
7D8
  8
CLUSTERS
 10
739371.72183199995
 20
4563765.7992599988
 30
0.0
  0
VERTEX
  5
7D9
  8
CLUSTERS
 10
739380.02645700006
 20
4563866.1709999992
 30
0.0
  0
VERTEX
  5
7DA
  8
CLUSTERS
 10
739470.89947100007
 20
4563964.7926199986
 30
0.0
  0
VERTEX
  5
7DB
  8
CLUSTERS
 10
739471.24686999992
 20
4563966.54275
 30
0.0
  0
VERTEX
  5
7DC
  8
CLUSTERS
 10
739472.506283
 20
4564066.9145
 30
0.0
  0
VERTEX
  5
7DD
  8
CLUSTERS
 10
739571.42857100011
 20
4564166.9737299988
 30
0.0
  0
VERTEX
  5
7DE
  8
CLUSTERS
 10
739671.95767199993
 20
4564144.8509900002
 30
0.0
  0
VERTEX
  5
7DF
  8
CLUSTERS
 10
739750.72594400006
 20
4564066.9145
 30
0.0
  0
VERTEX
  5
7E0
  8
CLUSTERS
 10
739771.509632
 20
4563966.54275
 30
0.0
  0
VERTEX
  5
7E1
  8
CLUSTERS
 10
739772.34528799995
 20
4563866.1709999992
 30
0.0
  0
VERTEX
  5
7E2
  8
CLUSTERS
 10
739771.95768700005
 20
4563765.7992599988
 30
0.0
  0
VERTEX
  5
7E3
  8
CLUSTERS
 10
739671.95767199993
 20
4563665.4543500002
 30
0.0
  0
VERTEX
  5
7E4
  8
CLUSTERS
 10
739571.42857100011
 20
4563671.62371
 30
0.0
  0
VERTEX
  5
7E5
  8
CLUSTERS
 10
739571.30650100007
 20
4563665.4275099998
 30
0.0
  0
VERTEX
  5
7E6
  8
CLUSTERS
 10
739564.14299199986
 20
4563565.0557599999
 30
0.0
  0
VERTEX
  5
7E7
  8
CLUSTERS
 10
739470.89947100007
 20
4563472.7111200001
 30
0.0
  0
VERTEX
  5
7E8
  8
CLUSTERS
 10
739370.37037000014
 20
4563467.2599299997
 30
0.0
  0
VERTEX
  5
7E9
  8
CLUSTERS
 10
739271.56476699992
 20
4563565.0557599999
 30
0.0
  0
SEQEND
  5
7EA
  8
CLUSTERS
  0
POLYLINE
  5
14F
  8
CLUSTERS
 66
     1
 10
0.0
 20
0.0
 30
0.0
 70
   129
  0
VERTEX
  5
7EB
  8
CLUSTERS
 10
737972.56438584626
 20
4563538.5308756959
 30
0.0
  0
VERTEX
  5
7EC
  8
CLUSTERS
 10
737909.54571624962
 20
4563585.7689664252
 30
0.0
  0
VERTEX
  5
7ED
  8
CLUSTERS
 10
737830.77215386718
 20
4563617.2610482695
 30
0.0
  0
VERTEX
  5
7EE
  8
CLUSTERS
 10
737730.99245414743
 20
4563722.2345903423
 30
0.0
  0
VERTEX
  5
7EF
  8
CLUSTERS
 10
737794.01125253644
 20
4563806.2134111859
 30
0.0
  0
VERTEX
  5
7F0
  8
CLUSTERS
 10
737862.2815530618
 20
4563821.9594200728
 30
0.0
  0
VERTEX
  5
7F1
  8
CLUSTERS
 10
737914.79721838585
 20
4563769.4726810697
 30
0.0
  0
VERTEX
  5
7F2
  8
CLUSTERS
 10
737977.81601677474
 20
4563727.4832386142
 30
0.0
  0
VERTEX
  5
7F3
  8
CLUSTERS
 10
738063.49206299998
 20
4563734.9509199997
 30
0.0
  0
VERTEX
  5
7F4
  8
CLUSTERS
 10
738133.13086000003
 20
4563665.4275099998
 30
0.0
  0
VERTEX
  5
7F5
  8
CLUSTERS
 10
738118.13713399996
 20
4563565.0557599999
 30
0.0
  0
VERTEX
  5
7F6
  8
CLUSTERS
 10
738063.49206299998
 20
4563510.4182200003
 30
0.0
  0
VERTEX
  5
7F7
  8
CLUSTERS
 10
737972.56438584626
 20
4563538.5308756959
 30
0.0
  0
SEQEND
  5
7F8
  8
CLUSTERS
  0
POLYLINE
  5
150
  8
CLUSTERS
 66
     1
 10
0.0
 20
0.0
 30
0.0
 70
   129
  0
VERTEX
  5
7F9
  8
CLUSTERS
 10
735563.63789000001
 20
4563565.0557599999
 30
0.0
  0
VERTEX
  5
7FA
  8
CLUSTERS
 10
735561.90080399998
 20
4563665.4275099998
 30
0.0
  0
VERTEX
  5
7FB
  8
CLUSTERS
 10
735650.79365100001
 20
4563754.1783199999
 30
0.0
  0
VERTEX
  5
7FC
  8
CLUSTERS
 10
735751.32275100006
 20
4563762.1191600002
 30
0.0
  0
VERTEX
  5
7FD
  8
CLUSTERS
 10
735848.18166200013
 20
4563665.4275099998
 30
0.0
  0
VERTEX
  5
7FE
  8
CLUSTERS
 10
735838.00819099997
 20
4563565.0557599999
 30
0.0
  0
VERTEX
  5
7FF
  8
CLUSTERS
 10
735751.32275100006
 20
4563478.4979100004
 30
0.0
  0
VERTEX
  5
800
  8
CLUSTERS
 10
735650.79365100001
 20
4563478.0025500003
 30
0.0
  0
VERTEX
  5
801
  8
CLUSTERS
 10
735563.63789000001
 20
4563565.0557599999
 30
0.0
  0
SEQEND
  5
802
  8
CLUSTERS
  0
POLYLINE
  5
151
  8
CLUSTERS
 66
     1
 10
0.0
 20
0.0
 30
0.0
 70
   129
  0
VERTEX
  5
803
  8
CLUSTERS
 10
734268.58760800003
 20
4563565.0557599999
 30
0.0
  0
VERTEX
  5
804
  8
CLUSTERS
 10
734343.9153440001
 20
4563640.2544499999
 30
0.0
  0
VERTEX
  5
805
  8
CLUSTERS
 10
734419.25939799997
 20
4563565.0557599999
 30
0.0
  0
VERTEX
  5
806
  8
CLUSTERS
 10
734343.9153440001
 20
4563489.7990699997
 30
0.0
  0
VERTEX
  5
807
  8
CLUSTERS
 10
734268.58760800003
 20
4563565.0557599999
 30
0.0
  0
SEQEND
  5
808
  8
CLUSTERS
  0
POLYLINE
  5
152
  8
CLUSTERS
 66
     1
 10
0.0
 20
0.0
 30
0.0
 70
   129
  0
VERTEX
  5
809
  8
CLUSTERS
 10
733133.16098435957
 20
4563491.4361710511
 30
0.0
  0
VERTEX
  5
80A
  8
CLUSTERS
 10
733137.56613799999
 20
4563558.3515600013
 30
0.0
  0
VERTEX
  5
80B
  8
CLUSTERS
 10
733174.6944096185
 20
4563587.0912193367
 30
0.0
  0
VERTEX
  5
80C
  8
CLUSTERS
 10
733153.27922499995
 20
4563665.4275099998
 30
0.0
  0
VERTEX
  5
80D
  8
CLUSTERS
 10
733238.09523800015
 20
4563750.0884400001
 30
0.0
  0
VERTEX
  5
80E
  8
CLUSTERS
 10
733322.97418000002
 20
4563665.4275099998
 30
0.0
  0
VERTEX
  5
80F
  8
CLUSTERS
 10
733239.22434700013
 20
4563565.0557599999
 30
0.0
  0
VERTEX
  5
810
  8
CLUSTERS
 10
733238.09523800015
 20
4563563.176
 30
0.0
  0
VERTEX
  5
811
  8
CLUSTERS
 10
733220.44027400005
 20
4563464.68401
 30
0.0
  0
VERTEX
  5
812
  8
CLUSTERS
 10
733169.27702312276
 20
4563431.8773843236
 30
0.0
  0
VERTEX
  5
813
  8
CLUSTERS
 10
733133.16098435957
 20
4563491.4361710511
 30
0.0
  0
SEQEND
  5
814
  8
CLUSTERS
  0
POLYLINE
  5
153
  8
CLUSTERS
 66
     1
 10
0.0
 20
0.0
 30
0.0
 70
   129
  0
VERTEX
  5
815
  8
CLUSTERS
 10
732460.21433600003
 20
4563464.68401
 30
0.0
  0
VERTEX
  5
816
  8
CLUSTERS
 10
732433.86243400001
 20
4563469.2717300002
 30
0.0
  0
VERTEX
  5
817
  8
CLUSTERS
 10
732338.19863500004
 20
4563565.0557599999
 30
0.0
  0
VERTEX
  5
818
  8
CLUSTERS
 10
732436.44860706781
 20
4563617.2610482695
 30
0.0
  0
VERTEX
  5
819
  8
CLUSTERS
 10
732529.84939300001
 20
4563565.0557599999
 30
0.0
  0
VERTEX
  5
81A
  8
CLUSTERS
 10
732534.39153399994
 20
4563538.9793299995
 30
0.0
  0
VERTEX
  5
81B
  8
CLUSTERS
 10
732657.01427263708
 20
4563438.8060459634
 30
0.0
  0
VERTEX
  5
81C
  8
CLUSTERS
 10
732534.39153399994
 20
4563392.0826099999
 30
0.0
  0
VERTEX
  5
81D
  8
CLUSTERS
 10
732460.21433600003
 20
4563464.68401
 30
0.0
  0
SEQEND
  5
81E
  8
CLUSTERS
  0
POLYLINE
  5
154
  8
CLUSTERS
 66
     1
 10
0.0
 20
0.0
 30
0.0
 70
   129
  0
VERTEX
  5
81F
  8
CLUSTERS
 10
736297.40111400012
 20
4563364.3122699996
 30
0.0
  0
VERTEX
  5
820
  8
CLUSTERS
 10
736354.49735399976
 20
4563421.3071999997
 30
0.0
  0
VERTEX
  5
821
  8
CLUSTERS
 10
736489.43328502146
 20
4563318.0864950027
 30
0.0
  0
VERTEX
  5
822
  8
CLUSTERS
 10
736316.13178264
 20
4563249.8536830451
 30
0.0
  0
VERTEX
  5
823
  8
CLUSTERS
 10
736297.40111400012
 20
4563364.3122699996
 30
0.0
  0
SEQEND
  5
824
  8
CLUSTERS
  0
POLYLINE
  5
155
  8
CLUSTERS
 66
     1
 10
0.0
 20
0.0
 30
0.0
 70
   129
  0
VERTEX
  5
825
  8
CLUSTERS
 10
732909.24118341005
 20
4563301.9308939632
 30
0.0
  0
VERTEX
  5
826
  8
CLUSTERS
 10
732835.97883600008
 20
4563368.4422500003
 30
0.0
  0
VERTEX
  5
827
  8
CLUSTERS
 10
732739.67428399995
 20
4563464.68401
 30
0.0
  0
VERTEX
  5
828
  8
CLUSTERS
 10
732735.44973500003
 20
4563477.0132999988
 30
0.0
  0
VERTEX
  5
829
  8
CLUSTERS
 10
732647.54562799993
 20
4563565.0557599999
 30
0.0
  0
VERTEX
  5
82A
  8
CLUSTERS
 10
732637.72223499999
 20
4563665.4275099998
 30
0.0
  0
VERTEX
  5
82B
  8
CLUSTERS
 10
732634.92063499987
 20
4563667.8837199993
 30
0.0
  0
VERTEX
  5
82C
  8
CLUSTERS
 10
732534.39153399994
 20
4563668.2156099994
 30
0.0
  0
VERTEX
  5
82D
  8
CLUSTERS
 10
732415.44234093826
 20
4563727.4832386142
 30
0.0
  0
VERTEX
  5
82E
  8
CLUSTERS
 10
732340.3673080001
 20
4563765.7992599988
 30
0.0
  0
VERTEX
  5
82F
  8
CLUSTERS
 10
732433.86243400001
 20
4563859.16787
 30
0.0
  0
VERTEX
  5
830
  8
CLUSTERS
 10
732534.39153399994
 20
4563858.8988800002
 30
0.0
  0
VERTEX
  5
831
  8
CLUSTERS
 10
732634.92063499987
 20
4563859.6421800004
 30
0.0
  0
VERTEX
  5
832
  8
CLUSTERS
 10
732729.20273100014
 20
4563765.7992599988
 30
0.0
  0
VERTEX
  5
833
  8
CLUSTERS
 10
732735.44973500003
 20
4563758.7339600008
 30
0.0
  0
VERTEX
  5
834
  8
CLUSTERS
 10
732828.73653800006
 20
4563665.4275099998
 30
0.0
  0
VERTEX
  5
835
  8
CLUSTERS
 10
732823.74856199999
 20
4563565.0557599999
 30
0.0
  0
VERTEX
  5
836
  8
CLUSTERS
 10
732835.97883600008
 20
4563560.8819299992
 30
0.0
  0
VERTEX
  5
837
  8
CLUSTERS
 10
732936.50793700013
 20
4563560.6180699999
 30
0.0
  0
VERTEX
  5
838
  8
CLUSTERS
 10
733006.75465550029
 20
4563471.5832207846
 30
0.0
  0
VERTEX
  5
839
  8
CLUSTERS
 10
732981.47338972846
 20
4563329.0031221667
 30
0.0
  0
VERTEX
  5
83A
  8
CLUSTERS
 10
732968.83269244654
 20
4563271.2490908559
 30
0.0
  0
VERTEX
  5
83B
  8
CLUSTERS
 10
732909.24118341005
 20
4563301.9308939632
 30
0.0
  0
SEQEND
  5
83C
  8
CLUSTERS
  0
POLYLINE
  5
156
  8
CLUSTERS
 66
     1
 10
0.0
 20
0.0
 30
0.0
 70
   129
  0
VERTEX
  5
83D
  8
CLUSTERS
 10
736675.57550200005
 20
4563263.9405199997
 30
0.0
  0
VERTEX
  5
83E
  8
CLUSTERS
 10
736756.61375699996
 20
4563339.1577099999
 30
0.0
  0
VERTEX
  5
83F
  8
CLUSTERS
 10
736831.95525600004
 20
4563263.9405199997
 30
0.0
  0
VERTEX
  5
840
  8
CLUSTERS
 10
736756.61375699996
 20
4563181.2209799988
 30
0.0
  0
VERTEX
  5
841
  8
CLUSTERS
 10
736675.57550200005
 20
4563263.9405199997
 30
0.0
  0
SEQEND
  5
842
  8
CLUSTERS
  0
POLYLINE
  5
157
  8
CLUSTERS
 66
     1
 10
0.0
 20
0.0
 30
0.0
 70
   129
  0
VERTEX
  5
843
  8
CLUSTERS
 10
734670.67470999993
 20
4563263.9405199997
 30
0.0
  0
VERTEX
  5
844
  8
CLUSTERS
 10
734709.00598698412
 20
4563347.6439538728
 30
0.0
  0
VERTEX
  5
845
  8
CLUSTERS
 10
734821.40012200002
 20
4563263.9405199997
 30
0.0
  0
VERTEX
  5
846
  8
CLUSTERS
 10
734746.03174600005
 20
4563188.6722400002
 30
0.0
  0
VERTEX
  5
847
  8
CLUSTERS
 10
734670.67470999993
 20
4563263.9405199997
 30
0.0
  0
SEQEND
  5
848
  8
CLUSTERS
  0
POLYLINE
  5
158
  8
CLUSTERS
 66
     1
 10
0.0
 20
0.0
 30
0.0
 70
   129
  0
VERTEX
  5
849
  8
CLUSTERS
 10
731740.69359200005
 20
4563263.9405199997
 30
0.0
  0
VERTEX
  5
84A
  8
CLUSTERS
 10
731830.68783100008
 20
4563361.9849300003
 30
0.0
  0
VERTEX
  5
84B
  8
CLUSTERS
 10
731931.21693100012
 20
4563336.7320799986
 30
0.0
  0
VERTEX
  5
84C
  8
CLUSTERS
 10
732004.22060600005
 20
4563263.9405199997
 30
0.0
  0
VERTEX
  5
84D
  8
CLUSTERS
 10
731931.21693100012
 20
4563190.9086999996
 30
0.0
  0
VERTEX
  5
84E
  8
CLUSTERS
 10
731830.68783100008
 20
4563173.7611099994
 30
0.0
  0
VERTEX
  5
84F
  8
CLUSTERS
 10
731740.69359200005
 20
4563263.9405199997
 30
0.0
  0
SEQEND
  5
850
  8
CLUSTERS
  0
POLYLINE
  5
159
  8
CLUSTERS
 66
     1
 10
0.0
 20
0.0
 30
0.0
 70
   129
  0
VERTEX
  5
851
  8
CLUSTERS
 10
737058.7924531668
 20
4562955.9278421206
 30
0.0
  0
VERTEX
  5
852
  8
CLUSTERS
 10
737158.73015900003
 20
4563007.2464100001
 30
0.0
  0
VERTEX
  5
853
  8
CLUSTERS
 10
737203.22404200013
 20
4562962.8252800005
 30
0.0
  0
VERTEX
  5
854
  8
CLUSTERS
 10
737158.73015900003
 20
4562918.3790499996
 30
0.0
  0
VERTEX
  5
855
  8
CLUSTERS
 10
737058.7924531668
 20
4562955.9278421206
 30
0.0
  0
SEQEND
  5
856
  8
CLUSTERS
  0
POLYLINE
  5
15A
  8
CLUSTERS
 66
     1
 10
0.0
 20
0.0
 30
0.0
 70
   129
  0
VERTEX
  5
857
  8
CLUSTERS
 10
735584.62684900011
 20
4562862.4535299996
 30
0.0
  0
VERTEX
  5
858
  8
CLUSTERS
 10
735627.68644815951
 20
4562995.6331660319
 30
0.0
  0
VERTEX
  5
859
  8
CLUSTERS
 10
735676.66019906907
 20
4562998.2093103947
 30
0.0
  0
VERTEX
  5
85A
  8
CLUSTERS
 10
735697.28073254647
 20
4562962.1432252619
 30
0.0
  0
VERTEX
  5
85B
  8
CLUSTERS
 10
735666.34986793424
 20
4562817.8787565958
 30
0.0
  0
VERTEX
  5
85C
  8
CLUSTERS
 10
735627.68644815951
 20
4562810.1503235102
 30
0.0
  0
VERTEX
  5
85D
  8
CLUSTERS
 10
735584.62684900011
 20
4562862.4535299996
 30
0.0
  0
SEQEND
  5
85E
  8
CLUSTERS
  0
POLYLINE
  5
15B
  8
CLUSTERS
 66
     1
 10
0.0
 20
0.0
 30
0.0
 70
   129
  0
VERTEX
  5
85F
  8
CLUSTERS
 10
733757.61764399987
 20
4562762.0817799987
 30
0.0
  0
VERTEX
  5
860
  8
CLUSTERS
 10
733803.56576000014
 20
4562862.4535299996
 30
0.0
  0
VERTEX
  5
861
  8
CLUSTERS
 10
733841.26984099997
 20
4562900.0937900003
 30
0.0
  0
VERTEX
  5
862
  8
CLUSTERS
 10
734001.05288367253
 20
4562923.491769853
 30
0.0
  0
VERTEX
  5
863
  8
CLUSTERS
 10
734023.71261199994
 20
4562862.4535299996
 30
0.0
  0
VERTEX
  5
864
  8
CLUSTERS
 10
733941.79894200014
 20
4562780.5992099997
 30
0.0
  0
VERTEX
  5
865
  8
CLUSTERS
 10
733924.99776600022
 20
4562762.0817799987
 30
0.0
  0
VERTEX
  5
866
  8
CLUSTERS
 10
733841.26984099997
 20
4562678.5328000002
 30
0.0
  0
VERTEX
  5
867
  8
CLUSTERS
 10
733757.61764399987
 20
4562762.0817799987
 30
0.0
  0
SEQEND
  5
868
  8
CLUSTERS
  0
POLYLINE
  5
15C
  8
CLUSTERS
 66
     1
 10
0.0
 20
0.0
 30
0.0
 70
   129
  0
VERTEX
  5
869
  8
CLUSTERS
 10
733338.61803642521
 20
4562802.4127285788
 30
0.0
  0
VERTEX
  5
86A
  8
CLUSTERS
 10
733343.77320199285
 20
4562866.8164657587
 30
0.0
  0
VERTEX
  5
86B
  8
CLUSTERS
 10
733338.62433899986
 20
4562935.5892500002
 30
0.0
  0
VERTEX
  5
86C
  8
CLUSTERS
 10
733388.76431100001
 20
4562962.8252800005
 30
0.0
  0
VERTEX
  5
86D
  8
CLUSTERS
 10
733338.62433899986
 20
4563025.5403199987
 30
0.0
  0
VERTEX
  5
86E
  8
CLUSTERS
 10
733300.91528699989
 20
4563063.1970300004
 30
0.0
  0
VERTEX
  5
86F
  8
CLUSTERS
 10
733238.09523800015
 20
4563146.1837999988
 30
0.0
  0
VERTEX
  5
870
  8
CLUSTERS
 10
733137.56613799999
 20
4563080.2890499998
 30
0.0
  0
VERTEX
  5
871
  8
CLUSTERS
 10
733037.03703700006
 20
4563115.5678699994
 30
0.0
  0
VERTEX
  5
872
  8
CLUSTERS
 10
732989.02891800005
 20
4563163.5687699998
 30
0.0
  0
VERTEX
  5
873
  8
CLUSTERS
 10
733037.03703700006
 20
4563211.6595900003
 30
0.0
  0
VERTEX
  5
874
  8
CLUSTERS
 10
733060.06405499997
 20
4563263.9405199997
 30
0.0
  0
VERTEX
  5
875
  8
CLUSTERS
 10
733196.36408439325
 20
4563347.0511888787
 30
0.0
  0
VERTEX
  5
876
  8
CLUSTERS
 10
733238.09523800015
 20
4563268.59265
 30
0.0
  0
VERTEX
  5
877
  8
CLUSTERS
 10
733338.62433899986
 20
4563334.08091
 30
0.0
  0
VERTEX
  5
878
  8
CLUSTERS
 10
733366.49898999999
 20
4563364.3122699996
 30
0.0
  0
VERTEX
  5
879
  8
CLUSTERS
 10
733410.46390800003
 20
4563464.68401
 30
0.0
  0
VERTEX
  5
87A
  8
CLUSTERS
 10
733439.1534389999
 20
4563504.7422599997
 30
0.0
  0
VERTEX
  5
87B
  8
CLUSTERS
 10
733532.61810800014
 20
4563565.0557599999
 30
0.0
  0
VERTEX
  5
87C
  8
CLUSTERS
 10
733465.62517100014
 20
4563665.4275099998
 30
0.0
  0
VERTEX
  5
87D
  8
CLUSTERS
 10
733432.92445383279
 20
4563702.5991538204
 30
0.0
  0
VERTEX
  5
87E
  8
CLUSTERS
 10
733401.82661800005
 20
4563765.7992599988
 30
0.0
  0
VERTEX
  5
87F
  8
CLUSTERS
 10
733439.1534389999
 20
4563803.1133999992
 30
0.0
  0
VERTEX
  5
880
  8
CLUSTERS
 10
733476.51360900002
 20
4563765.7992599988
 30
0.0
  0
VERTEX
  5
881
  8
CLUSTERS
 10
733539.68253999995
 20
4563739.3210799992
 30
0.0
  0
VERTEX
  5
882
  8
CLUSTERS
 10
733613.73826699995
 20
4563665.4275099998
 30
0.0
  0
VERTEX
  5
883
  8
CLUSTERS
 10
733640.21164000011
 20
4563607.1749800006
 30
0.0
  0
VERTEX
  5
884
  8
CLUSTERS
 10
733740.74074100005
 20
4563635.1341199996
 30
0.0
  0
VERTEX
  5
885
  8
CLUSTERS
 10
733811.019462
 20
4563565.0557599999
 30
0.0
  0
VERTEX
  5
886
  8
CLUSTERS
 10
733841.26984099997
 20
4563526.5800099997
 30
0.0
  0
VERTEX
  5
887
  8
CLUSTERS
 10
733941.79894200014
 20
4563541.79165
 30
0.0
  0
VERTEX
  5
888
  8
CLUSTERS
 10
734019.05788199988
 20
4563464.68401
 30
0.0
  0
VERTEX
  5
889
  8
CLUSTERS
 10
734042.32804200007
 20
4563368.0379699999
 30
0.0
  0
VERTEX
  5
88A
  8
CLUSTERS
 10
734046.04456299997
 20
4563364.3122699996
 30
0.0
  0
VERTEX
  5
88B
  8
CLUSTERS
 10
734042.32804200007
 20
4563360.5981099997
 30
0.0
  0
VERTEX
  5
88C
  8
CLUSTERS
 10
733928.88095210574
 20
4563291.8813105356
 30
0.0
  0
VERTEX
  5
88D
  8
CLUSTERS
 10
733864.44183328608
 20
4563279.0005246587
 30
0.0
  0
VERTEX
  5
88E
  8
CLUSTERS
 10
733823.20063753915
 20
4563281.5766690196
 30
0.0
  0
VERTEX
  5
88F
  8
CLUSTERS
 10
733740.74074100005
 20
4563384.1180499997
 30
0.0
  0
VERTEX
  5
890
  8
CLUSTERS
 10
733640.21164000011
 20
4563422.1132899998
 30
0.0
  0
VERTEX
  5
891
  8
CLUSTERS
 10
733630.47870099999
 20
4563364.3122699996
 30
0.0
  0
VERTEX
  5
892
  8
CLUSTERS
 10
733640.21164000011
 20
4563290.7633400001
 30
0.0
  0
VERTEX
  5
893
  8
CLUSTERS
 10
733748.53425855655
 20
4563232.670289523
 30
0.0
  0
VERTEX
  5
894
  8
CLUSTERS
 10
733687.85922070418
 20
4563166.2531887554
 30
0.0
  0
VERTEX
  5
895
  8
CLUSTERS
 10
733616.99530276563
 20
4563147.6168418694
 30
0.0
  0
VERTEX
  5
896
  8
CLUSTERS
 10
733591.21960372105
 20
4563127.0076869773
 30
0.0
  0
VERTEX
  5
897
  8
CLUSTERS
 10
733580.90940137836
 20
4563049.7231639214
 30
0.0
  0
VERTEX
  5
898
  8
CLUSTERS
 10
733539.66833442345
 20
4562962.1340634171
 30
0.0
  0
VERTEX
  5
899
  8
CLUSTERS
 10
733522.02398599987
 20
4562862.4535299996
 30
0.0
  0
VERTEX
  5
89A
  8
CLUSTERS
 10
733439.1534389999
 20
4562774.7131999992
 30
0.0
  0
VERTEX
  5
89B
  8
CLUSTERS
 10
733410.37745199993
 20
4562762.0817799987
 30
0.0
  0
VERTEX
  5
89C
  8
CLUSTERS
 10
733361.81621708232
 20
4562756.0420019319
 30
0.0
  0
VERTEX
  5
89D
  8
CLUSTERS
 10
733338.61803642521
 20
4562802.4127285788
 30
0.0
  0
SEQEND
  5
89E
  8
CLUSTERS
  0
POLYLINE
  5
15D
  8
CLUSTERS
 66
     1
 10
0.0
 20
0.0
 30
0.0
 70
   129
  0
VERTEX
  5
89F
  8
CLUSTERS
 10
731468.233626
 20
4562762.0817799987
 30
0.0
  0
VERTEX
  5
8A0
  8
CLUSTERS
 10
731462.81533400004
 20
4562862.4535299996
 30
0.0
  0
VERTEX
  5
8A1
  8
CLUSTERS
 10
731428.571429
 20
4562867.6380799999
 30
0.0
  0
VERTEX
  5
8A2
  8
CLUSTERS
 10
731333.65198399988
 20
4562962.8252800005
 30
0.0
  0
VERTEX
  5
8A3
  8
CLUSTERS
 10
731428.571429
 20
4563057.6420700001
 30
0.0
  0
VERTEX
  5
8A4
  8
CLUSTERS
 10
731525.18707600003
 20
4562962.8252800005
 30
0.0
  0
VERTEX
  5
8A5
  8
CLUSTERS
 10
731529.10052899993
 20
4562934.9664700003
 30
0.0
  0
VERTEX
  5
8A6
  8
CLUSTERS
 10
731536.97479900008
 20
4562962.8252800005
 30
0.0
  0
VERTEX
  5
8A7
  8
CLUSTERS
 10
731629.62962999998
 20
4563052.0378999989
 30
0.0
  0
VERTEX
  5
8A8
  8
CLUSTERS
 10
731730.15873000014
 20
4562968.6923599998
 30
0.0
  0
VERTEX
  5
8A9
  8
CLUSTERS
 10
731736.03183300025
 20
4562962.8252800005
 30
0.0
  0
VERTEX
  5
8AA
  8
CLUSTERS
 10
731783.26850899996
 20
4562862.4535299996
 30
0.0
  0
VERTEX
  5
8AB
  8
CLUSTERS
 10
731730.15873000014
 20
4562808.99816
 30
0.0
  0
VERTEX
  5
8AC
  8
CLUSTERS
 10
731629.62962999998
 20
4562767.3231300004
 30
0.0
  0
VERTEX
  5
8AD
  8
CLUSTERS
 10
731589.35262800008
 20
4562762.0817799987
 30
0.0
  0
VERTEX
  5
8AE
  8
CLUSTERS
 10
731529.10052899993
 20
4562704.3133800002
 30
0.0
  0
VERTEX
  5
8AF
  8
CLUSTERS
 10
731468.233626
 20
4562762.0817799987
 30
0.0
  0
SEQEND
  5
8B0
  8
CLUSTERS
  0
POLYLINE
  5
15E
  8
CLUSTERS
 66
     1
 10
0.0
 20
0.0
 30
0.0
 70
   129
  0
VERTEX
  5
8B1
  8
CLUSTERS
 10
735533.48922100011
 20
4562661.7100400003
 30
0.0
  0
VERTEX
  5
8B2
  8
CLUSTERS
 10
735550.26454999996
 20
4562688.1753899986
 30
0.0
  0
VERTEX
  5
8B3
  8
CLUSTERS
 10
735609.64343306958
 20
4562696.7997153224
 30
0.0
  0
VERTEX
  5
8B4
  8
CLUSTERS
 10
735710.16858206876
 20
4562707.1042927681
 30
0.0
  0
VERTEX
  5
8B5
  8
CLUSTERS
 10
735811.94510100025
 20
4562661.7100400003
 30
0.0
  0
VERTEX
  5
8B6
  8
CLUSTERS
 10
735751.32275100006
 20
4562601.1733900001
 30
0.0
  0
VERTEX
  5
8B7
  8
CLUSTERS
 10
735650.79365100001
 20
4562583.5396700008
 30
0.0
  0
VERTEX
  5
8B8
  8
CLUSTERS
 10
735550.26454999996
 20
4562644.9688599994
 30
0.0
  0
VERTEX
  5
8B9
  8
CLUSTERS
 10
735533.48922100011
 20
4562661.7100400003
 30
0.0
  0
SEQEND
  5
8BA
  8
CLUSTERS
  0
POLYLINE
  5
15F
  8
CLUSTERS
 66
     1
 10
0.0
 20
0.0
 30
0.0
 70
   129
  0
VERTEX
  5
8BB
  8
CLUSTERS
 10
727834.91859200015
 20
4562661.7100400003
 30
0.0
  0
VERTEX
  5
8BC
  8
CLUSTERS
 10
727910.05290999997
 20
4562737.314629999
 30
0.0
  0
VERTEX
  5
8BD
  8
CLUSTERS
 10
728010.58201100014
 20
4562703.7805300001
 30
0.0
  0
VERTEX
  5
8BE
  8
CLUSTERS
 10
728056.29639300006
 20
4562661.7100400003
 30
0.0
  0
VERTEX
  5
8BF
  8
CLUSTERS
 10
728010.58201100014
 20
4562618.1181000005
 30
0.0
  0
VERTEX
  5
8C0
  8
CLUSTERS
 10
727910.05290999997
 20
4562584.6631300002
 30
0.0
  0
VERTEX
  5
8C1
  8
CLUSTERS
 10
727834.91859200015
 20
4562661.7100400003
 30
0.0
  0
SEQEND
  5
8C2
  8
CLUSTERS
  0
POLYLINE
  5
160
  8
CLUSTERS
 66
     1
 10
0.0
 20
0.0
 30
0.0
 70
   129
  0
VERTEX
  5
8C3
  8
CLUSTERS
 10
741099.24067399988
 20
4562561.3382900003
 30
0.0
  0
VERTEX
  5
8C4
  8
CLUSTERS
 10
741085.39746899984
 20
4562661.7100400003
 30
0.0
  0
VERTEX
  5
8C5
  8
CLUSTERS
 10
741079.36507899989
 20
4562664.52905
 30
0.0
  0
VERTEX
  5
8C6
  8
CLUSTERS
 10
741075.67134200013
 20
4562661.7100400003
 30
0.0
  0
VERTEX
  5
8C7
  8
CLUSTERS
 10
740982.07140356756
 20
4562665.233954302
 30
0.0
  0
VERTEX
  5
8C8
  8
CLUSTERS
 10
740903.14349000005
 20
4562661.7100400003
 30
0.0
  0
VERTEX
  5
8C9
  8
CLUSTERS
 10
740859.3548425734
 20
4562691.7868404146
 30
0.0
  0
VERTEX
  5
8CA
  8
CLUSTERS
 10
740777.12205037184
 20
4562703.1666212901
 30
0.0
  0
VERTEX
  5
8CB
  8
CLUSTERS
 10
740677.24867699994
 20
4562696.7807600005
 30
0.0
  0
VERTEX
  5
8CC
  8
CLUSTERS
 10
740616.45184344146
 20
4562722.1329868194
 30
0.0
  0
VERTEX
  5
8CD
  8
CLUSTERS
 10
740712.60101971019
 20
4562833.4023184376
 30
0.0
  0
VERTEX
  5
8CE
  8
CLUSTERS
 10
740772.06154707482
 20
4562819.493611943
 30
0.0
  0
VERTEX
  5
8CF
  8
CLUSTERS
 10
740878.30687800003
 20
4562805.1925399993
 30
0.0
  0
VERTEX
  5
8D0
  8
CLUSTERS
 10
740978.83597899985
 20
4562841.5634099999
 30
0.0
  0
VERTEX
  5
8D1
  8
CLUSTERS
 10
741079.36507899989
 20
4562836.8019700004
 30
0.0
  0
VERTEX
  5
8D2
  8
CLUSTERS
 10
741179.89417999994
 20
4562818.0099600004
 30
0.0
  0
VERTEX
  5
8D3
  8
CLUSTERS
 10
741235.75183199998
 20
4562762.0817799987
 30
0.0
  0
VERTEX
  5
8D4
  8
CLUSTERS
 10
741236.64032100001
 20
4562661.7100400003
 30
0.0
  0
VERTEX
  5
8D5
  8
CLUSTERS
 10
741257.24088399985
 20
4562561.3382900003
 30
0.0
  0
VERTEX
  5
8D6
  8
CLUSTERS
 10
741179.89417999994
 20
4562483.4233499998
 30
0.0
  0
VERTEX
  5
8D7
  8
CLUSTERS
 10
741099.24067399988
 20
4562561.3382900003
 30
0.0
  0
SEQEND
  5
8D8
  8
CLUSTERS
  0
POLYLINE
  5
161
  8
CLUSTERS
 66
     1
 10
0.0
 20
0.0
 30
0.0
 70
   129
  0
VERTEX
  5
8D9
  8
CLUSTERS
 10
740710.07076806168
 20
4562585.5752318967
 30
0.0
  0
VERTEX
  5
8DA
  8
CLUSTERS
 10
740730.31265245797
 20
4562623.5079629542
 30
0.0
  0
VERTEX
  5
8DB
  8
CLUSTERS
 10
740939.05738312658
 20
4562583.0463703461
 30
0.0
  0
VERTEX
  5
8DC
  8
CLUSTERS
 10
740907.42936631176
 20
4562514.7674928857
 30
0.0
  0
VERTEX
  5
8DD
  8
CLUSTERS
 10
740710.07076806168
 20
4562585.5752318967
 30
0.0
  0
SEQEND
  5
8DE
  8
CLUSTERS
  0
POLYLINE
  5
162
  8
CLUSTERS
 66
     1
 10
0.0
 20
0.0
 30
0.0
 70
   129
  0
VERTEX
  5
8DF
  8
CLUSTERS
 10
737802.35807100008
 20
4562460.9665400004
 30
0.0
  0
VERTEX
  5
8E0
  8
CLUSTERS
 10
737761.90476199996
 20
4562492.62928
 30
0.0
  0
VERTEX
  5
8E1
  8
CLUSTERS
 10
737693.15590000001
 20
4562561.3382900003
 30
0.0
  0
VERTEX
  5
8E2
  8
CLUSTERS
 10
737704.77810999996
 20
4562661.7100400003
 30
0.0
  0
VERTEX
  5
8E3
  8
CLUSTERS
 10
737751.99872027698
 20
4562782.7214880912
 30
0.0
  0
VERTEX
  5
8E4
  8
CLUSTERS
 10
737878.036317055
 20
4562703.9913155176
 30
0.0
  0
VERTEX
  5
8E5
  8
CLUSTERS
 10
737862.43386199989
 20
4562639.86577
 30
0.0
  0
VERTEX
  5
8E6
  8
CLUSTERS
 10
737941.06192300003
 20
4562561.3382900003
 30
0.0
  0
VERTEX
  5
8E7
  8
CLUSTERS
 10
737922.38148400001
 20
4562460.9665400004
 30
0.0
  0
VERTEX
  5
8E8
  8
CLUSTERS
 10
737862.43386199989
 20
4562401.0936099999
 30
0.0
  0
VERTEX
  5
8E9
  8
CLUSTERS
 10
737802.35807100008
 20
4562460.9665400004
 30
0.0
  0
SEQEND
  5
8EA
  8
CLUSTERS
  0
POLYLINE
  5
163
  8
CLUSTERS
 66
     1
 10
0.0
 20
0.0
 30
0.0
 70
   129
  0
VERTEX
  5
8EB
  8
CLUSTERS
 10
735086.39728338865
 20
4562501.0122953523
 30
0.0
  0
VERTEX
  5
8EC
  8
CLUSTERS
 10
735061.18814125133
 20
4562543.3334863121
 30
0.0
  0
VERTEX
  5
8ED
  8
CLUSTERS
 10
735073.50943386636
 20
4562591.1775402194
 30
0.0
  0
VERTEX
  5
8EE
  8
CLUSTERS
 10
735117.32801920874
 20
4562629.8197697112
 30
0.0
  0
VERTEX
  5
8EF
  8
CLUSTERS
 10
735223.54972000001
 20
4562561.3382900003
 30
0.0
  0
VERTEX
  5
8F0
  8
CLUSTERS
 10
735222.22456999996
 20
4562460.9665400004
 30
0.0
  0
VERTEX
  5
8F1
  8
CLUSTERS
 10
735148.14814800001
 20
4562387.0046199989
 30
0.0
  0
VERTEX
  5
8F2
  8
CLUSTERS
 10
735108.16329473245
 20
4562430.832302927
 30
0.0
  0
VERTEX
  5
8F3
  8
CLUSTERS
 10
735086.39728338865
 20
4562501.0122953523
 30
0.0
  0
SEQEND
  5
8F4
  8
CLUSTERS
  0
POLYLINE
  5
164
  8
CLUSTERS
 66
     1
 10
0.0
 20
0.0
 30
0.0
 70
   129
  0
VERTEX
  5
8F5
  8
CLUSTERS
 10
734586.34918557282
 20
4562508.7407284379
 30
0.0
  0
VERTEX
  5
8F6
  8
CLUSTERS
 10
734552.45339000004
 20
4562561.3382900003
 30
0.0
  0
VERTEX
  5
8F7
  8
CLUSTERS
 10
734645.50264600024
 20
4562654.2411599997
 30
0.0
  0
VERTEX
  5
8F8
  8
CLUSTERS
 10
734664.07709599996
 20
4562661.7100400003
 30
0.0
  0
VERTEX
  5
8F9
  8
CLUSTERS
 10
734771.93411566108
 20
4562717.408934284
 30
0.0
  0
VERTEX
  5
8FA
  8
CLUSTERS
 10
734846.56084699999
 20
4562711.9407000002
 30
0.0
  0
VERTEX
  5
8FB
  8
CLUSTERS
 10
734947.08994700003
 20
4562730.7925699996
 30
0.0
  0
VERTEX
  5
8FC
  8
CLUSTERS
 10
734963.77333999996
 20
4562762.0817799987
 30
0.0
  0
VERTEX
  5
8FD
  8
CLUSTERS
 10
734947.08994700003
 20
4562824.4281500001
 30
0.0
  0
VERTEX
  5
8FE
  8
CLUSTERS
 10
734909.06938799995
 20
4562862.4535299996
 30
0.0
  0
VERTEX
  5
8FF
  8
CLUSTERS
 10
734858.97512199997
 20
4562962.8252800005
 30
0.0
  0
VERTEX
  5
900
  8
CLUSTERS
 10
734859.63543999998
 20
4563063.1970300004
 30
0.0
  0
VERTEX
  5
901
  8
CLUSTERS
 10
734947.08994700003
 20
4563150.5064700013
 30
0.0
  0
VERTEX
  5
902
  8
CLUSTERS
 10
735047.61904800008
 20
4563074.45187
 30
0.0
  0
VERTEX
  5
903
  8
CLUSTERS
 10
735148.14814800001
 20
4563149.6566399997
 30
0.0
  0
VERTEX
  5
904
  8
CLUSTERS
 10
735180.67110899999
 20
4563263.9405199997
 30
0.0
  0
VERTEX
  5
905
  8
CLUSTERS
 10
735248.67724899994
 20
4563348.3057899997
 30
0.0
  0
VERTEX
  5
906
  8
CLUSTERS
 10
735266.05734699999
 20
4563364.3122699996
 30
0.0
  0
VERTEX
  5
907
  8
CLUSTERS
 10
735281.30099200003
 20
4563464.68401
 30
0.0
  0
VERTEX
  5
908
  8
CLUSTERS
 10
735340.03112020285
 20
4563484.1527601918
 30
0.0
  0
VERTEX
  5
909
  8
CLUSTERS
 10
735417.22147100011
 20
4563464.68401
 30
0.0
  0
VERTEX
  5
90A
  8
CLUSTERS
 10
735449.73545000015
 20
4563458.3862400008
 30
0.0
  0
VERTEX
  5
90B
  8
CLUSTERS
 10
735544.00204699999
 20
4563364.3122699996
 30
0.0
  0
VERTEX
  5
90C
  8
CLUSTERS
 10
735550.26454999996
 20
4563358.5307100005
 30
0.0
  0
VERTEX
  5
90D
  8
CLUSTERS
 10
735644.96484100004
 20
4563263.9405199997
 30
0.0
  0
VERTEX
  5
90E
  8
CLUSTERS
 10
735642.43985600001
 20
4563163.5687699998
 30
0.0
  0
VERTEX
  5
90F
  8
CLUSTERS
 10
735550.26454999996
 20
4563068.3276199987
 30
0.0
  0
VERTEX
  5
910
  8
CLUSTERS
 10
735527.41077199986
 20
4563063.1970300004
 30
0.0
  0
VERTEX
  5
911
  8
CLUSTERS
 10
735526.40825600014
 20
4562962.8252800005
 30
0.0
  0
VERTEX
  5
912
  8
CLUSTERS
 10
735465.29969872825
 20
4562902.8917768067
 30
0.0
  0
VERTEX
  5
913
  8
CLUSTERS
 10
735408.59313507145
 20
4562825.6072537489
 30
0.0
  0
VERTEX
  5
914
  8
CLUSTERS
 10
735349.20634899999
 20
4562763.3071999997
 30
0.0
  0
VERTEX
  5
915
  8
CLUSTERS
 10
735340.67791700014
 20
4562762.0817799987
 30
0.0
  0
VERTEX
  5
916
  8
CLUSTERS
 10
735256.51671677502
 20
4562717.408934284
 30
0.0
  0
VERTEX
  5
917
  8
CLUSTERS
 10
735159.76603000006
 20
4562762.0817799987
 30
0.0
  0
VERTEX
  5
918
  8
CLUSTERS
 10
735148.14814800001
 20
4562764.8142999997
 30
0.0
  0
VERTEX
  5
919
  8
CLUSTERS
 10
735131.69952999998
 20
4562762.0817799987
 30
0.0
  0
VERTEX
  5
91A
  8
CLUSTERS
 10
735047.61904800008
 20
4562678.3755499991
 30
0.0
  0
VERTEX
  5
91B
  8
CLUSTERS
 10
735016.26799199998
 20
4562661.7100400003
 30
0.0
  0
VERTEX
  5
91C
  8
CLUSTERS
 10
734947.08994700003
 20
4562592.6803200003
 30
0.0
  0
VERTEX
  5
91D
  8
CLUSTERS
 10
734908.46361899993
 20
4562561.3382900003
 30
0.0
  0
VERTEX
  5
91E
  8
CLUSTERS
 10
734846.56084699999
 20
4562499.5365500003
 30
0.0
  0
VERTEX
  5
91F
  8
CLUSTERS
 10
734813.15859600005
 20
4562460.9665400004
 30
0.0
  0
VERTEX
  5
920
  8
CLUSTERS
 10
734788.20057108277
 20
4562405.1430649031
 30
0.0
  0
VERTEX
  5
921
  8
CLUSTERS
 10
734645.6332676172
 20
4562423.7277722964
 30
0.0
  0
VERTEX
  5
922
  8
CLUSTERS
 10
734586.34918557282
 20
4562508.7407284379
 30
0.0
  0
SEQEND
  5
923
  8
CLUSTERS
  0
POLYLINE
  5
165
  8
CLUSTERS
 66
     1
 10
0.0
 20
0.0
 30
0.0
 70
   129
  0
VERTEX
  5
924
  8
CLUSTERS
 10
733297.70500321535
 20
4562299.8432842493
 30
0.0
  0
VERTEX
  5
925
  8
CLUSTERS
 10
733439.1534389999
 20
4562431.7244800003
 30
0.0
  0
VERTEX
  5
926
  8
CLUSTERS
 10
733510.42150299996
 20
4562360.5947999991
 30
0.0
  0
VERTEX
  5
927
  8
CLUSTERS
 10
733402.73620507156
 20
4562226.3617599485
 30
0.0
  0
VERTEX
  5
928
  8
CLUSTERS
 10
733297.70500321535
 20
4562299.8432842493
 30
0.0
  0
SEQEND
  5
929
  8
CLUSTERS
  0
POLYLINE
  5
166
  8
CLUSTERS
 66
     1
 10
0.0
 20
0.0
 30
0.0
 70
   129
  0
VERTEX
  5
92A
  8
CLUSTERS
 10
733846.86485400004
 20
4562260.2230500001
 30
0.0
  0
VERTEX
  5
92B
  8
CLUSTERS
 10
733859.73378500005
 20
4562360.5947999991
 30
0.0
  0
VERTEX
  5
92C
  8
CLUSTERS
 10
733941.79894200014
 20
4562442.5196399996
 30
0.0
  0
VERTEX
  5
92D
  8
CLUSTERS
 10
734042.32804200007
 20
4562402.6591899991
 30
0.0
  0
VERTEX
  5
92E
  8
CLUSTERS
 10
734108.50997899985
 20
4562460.9665400004
 30
0.0
  0
VERTEX
  5
92F
  8
CLUSTERS
 10
734142.857143
 20
4562495.2423799988
 30
0.0
  0
VERTEX
  5
930
  8
CLUSTERS
 10
734243.38624300004
 20
4562526.9427100001
 30
0.0
  0
VERTEX
  5
931
  8
CLUSTERS
 10
734343.9153440001
 20
4562515.6916300002
 30
0.0
  0
VERTEX
  5
932
  8
CLUSTERS
 10
734398.74106800021
 20
4562460.9665400004
 30
0.0
  0
VERTEX
  5
933
  8
CLUSTERS
 10
734343.92538899998
 20
4562360.5947999991
 30
0.0
  0
VERTEX
  5
934
  8
CLUSTERS
 10
734343.9153440001
 20
4562360.5847699987
 30
0.0
  0
VERTEX
  5
935
  8
CLUSTERS
 10
734243.38624300004
 20
4562360.5738199996
 30
0.0
  0
VERTEX
  5
936
  8
CLUSTERS
 10
734243.36520500015
 20
4562360.5947999991
 30
0.0
  0
VERTEX
  5
937
  8
CLUSTERS
 10
734142.857143
 20
4562426.6601900002
 30
0.0
  0
VERTEX
  5
938
  8
CLUSTERS
 10
734084.47241500008
 20
4562360.5947999991
 30
0.0
  0
VERTEX
  5
939
  8
CLUSTERS
 10
734042.32804200007
 20
4562318.3760900013
 30
0.0
  0
VERTEX
  5
93A
  8
CLUSTERS
 10
734036.74952800025
 20
4562260.2230500001
 30
0.0
  0
VERTEX
  5
93B
  8
CLUSTERS
 10
733941.79894200014
 20
4562165.4229799993
 30
0.0
  0
VERTEX
  5
93C
  8
CLUSTERS
 10
733846.86485400004
 20
4562260.2230500001
 30
0.0
  0
SEQEND
  5
93D
  8
CLUSTERS
  0
POLYLINE
  5
167
  8
CLUSTERS
 66
     1
 10
0.0
 20
0.0
 30
0.0
 70
   129
  0
VERTEX
  5
93E
  8
CLUSTERS
 10
736694.78069199994
 20
4562159.8513000011
 30
0.0
  0
VERTEX
  5
93F
  8
CLUSTERS
 10
736756.61375699996
 20
4562221.5839799987
 30
0.0
  0
VERTEX
  5
940
  8
CLUSTERS
 10
736818.45048
 20
4562159.8513000011
 30
0.0
  0
VERTEX
  5
941
  8
CLUSTERS
 10
736756.61375699996
 20
4562098.1102499999
 30
0.0
  0
VERTEX
  5
942
  8
CLUSTERS
 10
736694.78069199994
 20
4562159.8513000011
 30
0.0
  0
SEQEND
  5
943
  8
CLUSTERS
  0
POLYLINE
  5
168
  8
CLUSTERS
 66
     1
 10
0.0
 20
0.0
 30
0.0
 70
   129
  0
VERTEX
  5
944
  8
CLUSTERS
 10
735971.23248600017
 20
4562159.8513000011
 30
0.0
  0
VERTEX
  5
945
  8
CLUSTERS
 10
735983.80542899994
 20
4562260.2230500001
 30
0.0
  0
VERTEX
  5
946
  8
CLUSTERS
 10
736052.91005299997
 20
4562329.2150299996
 30
0.0
  0
VERTEX
  5
947
  8
CLUSTERS
 10
736122.01304300001
 20
4562260.2230500001
 30
0.0
  0
VERTEX
  5
948
  8
CLUSTERS
 10
736129.0353339999
 20
4562159.8513000011
 30
0.0
  0
VERTEX
  5
949
  8
CLUSTERS
 10
736052.91005299997
 20
4562083.8432799987
 30
0.0
  0
VERTEX
  5
94A
  8
CLUSTERS
 10
735971.23248600017
 20
4562159.8513000011
 30
0.0
  0
SEQEND
  5
94B
  8
CLUSTERS
  0
POLYLINE
  5
169
  8
CLUSTERS
 66
     1
 10
0.0
 20
0.0
 30
0.0
 70
   129
  0
VERTEX
  5
94C
  8
CLUSTERS
 10
735637.99665050197
 20
4562168.6888398016
 30
0.0
  0
VERTEX
  5
94D
  8
CLUSTERS
 10
735682.64979950199
 20
4562213.271079801
 30
0.0
  0
VERTEX
  5
94E
  8
CLUSTERS
 10
735732.88480150187
 20
4562168.6888398016
 30
0.0
  0
VERTEX
  5
94F
  8
CLUSTERS
 10
735682.64979950199
 20
4562124.1038598018
 30
0.0
  0
VERTEX
  5
950
  8
CLUSTERS
 10
735637.99665050197
 20
4562168.6888398016
 30
0.0
  0
SEQEND
  5
951
  8
CLUSTERS
  0
POLYLINE
  5
16A
  8
CLUSTERS
 66
     1
 10
0.0
 20
0.0
 30
0.0
 70
   129
  0
VERTEX
  5
952
  8
CLUSTERS
 10
732063.85422399989
 20
4562159.8513000011
 30
0.0
  0
VERTEX
  5
953
  8
CLUSTERS
 10
732263.14710468636
 20
4562284.0972112939
 30
0.0
  0
VERTEX
  5
954
  8
CLUSTERS
 10
732352.42367134138
 20
4562158.1290120604
 30
0.0
  0
VERTEX
  5
955
  8
CLUSTERS
 10
732132.27513199998
 20
4562091.4425999997
 30
0.0
  0
VERTEX
  5
956
  8
CLUSTERS
 10
732063.85422399989
 20
4562159.8513000011
 30
0.0
  0
SEQEND
  5
957
  8
CLUSTERS
  0
POLYLINE
  5
16B
  8
CLUSTERS
 66
     1
 10
0.0
 20
0.0
 30
0.0
 70
   129
  0
VERTEX
  5
958
  8
CLUSTERS
 10
734463.75039399986
 20
4562059.4795500003
 30
0.0
  0
VERTEX
  5
959
  8
CLUSTERS
 10
734449.05473600025
 20
4562159.8513000011
 30
0.0
  0
VERTEX
  5
95A
  8
CLUSTERS
 10
734544.97354499996
 20
4562255.6209900007
 30
0.0
  0
VERTEX
  5
95B
  8
CLUSTERS
 10
734572.84748999996
 20
4562260.2230500001
 30
0.0
  0
VERTEX
  5
95C
  8
CLUSTERS
 10
734692.0295001393
 20
4562307.8009556774
 30
0.0
  0
VERTEX
  5
95D
  8
CLUSTERS
 10
734727.18786399986
 20
4562260.2230500001
 30
0.0
  0
VERTEX
  5
95E
  8
CLUSTERS
 10
734645.50264600024
 20
4562187.6573400004
 30
0.0
  0
VERTEX
  5
95F
  8
CLUSTERS
 10
734640.89867799997
 20
4562159.8513000011
 30
0.0
  0
VERTEX
  5
960
  8
CLUSTERS
 10
734626.19766300009
 20
4562059.4795500003
 30
0.0
  0
VERTEX
  5
961
  8
CLUSTERS
 10
734544.97354499996
 20
4561978.3925099997
 30
0.0
  0
VERTEX
  5
962
  8
CLUSTERS
 10
734463.75039399986
 20
4562059.4795500003
 30
0.0
  0
SEQEND
  5
963
  8
CLUSTERS
  0
POLYLINE
  5
16C
  8
CLUSTERS
 66
     1
 10
0.0
 20
0.0
 30
0.0
 70
   129
  0
VERTEX
  5
964
  8
CLUSTERS
 10
734078.56840380165
 20
4562027.0005795667
 30
0.0
  0
VERTEX
  5
965
  8
CLUSTERS
 10
734142.857143
 20
4562112.4656199999
 30
0.0
  0
VERTEX
  5
966
  8
CLUSTERS
 10
734195.92906000011
 20
4562059.4795500003
 30
0.0
  0
VERTEX
  5
967
  8
CLUSTERS
 10
734127.54228350357
 20
4561983.2059972808
 30
0.0
  0
VERTEX
  5
968
  8
CLUSTERS
 10
734078.56840380165
 20
4562027.0005795667
 30
0.0
  0
SEQEND
  5
969
  8
CLUSTERS
  0
POLYLINE
  5
16D
  8
CLUSTERS
 66
     1
 10
0.0
 20
0.0
 30
0.0
 70
   129
  0
VERTEX
  5
96A
  8
CLUSTERS
 10
735694.70321415889
 20
4561957.4444895945
 30
0.0
  0
VERTEX
  5
96B
  8
CLUSTERS
 10
735741.09931788885
 20
4562006.3913606042
 30
0.0
  0
VERTEX
  5
96C
  8
CLUSTERS
 10
735916.46717800002
 20
4561959.107809999
 30
0.0
  0
VERTEX
  5
96D
  8
CLUSTERS
 10
735859.66748197761
 20
4561872.431533454
 30
0.0
  0
VERTEX
  5
96E
  8
CLUSTERS
 10
735694.70321415889
 20
4561957.4444895945
 30
0.0
  0
SEQEND
  5
96F
  8
CLUSTERS
  0
POLYLINE
  5
16E
  8
CLUSTERS
 66
     1
 10
0.0
 20
0.0
 30
0.0
 70
   129
  0
VERTEX
  5
970
  8
CLUSTERS
 10
735465.29969872825
 20
4561877.5838221777
 30
0.0
  0
VERTEX
  5
971
  8
CLUSTERS
 10
735552.60163972806
 20
4561964.7486321768
 30
0.0
  0
VERTEX
  5
972
  8
CLUSTERS
 10
735639.90371172817
 20
4561877.5838221777
 30
0.0
  0
VERTEX
  5
973
  8
CLUSTERS
 10
735552.60163972806
 20
4561790.4174821768
 30
0.0
  0
VERTEX
  5
974
  8
CLUSTERS
 10
735465.29969872825
 20
4561877.5838221777
 30
0.0
  0
SEQEND
  5
975
  8
CLUSTERS
  0
POLYLINE
  5
16F
  8
CLUSTERS
 66
     1
 10
0.0
 20
0.0
 30
0.0
 70
   129
  0
VERTEX
  5
976
  8
CLUSTERS
 10
736865.761527
 20
4561758.364310001
 30
0.0
  0
VERTEX
  5
977
  8
CLUSTERS
 10
736864.76361599995
 20
4561858.73606
 30
0.0
  0
VERTEX
  5
978
  8
CLUSTERS
 10
736957.67195800005
 20
4561951.5223700013
 30
0.0
  0
VERTEX
  5
979
  8
CLUSTERS
 10
736965.50498600001
 20
4561959.107809999
 30
0.0
  0
VERTEX
  5
97A
  8
CLUSTERS
 10
736968.84484599996
 20
4562059.4795500003
 30
0.0
  0
VERTEX
  5
97B
  8
CLUSTERS
 10
737058.20105799998
 20
4562148.7319599995
 30
0.0
  0
VERTEX
  5
97C
  8
CLUSTERS
 10
737077.38914600003
 20
4562159.8513000011
 30
0.0
  0
VERTEX
  5
97D
  8
CLUSTERS
 10
737058.20105799998
 20
4562198.2712299991
 30
0.0
  0
VERTEX
  5
97E
  8
CLUSTERS
 10
736996.29948800011
 20
4562260.2230500001
 30
0.0
  0
VERTEX
  5
97F
  8
CLUSTERS
 10
736985.58596899977
 20
4562360.5947999991
 30
0.0
  0
VERTEX
  5
980
  8
CLUSTERS
 10
737020.48567199998
 20
4562460.9665400004
 30
0.0
  0
VERTEX
  5
981
  8
CLUSTERS
 10
737008.00049700006
 20
4562561.3382900003
 30
0.0
  0
VERTEX
  5
982
  8
CLUSTERS
 10
737058.20105799998
 20
4562611.4491699999
 30
0.0
  0
VERTEX
  5
983
  8
CLUSTERS
 10
737108.45443200006
 20
4562561.3382900003
 30
0.0
  0
VERTEX
  5
984
  8
CLUSTERS
 10
737108.93998399994
 20
4562460.9665400004
 30
0.0
  0
VERTEX
  5
985
  8
CLUSTERS
 10
737158.73015900003
 20
4562401.5355799999
 30
0.0
  0
VERTEX
  5
986
  8
CLUSTERS
 10
737161.96060899994
 20
4562460.9665400004
 30
0.0
  0
VERTEX
  5
987
  8
CLUSTERS
 10
737259.25925899995
 20
4562556.0392500004
 30
0.0
  0
VERTEX
  5
988
  8
CLUSTERS
 10
737273.25854299997
 20
4562561.3382900003
 30
0.0
  0
VERTEX
  5
989
  8
CLUSTERS
 10
737301.15433100006
 20
4562661.7100400003
 30
0.0
  0
VERTEX
  5
98A
  8
CLUSTERS
 10
737359.78836000001
 20
4562720.20266
 30
0.0
  0
VERTEX
  5
98B
  8
CLUSTERS
 10
737418.39218800014
 20
4562661.7100400003
 30
0.0
  0
VERTEX
  5
98C
  8
CLUSTERS
 10
737446.22355600004
 20
4562561.3382900003
 30
0.0
  0
VERTEX
  5
98D
  8
CLUSTERS
 10
737452.31591200014
 20
4562460.9665400004
 30
0.0
  0
VERTEX
  5
98E
  8
CLUSTERS
 10
737359.78836000001
 20
4562368.2357300008
 30
0.0
  0
VERTEX
  5
98F
  8
CLUSTERS
 10
737341.58325100015
 20
4562360.5947999991
 30
0.0
  0
VERTEX
  5
990
  8
CLUSTERS
 10
737344.3134189999
 20
4562260.2230500001
 30
0.0
  0
VERTEX
  5
991
  8
CLUSTERS
 10
737348.55347900011
 20
4562159.8513000011
 30
0.0
  0
VERTEX
  5
992
  8
CLUSTERS
 10
737357.68369500001
 20
4562059.4795500003
 30
0.0
  0
VERTEX
  5
993
  8
CLUSTERS
 10
737259.25925899995
 20
4561968.8282300001
 30
0.0
  0
VERTEX
  5
994
  8
CLUSTERS
 10
737251.37669900001
 20
4561959.107809999
 30
0.0
  0
VERTEX
  5
995
  8
CLUSTERS
 10
737158.73015900003
 20
4561866.6308199987
 30
0.0
  0
VERTEX
  5
996
  8
CLUSTERS
 10
737127.09531799995
 20
4561858.73606
 30
0.0
  0
VERTEX
  5
997
  8
CLUSTERS
 10
737058.20105799998
 20
4561790.0169799989
 30
0.0
  0
VERTEX
  5
998
  8
CLUSTERS
 10
737049.58544399997
 20
4561758.364310001
 30
0.0
  0
VERTEX
  5
999
  8
CLUSTERS
 10
736957.67195800005
 20
4561666.6009799996
 30
0.0
  0
VERTEX
  5
99A
  8
CLUSTERS
 10
736865.761527
 20
4561758.364310001
 30
0.0
  0
SEQEND
  5
99B
  8
CLUSTERS
  0
POLYLINE
  5
170
  8
CLUSTERS
 66
     1
 10
0.0
 20
0.0
 30
0.0
 70
   129
  0
VERTEX
  5
99C
  8
CLUSTERS
 10
732361.02969100012
 20
4561657.9925699988
 30
0.0
  0
VERTEX
  5
99D
  8
CLUSTERS
 10
732343.34204500006
 20
4561758.364310001
 30
0.0
  0
VERTEX
  5
99E
  8
CLUSTERS
 10
732360.64745399996
 20
4561858.73606
 30
0.0
  0
VERTEX
  5
99F
  8
CLUSTERS
 10
732433.86243400001
 20
4561931.8156000003
 30
0.0
  0
VERTEX
  5
9A0
  8
CLUSTERS
 10
732525.44301699998
 20
4561858.73606
 30
0.0
  0
VERTEX
  5
9A1
  8
CLUSTERS
 10
732534.39153399994
 20
4561857.2153000003
 30
0.0
  0
VERTEX
  5
9A2
  8
CLUSTERS
 10
732629.51830899995
 20
4561758.364310001
 30
0.0
  0
VERTEX
  5
9A3
  8
CLUSTERS
 10
732631.775823
 20
4561657.9925699988
 30
0.0
  0
VERTEX
  5
9A4
  8
CLUSTERS
 10
732534.39153399994
 20
4561560.8140099989
 30
0.0
  0
VERTEX
  5
9A5
  8
CLUSTERS
 10
732433.86243400001
 20
4561585.1592199989
 30
0.0
  0
VERTEX
  5
9A6
  8
CLUSTERS
 10
732361.02969100012
 20
4561657.9925699988
 30
0.0
  0
SEQEND
  5
9A7
  8
CLUSTERS
  0
POLYLINE
  5
171
  8
CLUSTERS
 66
     1
 10
0.0
 20
0.0
 30
0.0
 70
   129
  0
VERTEX
  5
9A8
  8
CLUSTERS
 10
733669.79249699996
 20
4561557.6208199998
 30
0.0
  0
VERTEX
  5
9A9
  8
CLUSTERS
 10
733671.64654899994
 20
4561657.9925699988
 30
0.0
  0
VERTEX
  5
9AA
  8
CLUSTERS
 10
733740.74074100005
 20
4561726.9773500003
 30
0.0
  0
VERTEX
  5
9AB
  8
CLUSTERS
 10
733841.26984099997
 20
4561702.5799200013
 30
0.0
  0
VERTEX
  5
9AC
  8
CLUSTERS
 10
733885.92772599997
 20
4561657.9925699988
 30
0.0
  0
VERTEX
  5
9AD
  8
CLUSTERS
 10
733841.26984099997
 20
4561607.8008899996
 30
0.0
  0
VERTEX
  5
9AE
  8
CLUSTERS
 10
733816.14156100014
 20
4561557.6208199998
 30
0.0
  0
VERTEX
  5
9AF
  8
CLUSTERS
 10
733740.74074100005
 20
4561486.7797900001
 30
0.0
  0
VERTEX
  5
9B0
  8
CLUSTERS
 10
733669.79249699996
 20
4561557.6208199998
 30
0.0
  0
SEQEND
  5
9B1
  8
CLUSTERS
  0
POLYLINE
  5
172
  8
CLUSTERS
 66
     1
 10
0.0
 20
0.0
 30
0.0
 70
   129
  0
VERTEX
  5
9B2
  8
CLUSTERS
 10
735526.31266220426
 20
4561438.382809924
 30
0.0
  0
VERTEX
  5
9B3
  8
CLUSTERS
 10
735619.9537642044
 20
4561511.7704899246
 30
0.0
  0
VERTEX
  5
9B4
  8
CLUSTERS
 10
735693.45650620444
 20
4561438.382809924
 30
0.0
  0
VERTEX
  5
9B5
  8
CLUSTERS
 10
735619.9537642044
 20
4561364.9948499249
 30
0.0
  0
VERTEX
  5
9B6
  8
CLUSTERS
 10
735526.31266220426
 20
4561438.382809924
 30
0.0
  0
SEQEND
  5
9B7
  8
CLUSTERS
  0
POLYLINE
  5
173
  8
CLUSTERS
 66
     1
 10
0.0
 20
0.0
 30
0.0
 70
   129
  0
VERTEX
  5
9B8
  8
CLUSTERS
 10
734184.7611410002
 20
4561457.2490699999
 30
0.0
  0
VERTEX
  5
9B9
  8
CLUSTERS
 10
734243.38624300004
 20
4561515.7867099997
 30
0.0
  0
VERTEX
  5
9BA
  8
CLUSTERS
 10
734289.09262000001
 20
4561557.6208199998
 30
0.0
  0
VERTEX
  5
9BB
  8
CLUSTERS
 10
734343.9153440001
 20
4561612.3533899998
 30
0.0
  0
VERTEX
  5
9BC
  8
CLUSTERS
 10
734398.18673709675
 20
4561607.0880235126
 30
0.0
  0
VERTEX
  5
9BD
  8
CLUSTERS
 10
734444.44444399991
 20
4561544.5551000005
 30
0.0
  0
VERTEX
  5
9BE
  8
CLUSTERS
 10
734586.34918557282
 20
4561552.9888637802
 30
0.0
  0
VERTEX
  5
9BF
  8
CLUSTERS
 10
734676.56413222943
 20
4561504.0419927714
 30
0.0
  0
VERTEX
  5
9C0
  8
CLUSTERS
 10
734544.97354499996
 20
4561375.1223099986
 30
0.0
  0
VERTEX
  5
9C1
  8
CLUSTERS
 10
734444.44444399991
 20
4561369.9436099986
 30
0.0
  0
VERTEX
  5
9C2
  8
CLUSTERS
 10
734356.99908400013
 20
4561457.2490699999
 30
0.0
  0
VERTEX
  5
9C3
  8
CLUSTERS
 10
734343.9153440001
 20
4561502.86931
 30
0.0
  0
VERTEX
  5
9C4
  8
CLUSTERS
 10
734302.02998800005
 20
4561457.2490699999
 30
0.0
  0
VERTEX
  5
9C5
  8
CLUSTERS
 10
734243.38624300004
 20
4561398.7137900004
 30
0.0
  0
VERTEX
  5
9C6
  8
CLUSTERS
 10
734184.7611410002
 20
4561457.2490699999
 30
0.0
  0
SEQEND
  5
9C7
  8
CLUSTERS
  0
POLYLINE
  5
174
  8
CLUSTERS
 66
     1
 10
0.0
 20
0.0
 30
0.0
 70
   129
  0
VERTEX
  5
9C8
  8
CLUSTERS
 10
736706.31371600006
 20
4561256.5055799987
 30
0.0
  0
VERTEX
  5
9C9
  8
CLUSTERS
 10
736756.61375699996
 20
4561306.6885900004
 30
0.0
  0
VERTEX
  5
9CA
  8
CLUSTERS
 10
736857.142857
 20
4561325.8905699998
 30
0.0
  0
VERTEX
  5
9CB
  8
CLUSTERS
 10
736926.63596100011
 20
4561256.5055799987
 30
0.0
  0
VERTEX
  5
9CC
  8
CLUSTERS
 10
736857.142857
 20
4561187.1183999991
 30
0.0
  0
VERTEX
  5
9CD
  8
CLUSTERS
 10
736756.61375699996
 20
4561206.3201400004
 30
0.0
  0
VERTEX
  5
9CE
  8
CLUSTERS
 10
736706.31371600006
 20
4561256.5055799987
 30
0.0
  0
SEQEND
  5
9CF
  8
CLUSTERS
  0
POLYLINE
  5
175
  8
CLUSTERS
 66
     1
 10
0.0
 20
0.0
 30
0.0
 70
   129
  0
VERTEX
  5
9D0
  8
CLUSTERS
 10
734578.48483900004
 20
4561256.5055799987
 30
0.0
  0
VERTEX
  5
9D1
  8
CLUSTERS
 10
734645.50264600024
 20
4561323.42093
 30
0.0
  0
VERTEX
  5
9D2
  8
CLUSTERS
 10
734746.03174600005
 20
4561337.1188000003
 30
0.0
  0
VERTEX
  5
9D3
  8
CLUSTERS
 10
734826.77088899992
 20
4561256.5055799987
 30
0.0
  0
VERTEX
  5
9D4
  8
CLUSTERS
 10
734746.03174600005
 20
4561175.89224
 30
0.0
  0
VERTEX
  5
9D5
  8
CLUSTERS
 10
734645.50264600024
 20
4561189.5930500003
 30
0.0
  0
VERTEX
  5
9D6
  8
CLUSTERS
 10
734578.48483900004
 20
4561256.5055799987
 30
0.0
  0
SEQEND
  5
9D7
  8
CLUSTERS
  0
POLYLINE
  5
176
  8
CLUSTERS
 66
     1
 10
0.0
 20
0.0
 30
0.0
 70
   129
  0
VERTEX
  5
9D8
  8
CLUSTERS
 10
732153.52016499999
 20
4561256.5055799987
 30
0.0
  0
VERTEX
  5
9D9
  8
CLUSTERS
 10
732150.9168560002
 20
4561356.87732
 30
0.0
  0
VERTEX
  5
9DA
  8
CLUSTERS
 10
732232.80423300015
 20
4561438.6438999986
 30
0.0
  0
VERTEX
  5
9DB
  8
CLUSTERS
 10
732315.08243300009
 20
4561356.87732
 30
0.0
  0
VERTEX
  5
9DC
  8
CLUSTERS
 10
732333.33333300008
 20
4561352.6328999996
 30
0.0
  0
VERTEX
  5
9DD
  8
CLUSTERS
 10
732406.82060439582
 20
4561218.300114451
 30
0.0
  0
VERTEX
  5
9DE
  8
CLUSTERS
 10
732333.33333300008
 20
4561160.3778999997
 30
0.0
  0
VERTEX
  5
9DF
  8
CLUSTERS
 10
732232.80423300015
 20
4561177.2122499999
 30
0.0
  0
VERTEX
  5
9E0
  8
CLUSTERS
 10
732153.52016499999
 20
4561256.5055799987
 30
0.0
  0
SEQEND
  5
9E1
  8
CLUSTERS
  0
POLYLINE
  5
177
  8
CLUSTERS
 66
     1
 10
0.0
 20
0.0
 30
0.0
 70
   129
  0
VERTEX
  5
9E2
  8
CLUSTERS
 10
736459.59076599998
 20
4561156.1338299988
 30
0.0
  0
VERTEX
  5
9E3
  8
CLUSTERS
 10
736458.61159899994
 20
4561256.5055799987
 30
0.0
  0
VERTEX
  5
9E4
  8
CLUSTERS
 10
736555.55555600021
 20
4561353.29636
 30
0.0
  0
VERTEX
  5
9E5
  8
CLUSTERS
 10
736652.49961499986
 20
4561256.5055799987
 30
0.0
  0
VERTEX
  5
9E6
  8
CLUSTERS
 10
736651.52029499994
 20
4561156.1338299988
 30
0.0
  0
VERTEX
  5
9E7
  8
CLUSTERS
 10
736555.55555600021
 20
4561060.3200699994
 30
0.0
  0
VERTEX
  5
9E8
  8
CLUSTERS
 10
736459.59076599998
 20
4561156.1338299988
 30
0.0
  0
SEQEND
  5
9E9
  8
CLUSTERS
  0
POLYLINE
  5
178
  8
CLUSTERS
 66
     1
 10
0.0
 20
0.0
 30
0.0
 70
   129
  0
VERTEX
  5
9EA
  8
CLUSTERS
 10
733558.62912276224
 20
4561109.7042477746
 30
0.0
  0
VERTEX
  5
9EB
  8
CLUSTERS
 10
733640.21164000011
 20
4561238.5761599997
 30
0.0
  0
VERTEX
  5
9EC
  8
CLUSTERS
 10
733722.78872399987
 20
4561156.1338299988
 30
0.0
  0
VERTEX
  5
9ED
  8
CLUSTERS
 10
733640.21164000011
 20
4561073.6864200002
 30
0.0
  0
VERTEX
  5
9EE
  8
CLUSTERS
 10
733558.62912276224
 20
4561109.7042477746
 30
0.0
  0
SEQEND
  5
9EF
  8
CLUSTERS
  0
POLYLINE
  5
179
  8
CLUSTERS
 66
     1
 10
0.0
 20
0.0
 30
0.0
 70
   129
  0
VERTEX
  5
9F0
  8
CLUSTERS
 10
733385.93217098841
 20
4561181.8364821086
 30
0.0
  0
VERTEX
  5
9F1
  8
CLUSTERS
 10
733439.1534389999
 20
4561200.6803099997
 30
0.0
  0
VERTEX
  5
9F2
  8
CLUSTERS
 10
733465.83678651019
 20
4561166.3795518698
 30
0.0
  0
VERTEX
  5
9F3
  8
CLUSTERS
 10
733439.1534389999
 20
4561111.5825099992
 30
0.0
  0
VERTEX
  5
9F4
  8
CLUSTERS
 10
733385.93217098841
 20
4561181.8364821086
 30
0.0
  0
SEQEND
  5
9F5
  8
CLUSTERS
  0
POLYLINE
  5
17A
  8
CLUSTERS
 66
     1
 10
0.0
 20
0.0
 30
0.0
 70
   129
  0
VERTEX
  5
9F6
  8
CLUSTERS
 10
736781.74989700003
 20
4560955.3903299998
 30
0.0
  0
VERTEX
  5
9F7
  8
CLUSTERS
 10
736857.142857
 20
4561030.6647500005
 30
0.0
  0
VERTEX
  5
9F8
  8
CLUSTERS
 10
736932.534904
 20
4560955.3903299998
 30
0.0
  0
VERTEX
  5
9F9
  8
CLUSTERS
 10
736857.142857
 20
4560880.1156099988
 30
0.0
  0
VERTEX
  5
9FA
  8
CLUSTERS
 10
736781.74989700003
 20
4560955.3903299998
 30
0.0
  0
SEQEND
  5
9FB
  8
CLUSTERS
  0
POLYLINE
  5
17B
  8
CLUSTERS
 66
     1
 10
0.0
 20
0.0
 30
0.0
 70
   129
  0
VERTEX
  5
9FC
  8
CLUSTERS
 10
732041.13454699994
 20
4560855.0185900005
 30
0.0
  0
VERTEX
  5
9FD
  8
CLUSTERS
 10
732031.74603200005
 20
4560936.9305699999
 30
0.0
  0
VERTEX
  5
9FE
  8
CLUSTERS
 10
732013.45687999995
 20
4560955.3903299998
 30
0.0
  0
VERTEX
  5
9FF
  8
CLUSTERS
 10
731954.54541899997
 20
4561055.7620799998
 30
0.0
  0
VERTEX
  5
A00
  8
CLUSTERS
 10
732031.74603200005
 20
4561132.8696900001
 30
0.0
  0
VERTEX
  5
A01
  8
CLUSTERS
 10
732125.4145930002
 20
4561055.7620799998
 30
0.0
  0
VERTEX
  5
A02
  8
CLUSTERS
 10
732132.27513199998
 20
4561055.0032900004
 30
0.0
  0
VERTEX
  5
A03
  8
CLUSTERS
 10
732232.80423300015
 20
4561041.3573599989
 30
0.0
  0
VERTEX
  5
A04
  8
CLUSTERS
 10
732286.03463854641
 20
4560971.6123001892
 30
0.0
  0
VERTEX
  5
A05
  8
CLUSTERS
 10
732329.5624980001
 20
4560855.0185900005
 30
0.0
  0
VERTEX
  5
A06
  8
CLUSTERS
 10
732232.80423300015
 20
4560763.9705800004
 30
0.0
  0
VERTEX
  5
A07
  8
CLUSTERS
 10
732132.27513199998
 20
4560764.0122299986
 30
0.0
  0
VERTEX
  5
A08
  8
CLUSTERS
 10
732041.13454699994
 20
4560855.0185900005
 30
0.0
  0
SEQEND
  5
A09
  8
CLUSTERS
  0
POLYLINE
  5
17C
  8
CLUSTERS
 66
     1
 10
0.0
 20
0.0
 30
0.0
 70
   129
  0
VERTEX
  5
A0A
  8
CLUSTERS
 10
733460.68162094289
 20
4560728.4339852864
 30
0.0
  0
VERTEX
  5
A0B
  8
CLUSTERS
 10
733539.68253999995
 20
4560823.6335899998
 30
0.0
  0
VERTEX
  5
A0C
  8
CLUSTERS
 10
733608.78105600015
 20
4560754.6468399996
 30
0.0
  0
VERTEX
  5
A0D
  8
CLUSTERS
 10
733504.50020628527
 20
4560687.2155473614
 30
0.0
  0
VERTEX
  5
A0E
  8
CLUSTERS
 10
733460.68162094289
 20
4560728.4339852864
 30
0.0
  0
SEQEND
  5
A0F
  8
CLUSTERS
  0
POLYLINE
  5
17D
  8
CLUSTERS
 66
     1
 10
0.0
 20
0.0
 30
0.0
 70
   129
  0
VERTEX
  5
A10
  8
CLUSTERS
 10
737365.1632239999
 20
4560654.2750899997
 30
0.0
  0
VERTEX
  5
A11
  8
CLUSTERS
 10
737370.1661850001
 20
4560754.6468399996
 30
0.0
  0
VERTEX
  5
A12
  8
CLUSTERS
 10
737384.63188100001
 20
4560855.0185900005
 30
0.0
  0
VERTEX
  5
A13
  8
CLUSTERS
 10
737375.39987199986
 20
4560955.3903299998
 30
0.0
  0
VERTEX
  5
A14
  8
CLUSTERS
 10
737365.89390300005
 20
4561055.7620799998
 30
0.0
  0
VERTEX
  5
A15
  8
CLUSTERS
 10
737460.31746000005
 20
4561150.0278200014
 30
0.0
  0
VERTEX
  5
A16
  8
CLUSTERS
 10
737559.37684600009
 20
4561055.7620799998
 30
0.0
  0
VERTEX
  5
A17
  8
CLUSTERS
 10
737560.8465610001
 20
4561055.2715299996
 30
0.0
  0
VERTEX
  5
A18
  8
CLUSTERS
 10
737659.28659799998
 20
4560955.3903299998
 30
0.0
  0
VERTEX
  5
A19
  8
CLUSTERS
 10
737660.91714300006
 20
4560855.0185900005
 30
0.0
  0
VERTEX
  5
A1A
  8
CLUSTERS
 10
737660.72954199999
 20
4560754.6468399996
 30
0.0
  0
VERTEX
  5
A1B
  8
CLUSTERS
 10
737658.87081300002
 20
4560654.2750899997
 30
0.0
  0
VERTEX
  5
A1C
  8
CLUSTERS
 10
737560.8465610001
 20
4560556.4113999978
 30
0.0
  0
VERTEX
  5
A1D
  8
CLUSTERS
 10
737460.31746000005
 20
4560559.2635300001
 30
0.0
  0
VERTEX
  5
A1E
  8
CLUSTERS
 10
737365.1632239999
 20
4560654.2750899997
 30
0.0
  0
SEQEND
  5
A1F
  8
CLUSTERS
  0
POLYLINE
  5
17E
  8
CLUSTERS
 66
     1
 10
0.0
 20
0.0
 30
0.0
 70
   129
  0
VERTEX
  5
A20
  8
CLUSTERS
 10
729803.26713025942
 20
4560646.1943774242
 30
0.0
  0
VERTEX
  5
A21
  8
CLUSTERS
 10
729885.38341125962
 20
4560728.4373674234
 30
0.0
  0
VERTEX
  5
A22
  8
CLUSTERS
 10
729985.91251225956
 20
4560652.8481874242
 30
0.0
  0
VERTEX
  5
A23
  8
CLUSTERS
 10
729992.61847825965
 20
4560646.1943774242
 30
0.0
  0
VERTEX
  5
A24
  8
CLUSTERS
 10
729985.91251225956
 20
4560639.516397424
 30
0.0
  0
VERTEX
  5
A25
  8
CLUSTERS
 10
729885.38341125962
 20
4560563.7810274241
 30
0.0
  0
VERTEX
  5
A26
  8
CLUSTERS
 10
729803.26713025942
 20
4560646.1943774242
 30
0.0
  0
SEQEND
  5
A27
  8
CLUSTERS
  0
POLYLINE
  5
17F
  8
CLUSTERS
 66
     1
 10
0.0
 20
0.0
 30
0.0
 70
   129
  0
VERTEX
  5
A28
  8
CLUSTERS
 10
741185.42195500014
 20
4560553.9033500003
 30
0.0
  0
VERTEX
  5
A29
  8
CLUSTERS
 10
741212.60054800007
 20
4560654.2750899997
 30
0.0
  0
VERTEX
  5
A2A
  8
CLUSTERS
 10
741280.4232800001
 20
4560719.7802900001
 30
0.0
  0
VERTEX
  5
A2B
  8
CLUSTERS
 10
741380.95238100016
 20
4560735.3822599994
 30
0.0
  0
VERTEX
  5
A2C
  8
CLUSTERS
 10
741461.9177910001
 20
4560654.2750899997
 30
0.0
  0
VERTEX
  5
A2D
  8
CLUSTERS
 10
741455.6215169999
 20
4560553.9033500003
 30
0.0
  0
VERTEX
  5
A2E
  8
CLUSTERS
 10
741380.95238100016
 20
4560478.7991599999
 30
0.0
  0
VERTEX
  5
A2F
  8
CLUSTERS
 10
741280.4232800001
 20
4560461.45261
 30
0.0
  0
VERTEX
  5
A30
  8
CLUSTERS
 10
741185.42195500014
 20
4560553.9033500003
 30
0.0
  0
SEQEND
  5
A31
  8
CLUSTERS
  0
POLYLINE
  5
180
  8
CLUSTERS
 66
     1
 10
0.0
 20
0.0
 30
0.0
 70
   129
  0
VERTEX
  5
A32
  8
CLUSTERS
 10
735248.67522199987
 20
4560553.9033500003
 30
0.0
  0
VERTEX
  5
A33
  8
CLUSTERS
 10
735160.11568300007
 20
4560654.2750899997
 30
0.0
  0
VERTEX
  5
A34
  8
CLUSTERS
 10
735248.67724899994
 20
4560742.69833
 30
0.0
  0
VERTEX
  5
A35
  8
CLUSTERS
 10
735277.89980300015
 20
4560754.6468399996
 30
0.0
  0
VERTEX
  5
A36
  8
CLUSTERS
 10
735349.20634899999
 20
4560825.8408600008
 30
0.0
  0
VERTEX
  5
A37
  8
CLUSTERS
 10
735420.51209199987
 20
4560754.6468399996
 30
0.0
  0
VERTEX
  5
A38
  8
CLUSTERS
 10
735381.77834052115
 20
4560653.8605996547
 30
0.0
  0
VERTEX
  5
A39
  8
CLUSTERS
 10
735349.20634899999
 20
4560561.5651099989
 30
0.0
  0
VERTEX
  5
A3A
  8
CLUSTERS
 10
735248.6797819999
 20
4560553.9033500003
 30
0.0
  0
VERTEX
  5
A3B
  8
CLUSTERS
 10
735248.67724899994
 20
4560553.9013199992
 30
0.0
  0
VERTEX
  5
A3C
  8
CLUSTERS
 10
735248.67522199987
 20
4560553.9033500003
 30
0.0
  0
SEQEND
  5
A3D
  8
CLUSTERS
  0
POLYLINE
  5
181
  8
CLUSTERS
 66
     1
 10
0.0
 20
0.0
 30
0.0
 70
   129
  0
VERTEX
  5
A3E
  8
CLUSTERS
 10
733772.16677999997
 20
4560553.9033500003
 30
0.0
  0
VERTEX
  5
A3F
  8
CLUSTERS
 10
733841.26984099997
 20
4560622.8981799996
 30
0.0
  0
VERTEX
  5
A40
  8
CLUSTERS
 10
733910.37413699995
 20
4560553.9033500003
 30
0.0
  0
VERTEX
  5
A41
  8
CLUSTERS
 10
733841.26984099997
 20
4560484.9075499997
 30
0.0
  0
VERTEX
  5
A42
  8
CLUSTERS
 10
733772.16677999997
 20
4560553.9033500003
 30
0.0
  0
SEQEND
  5
A43
  8
CLUSTERS
  0
POLYLINE
  5
182
  8
CLUSTERS
 66
     1
 10
0.0
 20
0.0
 30
0.0
 70
   129
  0
VERTEX
  5
A44
  8
CLUSTERS
 10
737219.79080408067
 20
4560224.1243442791
 30
0.0
  0
VERTEX
  5
A45
  8
CLUSTERS
 10
737232.09408434061
 20
4560457.242014505
 30
0.0
  0
VERTEX
  5
A46
  8
CLUSTERS
 10
737362.05979169428
 20
4560467.0937984064
 30
0.0
  0
VERTEX
  5
A47
  8
CLUSTERS
 10
737485.97154899559
 20
4560467.0937984064
 30
0.0
  0
VERTEX
  5
A48
  8
CLUSTERS
 10
737599.7034840252
 20
4560436.2472932758
 30
0.0
  0
VERTEX
  5
A49
  8
CLUSTERS
 10
737531.43318349984
 20
4560341.7711758856
 30
0.0
  0
VERTEX
  5
A4A
  8
CLUSTERS
 10
737460.31746000005
 20
4560345.7239400009
 30
0.0
  0
VERTEX
  5
A4B
  8
CLUSTERS
 10
737417.13164724666
 20
4560242.4616509071
 30
0.0
  0
VERTEX
  5
A4C
  8
CLUSTERS
 10
737219.79080408067
 20
4560224.1243442791
 30
0.0
  0
SEQEND
  5
A4D
  8
CLUSTERS
  0
POLYLINE
  5
183
  8
CLUSTERS
 66
     1
 10
0.0
 20
0.0
 30
0.0
 70
   129
  0
VERTEX
  5
A4E
  8
CLUSTERS
 10
735355.01055399992
 20
4560052.0446100002
 30
0.0
  0
VERTEX
  5
A4F
  8
CLUSTERS
 10
735449.73545000015
 20
4560146.6212499999
 30
0.0
  0
VERTEX
  5
A50
  8
CLUSTERS
 10
735544.46034000011
 20
4560052.0446100002
 30
0.0
  0
VERTEX
  5
A51
  8
CLUSTERS
 10
735449.73545000015
 20
4559957.4679999994
 30
0.0
  0
VERTEX
  5
A52
  8
CLUSTERS
 10
735355.01055399992
 20
4560052.0446100002
 30
0.0
  0
SEQEND
  5
A53
  8
CLUSTERS
  0
POLYLINE
  5
184
  8
CLUSTERS
 66
     1
 10
0.0
 20
0.0
 30
0.0
 70
   129
  0
VERTEX
  5
A54
  8
CLUSTERS
 10
733092.0894079461
 20
4559999.3834010744
 30
0.0
  0
VERTEX
  5
A55
  8
CLUSTERS
 10
733137.56613799999
 20
4560096.6123899994
 30
0.0
  0
VERTEX
  5
A56
  8
CLUSTERS
 10
733215.81273760227
 20
4560179.713890804
 30
0.0
  0
VERTEX
  5
A57
  8
CLUSTERS
 10
733282.82950360165
 20
4560192.5946766809
 30
0.0
  0
VERTEX
  5
A58
  8
CLUSTERS
 10
733313.76023942162
 20
4560130.7670838637
 30
0.0
  0
VERTEX
  5
A59
  8
CLUSTERS
 10
733244.16595503455
 20
4560076.6679241303
 30
0.0
  0
VERTEX
  5
A5A
  8
CLUSTERS
 10
733202.92488807987
 20
4560014.8402672438
 30
0.0
  0
VERTEX
  5
A5B
  8
CLUSTERS
 10
733156.52865555789
 20
4559960.7411075113
 30
0.0
  0
VERTEX
  5
A5C
  8
CLUSTERS
 10
733092.0894079461
 20
4559999.3834010744
 30
0.0
  0
SEQEND
  5
A5D
  8
CLUSTERS
  0
POLYLINE
  5
185
  8
CLUSTERS
 66
     1
 10
0.0
 20
0.0
 30
0.0
 70
   129
  0
VERTEX
  5
A5E
  8
CLUSTERS
 10
732777.3708680002
 20
4559851.30112
 30
0.0
  0
VERTEX
  5
A5F
  8
CLUSTERS
 10
732735.44973500003
 20
4559890.5182400001
 30
0.0
  0
VERTEX
  5
A60
  8
CLUSTERS
 10
732616.88313690037
 20
4559853.6442597033
 30
0.0
  0
VERTEX
  5
A61
  8
CLUSTERS
 10
732527.60657024535
 20
4559932.3743682085
 30
0.0
  0
VERTEX
  5
A62
  8
CLUSTERS
 10
732563.08315571363
 20
4559972.3883758327
 30
0.0
  0
VERTEX
  5
A63
  8
CLUSTERS
 10
732570.30633770756
 20
4560010.2893928094
 30
0.0
  0
VERTEX
  5
A64
  8
CLUSTERS
 10
732573.91792870464
 20
4560048.1904738536
 30
0.0
  0
VERTEX
  5
A65
  8
CLUSTERS
 10
732534.39153399994
 20
4560071.3770299992
 30
0.0
  0
VERTEX
  5
A66
  8
CLUSTERS
 10
732494.46254039195
 20
4560156.479194467
 30
0.0
  0
VERTEX
  5
A67
  8
CLUSTERS
 10
732490.85094939498
 20
4560291.8400792144
 30
0.0
  0
VERTEX
  5
A68
  8
CLUSTERS
 10
732472.79286561732
 20
4560358.6181438789
 30
0.0
  0
VERTEX
  5
A69
  8
CLUSTERS
 10
732418.61874307645
 20
4560434.4202419017
 30
0.0
  0
VERTEX
  5
A6A
  8
CLUSTERS
 10
732354.15012899996
 20
4560453.5316000022
 30
0.0
  0
VERTEX
  5
A6B
  8
CLUSTERS
 10
732343.76010100008
 20
4560553.9033500003
 30
0.0
  0
VERTEX
  5
A6C
  8
CLUSTERS
 10
732361.49695399986
 20
4560654.2750899997
 30
0.0
  0
VERTEX
  5
A6D
  8
CLUSTERS
 10
732433.86243400001
 20
4560736.8955499986
 30
0.0
  0
VERTEX
  5
A6E
  8
CLUSTERS
 10
732506.63606300007
 20
4560654.2750899997
 30
0.0
  0
VERTEX
  5
A6F
  8
CLUSTERS
 10
732534.39153399994
 20
4560646.6837400002
 30
0.0
  0
VERTEX
  5
A70
  8
CLUSTERS
 10
732544.14140199998
 20
4560654.2750899997
 30
0.0
  0
VERTEX
  5
A71
  8
CLUSTERS
 10
732540.41764400003
 20
4560754.6468399996
 30
0.0
  0
VERTEX
  5
A72
  8
CLUSTERS
 10
732534.39153399994
 20
4560763.2933699992
 30
0.0
  0
VERTEX
  5
A73
  8
CLUSTERS
 10
732433.86243400001
 20
4560764.2597999992
 30
0.0
  0
VERTEX
  5
A74
  8
CLUSTERS
 10
732383.25845696894
 20
4560857.2415237129
 30
0.0
  0
VERTEX
  5
A75
  8
CLUSTERS
 10
732375.52577301406
 20
4560919.06911653
 30
0.0
  0
VERTEX
  5
A76
  8
CLUSTERS
 10
732455.43038853561
 20
4560973.1682762643
 30
0.0
  0
VERTEX
  5
A77
  8
CLUSTERS
 10
732563.68822149001
 20
4560978.3205649871
 30
0.0
  0
VERTEX
  5
A78
  8
CLUSTERS
 10
732653.90303935437
 20
4560988.6252065022
 30
0.0
  0
VERTEX
  5
A79
  8
CLUSTERS
 10
732735.44973500003
 20
4561005.8941099998
 30
0.0
  0
VERTEX
  5
A7A
  8
CLUSTERS
 10
732751.85054117371
 20
4561060.7573767658
 30
0.0
  0
VERTEX
  5
A7B
  8
CLUSTERS
 10
732744.66143100022
 20
4561156.1338299988
 30
0.0
  0
VERTEX
  5
A7C
  8
CLUSTERS
 10
732750.19894100016
 20
4561256.5055799987
 30
0.0
  0
VERTEX
  5
A7D
  8
CLUSTERS
 10
732835.97883600008
 20
4561342.1747399997
 30
0.0
  0
VERTEX
  5
A7E
  8
CLUSTERS
 10
732936.50793700013
 20
4561356.72425
 30
0.0
  0
VERTEX
  5
A7F
  8
CLUSTERS
 10
732936.85141200002
 20
4561356.87732
 30
0.0
  0
VERTEX
  5
A80
  8
CLUSTERS
 10
732936.50793700013
 20
4561357.6117099999
 30
0.0
  0
VERTEX
  5
A81
  8
CLUSTERS
 10
732856.93429799995
 20
4561457.2490699999
 30
0.0
  0
VERTEX
  5
A82
  8
CLUSTERS
 10
732958.05600473937
 20
4561511.5837292299
 30
0.0
  0
VERTEX
  5
A83
  8
CLUSTERS
 10
733032.80545469385
 20
4561524.4644510373
 30
0.0
  0
VERTEX
  5
A84
  8
CLUSTERS
 10
733123.02027255821
 20
4561501.2790877139
 30
0.0
  0
VERTEX
  5
A85
  8
CLUSTERS
 10
733182.3043546027
 20
4561462.6368582202
 30
0.0
  0
VERTEX
  5
A86
  8
CLUSTERS
 10
733208.08005364728
 20
4561423.9945646571
 30
0.0
  0
VERTEX
  5
A87
  8
CLUSTERS
 10
733226.12293994485
 20
4561382.7761908006
 30
0.0
  0
VERTEX
  5
A88
  8
CLUSTERS
 10
733231.27810551214
 20
4561333.8293197909
 30
0.0
  0
VERTEX
  5
A89
  8
CLUSTERS
 10
733246.74347342213
 20
4561266.8494382519
 30
0.0
  0
VERTEX
  5
A8A
  8
CLUSTERS
 10
733164.26133951277
 20
4561174.1080490248
 30
0.0
  0
VERTEX
  5
A8B
  8
CLUSTERS
 10
733079.20168721583
 20
4561148.3465413386
 30
0.0
  0
VERTEX
  5
A8C
  8
CLUSTERS
 10
733025.42701699992
 20
4561156.1338299988
 30
0.0
  0
VERTEX
  5
A8D
  8
CLUSTERS
 10
732936.50793700013
 20
4561095.8204600001
 30
0.0
  0
VERTEX
  5
A8E
  8
CLUSTERS
 10
732880.92247000011
 20
4561055.7620799998
 30
0.0
  0
VERTEX
  5
A8F
  8
CLUSTERS
 10
732835.97883600008
 20
4561010.9022500003
 30
0.0
  0
VERTEX
  5
A90
  8
CLUSTERS
 10
732818.8673071732
 20
4560949.98291294
 30
0.0
  0
VERTEX
  5
A91
  8
CLUSTERS
 10
732808.55710483051
 20
4560872.6983898832
 30
0.0
  0
VERTEX
  5
A92
  8
CLUSTERS
 10
732835.97883600008
 20
4560823.8684699992
 30
0.0
  0
VERTEX
  5
A93
  8
CLUSTERS
 10
732850.26194800006
 20
4560855.0185900005
 30
0.0
  0
VERTEX
  5
A94
  8
CLUSTERS
 10
732936.50793700013
 20
4560941.0889299987
 30
0.0
  0
VERTEX
  5
A95
  8
CLUSTERS
 10
732962.61684299994
 20
4560955.3903299998
 30
0.0
  0
VERTEX
  5
A96
  8
CLUSTERS
 10
733063.73619051371
 20
4561001.5059283096
 30
0.0
  0
VERTEX
  5
A97
  8
CLUSTERS
 10
733141.06328764802
 20
4560947.4067685781
 30
0.0
  0
VERTEX
  5
A98
  8
CLUSTERS
 10
733269.94165407936
 20
4560949.98291294
 30
0.0
  0
VERTEX
  5
A99
  8
CLUSTERS
 10
733329.22560733173
 20
4560937.1021911306
 30
0.0
  0
VERTEX
  5
A9A
  8
CLUSTERS
 10
733326.64808894414
 20
4560857.2415237129
 30
0.0
  0
VERTEX
  5
A9B
  8
CLUSTERS
 10
733238.09523800015
 20
4560804.6859399993
 30
0.0
  0
VERTEX
  5
A9C
  8
CLUSTERS
 10
733226.12293994485
 20
4560741.3147070939
 30
0.0
  0
VERTEX
  5
A9D
  8
CLUSTERS
 10
733215.28250700014
 20
4560654.2750899997
 30
0.0
  0
VERTEX
  5
A9E
  8
CLUSTERS
 10
733195.19220412499
 20
4560573.8649391728
 30
0.0
  0
VERTEX
  5
A9F
  8
CLUSTERS
 10
733190.03703855746
 20
4560532.6465653172
 30
0.0
  0
VERTEX
  5
AA0
  8
CLUSTERS
 10
733213.33696505625
 20
4560525.6040533315
 30
0.0
  0
VERTEX
  5
AA1
  8
CLUSTERS
 10
733238.09523800015
 20
4560538.0665800003
 30
0.0
  0
VERTEX
  5
AA2
  8
CLUSTERS
 10
733338.62433899986
 20
4560531.116609999
 30
0.0
  0
VERTEX
  5
AA3
  8
CLUSTERS
 10
733439.1534389999
 20
4560470.3052399987
 30
0.0
  0
VERTEX
  5
AA4
  8
CLUSTERS
 10
733455.94725699991
 20
4560453.5316000022
 30
0.0
  0
VERTEX
  5
AA5
  8
CLUSTERS
 10
733439.20262899995
 20
4560353.1598500004
 30
0.0
  0
VERTEX
  5
AA6
  8
CLUSTERS
 10
733439.1534389999
 20
4560353.1107299998
 30
0.0
  0
VERTEX
  5
AA7
  8
CLUSTERS
 10
733338.62433899986
 20
4560284.1355399992
 30
0.0
  0
VERTEX
  5
AA8
  8
CLUSTERS
 10
733238.09523800015
 20
4560284.1067000013
 30
0.0
  0
VERTEX
  5
AA9
  8
CLUSTERS
 10
733137.56613799999
 20
4560309.2031899998
 30
0.0
  0
VERTEX
  5
AAA
  8
CLUSTERS
 10
733037.03703700006
 20
4560257.5926900003
 30
0.0
  0
VERTEX
  5
AAB
  8
CLUSTERS
 10
733019.88347200002
 20
4560252.7880999995
 30
0.0
  0
VERTEX
  5
AAC
  8
CLUSTERS
 10
732936.50793700013
 20
4560169.6575799994
 30
0.0
  0
VERTEX
  5
AAD
  8
CLUSTERS
 10
732903.92708826205
 20
4560130.7670838637
 30
0.0
  0
VERTEX
  5
AAE
  8
CLUSTERS
 10
732849.79817178519
 20
4560092.1247902997
 30
0.0
  0
VERTEX
  5
AAF
  8
CLUSTERS
 10
732762.16087230842
 20
4560045.7540636528
 30
0.0
  0
VERTEX
  5
AB0
  8
CLUSTERS
 10
732796.72385199997
 20
4559951.6728600003
 30
0.0
  0
VERTEX
  5
AB1
  8
CLUSTERS
 10
732835.97883600008
 20
4559909.84143
 30
0.0
  0
VERTEX
  5
AB2
  8
CLUSTERS
 10
732894.56681800005
 20
4559851.30112
 30
0.0
  0
VERTEX
  5
AB3
  8
CLUSTERS
 10
732835.97883600008
 20
4559792.8176900009
 30
0.0
  0
VERTEX
  5
AB4
  8
CLUSTERS
 10
732777.3708680002
 20
4559851.30112
 30
0.0
  0
SEQEND
  5
AB5
  8
CLUSTERS
  0
POLYLINE
  5
186
  8
CLUSTERS
 66
     1
 10
0.0
 20
0.0
 30
0.0
 70
   129
  0
VERTEX
  5
AB6
  8
CLUSTERS
 10
732264.31698200002
 20
4559650.5576200001
 30
0.0
  0
VERTEX
  5
AB7
  8
CLUSTERS
 10
732333.33333300008
 20
4559719.4990199991
 30
0.0
  0
VERTEX
  5
AB8
  8
CLUSTERS
 10
732433.86243400001
 20
4559744.6552600013
 30
0.0
  0
VERTEX
  5
AB9
  8
CLUSTERS
 10
732534.24326100003
 20
4559750.9293699991
 30
0.0
  0
VERTEX
  5
ABA
  8
CLUSTERS
 10
732534.39153399994
 20
4559750.9589600014
 30
0.0
  0
VERTEX
  5
ABB
  8
CLUSTERS
 10
732534.42118199996
 20
4559750.9293699991
 30
0.0
  0
VERTEX
  5
ABC
  8
CLUSTERS
 10
732608.48782600008
 20
4559650.5576200001
 30
0.0
  0
VERTEX
  5
ABD
  8
CLUSTERS
 10
732534.39153399994
 20
4559576.5972500006
 30
0.0
  0
VERTEX
  5
ABE
  8
CLUSTERS
 10
732433.86243400001
 20
4559575.2711299993
 30
0.0
  0
VERTEX
  5
ABF
  8
CLUSTERS
 10
732333.33333300008
 20
4559581.6191300014
 30
0.0
  0
VERTEX
  5
AC0
  8
CLUSTERS
 10
732264.31698200002
 20
4559650.5576200001
 30
0.0
  0
SEQEND
  5
AC1
  8
CLUSTERS
  0
POLYLINE
  5
187
  8
CLUSTERS
 66
     1
 10
0.0
 20
0.0
 30
0.0
 70
   129
  0
VERTEX
  5
AC2
  8
CLUSTERS
 10
730393.97382692643
 20
4559620.8497634111
 30
0.0
  0
VERTEX
  5
AC3
  8
CLUSTERS
 10
730455.0355359267
 20
4559681.9507634109
 30
0.0
  0
VERTEX
  5
AC4
  8
CLUSTERS
 10
730516.95504292648
 20
4559620.8497634111
 30
0.0
  0
VERTEX
  5
AC5
  8
CLUSTERS
 10
730455.0355359267
 20
4559559.7380334111
 30
0.0
  0
VERTEX
  5
AC6
  8
CLUSTERS
 10
730393.97382692643
 20
4559620.8497634111
 30
0.0
  0
SEQEND
  5
AC7
  8
CLUSTERS
  0
POLYLINE
  5
188
  8
CLUSTERS
 66
     1
 10
0.0
 20
0.0
 30
0.0
 70
   129
  0
VERTEX
  5
AC8
  8
CLUSTERS
 10
736884.62258724589
 20
4559506.4233729849
 30
0.0
  0
VERTEX
  5
AC9
  8
CLUSTERS
 10
736943.25811824575
 20
4559564.9670029841
 30
0.0
  0
VERTEX
  5
ACA
  8
CLUSTERS
 10
737001.8935652459
 20
4559506.4233729849
 30
0.0
  0
VERTEX
  5
ACB
  8
CLUSTERS
 10
736943.25811824575
 20
4559433.2433629846
 30
0.0
  0
VERTEX
  5
ACC
  8
CLUSTERS
 10
736884.62258724589
 20
4559506.4233729849
 30
0.0
  0
SEQEND
  5
ACD
  8
CLUSTERS
  0
POLYLINE
  5
189
  8
CLUSTERS
 66
     1
 10
0.0
 20
0.0
 30
0.0
 70
   129
  0
VERTEX
  5
ACE
  8
CLUSTERS
 10
731719.10401799995
 20
4559449.8141299989
 30
0.0
  0
VERTEX
  5
ACF
  8
CLUSTERS
 10
731730.15873000014
 20
4559460.8888600003
 30
0.0
  0
VERTEX
  5
AD0
  8
CLUSTERS
 10
731830.68783100008
 20
4559545.0364300013
 30
0.0
  0
VERTEX
  5
AD1
  8
CLUSTERS
 10
731926.21086800005
 20
4559449.8141299989
 30
0.0
  0
VERTEX
  5
AD2
  8
CLUSTERS
 10
731830.68783100008
 20
4559354.5873599993
 30
0.0
  0
VERTEX
  5
AD3
  8
CLUSTERS
 10
731730.15873000014
 20
4559438.7084100004
 30
0.0
  0
VERTEX
  5
AD4
  8
CLUSTERS
 10
731719.10401799995
 20
4559449.8141299989
 30
0.0
  0
SEQEND
  5
AD5
  8
CLUSTERS
  0
POLYLINE
  5
18A
  8
CLUSTERS
 66
     1
 10
0.0
 20
0.0
 30
0.0
 70
   129
  0
VERTEX
  5
AD6
  8
CLUSTERS
 10
731589.28659899998
 20
4559148.69888
 30
0.0
  0
VERTEX
  5
AD7
  8
CLUSTERS
 10
731550.19103900006
 20
4559249.07063
 30
0.0
  0
VERTEX
  5
AD8
  8
CLUSTERS
 10
731629.62962999998
 20
4559328.45579
 30
0.0
  0
VERTEX
  5
AD9
  8
CLUSTERS
 10
731709.33212699997
 20
4559249.07063
 30
0.0
  0
VERTEX
  5
ADA
  8
CLUSTERS
 10
731724.11734155833
 20
4559160.8189717149
 30
0.0
  0
VERTEX
  5
ADB
  8
CLUSTERS
 10
731629.62962999998
 20
4559108.40809
 30
0.0
  0
VERTEX
  5
ADC
  8
CLUSTERS
 10
731589.28659899998
 20
4559148.69888
 30
0.0
  0
SEQEND
  5
ADD
  8
CLUSTERS
  0
POLYLINE
  5
18B
  8
CLUSTERS
 66
     1
 10
0.0
 20
0.0
 30
0.0
 70
   129
  0
VERTEX
  5
ADE
  8
CLUSTERS
 10
735565.04824100016
 20
4559048.3271399997
 30
0.0
  0
VERTEX
  5
ADF
  8
CLUSTERS
 10
735650.79365100001
 20
4559133.9383300003
 30
0.0
  0
VERTEX
  5
AE0
  8
CLUSTERS
 10
735751.32275100006
 20
4559139.5741800005
 30
0.0
  0
VERTEX
  5
AE1
  8
CLUSTERS
 10
735851.85185199999
 20
4559115.2416399987
 30
0.0
  0
VERTEX
  5
AE2
  8
CLUSTERS
 10
735918.87128800014
 20
4559048.3271399997
 30
0.0
  0
VERTEX
  5
AE3
  8
CLUSTERS
 10
735851.85185199999
 20
4558981.4125600001
 30
0.0
  0
VERTEX
  5
AE4
  8
CLUSTERS
 10
735751.32275100006
 20
4558959.1077499986
 30
0.0
  0
VERTEX
  5
AE5
  8
CLUSTERS
 10
735650.79365100001
 20
4558962.7159099989
 30
0.0
  0
VERTEX
  5
AE6
  8
CLUSTERS
 10
735565.04824100016
 20
4559048.3271399997
 30
0.0
  0
SEQEND
  5
AE7
  8
CLUSTERS
  0
POLYLINE
  5
18C
  8
CLUSTERS
 66
     1
 10
0.0
 20
0.0
 30
0.0
 70
   129
  0
VERTEX
  5
AE8
  8
CLUSTERS
 10
732051.64087700006
 20
4558847.5836399999
 30
0.0
  0
VERTEX
  5
AE9
  8
CLUSTERS
 10
732031.74603200005
 20
4558859.6929299999
 30
0.0
  0
VERTEX
  5
AEA
  8
CLUSTERS
 10
732007.70180551673
 20
4558924.6285180673
 30
0.0
  0
VERTEX
  5
AEB
  8
CLUSTERS
 10
731944.68300712772
 20
4558924.6285180673
 30
0.0
  0
VERTEX
  5
AEC
  8
CLUSTERS
 10
731907.92210579675
 20
4558856.3957061088
 30
0.0
  0
VERTEX
  5
AED
  8
CLUSTERS
 10
731802.89090394066
 20
4558824.9036242664
 30
0.0
  0
VERTEX
  5
AEE
  8
CLUSTERS
 10
731703.1112042208
 20
4558956.1205358412
 30
0.0
  0
VERTEX
  5
AEF
  8
CLUSTERS
 10
731787.13613994734
 20
4559003.3586265696
 30
0.0
  0
VERTEX
  5
AF0
  8
CLUSTERS
 10
731877.34779100015
 20
4559048.3271399997
 30
0.0
  0
VERTEX
  5
AF1
  8
CLUSTERS
 10
731931.21693100012
 20
4559102.6607400002
 30
0.0
  0
VERTEX
  5
AF2
  8
CLUSTERS
 10
731935.53849600011
 20
4559148.69888
 30
0.0
  0
VERTEX
  5
AF3
  8
CLUSTERS
 10
731980.79284899996
 20
4559249.07063
 30
0.0
  0
VERTEX
  5
AF4
  8
CLUSTERS
 10
732031.74603200005
 20
4559299.8397499993
 30
0.0
  0
VERTEX
  5
AF5
  8
CLUSTERS
 10
732132.27513199998
 20
4559299.5883900002
 30
0.0
  0
VERTEX
  5
AF6
  8
CLUSTERS
 10
732182.96353100019
 20
4559249.07063
 30
0.0
  0
VERTEX
  5
AF7
  8
CLUSTERS
 10
732211.97296699986
 20
4559148.69888
 30
0.0
  0
VERTEX
  5
AF8
  8
CLUSTERS
 10
732228.61042000004
 20
4559048.3271399997
 30
0.0
  0
VERTEX
  5
AF9
  8
CLUSTERS
 10
732231.07738100016
 20
4558947.9553899989
 30
0.0
  0
VERTEX
  5
AFA
  8
CLUSTERS
 10
732232.80423300015
 20
4558945.4704499999
 30
0.0
  0
VERTEX
  5
AFB
  8
CLUSTERS
 10
732264.88798891404
 20
4558864.5915855188
 30
0.0
  0
VERTEX
  5
AFC
  8
CLUSTERS
 10
732228.80208752665
 20
4558807.9162814226
 30
0.0
  0
VERTEX
  5
AFD
  8
CLUSTERS
 10
732132.27513199998
 20
4558767.2111800006
 30
0.0
  0
VERTEX
  5
AFE
  8
CLUSTERS
 10
732051.64087700006
 20
4558847.5836399999
 30
0.0
  0
SEQEND
  5
AFF
  8
CLUSTERS
  0
POLYLINE
  5
18D
  8
CLUSTERS
 66
     1
 10
0.0
 20
0.0
 30
0.0
 70
   129
  0
VERTEX
  5
B00
  8
CLUSTERS
 10
736065.47472399985
 20
4558747.2119000005
 30
0.0
  0
VERTEX
  5
B01
  8
CLUSTERS
 10
736136.67262899992
 20
4558847.5836399999
 30
0.0
  0
VERTEX
  5
B02
  8
CLUSTERS
 10
736076.84553899977
 20
4558947.9553899989
 30
0.0
  0
VERTEX
  5
B03
  8
CLUSTERS
 10
736153.43915300001
 20
4559024.4291199986
 30
0.0
  0
VERTEX
  5
B04
  8
CLUSTERS
 10
736230.03361399996
 20
4558947.9553899989
 30
0.0
  0
VERTEX
  5
B05
  8
CLUSTERS
 10
736245.29916120716
 20
4558894.5118662817
 30
0.0
  0
VERTEX
  5
B06
  8
CLUSTERS
 10
736253.96825399995
 20
4558846.9733199999
 30
0.0
  0
VERTEX
  5
B07
  8
CLUSTERS
 10
736294.0558972524
 20
4558733.8836368816
 30
0.0
  0
VERTEX
  5
B08
  8
CLUSTERS
 10
736253.96825399995
 20
4558647.4503999976
 30
0.0
  0
VERTEX
  5
B09
  8
CLUSTERS
 10
736153.43915300001
 20
4558659.3832
 30
0.0
  0
VERTEX
  5
B0A
  8
CLUSTERS
 10
736065.47472399985
 20
4558747.2119000005
 30
0.0
  0
SEQEND
  5
B0B
  8
CLUSTERS
  0
POLYLINE
  5
18E
  8
CLUSTERS
 66
     1
 10
0.0
 20
0.0
 30
0.0
 70
   129
  0
VERTEX
  5
B0C
  8
CLUSTERS
 10
735561.68825700006
 20
4558747.2119000005
 30
0.0
  0
VERTEX
  5
B0D
  8
CLUSTERS
 10
735650.79365100001
 20
4558836.1778499996
 30
0.0
  0
VERTEX
  5
B0E
  8
CLUSTERS
 10
735667.54834800004
 20
4558847.5836399999
 30
0.0
  0
VERTEX
  5
B0F
  8
CLUSTERS
 10
735751.32275100006
 20
4558931.2268699994
 30
0.0
  0
VERTEX
  5
B10
  8
CLUSTERS
 10
735835.09719100012
 20
4558847.5836399999
 30
0.0
  0
VERTEX
  5
B11
  8
CLUSTERS
 10
735848.71042600006
 20
4558747.2119000005
 30
0.0
  0
VERTEX
  5
B12
  8
CLUSTERS
 10
735751.32275100006
 20
4558649.9766499996
 30
0.0
  0
VERTEX
  5
B13
  8
CLUSTERS
 10
735650.79365100001
 20
4558658.2458599992
 30
0.0
  0
VERTEX
  5
B14
  8
CLUSTERS
 10
735561.68825700006
 20
4558747.2119000005
 30
0.0
  0
SEQEND
  5
B15
  8
CLUSTERS
  0
POLYLINE
  5
18F
  8
CLUSTERS
 66
     1
 10
0.0
 20
0.0
 30
0.0
 70
   129
  0
VERTEX
  5
B16
  8
CLUSTERS
 10
730222.05507600005
 20
4558646.8401499987
 30
0.0
  0
VERTEX
  5
B17
  8
CLUSTERS
 10
730198.56652700005
 20
4558747.2119000005
 30
0.0
  0
VERTEX
  5
B18
  8
CLUSTERS
 10
730222.22222200001
 20
4558770.90986
 30
0.0
  0
VERTEX
  5
B19
  8
CLUSTERS
 10
730322.75132300018
 20
4558750.3105499987
 30
0.0
  0
VERTEX
  5
B1A
  8
CLUSTERS
 10
730325.89448100014
 20
4558747.2119000005
 30
0.0
  0
VERTEX
  5
B1B
  8
CLUSTERS
 10
730348.16801100015
 20
4558646.8401499987
 30
0.0
  0
VERTEX
  5
B1C
  8
CLUSTERS
 10
730322.75132300018
 20
4558621.8080799989
 30
0.0
  0
VERTEX
  5
B1D
  8
CLUSTERS
 10
730222.22222200001
 20
4558646.6727799997
 30
0.0
  0
VERTEX
  5
B1E
  8
CLUSTERS
 10
730222.05507600005
 20
4558646.8401499987
 30
0.0
  0
SEQEND
  5
B1F
  8
CLUSTERS
  0
POLYLINE
  5
190
  8
CLUSTERS
 66
     1
 10
0.0
 20
0.0
 30
0.0
 70
   129
  0
VERTEX
  5
B20
  8
CLUSTERS
 10
736284.76457003935
 20
4558515.9237180287
 30
0.0
  0
VERTEX
  5
B21
  8
CLUSTERS
 10
736348.23001979315
 20
4558580.4746213546
 30
0.0
  0
VERTEX
  5
B22
  8
CLUSTERS
 10
736420.46209731966
 20
4558625.594916271
 30
0.0
  0
VERTEX
  5
B23
  8
CLUSTERS
 10
736442.13177209429
 20
4558739.2980312686
 30
0.0
  0
VERTEX
  5
B24
  8
CLUSTERS
 10
736490.88850813953
 20
4558833.14826007
 30
0.0
  0
VERTEX
  5
B25
  8
CLUSTERS
 10
736555.55555600021
 20
4558833.5465000002
 30
0.0
  0
VERTEX
  5
B26
  8
CLUSTERS
 10
736639.104314
 20
4558747.2119000005
 30
0.0
  0
VERTEX
  5
B27
  8
CLUSTERS
 10
736634.23137199995
 20
4558646.8401499987
 30
0.0
  0
VERTEX
  5
B28
  8
CLUSTERS
 10
736555.55555600021
 20
4558568.2875300003
 30
0.0
  0
VERTEX
  5
B29
  8
CLUSTERS
 10
736506.15045087296
 20
4558433.0762499189
 30
0.0
  0
VERTEX
  5
B2A
  8
CLUSTERS
 10
736418.95331881207
 20
4558254.2874396453
 30
0.0
  0
VERTEX
  5
B2B
  8
CLUSTERS
 10
736285.86302866298
 20
4558286.3777262429
 30
0.0
  0
VERTEX
  5
B2C
  8
CLUSTERS
 10
736284.76457003935
 20
4558515.9237180287
 30
0.0
  0
SEQEND
  5
B2D
  8
CLUSTERS
  0
POLYLINE
  5
191
  8
CLUSTERS
 66
     1
 10
0.0
 20
0.0
 30
0.0
 70
   129
  0
VERTEX
  5
B2E
  8
CLUSTERS
 10
734144.90584200004
 20
4558546.4683999978
 30
0.0
  0
VERTEX
  5
B2F
  8
CLUSTERS
 10
734243.38624300004
 20
4558645.0369300004
 30
0.0
  0
VERTEX
  5
B30
  8
CLUSTERS
 10
734262.41228600009
 20
4558646.8401499987
 30
0.0
  0
VERTEX
  5
B31
  8
CLUSTERS
 10
734343.9153440001
 20
4558726.1335100001
 30
0.0
  0
VERTEX
  5
B32
  8
CLUSTERS
 10
734423.33601100021
 20
4558646.8401499987
 30
0.0
  0
VERTEX
  5
B33
  8
CLUSTERS
 10
734442.539858
 20
4558546.4683999978
 30
0.0
  0
VERTEX
  5
B34
  8
CLUSTERS
 10
734343.9153440001
 20
4558447.9977799999
 30
0.0
  0
VERTEX
  5
B35
  8
CLUSTERS
 10
734243.38624300004
 20
4558448.1417200007
 30
0.0
  0
VERTEX
  5
B36
  8
CLUSTERS
 10
734144.90584200004
 20
4558546.4683999978
 30
0.0
  0
SEQEND
  5
B37
  8
CLUSTERS
  0
POLYLINE
  5
192
  8
CLUSTERS
 66
     1
 10
0.0
 20
0.0
 30
0.0
 70
   129
  0
VERTEX
  5
B38
  8
CLUSTERS
 10
732241.05148000014
 20
4558446.0966499997
 30
0.0
  0
VERTEX
  5
B39
  8
CLUSTERS
 10
732232.80423300015
 20
4558479.3669999996
 30
0.0
  0
VERTEX
  5
B3A
  8
CLUSTERS
 10
732165.7411300001
 20
4558546.4683999978
 30
0.0
  0
VERTEX
  5
B3B
  8
CLUSTERS
 10
732208.18155404925
 20
4558614.7049417477
 30
0.0
  0
VERTEX
  5
B3C
  8
CLUSTERS
 10
732254.57765777921
 20
4558661.0756683946
 30
0.0
  0
VERTEX
  5
B3D
  8
CLUSTERS
 10
732355.10280677816
 20
4558673.9564542733
 30
0.0
  0
VERTEX
  5
B3E
  8
CLUSTERS
 10
732413.98686199996
 20
4558646.8401499987
 30
0.0
  0
VERTEX
  5
B3F
  8
CLUSTERS
 10
732433.86243400001
 20
4558625.4816899998
 30
0.0
  0
VERTEX
  5
B40
  8
CLUSTERS
 10
732510.71029499988
 20
4558546.4683999978
 30
0.0
  0
VERTEX
  5
B41
  8
CLUSTERS
 10
732483.98117320973
 20
4558452.4074625494
 30
0.0
  0
VERTEX
  5
B42
  8
CLUSTERS
 10
732422.11957277765
 20
4558398.3083028169
 30
0.0
  0
VERTEX
  5
B43
  8
CLUSTERS
 10
732355.10280677816
 20
4558393.1560140932
 30
0.0
  0
VERTEX
  5
B44
  8
CLUSTERS
 10
732241.05148000014
 20
4558446.0966499997
 30
0.0
  0
SEQEND
  5
B45
  8
CLUSTERS
  0
POLYLINE
  5
193
  8
CLUSTERS
 66
     1
 10
0.0
 20
0.0
 30
0.0
 70
   129
  0
VERTEX
  5
B46
  8
CLUSTERS
 10
730108.57632123202
 20
4558346.9411053192
 30
0.0
  0
VERTEX
  5
B47
  8
CLUSTERS
 10
730157.29461923218
 20
4558395.7887953185
 30
0.0
  0
VERTEX
  5
B48
  8
CLUSTERS
 10
730207.09160023206
 20
4558346.9411053192
 30
0.0
  0
VERTEX
  5
B49
  8
CLUSTERS
 10
730157.29461923218
 20
4558298.163185318
 30
0.0
  0
VERTEX
  5
B4A
  8
CLUSTERS
 10
730108.57632123202
 20
4558346.9411053192
 30
0.0
  0
SEQEND
  5
B4B
  8
CLUSTERS
  0
POLYLINE
  5
194
  8
CLUSTERS
 66
     1
 10
0.0
 20
0.0
 30
0.0
 70
   129
  0
VERTEX
  5
B4C
  8
CLUSTERS
 10
733380.54049300007
 20
4558245.3531600004
 30
0.0
  0
VERTEX
  5
B4D
  8
CLUSTERS
 10
733439.1534389999
 20
4558303.8746399991
 30
0.0
  0
VERTEX
  5
B4E
  8
CLUSTERS
 10
733539.68253999995
 20
4558295.5170499999
 30
0.0
  0
VERTEX
  5
B4F
  8
CLUSTERS
 10
733589.92371600005
 20
4558245.3531600004
 30
0.0
  0
VERTEX
  5
B50
  8
CLUSTERS
 10
733539.68253999995
 20
4558195.1905399999
 30
0.0
  0
VERTEX
  5
B51
  8
CLUSTERS
 10
733439.1534389999
 20
4558186.8316600006
 30
0.0
  0
VERTEX
  5
B52
  8
CLUSTERS
 10
733380.54049300007
 20
4558245.3531600004
 30
0.0
  0
SEQEND
  5
B53
  8
CLUSTERS
  0
POLYLINE
  5
195
  8
CLUSTERS
 66
     1
 10
0.0
 20
0.0
 30
0.0
 70
   129
  0
VERTEX
  5
B54
  8
CLUSTERS
 10
731134.19263420685
 20
4558114.9883551393
 30
0.0
  0
VERTEX
  5
B55
  8
CLUSTERS
 10
731227.51322799991
 20
4558181.8925599987
 30
0.0
  0
VERTEX
  5
B56
  8
CLUSTERS
 10
731264.6131180001
 20
4558144.9814099986
 30
0.0
  0
VERTEX
  5
B57
  8
CLUSTERS
 10
731219.25228650391
 20
4558014.5185328284
 30
0.0
  0
VERTEX
  5
B58
  8
CLUSTERS
 10
731134.19263420685
 20
4558114.9883551393
 30
0.0
  0
SEQEND
  5
B59
  8
CLUSTERS
  0
POLYLINE
  5
196
  8
CLUSTERS
 66
     1
 10
0.0
 20
0.0
 30
0.0
 70
   129
  0
VERTEX
  5
B5A
  8
CLUSTERS
 10
734708.331122
 20
4558044.6096700002
 30
0.0
  0
VERTEX
  5
B5B
  8
CLUSTERS
 10
734658.06797399989
 20
4558144.9814099986
 30
0.0
  0
VERTEX
  5
B5C
  8
CLUSTERS
 10
734746.03174600005
 20
4558232.8071800014
 30
0.0
  0
VERTEX
  5
B5D
  8
CLUSTERS
 10
734786.11542529264
 20
4558135.6249955688
 30
0.0
  0
VERTEX
  5
B5E
  8
CLUSTERS
 10
734783.73439999996
 20
4558044.6096700002
 30
0.0
  0
VERTEX
  5
B5F
  8
CLUSTERS
 10
734746.03174600005
 20
4558006.96997
 30
0.0
  0
VERTEX
  5
B60
  8
CLUSTERS
 10
734708.331122
 20
4558044.6096700002
 30
0.0
  0
SEQEND
  5
B61
  8
CLUSTERS
  0
POLYLINE
  5
197
  8
CLUSTERS
 66
     1
 10
0.0
 20
0.0
 30
0.0
 70
   129
  0
VERTEX
  5
B62
  8
CLUSTERS
 10
734350.95327199996
 20
4558044.6096700002
 30
0.0
  0
VERTEX
  5
B63
  8
CLUSTERS
 10
734394.16971800011
 20
4558144.9814099986
 30
0.0
  0
VERTEX
  5
B64
  8
CLUSTERS
 10
734444.44444399991
 20
4558195.17509
 30
0.0
  0
VERTEX
  5
B65
  8
CLUSTERS
 10
734494.71975999989
 20
4558144.9814099986
 30
0.0
  0
VERTEX
  5
B66
  8
CLUSTERS
 10
734544.97354499996
 20
4558071.1997800004
 30
0.0
  0
VERTEX
  5
B67
  8
CLUSTERS
 10
734571.60358000011
 20
4558044.6096700002
 30
0.0
  0
VERTEX
  5
B68
  8
CLUSTERS
 10
734544.97354499996
 20
4558018.0208399994
 30
0.0
  0
VERTEX
  5
B69
  8
CLUSTERS
 10
734444.44444399991
 20
4557951.2650300004
 30
0.0
  0
VERTEX
  5
B6A
  8
CLUSTERS
 10
734350.95327199996
 20
4558044.6096700002
 30
0.0
  0
SEQEND
  5
B6B
  8
CLUSTERS
  0
POLYLINE
  5
198
  8
CLUSTERS
 66
     1
 10
0.0
 20
0.0
 30
0.0
 70
   129
  0
VERTEX
  5
B6C
  8
CLUSTERS
 10
730881.962711
 20
4557843.8661700003
 30
0.0
  0
VERTEX
  5
B6D
  8
CLUSTERS
 10
730825.39682499995
 20
4557851.1062700003
 30
0.0
  0
VERTEX
  5
B6E
  8
CLUSTERS
 10
730732.13084899995
 20
4557944.2379200002
 30
0.0
  0
VERTEX
  5
B6F
  8
CLUSTERS
 10
730724.86772500002
 20
4557972.8689800007
 30
0.0
  0
VERTEX
  5
B70
  8
CLUSTERS
 10
730653.79201600014
 20
4558044.6096700002
 30
0.0
  0
VERTEX
  5
B71
  8
CLUSTERS
 10
730702.89916600008
 20
4558144.9814099986
 30
0.0
  0
VERTEX
  5
B72
  8
CLUSTERS
 10
730724.86772500002
 20
4558167.3708899999
 30
0.0
  0
VERTEX
  5
B73
  8
CLUSTERS
 10
730825.39682499995
 20
4558243.6195399994
 30
0.0
  0
VERTEX
  5
B74
  8
CLUSTERS
 10
730925.92592600011
 20
4558152.0928600002
 30
0.0
  0
VERTEX
  5
B75
  8
CLUSTERS
 10
730932.72422800015
 20
4558144.9814099986
 30
0.0
  0
VERTEX
  5
B76
  8
CLUSTERS
 10
731008.21028
 20
4558044.6096700002
 30
0.0
  0
VERTEX
  5
B77
  8
CLUSTERS
 10
731026.45502600016
 20
4557945.5470899995
 30
0.0
  0
VERTEX
  5
B78
  8
CLUSTERS
 10
731027.67104300007
 20
4557944.2379200002
 30
0.0
  0
VERTEX
  5
B79
  8
CLUSTERS
 10
731049.24701800011
 20
4557843.8661700003
 30
0.0
  0
VERTEX
  5
B7A
  8
CLUSTERS
 10
731026.45502600016
 20
4557821.2501400001
 30
0.0
  0
VERTEX
  5
B7B
  8
CLUSTERS
 10
730925.92592600011
 20
4557801.1081799986
 30
0.0
  0
VERTEX
  5
B7C
  8
CLUSTERS
 10
730881.962711
 20
4557843.8661700003
 30
0.0
  0
SEQEND
  5
B7D
  8
CLUSTERS
  0
POLYLINE
  5
199
  8
CLUSTERS
 66
     1
 10
0.0
 20
0.0
 30
0.0
 70
   129
  0
VERTEX
  5
B7E
  8
CLUSTERS
 10
732891.57929100003
 20
4557743.4944200013
 30
0.0
  0
VERTEX
  5
B7F
  8
CLUSTERS
 10
732936.50793700013
 20
4557788.6192500014
 30
0.0
  0
VERTEX
  5
B80
  8
CLUSTERS
 10
732944.06334300002
 20
4557843.8661700003
 30
0.0
  0
VERTEX
  5
B81
  8
CLUSTERS
 10
732940.01720999996
 20
4557944.2379200002
 30
0.0
  0
VERTEX
  5
B82
  8
CLUSTERS
 10
732936.50793700013
 20
4557985.73147
 30
0.0
  0
VERTEX
  5
B83
  8
CLUSTERS
 10
732877.81730799994
 20
4558044.6096700002
 30
0.0
  0
VERTEX
  5
B84
  8
CLUSTERS
 10
732936.50793700013
 20
4558103.2735400004
 30
0.0
  0
VERTEX
  5
B85
  8
CLUSTERS
 10
733037.03703700006
 20
4558133.0007200008
 30
0.0
  0
VERTEX
  5
B86
  8
CLUSTERS
 10
733064.82662499999
 20
4558144.9814099986
 30
0.0
  0
VERTEX
  5
B87
  8
CLUSTERS
 10
733037.03703700006
 20
4558176.2080699988
 30
0.0
  0
VERTEX
  5
B88
  8
CLUSTERS
 10
732936.50793700013
 20
4558170.0299800001
 30
0.0
  0
VERTEX
  5
B89
  8
CLUSTERS
 10
732842.27327699994
 20
4558245.3531600004
 30
0.0
  0
VERTEX
  5
B8A
  8
CLUSTERS
 10
732835.97883600008
 20
4558283.9941299986
 30
0.0
  0
VERTEX
  5
B8B
  8
CLUSTERS
 10
732735.44973500003
 20
4558308.21801
 30
0.0
  0
VERTEX
  5
B8C
  8
CLUSTERS
 10
732677.29878725298
 20
4558385.4275810104
 30
0.0
  0
VERTEX
  5
B8D
  8
CLUSTERS
 10
732727.16596968495
 20
4558457.4963231133
 30
0.0
  0
VERTEX
  5
B8E
  8
CLUSTERS
 10
732816.44253633998
 20
4558483.7396926144
 30
0.0
  0
VERTEX
  5
B8F
  8
CLUSTERS
 10
732889.96433900157
 20
4558504.7344138408
 30
0.0
  0
VERTEX
  5
B90
  8
CLUSTERS
 10
732979.24090565648
 20
4558530.9777833438
 30
0.0
  0
VERTEX
  5
B91
  8
CLUSTERS
 10
733037.03703700006
 20
4558499.0818499988
 30
0.0
  0
VERTEX
  5
B92
  8
CLUSTERS
 10
733142.03940376535
 20
4558504.7344138408
 30
0.0
  0
VERTEX
  5
B93
  8
CLUSTERS
 10
733163.04566989501
 20
4558405.0095200418
 30
0.0
  0
VERTEX
  5
B94
  8
CLUSTERS
 10
733126.28476856428
 20
4558357.7714293124
 30
0.0
  0
VERTEX
  5
B95
  8
CLUSTERS
 10
733110.53000457096
 20
4558294.7873296952
 30
0.0
  0
VERTEX
  5
B96
  8
CLUSTERS
 10
733106.19848600007
 20
4558245.3531600004
 30
0.0
  0
VERTEX
  5
B97
  8
CLUSTERS
 10
733137.56613799999
 20
4558217.5212899996
 30
0.0
  0
VERTEX
  5
B98
  8
CLUSTERS
 10
733219.28530400002
 20
4558144.9814099986
 30
0.0
  0
VERTEX
  5
B99
  8
CLUSTERS
 10
733213.23430899985
 20
4558044.6096700002
 30
0.0
  0
VERTEX
  5
B9A
  8
CLUSTERS
 10
733229.69982400001
 20
4557944.2379200002
 30
0.0
  0
VERTEX
  5
B9B
  8
CLUSTERS
 10
733238.09523800015
 20
4557904.0980399987
 30
0.0
  0
VERTEX
  5
B9C
  8
CLUSTERS
 10
733297.99738800002
 20
4557843.8661700003
 30
0.0
  0
VERTEX
  5
B9D
  8
CLUSTERS
 10
733324.73438500008
 20
4557743.4944200013
 30
0.0
  0
VERTEX
  5
B9E
  8
CLUSTERS
 10
733238.09523800015
 20
4557650.2784200003
 30
0.0
  0
VERTEX
  5
B9F
  8
CLUSTERS
 10
733137.56613799999
 20
4557655.2891800003
 30
0.0
  0
VERTEX
  5
BA0
  8
CLUSTERS
 10
733037.03703700006
 20
4557646.95737
 30
0.0
  0
VERTEX
  5
BA1
  8
CLUSTERS
 10
732936.50793700013
 20
4557698.5905800005
 30
0.0
  0
VERTEX
  5
BA2
  8
CLUSTERS
 10
732891.57929100003
 20
4557743.4944200013
 30
0.0
  0
SEQEND
  5
BA3
  8
CLUSTERS
  0
POLYLINE
  5
19A
  8
CLUSTERS
 66
     1
 10
0.0
 20
0.0
 30
0.0
 70
   129
  0
VERTEX
  5
BA4
  8
CLUSTERS
 10
732191.07387399976
 20
4557643.12268
 30
0.0
  0
VERTEX
  5
BA5
  8
CLUSTERS
 10
732227.08103729866
 20
4557715.6850821162
 30
0.0
  0
VERTEX
  5
BA6
  8
CLUSTERS
 10
732304.40813443274
 20
4557738.8704454396
 30
0.0
  0
VERTEX
  5
BA7
  8
CLUSTERS
 10
732358.53705090994
 20
4557687.347430069
 30
0.0
  0
VERTEX
  5
BA8
  8
CLUSTERS
 10
732333.33333300008
 20
4557577.2368099997
 30
0.0
  0
VERTEX
  5
BA9
  8
CLUSTERS
 10
732232.80423300015
 20
4557601.4381100005
 30
0.0
  0
VERTEX
  5
BAA
  8
CLUSTERS
 10
732191.07387399976
 20
4557643.12268
 30
0.0
  0
SEQEND
  5
BAB
  8
CLUSTERS
  0
POLYLINE
  5
19B
  8
CLUSTERS
 66
     1
 10
0.0
 20
0.0
 30
0.0
 70
   129
  0
VERTEX
  5
BAC
  8
CLUSTERS
 10
739145.19358077575
 20
4557495.8321850412
 30
0.0
  0
VERTEX
  5
BAD
  8
CLUSTERS
 10
739171.45134904166
 20
4557616.5518000703
 30
0.0
  0
VERTEX
  5
BAE
  8
CLUSTERS
 10
739124.18731464609
 20
4557648.0438178442
 30
0.0
  0
VERTEX
  5
BAF
  8
CLUSTERS
 10
739068.94073899987
 20
4557743.4944200013
 30
0.0
  0
VERTEX
  5
BB0
  8
CLUSTERS
 10
739068.783069
 20
4557743.7821599999
 30
0.0
  0
VERTEX
  5
BB1
  8
CLUSTERS
 10
738968.25396799995
 20
4557756.9101400012
 30
0.0
  0
VERTEX
  5
BB2
  8
CLUSTERS
 10
738866.86074774596
 20
4557774.0120811462
 30
0.0
  0
VERTEX
  5
BB3
  8
CLUSTERS
 10
738824.84821548674
 20
4557842.2448290354
 30
0.0
  0
VERTEX
  5
BB4
  8
CLUSTERS
 10
738767.19576699997
 20
4557877.3763999986
 30
0.0
  0
VERTEX
  5
BB5
  8
CLUSTERS
 10
738700.19244000001
 20
4557944.2379200002
 30
0.0
  0
VERTEX
  5
BB6
  8
CLUSTERS
 10
738767.19576699997
 20
4558011.1109600002
 30
0.0
  0
VERTEX
  5
BB7
  8
CLUSTERS
 10
738867.72486800014
 20
4558011.5153700002
 30
0.0
  0
VERTEX
  5
BB8
  8
CLUSTERS
 10
738940.38255040767
 20
4558062.6892737951
 30
0.0
  0
VERTEX
  5
BB9
  8
CLUSTERS
 10
739024.40761492634
 20
4558052.1919131828
 30
0.0
  0
VERTEX
  5
BBA
  8
CLUSTERS
 10
739103.18104851653
 20
4558004.9538224526
 30
0.0
  0
VERTEX
  5
BBB
  8
CLUSTERS
 10
739166.19971811329
 20
4557968.2130923374
 30
0.0
  0
VERTEX
  5
BBC
  8
CLUSTERS
 10
739160.94821597694
 20
4557915.7263533352
 30
0.0
  0
VERTEX
  5
BBD
  8
CLUSTERS
 10
739150.04099399992
 20
4557843.8661700003
 30
0.0
  0
VERTEX
  5
BBE
  8
CLUSTERS
 10
739169.31216900004
 20
4557832.3517899998
 30
0.0
  0
VERTEX
  5
BBF
  8
CLUSTERS
 10
739258.19167900004
 20
4557743.4944200013
 30
0.0
  0
VERTEX
  5
BC0
  8
CLUSTERS
 10
739339.50134928687
 20
4557716.2766298018
 30
0.0
  0
VERTEX
  5
BC1
  8
CLUSTERS
 10
739339.50134928687
 20
4557637.5464572301
 30
0.0
  0
VERTEX
  5
BC2
  8
CLUSTERS
 10
739350.42764600005
 20
4557542.7509300001
 30
0.0
  0
VERTEX
  5
BC3
  8
CLUSTERS
 10
739269.84126999986
 20
4557466.0203800006
 30
0.0
  0
VERTEX
  5
BC4
  8
CLUSTERS
 10
739145.19358077575
 20
4557495.8321850412
 30
0.0
  0
SEQEND
  5
BC5
  8
CLUSTERS
  0
POLYLINE
  5
19C
  8
CLUSTERS
 66
     1
 10
0.0
 20
0.0
 30
0.0
 70
   129
  0
VERTEX
  5
BC6
  8
CLUSTERS
 10
735251.11105300009
 20
4557241.6356899999
 30
0.0
  0
VERTEX
  5
BC7
  8
CLUSTERS
 10
735254.69273899985
 20
4557342.0074300002
 30
0.0
  0
VERTEX
  5
BC8
  8
CLUSTERS
 10
735248.67724899994
 20
4557351.2856200002
 30
0.0
  0
VERTEX
  5
BC9
  8
CLUSTERS
 10
735148.14814800001
 20
4557383.8122300003
 30
0.0
  0
VERTEX
  5
BCA
  8
CLUSTERS
 10
735089.49395600008
 20
4557442.3791800002
 30
0.0
  0
VERTEX
  5
BCB
  8
CLUSTERS
 10
735061.57737600023
 20
4557542.7509300001
 30
0.0
  0
VERTEX
  5
BCC
  8
CLUSTERS
 10
735047.61904800008
 20
4557610.5645599999
 30
0.0
  0
VERTEX
  5
BCD
  8
CLUSTERS
 10
735015.01644000004
 20
4557643.12268
 30
0.0
  0
VERTEX
  5
BCE
  8
CLUSTERS
 10
734966.54518981371
 20
4557700.2555733463
 30
0.0
  0
VERTEX
  5
BCF
  8
CLUSTERS
 10
734997.47592563368
 20
4557736.3216584772
 30
0.0
  0
VERTEX
  5
BD0
  8
CLUSTERS
 10
735002.63109120098
 20
4557769.8115992481
 30
0.0
  0
VERTEX
  5
BD1
  8
CLUSTERS
 10
734997.47592563368
 20
4557805.8777484493
 30
0.0
  0
VERTEX
  5
BD2
  8
CLUSTERS
 10
734959.40878100006
 20
4557843.8661700003
 30
0.0
  0
VERTEX
  5
BD3
  8
CLUSTERS
 10
735047.61904800008
 20
4557931.9402700001
 30
0.0
  0
VERTEX
  5
BD4
  8
CLUSTERS
 10
735089.49546700006
 20
4557944.2379200002
 30
0.0
  0
VERTEX
  5
BD5
  8
CLUSTERS
 10
735047.61904800008
 20
4557955.6405300014
 30
0.0
  0
VERTEX
  5
BD6
  8
CLUSTERS
 10
734947.08994700003
 20
4557958.1765700001
 30
0.0
  0
VERTEX
  5
BD7
  8
CLUSTERS
 10
734896.95077663439
 20
4558071.2212583898
 30
0.0
  0
VERTEX
  5
BD8
  8
CLUSTERS
 10
734904.6834605895
 20
4558171.6910806997
 30
0.0
  0
VERTEX
  5
BD9
  8
CLUSTERS
 10
734947.08994700003
 20
4558237.8634700002
 30
0.0
  0
VERTEX
  5
BDA
  8
CLUSTERS
 10
735045.71217800002
 20
4558144.9814099986
 30
0.0
  0
VERTEX
  5
BDB
  8
CLUSTERS
 10
735047.61904800008
 20
4558141.9882300003
 30
0.0
  0
VERTEX
  5
BDC
  8
CLUSTERS
 10
735148.14814800001
 20
4558089.2379299998
 30
0.0
  0
VERTEX
  5
BDD
  8
CLUSTERS
 10
735154.8127919999
 20
4558144.9814099986
 30
0.0
  0
VERTEX
  5
BDE
  8
CLUSTERS
 10
735156.58086700016
 20
4558245.3531600004
 30
0.0
  0
VERTEX
  5
BDF
  8
CLUSTERS
 10
735170.58694099996
 20
4558345.7249100003
 30
0.0
  0
VERTEX
  5
BE0
  8
CLUSTERS
 10
735222.06643399992
 20
4558446.0966499997
 30
0.0
  0
VERTEX
  5
BE1
  8
CLUSTERS
 10
735248.67724899994
 20
4558472.6656499999
 30
0.0
  0
VERTEX
  5
BE2
  8
CLUSTERS
 10
735275.28804500005
 20
4558446.0966499997
 30
0.0
  0
VERTEX
  5
BE3
  8
CLUSTERS
 10
735326.76826699998
 20
4558345.7249100003
 30
0.0
  0
VERTEX
  5
BE4
  8
CLUSTERS
 10
735349.20634899999
 20
4558335.6885799998
 30
0.0
  0
VERTEX
  5
BE5
  8
CLUSTERS
 10
735439.68478899985
 20
4558245.3531600004
 30
0.0
  0
VERTEX
  5
BE6
  8
CLUSTERS
 10
735449.73545000015
 20
4558241.1718800003
 30
0.0
  0
VERTEX
  5
BE7
  8
CLUSTERS
 10
735546.07651699998
 20
4558144.9814099986
 30
0.0
  0
VERTEX
  5
BE8
  8
CLUSTERS
 10
735539.79415800003
 20
4558044.6096700002
 30
0.0
  0
VERTEX
  5
BE9
  8
CLUSTERS
 10
735449.73545000015
 20
4557954.6914400002
 30
0.0
  0
VERTEX
  5
BEA
  8
CLUSTERS
 10
735381.82850599999
 20
4557944.2379200002
 30
0.0
  0
VERTEX
  5
BEB
  8
CLUSTERS
 10
735349.20634899999
 20
4557911.665289999
 30
0.0
  0
VERTEX
  5
BEC
  8
CLUSTERS
 10
735324.57209899998
 20
4557843.8661700003
 30
0.0
  0
VERTEX
  5
BED
  8
CLUSTERS
 10
735349.20634899999
 20
4557813.2718099989
 30
0.0
  0
VERTEX
  5
BEE
  8
CLUSTERS
 10
735419.09024499997
 20
4557743.4944200013
 30
0.0
  0
VERTEX
  5
BEF
  8
CLUSTERS
 10
735426.03017100005
 20
4557643.12268
 30
0.0
  0
VERTEX
  5
BF0
  8
CLUSTERS
 10
735349.20634899999
 20
4557550.708349999
 30
0.0
  0
VERTEX
  5
BF1
  8
CLUSTERS
 10
735347.91956800013
 20
4557542.7509300001
 30
0.0
  0
VERTEX
  5
BF2
  8
CLUSTERS
 10
735349.20634899999
 20
4557472.8713799994
 30
0.0
  0
VERTEX
  5
BF3
  8
CLUSTERS
 10
735392.87858899985
 20
4557442.3791800002
 30
0.0
  0
VERTEX
  5
BF4
  8
CLUSTERS
 10
735449.73545000015
 20
4557441.5823100004
 30
0.0
  0
VERTEX
  5
BF5
  8
CLUSTERS
 10
735545.44520600012
 20
4557342.0074300002
 30
0.0
  0
VERTEX
  5
BF6
  8
CLUSTERS
 10
735549.60098400002
 20
4557241.6356899999
 30
0.0
  0
VERTEX
  5
BF7
  8
CLUSTERS
 10
735449.73545000015
 20
4557141.9269199986
 30
0.0
  0
VERTEX
  5
BF8
  8
CLUSTERS
 10
735349.20634899999
 20
4557143.6916300012
 30
0.0
  0
VERTEX
  5
BF9
  8
CLUSTERS
 10
735251.11105300009
 20
4557241.6356899999
 30
0.0
  0
SEQEND
  5
BFA
  8
CLUSTERS
  0
POLYLINE
  5
19D
  8
CLUSTERS
 66
     1
 10
0.0
 20
0.0
 30
0.0
 70
   129
  0
VERTEX
  5
BFB
  8
CLUSTERS
 10
733885.41590136464
 20
4557171.1047963332
 30
0.0
  0
VERTEX
  5
BFC
  8
CLUSTERS
 10
733970.04168636468
 20
4557237.0799663328
 30
0.0
  0
VERTEX
  5
BFD
  8
CLUSTERS
 10
734036.11994536465
 20
4557171.1047963332
 30
0.0
  0
VERTEX
  5
BFE
  8
CLUSTERS
 10
733970.04168636468
 20
4557105.135406334
 30
0.0
  0
VERTEX
  5
BFF
  8
CLUSTERS
 10
733885.41590136464
 20
4557171.1047963332
 30
0.0
  0
SEQEND
  5
C00
  8
CLUSTERS
  0
POLYLINE
  5
19E
  8
CLUSTERS
 66
     1
 10
0.0
 20
0.0
 30
0.0
 70
   129
  0
VERTEX
  5
C01
  8
CLUSTERS
 10
732556.47067700012
 20
4557141.26394
 30
0.0
  0
VERTEX
  5
C02
  8
CLUSTERS
 10
732534.39153399994
 20
4557209.1556900004
 30
0.0
  0
VERTEX
  5
C03
  8
CLUSTERS
 10
732501.92174300004
 20
4557241.6356899999
 30
0.0
  0
VERTEX
  5
C04
  8
CLUSTERS
 10
732471.49066100013
 20
4557342.0074300002
 30
0.0
  0
VERTEX
  5
C05
  8
CLUSTERS
 10
732534.39153399994
 20
4557404.9708099999
 30
0.0
  0
VERTEX
  5
C06
  8
CLUSTERS
 10
732560.77560800011
 20
4557442.3791800002
 30
0.0
  0
VERTEX
  5
C07
  8
CLUSTERS
 10
732534.39153399994
 20
4557461.6314200005
 30
0.0
  0
VERTEX
  5
C08
  8
CLUSTERS
 10
732453.21928199998
 20
4557542.7509300001
 30
0.0
  0
VERTEX
  5
C09
  8
CLUSTERS
 10
732470.72522999998
 20
4557643.12268
 30
0.0
  0
VERTEX
  5
C0A
  8
CLUSTERS
 10
732534.39153399994
 20
4557706.5883000009
 30
0.0
  0
VERTEX
  5
C0B
  8
CLUSTERS
 10
732677.83932813513
 20
4557750.3731744383
 30
0.0
  0
VERTEX
  5
C0C
  8
CLUSTERS
 10
732693.60604500014
 20
4557643.12268
 30
0.0
  0
VERTEX
  5
C0D
  8
CLUSTERS
 10
732713.95536689844
 20
4557544.6246501245
 30
0.0
  0
VERTEX
  5
C0E
  8
CLUSTERS
 10
732735.44973500003
 20
4557442.5855900003
 30
0.0
  0
VERTEX
  5
C0F
  8
CLUSTERS
 10
732735.61465800006
 20
4557442.3791800002
 30
0.0
  0
VERTEX
  5
C10
  8
CLUSTERS
 10
732735.44973500003
 20
4557442.2141300002
 30
0.0
  0
VERTEX
  5
C11
  8
CLUSTERS
 10
732634.92063499987
 20
4557368.27006
 30
0.0
  0
VERTEX
  5
C12
  8
CLUSTERS
 10
732597.5506160002
 20
4557342.0074300002
 30
0.0
  0
VERTEX
  5
C13
  8
CLUSTERS
 10
732634.92063499987
 20
4557321.4114499986
 30
0.0
  0
VERTEX
  5
C14
  8
CLUSTERS
 10
732730.57434000005
 20
4557241.6356899999
 30
0.0
  0
VERTEX
  5
C15
  8
CLUSTERS
 10
732716.30938200012
 20
4557141.26394
 30
0.0
  0
VERTEX
  5
C16
  8
CLUSTERS
 10
732634.92063499987
 20
4557062.9566099998
 30
0.0
  0
VERTEX
  5
C17
  8
CLUSTERS
 10
732556.47067700012
 20
4557141.26394
 30
0.0
  0
SEQEND
  5
C18
  8
CLUSTERS
  0
POLYLINE
  5
19F
  8
CLUSTERS
 66
     1
 10
0.0
 20
0.0
 30
0.0
 70
   129
  0
VERTEX
  5
C19
  8
CLUSTERS
 10
732930.65185706154
 20
4557051.9109809501
 30
0.0
  0
VERTEX
  5
C1A
  8
CLUSTERS
 10
732918.01128857175
 20
4557107.8601287063
 30
0.0
  0
VERTEX
  5
C1B
  8
CLUSTERS
 10
732945.09834984213
 20
4557167.4189154329
 30
0.0
  0
VERTEX
  5
C1C
  8
CLUSTERS
 10
732991.40479399997
 20
4557141.26394
 30
0.0
  0
VERTEX
  5
C1D
  8
CLUSTERS
 10
733037.03703700006
 20
4557121.5590499993
 30
0.0
  0
VERTEX
  5
C1E
  8
CLUSTERS
 10
733107.62071746483
 20
4557127.713078971
 30
0.0
  0
VERTEX
  5
C1F
  8
CLUSTERS
 10
733118.4556192481
 20
4557156.5900625922
 30
0.0
  0
VERTEX
  5
C20
  8
CLUSTERS
 10
733137.56613799999
 20
4557192.46459
 30
0.0
  0
VERTEX
  5
C21
  8
CLUSTERS
 10
733067.89308770455
 20
4557264.8787832027
 30
0.0
  0
VERTEX
  5
C22
  8
CLUSTERS
 10
733122.06721024518
 20
4557317.2183560589
 30
0.0
  0
VERTEX
  5
C23
  8
CLUSTERS
 10
733238.09523800015
 20
4557318.563219999
 30
0.0
  0
VERTEX
  5
C24
  8
CLUSTERS
 10
733320.56209899997
 20
4557241.6356899999
 30
0.0
  0
VERTEX
  5
C25
  8
CLUSTERS
 10
733378.49145896104
 20
4557237.8066190686
 30
0.0
  0
VERTEX
  5
C26
  8
CLUSTERS
 10
733439.1534389999
 20
4557212.9554899996
 30
0.0
  0
VERTEX
  5
C27
  8
CLUSTERS
 10
733537.44422184513
 20
4557212.3231701888
 30
0.0
  0
VERTEX
  5
C28
  8
CLUSTERS
 10
733622.50400293421
 20
4557173.6809406951
 30
0.0
  0
VERTEX
  5
C29
  8
CLUSTERS
 10
733630.2366868892
 20
4557062.9064768683
 30
0.0
  0
VERTEX
  5
C2A
  8
CLUSTERS
 10
733625.08152132179
 20
4556946.9797243159
 30
0.0
  0
VERTEX
  5
C2B
  8
CLUSTERS
 10
733439.1534389999
 20
4556993.9443899998
 30
0.0
  0
VERTEX
  5
C2C
  8
CLUSTERS
 10
733338.62433899986
 20
4557003.3454499999
 30
0.0
  0
VERTEX
  5
C2D
  8
CLUSTERS
 10
733300.95425600023
 20
4557040.89219
 30
0.0
  0
VERTEX
  5
C2E
  8
CLUSTERS
 10
733238.09523800015
 20
4557082.7005000003
 30
0.0
  0
VERTEX
  5
C2F
  8
CLUSTERS
 10
733190.71697199997
 20
4557040.89219
 30
0.0
  0
VERTEX
  5
C30
  8
CLUSTERS
 10
733137.56613799999
 20
4556987.8698300002
 30
0.0
  0
VERTEX
  5
C31
  8
CLUSTERS
 10
733037.03703700006
 20
4556960.2989799986
 30
0.0
  0
VERTEX
  5
C32
  8
CLUSTERS
 10
732936.50793700013
 20
4556998.9707699995
 30
0.0
  0
VERTEX
  5
C33
  8
CLUSTERS
 10
732930.65185706154
 20
4557051.9109809501
 30
0.0
  0
SEQEND
  5
C34
  8
CLUSTERS
  0
POLYLINE
  5
1A0
  8
CLUSTERS
 66
     1
 10
0.0
 20
0.0
 30
0.0
 70
   129
  0
VERTEX
  5
C35
  8
CLUSTERS
 10
734060.28632000007
 20
4556940.5204499988
 30
0.0
  0
VERTEX
  5
C36
  8
CLUSTERS
 10
734142.857143
 20
4557032.8698300002
 30
0.0
  0
VERTEX
  5
C37
  8
CLUSTERS
 10
734179.25853561494
 20
4557057.7541881446
 30
0.0
  0
VERTEX
  5
C38
  8
CLUSTERS
 10
734217.92195538979
 20
4557052.6018353524
 30
0.0
  0
VERTEX
  5
C39
  8
CLUSTERS
 10
734241.1201360469
 20
4557031.9926804584
 30
0.0
  0
VERTEX
  5
C3A
  8
CLUSTERS
 10
734248.85282000189
 20
4556970.1650235727
 30
0.0
  0
VERTEX
  5
C3B
  8
CLUSTERS
 10
734225.43525900005
 20
4556940.5204499988
 30
0.0
  0
VERTEX
  5
C3C
  8
CLUSTERS
 10
734142.857143
 20
4556858.0774800004
 30
0.0
  0
VERTEX
  5
C3D
  8
CLUSTERS
 10
734060.28632000007
 20
4556940.5204499988
 30
0.0
  0
SEQEND
  5
C3E
  8
CLUSTERS
  0
POLYLINE
  5
1A1
  8
CLUSTERS
 66
     1
 10
0.0
 20
0.0
 30
0.0
 70
   129
  0
VERTEX
  5
C3F
  8
CLUSTERS
 10
732513.62811713549
 20
4556782.9940309403
 30
0.0
  0
VERTEX
  5
C40
  8
CLUSTERS
 10
732582.55116313521
 20
4556861.7378609395
 30
0.0
  0
VERTEX
  5
C41
  8
CLUSTERS
 10
732755.48892094928
 20
4556718.0207857583
 30
0.0
  0
VERTEX
  5
C42
  8
CLUSTERS
 10
732582.55116313521
 20
4556714.1707609389
 30
0.0
  0
VERTEX
  5
C43
  8
CLUSTERS
 10
732513.62811713549
 20
4556782.9940309403
 30
0.0
  0
SEQEND
  5
C44
  8
CLUSTERS
  0
POLYLINE
  5
1A2
  8
CLUSTERS
 66
     1
 10
0.0
 20
0.0
 30
0.0
 70
   129
  0
VERTEX
  5
C45
  8
CLUSTERS
 10
734078.20364700002
 20
4556539.0334599987
 30
0.0
  0
VERTEX
  5
C46
  8
CLUSTERS
 10
734042.32804200007
 20
4556552.73386
 30
0.0
  0
VERTEX
  5
C47
  8
CLUSTERS
 10
733955.53086399985
 20
4556639.4052000009
 30
0.0
  0
VERTEX
  5
C48
  8
CLUSTERS
 10
734042.32804200007
 20
4556726.0881599989
 30
0.0
  0
VERTEX
  5
C49
  8
CLUSTERS
 10
734142.857143
 20
4556729.5619000001
 30
0.0
  0
VERTEX
  5
C4A
  8
CLUSTERS
 10
734199.87906909222
 20
4556637.8416320924
 30
0.0
  0
VERTEX
  5
C4B
  8
CLUSTERS
 10
734207.48740500002
 20
4556539.0334599987
 30
0.0
  0
VERTEX
  5
C4C
  8
CLUSTERS
 10
734142.857143
 20
4556474.5250699986
 30
0.0
  0
VERTEX
  5
C4D
  8
CLUSTERS
 10
734078.20364700002
 20
4556539.0334599987
 30
0.0
  0
SEQEND
  5
C4E
  8
CLUSTERS
  0
POLYLINE
  5
1A3
  8
CLUSTERS
 66
     1
 10
0.0
 20
0.0
 30
0.0
 70
   129
  0
VERTEX
  5
C4F
  8
CLUSTERS
 10
732846.32918999996
 20
4556237.9182200003
 30
0.0
  0
VERTEX
  5
C50
  8
CLUSTERS
 10
732936.50793700013
 20
4556328.0367000001
 30
0.0
  0
VERTEX
  5
C51
  8
CLUSTERS
 10
733026.77667899977
 20
4556237.9182200003
 30
0.0
  0
VERTEX
  5
C52
  8
CLUSTERS
 10
732936.50793700013
 20
4556147.8782200003
 30
0.0
  0
VERTEX
  5
C53
  8
CLUSTERS
 10
732846.32918999996
 20
4556237.9182200003
 30
0.0
  0
SEQEND
  5
C54
  8
CLUSTERS
  0
POLYLINE
  5
1A4
  8
CLUSTERS
 66
     1
 10
0.0
 20
0.0
 30
0.0
 70
   129
  0
VERTEX
  5
C55
  8
CLUSTERS
 10
734185.52637199988
 20
4556137.5464700004
 30
0.0
  0
VERTEX
  5
C56
  8
CLUSTERS
 10
734243.38624300004
 20
4556195.33562
 30
0.0
  0
VERTEX
  5
C57
  8
CLUSTERS
 10
734343.9153440001
 20
4556190.5269600004
 30
0.0
  0
VERTEX
  5
C58
  8
CLUSTERS
 10
734396.96611199994
 20
4556137.5464700004
 30
0.0
  0
VERTEX
  5
C59
  8
CLUSTERS
 10
734343.9153440001
 20
4556079.06745
 30
0.0
  0
VERTEX
  5
C5A
  8
CLUSTERS
 10
734243.38624300004
 20
4556074.4284199998
 30
0.0
  0
VERTEX
  5
C5B
  8
CLUSTERS
 10
734185.52637199988
 20
4556137.5464700004
 30
0.0
  0
SEQEND
  5
C5C
  8
CLUSTERS
  0
POLYLINE
  5
1A5
  8
CLUSTERS
 66
     1
 10
0.0
 20
0.0
 30
0.0
 70
   129
  0
VERTEX
  5
C5D
  8
CLUSTERS
 10
733070.70179600012
 20
4555936.8029699987
 30
0.0
  0
VERTEX
  5
C5E
  8
CLUSTERS
 10
733011.62055377662
 20
4555978.3471378507
 30
0.0
  0
VERTEX
  5
C5F
  8
CLUSTERS
 10
732972.95713400166
 20
4556027.2940088613
 30
0.0
  0
VERTEX
  5
C60
  8
CLUSTERS
 10
733032.2410872539
 20
4556091.6977460394
 30
0.0
  0
VERTEX
  5
C61
  8
CLUSTERS
 10
733112.14570277568
 20
4556228.2337175533
 30
0.0
  0
VERTEX
  5
C62
  8
CLUSTERS
 10
733174.00730320765
 20
4556228.2337175533
 30
0.0
  0
VERTEX
  5
C63
  8
CLUSTERS
 10
733169.8901180001
 20
4556137.5464700004
 30
0.0
  0
VERTEX
  5
C64
  8
CLUSTERS
 10
733137.56613799999
 20
4556093.0715499986
 30
0.0
  0
VERTEX
  5
C65
  8
CLUSTERS
 10
733137.92140182049
 20
4556060.7839496313
 30
0.0
  0
VERTEX
  5
C66
  8
CLUSTERS
 10
733158.54193529789
 20
4556019.5655757748
 30
0.0
  0
VERTEX
  5
C67
  8
CLUSTERS
 10
733204.46670499991
 20
4555936.8029699987
 30
0.0
  0
VERTEX
  5
C68
  8
CLUSTERS
 10
733137.56613799999
 20
4555870.0702200001
 30
0.0
  0
VERTEX
  5
C69
  8
CLUSTERS
 10
733070.70179600012
 20
4555936.8029699987
 30
0.0
  0
SEQEND
  5
C6A
  8
CLUSTERS
  0
POLYLINE
  5
1A6
  8
CLUSTERS
 66
     1
 10
0.0
 20
0.0
 30
0.0
 70
   129
  0
VERTEX
  5
C6B
  8
CLUSTERS
 10
732389.73181499995
 20
4555936.8029699987
 30
0.0
  0
VERTEX
  5
C6C
  8
CLUSTERS
 10
732433.86243400001
 20
4555980.9683299996
 30
0.0
  0
VERTEX
  5
C6D
  8
CLUSTERS
 10
732534.39153399994
 20
4556003.6155899987
 30
0.0
  0
VERTEX
  5
C6E
  8
CLUSTERS
 10
732601.31721100013
 20
4555936.8029699987
 30
0.0
  0
VERTEX
  5
C6F
  8
CLUSTERS
 10
732524.46043427533
 20
4555903.6387591558
 30
0.0
  0
VERTEX
  5
C70
  8
CLUSTERS
 10
732433.86243400001
 20
4555892.6673499998
 30
0.0
  0
VERTEX
  5
C71
  8
CLUSTERS
 10
732389.73181499995
 20
4555936.8029699987
 30
0.0
  0
SEQEND
  5
C72
  8
CLUSTERS
  0
POLYLINE
  5
1A7
  8
CLUSTERS
 66
     1
 10
0.0
 20
0.0
 30
0.0
 70
   129
  0
VERTEX
  5
C73
  8
CLUSTERS
 10
732453.95268099988
 20
4555736.0594800003
 30
0.0
  0
VERTEX
  5
C74
  8
CLUSTERS
 10
732534.39153399994
 20
4555816.6089799991
 30
0.0
  0
VERTEX
  5
C75
  8
CLUSTERS
 10
732634.92063499987
 20
4555808.9660899993
 30
0.0
  0
VERTEX
  5
C76
  8
CLUSTERS
 10
732707.85780500004
 20
4555736.0594800003
 30
0.0
  0
VERTEX
  5
C77
  8
CLUSTERS
 10
732634.92063499987
 20
4555663.3393099988
 30
0.0
  0
VERTEX
  5
C78
  8
CLUSTERS
 10
732534.39153399994
 20
4555655.7359199999
 30
0.0
  0
VERTEX
  5
C79
  8
CLUSTERS
 10
732453.95268099988
 20
4555736.0594800003
 30
0.0
  0
SEQEND
  5
C7A
  8
CLUSTERS
  0
POLYLINE
  5
1A8
  8
CLUSTERS
 66
     1
 10
0.0
 20
0.0
 30
0.0
 70
   129
  0
VERTEX
  5
C7B
  8
CLUSTERS
 10
733983.16519719502
 20
4555668.9312262209
 30
0.0
  0
VERTEX
  5
C7C
  8
CLUSTERS
 10
734033.56956019485
 20
4555769.3029762199
 30
0.0
  0
VERTEX
  5
C7D
  8
CLUSTERS
 10
734077.43516119488
 20
4555813.0681662196
 30
0.0
  0
VERTEX
  5
C7E
  8
CLUSTERS
 10
734121.331015195
 20
4555769.3029762199
 30
0.0
  0
VERTEX
  5
C7F
  8
CLUSTERS
 10
734171.73434919491
 20
4555668.9312262209
 30
0.0
  0
VERTEX
  5
C80
  8
CLUSTERS
 10
734077.43516119488
 20
4555574.8166662203
 30
0.0
  0
VERTEX
  5
C81
  8
CLUSTERS
 10
733983.16519719502
 20
4555668.9312262209
 30
0.0
  0
SEQEND
  5
C82
  8
CLUSTERS
  0
POLYLINE
  5
1A9
  8
CLUSTERS
 66
     1
 10
0.0
 20
0.0
 30
0.0
 70
   129
  0
VERTEX
  5
C83
  8
CLUSTERS
 10
736548.50022340915
 20
4555209.3735878486
 30
0.0
  0
VERTEX
  5
C84
  8
CLUSTERS
 10
736656.08465600002
 20
4555329.6664800001
 30
0.0
  0
VERTEX
  5
C85
  8
CLUSTERS
 10
736751.62098199991
 20
4555234.2007400012
 30
0.0
  0
VERTEX
  5
C86
  8
CLUSTERS
 10
736656.08465600002
 20
4555138.8283899995
 30
0.0
  0
VERTEX
  5
C87
  8
CLUSTERS
 10
736548.50022340915
 20
4555209.3735878486
 30
0.0
  0
SEQEND
  5
C88
  8
CLUSTERS
  0
POLYLINE
  5
1AA
  8
CLUSTERS
 66
     1
 10
0.0
 20
0.0
 30
0.0
 70
   129
  0
VERTEX
  5
C89
  8
CLUSTERS
 10
733941.36703299999
 20
4555133.828999999
 30
0.0
  0
VERTEX
  5
C8A
  8
CLUSTERS
 10
733849.74864200002
 20
4555234.2007400012
 30
0.0
  0
VERTEX
  5
C8B
  8
CLUSTERS
 10
733841.26984099997
 20
4555238.8287900006
 30
0.0
  0
VERTEX
  5
C8C
  8
CLUSTERS
 10
733740.74074100005
 20
4555280.5030500004
 30
0.0
  0
VERTEX
  5
C8D
  8
CLUSTERS
 10
733686.66001899994
 20
4555334.5724900002
 30
0.0
  0
VERTEX
  5
C8E
  8
CLUSTERS
 10
733740.74074100005
 20
4555388.7412100006
 30
0.0
  0
VERTEX
  5
C8F
  8
CLUSTERS
 10
733841.26984099997
 20
4555430.3888100013
 30
0.0
  0
VERTEX
  5
C90
  8
CLUSTERS
 10
733937.28688799986
 20
4555334.5724900002
 30
0.0
  0
VERTEX
  5
C91
  8
CLUSTERS
 10
733941.79894200014
 20
4555326.32326
 30
0.0
  0
VERTEX
  5
C92
  8
CLUSTERS
 10
734042.32804200007
 20
4555320.4087800002
 30
0.0
  0
VERTEX
  5
C93
  8
CLUSTERS
 10
734128.57822100015
 20
4555234.2007400012
 30
0.0
  0
VERTEX
  5
C94
  8
CLUSTERS
 10
734113.63439200004
 20
4555133.828999999
 30
0.0
  0
VERTEX
  5
C95
  8
CLUSTERS
 10
734042.32804200007
 20
4555062.6983399987
 30
0.0
  0
VERTEX
  5
C96
  8
CLUSTERS
 10
733941.79894200014
 20
4555133.3986999989
 30
0.0
  0
VERTEX
  5
C97
  8
CLUSTERS
 10
733941.36703299999
 20
4555133.828999999
 30
0.0
  0
SEQEND
  5
C98
  8
CLUSTERS
  0
POLYLINE
  5
1AB
  8
CLUSTERS
 66
     1
 10
0.0
 20
0.0
 30
0.0
 70
   129
  0
VERTEX
  5
C99
  8
CLUSTERS
 10
731629.96927800006
 20
4555076.2886699997
 30
0.0
  0
VERTEX
  5
C9A
  8
CLUSTERS
 10
731672.86483199999
 20
4555141.1914299987
 30
0.0
  0
VERTEX
  5
C9B
  8
CLUSTERS
 10
731716.100034
 20
4555076.2886699997
 30
0.0
  0
VERTEX
  5
C9C
  8
CLUSTERS
 10
731672.86483199999
 20
4555033.45725
 30
0.0
  0
VERTEX
  5
C9D
  8
CLUSTERS
 10
731629.96927800006
 20
4555076.2886699997
 30
0.0
  0
SEQEND
  5
C9E
  8
CLUSTERS
  0
POLYLINE
  5
1AC
  8
CLUSTERS
 66
     1
 10
0.0
 20
0.0
 30
0.0
 70
   129
  0
VERTEX
  5
C9F
  8
CLUSTERS
 10
733402.23005170794
 20
4554424.451186982
 30
0.0
  0
VERTEX
  5
CA0
  8
CLUSTERS
 10
733397.07488614053
 20
4554542.9540838953
 30
0.0
  0
VERTEX
  5
CA1
  8
CLUSTERS
 10
733381.60951823054
 20
4554620.2386069521
 30
0.0
  0
VERTEX
  5
CA2
  8
CLUSTERS
 10
733355.83381918597
 20
4554700.099274369
 30
0.0
  0
VERTEX
  5
CA3
  8
CLUSTERS
 10
733324.90308336599
 20
4554746.4700010177
 30
0.0
  0
VERTEX
  5
CA4
  8
CLUSTERS
 10
733338.62433899986
 20
4554818.8224299997
 30
0.0
  0
VERTEX
  5
CA5
  8
CLUSTERS
 10
733371.43068393669
 20
4554904.7170475628
 30
0.0
  0
VERTEX
  5
CA6
  8
CLUSTERS
 10
733439.1534389999
 20
4554927.9910399988
 30
0.0
  0
VERTEX
  5
CA7
  8
CLUSTERS
 10
733526.36557999998
 20
4554832.7137500001
 30
0.0
  0
VERTEX
  5
CA8
  8
CLUSTERS
 10
733533.68368999986
 20
4554732.3420099998
 30
0.0
  0
VERTEX
  5
CA9
  8
CLUSTERS
 10
733532.17345100001
 20
4554631.9702599999
 30
0.0
  0
VERTEX
  5
CAA
  8
CLUSTERS
 10
733529.57469199994
 20
4554531.5985099999
 30
0.0
  0
VERTEX
  5
CAB
  8
CLUSTERS
 10
733535.9812080001
 20
4554431.2267699987
 30
0.0
  0
VERTEX
  5
CAC
  8
CLUSTERS
 10
733439.1534389999
 20
4554337.1983399997
 30
0.0
  0
VERTEX
  5
CAD
  8
CLUSTERS
 10
733402.23005170794
 20
4554424.451186982
 30
0.0
  0
SEQEND
  5
CAE
  8
CLUSTERS
  0
POLYLINE
  5
1AD
  8
CLUSTERS
 66
     1
 10
0.0
 20
0.0
 30
0.0
 70
   129
  0
VERTEX
  5
CAF
  8
CLUSTERS
 10
736084.5109900001
 20
4554330.8550199987
 30
0.0
  0
VERTEX
  5
CB0
  8
CLUSTERS
 10
736153.43915300001
 20
4554399.7949799998
 30
0.0
  0
VERTEX
  5
CB1
  8
CLUSTERS
 10
736253.96825399995
 20
4554347.0804599999
 30
0.0
  0
VERTEX
  5
CB2
  8
CLUSTERS
 10
736270.1721310002
 20
4554330.8550199987
 30
0.0
  0
VERTEX
  5
CB3
  8
CLUSTERS
 10
736253.96825399995
 20
4554314.67588
 30
0.0
  0
VERTEX
  5
CB4
  8
CLUSTERS
 10
736153.43915300001
 20
4554262.0789399995
 30
0.0
  0
VERTEX
  5
CB5
  8
CLUSTERS
 10
736084.5109900001
 20
4554330.8550199987
 30
0.0
  0
SEQEND
  5
CB6
  8
CLUSTERS
  0
POLYLINE
  5
1AE
  8
CLUSTERS
 66
     1
 10
0.0
 20
0.0
 30
0.0
 70
   129
  0
VERTEX
  5
CB7
  8
CLUSTERS
 10
732937.71463699988
 20
4554330.8550199987
 30
0.0
  0
VERTEX
  5
CB8
  8
CLUSTERS
 10
732936.50793700013
 20
4554361.7843399998
 30
0.0
  0
VERTEX
  5
CB9
  8
CLUSTERS
 10
732870.46177800011
 20
4554431.2267699987
 30
0.0
  0
VERTEX
  5
CBA
  8
CLUSTERS
 10
732847.2693080001
 20
4554531.5985099999
 30
0.0
  0
VERTEX
  5
CBB
  8
CLUSTERS
 10
732835.97883600008
 20
4554599.24486
 30
0.0
  0
VERTEX
  5
CBC
  8
CLUSTERS
 10
732803.83107899991
 20
4554631.9702599999
 30
0.0
  0
VERTEX
  5
CBD
  8
CLUSTERS
 10
732843.87584281736
 20
4554731.8331428831
 30
0.0
  0
VERTEX
  5
CBE
  8
CLUSTERS
 10
732949.43020519021
 20
4554713.4958362561
 30
0.0
  0
VERTEX
  5
CBF
  8
CLUSTERS
 10
732936.50793700013
 20
4554621.1733600013
 30
0.0
  0
VERTEX
  5
CC0
  8
CLUSTERS
 10
732968.61143299995
 20
4554631.9702599999
 30
0.0
  0
VERTEX
  5
CC1
  8
CLUSTERS
 10
733037.03703700006
 20
4554699.0023300014
 30
0.0
  0
VERTEX
  5
CC2
  8
CLUSTERS
 10
733133.00316677615
 20
4554699.7428562846
 30
0.0
  0
VERTEX
  5
CC3
  8
CLUSTERS
 10
733197.25371979305
 20
4554685.9898056574
 30
0.0
  0
VERTEX
  5
CC4
  8
CLUSTERS
 10
733169.40401223628
 20
4554602.079380787
 30
0.0
  0
VERTEX
  5
CC5
  8
CLUSTERS
 10
733191.56219584274
 20
4554579.0476545626
 30
0.0
  0
VERTEX
  5
CC6
  8
CLUSTERS
 10
733238.09523800015
 20
4554627.29146
 30
0.0
  0
VERTEX
  5
CC7
  8
CLUSTERS
 10
733286.23953479866
 20
4554581.5963774584
 30
0.0
  0
VERTEX
  5
CC8
  8
CLUSTERS
 10
733319.74791779858
 20
4554450.2126946682
 30
0.0
  0
VERTEX
  5
CC9
  8
CLUSTERS
 10
733238.09523800015
 20
4554338.0430600001
 30
0.0
  0
VERTEX
  5
CCA
  8
CLUSTERS
 10
733237.09687000012
 20
4554330.8550199987
 30
0.0
  0
VERTEX
  5
CCB
  8
CLUSTERS
 10
733137.56613799999
 20
4554231.7681299997
 30
0.0
  0
VERTEX
  5
CCC
  8
CLUSTERS
 10
733037.03703700006
 20
4554231.7309999987
 30
0.0
  0
VERTEX
  5
CCD
  8
CLUSTERS
 10
732937.71463699988
 20
4554330.8550199987
 30
0.0
  0
SEQEND
  5
CCE
  8
CLUSTERS
  0
POLYLINE
  5
1AF
  8
CLUSTERS
 66
     1
 10
0.0
 20
0.0
 30
0.0
 70
   129
  0
VERTEX
  5
CCF
  8
CLUSTERS
 10
735873.46975615155
 20
4553779.7692825655
 30
0.0
  0
VERTEX
  5
CD0
  8
CLUSTERS
 10
735950.75447815144
 20
4553857.1689925632
 30
0.0
  0
VERTEX
  5
CD1
  8
CLUSTERS
 10
736028.0154171515
 20
4553779.7692825655
 30
0.0
  0
VERTEX
  5
CD2
  8
CLUSTERS
 10
735950.75447815144
 20
4553702.6859725639
 30
0.0
  0
VERTEX
  5
CD3
  8
CLUSTERS
 10
735873.46975615155
 20
4553779.7692825655
 30
0.0
  0
SEQEND
  5
CD4
  8
CLUSTERS
  0
POLYLINE
  5
1B0
  8
CLUSTERS
 66
     1
 10
0.0
 20
0.0
 30
0.0
 70
   129
  0
VERTEX
  5
CD5
  8
CLUSTERS
 10
727302.2774569263
 20
4553233.9070431758
 30
0.0
  0
VERTEX
  5
CD6
  8
CLUSTERS
 10
727364.79122392624
 20
4553301.8619431751
 30
0.0
  0
VERTEX
  5
CD7
  8
CLUSTERS
 10
727465.16373192635
 20
4553233.9070431758
 30
0.0
  0
VERTEX
  5
CD8
  8
CLUSTERS
 10
727364.79122392624
 20
4553171.0578731764
 30
0.0
  0
VERTEX
  5
CD9
  8
CLUSTERS
 10
727302.2774569263
 20
4553233.9070431758
 30
0.0
  0
SEQEND
  5
CDA
  8
CLUSTERS
  0
POLYLINE
  5
1B1
  8
CLUSTERS
 66
     1
 10
0.0
 20
0.0
 30
0.0
 70
   129
  0
VERTEX
  5
CDB
  8
CLUSTERS
 10
732940.25827700004
 20
4552624.5353199989
 30
0.0
  0
VERTEX
  5
CDC
  8
CLUSTERS
 10
732936.50793700013
 20
4552625.1105499994
 30
0.0
  0
VERTEX
  5
CDD
  8
CLUSTERS
 10
732836.55604000005
 20
4552724.9070600001
 30
0.0
  0
VERTEX
  5
CDE
  8
CLUSTERS
 10
732879.06277399999
 20
4552825.27881
 30
0.0
  0
VERTEX
  5
CDF
  8
CLUSTERS
 10
732936.50793700013
 20
4552878.9956799997
 30
0.0
  0
VERTEX
  5
CE0
  8
CLUSTERS
 10
733037.03703700006
 20
4552869.0609599994
 30
0.0
  0
VERTEX
  5
CE1
  8
CLUSTERS
 10
733087.53603099997
 20
4552825.27881
 30
0.0
  0
VERTEX
  5
CE2
  8
CLUSTERS
 10
733137.56613799999
 20
4552742.3227199996
 30
0.0
  0
VERTEX
  5
CE3
  8
CLUSTERS
 10
733205.18313059269
 20
4552688.0190481087
 30
0.0
  0
VERTEX
  5
CE4
  8
CLUSTERS
 10
733234.19329800003
 20
4552624.5353199989
 30
0.0
  0
VERTEX
  5
CE5
  8
CLUSTERS
 10
733137.56613799999
 20
4552528.60023
 30
0.0
  0
VERTEX
  5
CE6
  8
CLUSTERS
 10
733037.03703700006
 20
4552529.7481999993
 30
0.0
  0
VERTEX
  5
CE7
  8
CLUSTERS
 10
732940.25827700004
 20
4552624.5353199989
 30
0.0
  0
SEQEND
  5
CE8
  8
CLUSTERS
  0
POLYLINE
  5
1B2
  8
CLUSTERS
 66
     1
 10
0.0
 20
0.0
 30
0.0
 70
   129
  0
VERTEX
  5
CE9
  8
CLUSTERS
 10
727424.11159699992
 20
4551921.9330899986
 30
0.0
  0
VERTEX
  5
CEA
  8
CLUSTERS
 10
727407.40740699996
 20
4551935.3960800003
 30
0.0
  0
VERTEX
  5
CEB
  8
CLUSTERS
 10
727318.943034
 20
4552022.3048300007
 30
0.0
  0
VERTEX
  5
CEC
  8
CLUSTERS
 10
727306.87830699992
 20
4552035.8936999999
 30
0.0
  0
VERTEX
  5
CED
  8
CLUSTERS
 10
727223.61883799999
 20
4552122.6765799988
 30
0.0
  0
VERTEX
  5
CEE
  8
CLUSTERS
 10
727306.87830699992
 20
4552222.0367900003
 30
0.0
  0
VERTEX
  5
CEF
  8
CLUSTERS
 10
727307.92866099998
 20
4552223.0483299997
 30
0.0
  0
VERTEX
  5
CF0
  8
CLUSTERS
 10
727407.40740699996
 20
4552307.6707899999
 30
0.0
  0
VERTEX
  5
CF1
  8
CLUSTERS
 10
727507.93650800001
 20
4552296.2488800008
 30
0.0
  0
VERTEX
  5
CF2
  8
CLUSTERS
 10
727582.6285029999
 20
4552223.0483299997
 30
0.0
  0
VERTEX
  5
CF3
  8
CLUSTERS
 10
727605.29379100015
 20
4552122.6765799988
 30
0.0
  0
VERTEX
  5
CF4
  8
CLUSTERS
 10
727608.46560800006
 20
4552058.7778200004
 30
0.0
  0
VERTEX
  5
CF5
  8
CLUSTERS
 10
727630.09463000007
 20
4552022.3048300007
 30
0.0
  0
VERTEX
  5
CF6
  8
CLUSTERS
 10
727652.40982499998
 20
4551921.9330899986
 30
0.0
  0
VERTEX
  5
CF7
  8
CLUSTERS
 10
727608.46560800006
 20
4551877.3313999996
 30
0.0
  0
VERTEX
  5
CF8
  8
CLUSTERS
 10
727507.93650800001
 20
4551840.8547700001
 30
0.0
  0
VERTEX
  5
CF9
  8
CLUSTERS
 10
727424.11159699992
 20
4551921.9330899986
 30
0.0
  0
SEQEND
  5
CFA
  8
CLUSTERS
  0
POLYLINE
  5
1B3
  8
CLUSTERS
 66
     1
 10
0.0
 20
0.0
 30
0.0
 70
   129
  0
VERTEX
  5
CFB
  8
CLUSTERS
 10
726368.31708861527
 20
4551859.2560635218
 30
0.0
  0
VERTEX
  5
CFC
  8
CLUSTERS
 10
726318.77143700013
 20
4551921.9330899986
 30
0.0
  0
VERTEX
  5
CFD
  8
CLUSTERS
 10
726402.11640199996
 20
4551985.1585999997
 30
0.0
  0
VERTEX
  5
CFE
  8
CLUSTERS
 10
726502.64550300001
 20
4551942.5753600001
 30
0.0
  0
VERTEX
  5
CFF
  8
CLUSTERS
 10
726603.17460300005
 20
4551969.1741999993
 30
0.0
  0
VERTEX
  5
D00
  8
CLUSTERS
 10
726703.7037040001
 20
4551931.4012599997
 30
0.0
  0
VERTEX
  5
D01
  8
CLUSTERS
 10
726711.56914399995
 20
4551921.9330899986
 30
0.0
  0
VERTEX
  5
D02
  8
CLUSTERS
 10
726703.7037040001
 20
4551908.5321399998
 30
0.0
  0
VERTEX
  5
D03
  8
CLUSTERS
 10
726626.07382147841
 20
4551866.9844966093
 30
0.0
  0
VERTEX
  5
D04
  8
CLUSTERS
 10
726502.64550300001
 20
4551883.6673300005
 30
0.0
  0
VERTEX
  5
D05
  8
CLUSTERS
 10
726453.37686970457
 20
4551859.2560635218
 30
0.0
  0
VERTEX
  5
D06
  8
CLUSTERS
 10
726409.55815556995
 20
4551859.2560635218
 30
0.0
  0
VERTEX
  5
D07
  8
CLUSTERS
 10
726368.31708861527
 20
4551859.2560635218
 30
0.0
  0
SEQEND
  5
D08
  8
CLUSTERS
  0
POLYLINE
  5
1B4
  8
CLUSTERS
 66
     1
 10
0.0
 20
0.0
 30
0.0
 70
   129
  0
VERTEX
  5
D09
  8
CLUSTERS
 10
732051.11644899985
 20
4550516.7286200002
 30
0.0
  0
VERTEX
  5
D0A
  8
CLUSTERS
 10
732067.37351899978
 20
4550617.1003700001
 30
0.0
  0
VERTEX
  5
D0B
  8
CLUSTERS
 10
732031.74603200005
 20
4550668.1179099986
 30
0.0
  0
VERTEX
  5
D0C
  8
CLUSTERS
 10
731983.38819400012
 20
4550717.47212
 30
0.0
  0
VERTEX
  5
D0D
  8
CLUSTERS
 10
732006.33245699282
 20
4550785.1873132698
 30
0.0
  0
VERTEX
  5
D0E
  8
CLUSTERS
 10
732041.51154100022
 20
4550817.8438699991
 30
0.0
  0
VERTEX
  5
D0F
  8
CLUSTERS
 10
732108.18651376374
 20
4550920.4189517014
 30
0.0
  0
VERTEX
  5
D10
  8
CLUSTERS
 10
732223.33275700011
 20
4550817.8438699991
 30
0.0
  0
VERTEX
  5
D11
  8
CLUSTERS
 10
732132.27513199998
 20
4550726.2744899988
 30
0.0
  0
VERTEX
  5
D12
  8
CLUSTERS
 10
732088.43105500005
 20
4550717.47212
 30
0.0
  0
VERTEX
  5
D13
  8
CLUSTERS
 10
732132.27513199998
 20
4550688.2481900007
 30
0.0
  0
VERTEX
  5
D14
  8
CLUSTERS
 10
732199.30533899995
 20
4550617.1003700001
 30
0.0
  0
VERTEX
  5
D15
  8
CLUSTERS
 10
732215.31162099994
 20
4550516.7286200002
 30
0.0
  0
VERTEX
  5
D16
  8
CLUSTERS
 10
732132.27513199998
 20
4550436.0009399997
 30
0.0
  0
VERTEX
  5
D17
  8
CLUSTERS
 10
732051.11644899985
 20
4550516.7286200002
 30
0.0
  0
SEQEND
  5
D18
  8
CLUSTERS
  0
POLYLINE
  5
1B5
  8
CLUSTERS
 66
     1
 10
0.0
 20
0.0
 30
0.0
 70
   129
  0
VERTEX
  5
D19
  8
CLUSTERS
 10
730482.84593100008
 20
4550416.3568800008
 30
0.0
  0
VERTEX
  5
D1A
  8
CLUSTERS
 10
730523.80952400004
 20
4550462.4447199991
 30
0.0
  0
VERTEX
  5
D1B
  8
CLUSTERS
 10
730597.74322289485
 20
4550414.4258602699
 30
0.0
  0
VERTEX
  5
D1C
  8
CLUSTERS
 10
730523.80952400004
 20
4550375.5296600014
 30
0.0
  0
VERTEX
  5
D1D
  8
CLUSTERS
 10
730482.84593100008
 20
4550416.3568800008
 30
0.0
  0
SEQEND
  5
D1E
  8
CLUSTERS
  0
POLYLINE
  5
1B6
  8
CLUSTERS
 66
     1
 10
0.0
 20
0.0
 30
0.0
 70
   129
  0
VERTEX
  5
D1F
  8
CLUSTERS
 10
726336.851609
 20
4550115.2416399987
 30
0.0
  0
VERTEX
  5
D20
  8
CLUSTERS
 10
726323.3005469999
 20
4550215.61338
 30
0.0
  0
VERTEX
  5
D21
  8
CLUSTERS
 10
726382.04985399987
 20
4550315.9851299999
 30
0.0
  0
VERTEX
  5
D22
  8
CLUSTERS
 10
726402.11640199996
 20
4550336.8435899997
 30
0.0
  0
VERTEX
  5
D23
  8
CLUSTERS
 10
726502.64550300001
 20
4550408.834999999
 30
0.0
  0
VERTEX
  5
D24
  8
CLUSTERS
 10
726603.17460300005
 20
4550409.08574
 30
0.0
  0
VERTEX
  5
D25
  8
CLUSTERS
 10
726643.66245767102
 20
4550405.5525168469
 30
0.0
  0
VERTEX
  5
D26
  8
CLUSTERS
 10
726677.82059734198
 20
4550396.7015334535
 30
0.0
  0
VERTEX
  5
D27
  8
CLUSTERS
 10
726708.18348833255
 20
4550373.941907635
 30
0.0
  0
VERTEX
  5
D28
  8
CLUSTERS
 10
726733.4858760261
 20
4550357.5044036573
 30
0.0
  0
VERTEX
  5
D29
  8
CLUSTERS
 10
726747.40213130077
 20
4550334.7447778368
 30
0.0
  0
VERTEX
  5
D2A
  8
CLUSTERS
 10
726764.12535300001
 20
4550315.9851299999
 30
0.0
  0
VERTEX
  5
D2B
  8
CLUSTERS
 10
726796.92754900001
 20
4550215.61338
 30
0.0
  0
VERTEX
  5
D2C
  8
CLUSTERS
 10
726780.89751300006
 20
4550115.2416399987
 30
0.0
  0
VERTEX
  5
D2D
  8
CLUSTERS
 10
726703.7037040001
 20
4550037.2013499998
 30
0.0
  0
VERTEX
  5
D2E
  8
CLUSTERS
 10
726603.17460300005
 20
4550019.9926300002
 30
0.0
  0
VERTEX
  5
D2F
  8
CLUSTERS
 10
726502.64550300001
 20
4550020.8185600014
 30
0.0
  0
VERTEX
  5
D30
  8
CLUSTERS
 10
726402.11640199996
 20
4550048.7842199998
 30
0.0
  0
VERTEX
  5
D31
  8
CLUSTERS
 10
726336.851609
 20
4550115.2416399987
 30
0.0
  0
SEQEND
  5
D32
  8
CLUSTERS
  0
POLYLINE
  5
1B7
  8
CLUSTERS
 66
     1
 10
0.0
 20
0.0
 30
0.0
 70
   129
  0
VERTEX
  5
D33
  8
CLUSTERS
 10
727208.46528800006
 20
4549312.2676599994
 30
0.0
  0
VERTEX
  5
D34
  8
CLUSTERS
 10
727206.34920599998
 20
4549316.7943000011
 30
0.0
  0
VERTEX
  5
D35
  8
CLUSTERS
 10
727127.75475899992
 20
4549412.6394100003
 30
0.0
  0
VERTEX
  5
D36
  8
CLUSTERS
 10
727173.22783400002
 20
4549513.0111500006
 30
0.0
  0
VERTEX
  5
D37
  8
CLUSTERS
 10
727206.34920599998
 20
4549546.9778699996
 30
0.0
  0
VERTEX
  5
D38
  8
CLUSTERS
 10
727306.87830699992
 20
4549560.6705099996
 30
0.0
  0
VERTEX
  5
D39
  8
CLUSTERS
 10
727407.40740699996
 20
4549514.4504299993
 30
0.0
  0
VERTEX
  5
D3A
  8
CLUSTERS
 10
727409.29105000012
 20
4549513.0111500006
 30
0.0
  0
VERTEX
  5
D3B
  8
CLUSTERS
 10
727498.43190800014
 20
4549412.6394100003
 30
0.0
  0
VERTEX
  5
D3C
  8
CLUSTERS
 10
727484.01411600015
 20
4549312.2676599994
 30
0.0
  0
VERTEX
  5
D3D
  8
CLUSTERS
 10
727407.40740699996
 20
4549235.3069500001
 30
0.0
  0
VERTEX
  5
D3E
  8
CLUSTERS
 10
727306.87830699992
 20
4549222.1103299987
 30
0.0
  0
VERTEX
  5
D3F
  8
CLUSTERS
 10
727208.46528800006
 20
4549312.2676599994
 30
0.0
  0
SEQEND
  5
D40
  8
CLUSTERS
  0
ENDSEC
  0
EOF
