  0
SECTION
  2
HEADER
  9
$ACADVER
  1
AC1009
  9
$INSBASE
 10
0.0
 20
0.0
 30
0.0
  9
$EXTMIN
 10
728377.74506577477
 20
4551867.5897247931
 30
0.0062499999921875
  9
$EXTMAX
 10
742708.09241040458
 20
4569725.6609672643
 30
0.5999999998604652
  9
$LIMMIN
 10
0.0
 20
0.0
  9
$LIMMAX
 10
12.0
 20
9.0
  9
$ORTHOMODE
 70
     0
  9
$REGENMODE
 70
     1
  9
$FILLMODE
 70
     1
  9
$QTEXTMODE
 70
     0
  9
$MIRRTEXT
 70
     1
  9
$DRAGMODE
 70
     2
  9
$LTSCALE
 40
1.0
  9
$OSMODE
 70
   613
  9
$ATTMODE
 70
     1
  9
$TEXTSIZE
 40
0.2
  9
$TRACEWID
 40
0.05
  9
$TEXTSTYLE
  7
STANDARD
  9
$CLAYER
  8
0
  9
$CELTYPE
  6
BYLAYER
  9
$CECOLOR
 62
   256
  9
$DIMSCALE
 40
1.0
  9
$DIMASZ
 40
0.18
  9
$DIMEXO
 40
0.0625
  9
$DIMDLI
 40
0.38
  9
$DIMRND
 40
0.0
  9
$DIMDLE
 40
0.0
  9
$DIMEXE
 40
0.18
  9
$DIMTP
 40
0.0
  9
$DIMTM
 40
0.0
  9
$DIMTXT
 40
0.18
  9
$DIMCEN
 40
0.09
  9
$DIMTSZ
 40
0.0
  9
$DIMTOL
 70
     0
  9
$DIMLIM
 70
     0
  9
$DIMTIH
 70
     1
  9
$DIMTOH
 70
     1
  9
$DIMSE1
 70
     0
  9
$DIMSE2
 70
     0
  9
$DIMTAD
 70
     0
  9
$DIMZIN
 70
     0
  9
$DIMBLK
  1

  9
$DIMASO
 70
     1
  9
$DIMSHO
 70
     1
  9
$DIMPOST
  1

  9
$DIMAPOST
  1

  9
$DIMALT
 70
     0
  9
$DIMALTD
 70
     2
  9
$DIMALTF
 40
25.399999999999999
  9
$DIMLFAC
 40
1.0
  9
$DIMTOFL
 70
     0
  9
$DIMTVP
 40
0.0
  9
$DIMTIX
 70
     0
  9
$DIMSOXD
 70
     0
  9
$DIMSAH
 70
     0
  9
$DIMBLK1
  1

  9
$DIMBLK2
  1

  9
$DIMSTYLE
  2
STANDARD
  9
$DIMCLRD
 70
     0
  9
$DIMCLRE
 70
     0
  9
$DIMCLRT
 70
     0
  9
$DIMTFAC
 40
1.0
  9
$DIMGAP
 40
0.09
  9
$LUNITS
 70
     2
  9
$LUPREC
 70
     4
  9
$SKETCHINC
 40
0.1
  9
$FILLETRAD
 40
0.5
  9
$AUNITS
 70
     0
  9
$AUPREC
 70
     0
  9
$MENU
  1
.
  9
$ELEVATION
 40
0.0
  9
$PELEVATION
 40
0.0
  9
$THICKNESS
 40
0.0
  9
$LIMCHECK
 70
     0
  9
$BLIPMODE
 70
     0
  9
$CHAMFERA
 40
0.5
  9
$CHAMFERB
 40
0.5
  9
$SKPOLY
 70
     0
  9
$TDCREATE
 40
2456130.193557037
  9
$TDUPDATE
 40
2456130.2025741441
  9
$TDINDWG
 40
0.0098094907
  9
$TDUSRTIMER
 40
0.0098093056
  9
$USRTIMER
 70
     1
  9
$ANGBASE
 50
0.0
  9
$ANGDIR
 70
     0
  9
$PDMODE
 70
     0
  9
$PDSIZE
 40
0.0
  9
$PLINEWID
 40
0.0
  9
$COORDS
 70
     1
  9
$SPLFRAME
 70
     0
  9
$SPLINETYPE
 70
     6
  9
$SPLINESEGS
 70
     8
  9
$ATTDIA
 70
     0
  9
$ATTREQ
 70
     1
  9
$HANDLING
 70
     1
  9
$HANDSEED
  5
271
  9
$SURFTAB1
 70
     6
  9
$SURFTAB2
 70
     6
  9
$SURFTYPE
 70
     6
  9
$SURFU
 70
     6
  9
$SURFV
 70
     6
  9
$UCSNAME
  2

  9
$UCSORG
 10
0.0
 20
0.0
 30
0.0
  9
$UCSXDIR
 10
1.0
 20
0.0
 30
0.0
  9
$UCSYDIR
 10
0.0
 20
1.0
 30
0.0
  9
$PUCSNAME
  2

  9
$PUCSORG
 10
0.0
 20
0.0
 30
0.0
  9
$PUCSXDIR
 10
1.0
 20
0.0
 30
0.0
  9
$PUCSYDIR
 10
0.0
 20
1.0
 30
0.0
  9
$USERI1
 70
     0
  9
$USERI2
 70
     0
  9
$USERI3
 70
     0
  9
$USERI4
 70
     0
  9
$USERI5
 70
     0
  9
$USERR1
 40
0.0
  9
$USERR2
 40
0.0
  9
$USERR3
 40
0.0
  9
$USERR4
 40
0.0
  9
$USERR5
 40
0.0
  9
$WORLDVIEW
 70
     1
  9
$SHADEDGE
 70
     3
  9
$SHADEDIF
 70
    70
  9
$TILEMODE
 70
     1
  9
$MAXACTVP
 70
    64
  9
$PLIMCHECK
 70
     0
  9
$PEXTMIN
 10
1.0000000000000000E+020
 20
1.0000000000000000E+020
 30
1.0000000000000000E+020
  9
$PEXTMAX
 10
-1.0000000000000000E+020
 20
-1.0000000000000000E+020
 30
-1.0000000000000000E+020
  9
$PLIMMIN
 10
0.0
 20
0.0
  9
$PLIMMAX
 10
12.0
 20
9.0
  9
$UNITMODE
 70
     0
  9
$VISRETAIN
 70
     1
  9
$PLINEGEN
 70
     0
  9
$PSLTSCALE
 70
     1
  0
ENDSEC
  0
SECTION
  2
TABLES
  0
TABLE
  2
VPORT
 70
     1
  0
VPORT
  2
*ACTIVE
 70
     0
 10
0.0
 20
0.0
 11
1.0
 21
1.0
 12
742417.5505896525
 22
4562185.5815162221
 13
0.0
 23
0.0
 14
0.5
 24
0.5
 15
0.5
 25
0.5
 16
0.0
 26
0.0
 36
1.0
 17
0.0
 27
0.0
 37
0.0
 40
45974.115663825723
 41
1.4411764705882351
 42
50.0
 43
0.0
 44
0.0
 50
0.0
 51
0.0
 71
     0
 72
   100
 73
     1
 74
     3
 75
     0
 76
     0
 77
     0
 78
     0
  0
ENDTAB
  0
TABLE
  2
LTYPE
 70
     1
  0
LTYPE
  2
CONTINUOUS
 70
     0
  3
Solid line
 72
    65
 73
     0
 40
0.0
  0
ENDTAB
  0
TABLE
  2
LAYER
 70
     2
  0
LAYER
  2
0
 70
     0
 62
     7
  6
CONTINUOUS
  0
LAYER
  2
LOTS
 70
     0
 62
     6
  6
CONTINUOUS
  0
ENDTAB
  0
TABLE
  2
STYLE
 70
     1
  0
STYLE
  2
STANDARD
 70
     0
 40
0.0
 41
1.0
 50
0.0
 71
     0
 42
0.2
  3
txt
  4

  0
ENDTAB
  0
TABLE
  2
VIEW
 70
     0
  0
ENDTAB
  0
TABLE
  2
UCS
 70
     0
  0
ENDTAB
  0
TABLE
  2
APPID
 70
     3
  0
APPID
  2
ACAD
 70
     0
  0
APPID
  2
DCO15
 70
     0
  0
APPID
  2
ADE
 70
     0
  0
ENDTAB
  0
TABLE
  2
DIMSTYLE
 70
     1
  0
DIMSTYLE
  2
STANDARD
 70
     0
  3

  4

  5

  6

  7

 40
1.0
 41
0.18
 42
0.0625
 43
0.38
 44
0.18
 45
0.0
 46
0.0
 47
0.0
 48
0.0
140
0.18
141
0.09
142
0.0
143
25.399999999999999
144
1.0
145
0.0
146
1.0
147
0.09
 71
     0
 72
     0
 73
     1
 74
     1
 75
     0
 76
     0
 77
     0
 78
     0
170
     0
171
     2
172
     0
173
     0
174
     0
175
     0
176
     0
177
     0
178
     0
  0
ENDTAB
  0
ENDSEC
  0
SECTION
  2
BLOCKS
  0
BLOCK
  8
0
  2
$MODEL_SPACE
 70
     0
 10
0.0
 20
0.0
 30
0.0
  3
$MODEL_SPACE
  1

  0
ENDBLK
  5
15
  8
0
  0
BLOCK
 67
     1
  8
0
  2
$PAPER_SPACE
 70
     0
 10
0.0
 20
0.0
 30
0.0
  3
$PAPER_SPACE
  1

  0
ENDBLK
  5
1A
 67
     1
  8
0
  0
ENDSEC
  0
SECTION
  2
ENTITIES
  0
POLYLINE
  5
6C
  8
LOTS
 66
     1
 10
0.0
 20
0.0
 30
0.4999999999180328
 70
     1
1001
DCO15
1071
        1
1071
        1
1000
densities
1004
074531323900
1001
ADE
1011
-14.33501381799579
1021
0.0
1031
0.0
1021
-16.026398475281891
1031
0.0
  0
VERTEX
  5
BD
  8
LOTS
 10
739624.15148866933
 20
4566735.1854079627
 30
0.4999999999180328
  0
VERTEX
  5
BE
  8
LOTS
 10
739649.45439734694
 20
4566773.4047545958
 30
0.4999999999180328
  0
VERTEX
  5
BF
  8
LOTS
 10
739660.6946327053
 20
4566766.0977247581
 30
0.4999999999180328
  0
VERTEX
  5
C0
  8
LOTS
 10
739666.32300312829
 20
4566756.5362574011
 30
0.4999999999180328
  0
VERTEX
  5
C1
  8
LOTS
 10
739668.56774910539
 20
4566739.6810216019
 30
0.4999999999180328
  0
VERTEX
  5
C2
  8
LOTS
 10
739662.39469767362
 20
4566730.6897943243
 30
0.4999999999180328
  0
VERTEX
  5
C3
  8
LOTS
 10
739652.82151630905
 20
4566722.255545726
 30
0.4999999999180328
  0
VERTEX
  5
C4
  8
LOTS
 10
739637.65297549206
 20
4566721.1415883638
 30
0.4999999999180328
  0
VERTEX
  5
C5
  8
LOTS
 10
739628.65748610359
 20
4566726.7511593644
 30
0.4999999999180328
  0
SEQEND
  5
C6
  8
LOTS
  0
POLYLINE
  5
71
  8
LOTS
 66
     1
 10
0.0
 20
0.0
 30
0.0263157894598338
 70
     1
1001
DCO15
1071
        1
1071
        1
1000
densities
1004
074532333900
1001
ADE
1011
-0.7648592405021191
1021
0.0
1031
0.0
1021
-10.448563082143661
1031
0.0
  0
VERTEX
  5
C7
  8
LOTS
 10
742689.73643153335
 20
4567843.9539709892
 30
0.0263157894598338
  0
VERTEX
  5
C8
  8
LOTS
 10
742686.16730271105
 20
4567852.6187033588
 30
0.0263157894598338
  0
VERTEX
  5
C9
  8
LOTS
 10
742686.67712315125
 20
4567862.8124430571
 30
0.0263157894598338
  0
VERTEX
  5
CA
  8
LOTS
 10
742691.26615001424
 20
4567873.5158965541
 30
0.0263157894598338
  0
VERTEX
  5
CB
  8
LOTS
 10
742700.95402418042
 20
4567878.1030526049
 30
0.0263157894598338
  0
VERTEX
  5
CC
  8
LOTS
 10
742708.09241040458
 20
4567873.0061827572
 30
0.0263157894598338
  0
VERTEX
  5
CD
  8
LOTS
 10
742708.09241040458
 20
4567862.8124430571
 30
0.0263157894598338
  0
VERTEX
  5
CE
  8
LOTS
 10
742703.50338354195
 20
4567849.0508408379
 30
0.0263157894598338
  0
VERTEX
  5
CF
  8
LOTS
 10
742697.38476677798
 20
4567842.9346104236
 30
0.0263157894598338
  0
SEQEND
  5
D0
  8
LOTS
  0
POLYLINE
  5
72
  8
LOTS
 66
     1
 10
0.0
 20
0.0
 30
0.0999999999705883
 70
     1
1001
DCO15
1071
        1
1071
        1
1000
densities
1004
074433303900
1001
ADE
1011
-17.226823917357251
1021
0.0
1031
0.0
1021
-3.9282660968601699
1031
0.0
  0
VERTEX
  5
D1
  8
LOTS
 10
742021.6350098463
 20
4569553.7442841083
 30
0.0999999999705883
  0
VERTEX
  5
D2
  8
LOTS
 10
742017.40392923658
 20
4569561.6008163039
 30
0.0999999999705883
  0
VERTEX
  5
D3
  8
LOTS
 10
742016.19500684715
 20
4569580.3355779937
 30
0.0999999999705883
  0
VERTEX
  5
D4
  8
LOTS
 10
742027.0750128451
 20
4569590.6094945204
 30
0.0999999999705883
  0
VERTEX
  5
D5
  8
LOTS
 10
742051.25296812272
 20
4569595.4442631844
 30
0.0999999999705883
  0
VERTEX
  5
D6
  8
LOTS
 10
742065.75974128919
 20
4569583.3573415242
 30
0.0999999999705883
  0
VERTEX
  5
D7
  8
LOTS
 10
742068.78199801175
 20
4569567.0399641683
 30
0.0999999999705883
  0
VERTEX
  5
D8
  8
LOTS
 10
742054.27522484516
 20
4569556.1616684403
 30
0.0999999999705883
  0
VERTEX
  5
D9
  8
LOTS
 10
742035.53737106931
 20
4569550.1182076102
 30
0.0999999999705883
  0
SEQEND
  5
DA
  8
LOTS
  0
POLYLINE
  5
73
  8
LOTS
 66
     1
 10
0.0
 20
0.0
 30
0.01999999996
 70
     1
1001
DCO15
1071
        1
1071
        1
1000
densities
1004
074531393500
1001
ADE
1011
-20.897446163580749
1021
0.0
1031
0.0
1021
9.3850598493590951
1031
0.0
  0
VERTEX
  5
DB
  8
LOTS
 10
740883.43771119625
 20
4564731.4537479896
 30
0.01999999996
  0
VERTEX
  5
DC
  8
LOTS
 10
740898.58079698624
 20
4564734.4811458131
 30
0.01999999996
  0
VERTEX
  5
DD
  8
LOTS
 10
740913.11815526919
 20
4564732.9674469009
 30
0.01999999996
  0
VERTEX
  5
DE
  8
LOTS
 10
740921.29532378283
 20
4564722.6741876928
 30
0.01999999996
  0
VERTEX
  5
DF
  8
LOTS
 10
740924.92968882574
 20
4564707.8397651222
 30
0.01999999996
  0
VERTEX
  5
E0
  8
LOTS
 10
740928.26113917073
 20
4564692.3998763114
 30
0.01999999996
  0
VERTEX
  5
E1
  8
LOTS
 10
740920.68959627545
 20
4564685.4367813617
 30
0.01999999996
  0
VERTEX
  5
E2
  8
LOTS
 10
740911.90670025488
 20
4564680.5929181911
 30
0.01999999996
  0
VERTEX
  5
E3
  8
LOTS
 10
740901.60943452199
 20
4564680.8956179963
 30
0.01999999996
  0
VERTEX
  5
E4
  8
LOTS
 10
740888.88925876038
 20
4564696.0328070018
 30
0.01999999996
  0
VERTEX
  5
E5
  8
LOTS
 10
740879.19772053475
 20
4564712.68362829
 30
0.01999999996
  0
VERTEX
  5
E6
  8
LOTS
 10
740879.19772053475
 20
4564725.096119279
 30
0.01999999996
  0
SEQEND
  5
E7
  8
LOTS
  0
POLYLINE
  5
74
  8
LOTS
 66
     1
 10
0.0
 20
0.0
 30
0.0333333333222222
 70
     1
1001
DCO15
1071
        1
1071
        1
1000
densities
1004
074531383800
1001
ADE
1011
0.5629613439086825
1021
0.0
1031
0.0
1021
-19.412332601845261
1031
0.0
  0
VERTEX
  5
E8
  8
LOTS
 10
740819.5831976214
 20
4564822.9499533912
 30
0.0333333333222222
  0
VERTEX
  5
E9
  8
LOTS
 10
740829.15332469111
 20
4564818.4485705411
 30
0.0333333333222222
  0
VERTEX
  5
EA
  8
LOTS
 10
740842.66407327983
 20
4564810.571062359
 30
0.0333333333222222
  0
VERTEX
  5
EB
  8
LOTS
 10
740835.90875292965
 20
4564775.1225224836
 30
0.0333333333222222
  0
VERTEX
  5
EC
  8
LOTS
 10
740830.84220872296
 20
4564767.80767834
 30
0.0333333333222222
  0
VERTEX
  5
ED
  8
LOTS
 10
740825.77566451603
 20
4564758.8049126389
 30
0.0333333333222222
  0
VERTEX
  5
EE
  8
LOTS
 10
740820.14615896542
 20
4564755.9915218996
 30
0.0333333333222222
  0
VERTEX
  5
EF
  8
LOTS
 10
740806.63541037659
 20
4564756.5541859381
 30
0.0333333333222222
  0
VERTEX
  5
F0
  8
LOTS
 10
740799.88009002653
 20
4564758.2422486031
 30
0.0333333333222222
  0
SEQEND
  5
F1
  8
LOTS
  0
POLYLINE
  5
75
  8
LOTS
 66
     1
 10
0.0
 20
0.0
 30
0.0562499999648438
 70
     1
1001
DCO15
1071
        1
1071
        1
1000
densities
1004
074532323600
1001
ADE
1011
-6.0045254110591477
1021
0.0
1031
0.0
1021
-5.1443014768883577
1031
0.0
  0
VERTEX
  5
F2
  8
LOTS
 10
741005.25125811261
 20
4565433.5820345469
 30
0.0562499999648438
  0
VERTEX
  5
F3
  8
LOTS
 10
740996.67327219225
 20
4565439.2979250764
 30
0.0562499999648438
  0
VERTEX
  5
F4
  8
LOTS
 10
741000.10455287097
 20
4565450.7297061328
 30
0.0562499999648438
  0
VERTEX
  5
F5
  8
LOTS
 10
741009.82615516626
 20
4565457.5887747686
 30
0.0562499999648438
  0
VERTEX
  5
F6
  8
LOTS
 10
741024.69467847969
 20
4565455.873972334
 30
0.0562499999648438
  0
VERTEX
  5
F7
  8
LOTS
 10
741026.98212700663
 20
4565446.7285474874
 30
0.0562499999648438
  0
VERTEX
  5
F8
  8
LOTS
 10
741025.83840274299
 20
4565439.8695494058
 30
0.0562499999648438
  0
VERTEX
  5
F9
  8
LOTS
 10
741014.40105222014
 20
4565433.5820345469
 30
0.0562499999648438
  0
SEQEND
  5
FA
  8
LOTS
  0
POLYLINE
  5
76
  8
LOTS
 66
     1
 10
0.0
 20
0.0
 30
0.099999999962963
 70
     1
1001
DCO15
1071
        3
1071
        3
1000
densities
1004
074232313000
1001
ADE
1011
-12.5215506516397
1021
0.0
1031
0.0
1021
5.4032592438161373
1031
0.0
  0
VERTEX
  5
FB
  8
LOTS
 10
736326.75141913455
 20
4558422.9553620825
 30
0.099999999962963
  0
VERTEX
  5
FC
  8
LOTS
 10
736290.90218880039
 20
4558414.4193905909
 30
0.099999999962963
  0
VERTEX
  5
FD
  8
LOTS
 10
736290.90218880039
 20
4558404.7588557284
 30
0.099999999962963
  0
VERTEX
  5
FE
  8
LOTS
 10
736292.03210723773
 20
4558388.2652596226
 30
0.099999999962963
  0
VERTEX
  5
FF
  8
LOTS
 10
736295.46295048296
 20
4558378.0263778847
 30
0.099999999962963
  0
VERTEX
  5
100
  8
LOTS
 10
736293.75780084357
 20
4558364.3816756522
 30
0.099999999962963
  0
VERTEX
  5
101
  8
LOTS
 10
736307.97422914952
 20
4558354.1427939134
 30
0.099999999962963
  0
VERTEX
  5
102
  8
LOTS
 10
736347.78844598681
 20
4558392.2494269935
 30
0.099999999962963
  0
SEQEND
  5
103
  8
LOTS
  0
POLYLINE
  5
77
  8
LOTS
 66
     1
 10
0.0
 20
0.0
 30
0.03999999992
 70
     1
1001
DCO15
1071
        3
1071
        3
1000
densities
1004
074231393200
1001
ADE
1011
-16.507081130519509
1021
0.0
1031
0.0
1021
-1.9974387483671301
1031
0.0
  0
VERTEX
  5
104
  8
LOTS
 10
736200.44708212465
 20
4558287.0438461192
 30
0.03999999992
  0
VERTEX
  5
105
  8
LOTS
 10
736167.4534638375
 20
4558310.3597933408
 30
0.03999999992
  0
VERTEX
  5
106
  8
LOTS
 10
736160.61232131335
 20
4558304.1050789747
 30
0.03999999992
  0
VERTEX
  5
107
  8
LOTS
 10
736146.39589301124
 20
4558292.7309237383
 30
0.03999999992
  0
VERTEX
  5
108
  8
LOTS
 10
736139.00006325915
 20
4558281.9244052507
 30
0.03999999992
  0
VERTEX
  5
109
  8
LOTS
 10
736141.83513133216
 20
4558268.8473397661
 30
0.03999999992
  0
VERTEX
  5
10A
  8
LOTS
 10
736150.93611072015
 20
4558254.6242906563
 30
0.03999999992
  0
VERTEX
  5
10B
  8
LOTS
 10
736164.02262058854
 20
4558249.5155599155
 30
0.03999999992
  0
SEQEND
  5
10C
  8
LOTS
  0
POLYLINE
  5
78
  8
LOTS
 66
     1
 10
0.0
 20
0.0
 30
0.0999999998
 70
     1
1001
DCO15
1071
        3
1071
        3
1000
densities
1004
074231393400
1001
ADE
1011
-15.644234325736759
1021
0.0
1031
0.0
1021
-3.1220021191984411
1031
0.0
  0
VERTEX
  5
10D
  8
LOTS
 10
736242.54167980317
 20
4558265.4308091439
 30
0.0999999998
  0
VERTEX
  5
10E
  8
LOTS
 10
736197.59147008124
 20
4558222.2154453201
 30
0.0999999998
  0
VERTEX
  5
10F
  8
LOTS
 10
736214.66351042676
 20
4558203.4513022192
 30
0.0999999998
  0
VERTEX
  5
110
  8
LOTS
 10
736266.43431870255
 20
4558240.4119516741
 30
0.0999999998
  0
SEQEND
  5
111
  8
LOTS
  0
POLYLINE
  5
79
  8
LOTS
 66
     1
 10
0.0
 20
0.0
 30
0.0399999999733333
 70
     1
1001
DCO15
1071
        3
1071
        3
1000
densities
1004
074231383200
1001
ADE
1011
-14.79165950603783
1021
0.0
1031
0.0
1021
-13.082420548424119
1031
0.0
  0
VERTEX
  5
112
  8
LOTS
 10
736286.34142712131
 20
4558208.003106338
 30
0.0399999999733333
  0
VERTEX
  5
113
  8
LOTS
 10
736289.19703916472
 20
4558165.9230160164
 30
0.0399999999733333
  0
VERTEX
  5
114
  8
LOTS
 10
736307.39899794385
 20
4558123.8322155634
 30
0.0399999999733333
  0
VERTEX
  5
115
  8
LOTS
 10
736293.18256964174
 20
4558119.2911215704
 30
0.0399999999733333
  0
VERTEX
  5
116
  8
LOTS
 10
736278.39091013372
 20
4558111.3227868276
 30
0.0399999999733333
  0
VERTEX
  5
117
  8
LOTS
 10
736266.43431870255
 20
4558111.8904235773
 30
0.0399999999733333
  0
VERTEX
  5
118
  8
LOTS
 10
736244.82206064474
 20
4558175.0159141272
 30
0.0399999999733333
  0
SEQEND
  5
119
  8
LOTS
  0
POLYLINE
  5
7A
  8
LOTS
 66
     1
 10
0.0
 20
0.0
 30
0.03999999992
 70
     1
1001
DCO15
1071
        3
1071
        3
1000
densities
1004
074231393500
1001
ADE
1011
-13.651469087228181
1021
0.0
1031
0.0
1021
-0.856810187920928
1031
0.0
  0
VERTEX
  5
11A
  8
LOTS
 10
736208.39759910852
 20
4558204.018938968
 30
0.03999999992
  0
VERTEX
  5
11B
  8
LOTS
 10
736151.51134192571
 20
4558164.2093956396
 30
0.03999999992
  0
VERTEX
  5
11C
  8
LOTS
 10
736144.69074337557
 20
4558190.9418734852
 30
0.03999999992
  0
VERTEX
  5
11D
  8
LOTS
 10
736152.64126035955
 20
4558212.5442003319
 30
0.03999999992
  0
VERTEX
  5
11E
  8
LOTS
 10
736164.59785179433
 20
4558225.0536290668
 30
0.03999999992
  0
VERTEX
  5
11F
  8
LOTS
 10
736171.9936815463
 20
4558239.8443149254
 30
0.03999999992
  0
VERTEX
  5
120
  8
LOTS
 10
736195.33163321391
 20
4558222.2154453201
 30
0.03999999992
  0
SEQEND
  5
121
  8
LOTS
  0
POLYLINE
  5
7B
  8
LOTS
 66
     1
 10
0.0
 20
0.0
 30
0.2619047617800454
 70
     1
1001
DCO15
1071
        3
1071
        3
1000
densities
1004
074231383500
1001
ADE
1011
-24.467870099470019
1021
0.0
1031
0.0
1021
-13.077065483666949
1031
0.0
  0
VERTEX
  5
122
  8
LOTS
 10
736167.4534638375
 20
4558169.8964732578
 30
0.2619047617800454
  0
VERTEX
  5
123
  8
LOTS
 10
736193.05125237256
 20
4558128.9516564319
 30
0.2619047617800454
  0
VERTEX
  5
124
  8
LOTS
 10
736153.21649156138
 20
4558094.8399008494
 30
0.2619047617800454
  0
VERTEX
  5
125
  8
LOTS
 10
736136.71968241793
 20
4558102.2298887148
 30
0.2619047617800454
  0
VERTEX
  5
126
  8
LOTS
 10
736132.73415194091
 20
4558118.7234848216
 30
0.2619047617800454
  0
VERTEX
  5
127
  8
LOTS
 10
736133.88461434457
 20
4558141.4610851668
 30
0.2619047617800454
  0
VERTEX
  5
128
  8
LOTS
 10
736148.67627385259
 20
4558154.5488607772
 30
0.2619047617800454
  0
VERTEX
  5
129
  8
LOTS
 10
736152.64126035955
 20
4558161.3712118939
 30
0.2619047617800454
  0
SEQEND
  5
12A
  8
LOTS
  0
POLYLINE
  5
7C
  8
LOTS
 66
     1
 10
0.0
 20
0.0
 30
0.02999999997
 70
     1
1001
DCO15
1071
        3
1071
        3
1000
densities
1004
074231383300
1001
ADE
1011
-12.52155065350234
1021
0.0
1031
0.0
1021
-13.933875671587881
1031
0.0
  0
VERTEX
  5
12B
  8
LOTS
 10
736198.16670128331
 20
4558129.5192931807
 30
0.02999999997
  0
VERTEX
  5
12C
  8
LOTS
 10
736234.01593161747
 20
4558086.3039293578
 30
0.02999999997
  0
VERTEX
  5
12D
  8
LOTS
 10
736244.24682944256
 20
4558095.4075375991
 30
0.02999999997
  0
VERTEX
  5
12E
  8
LOTS
 10
736254.49827123818
 20
4558103.3651622124
 30
0.02999999997
  0
VERTEX
  5
12F
  8
LOTS
 10
736263.02401942771
 20
4558110.7551500797
 30
0.02999999997
  0
VERTEX
  5
130
  8
LOTS
 10
736242.54167980317
 20
4558173.3130038809
 30
0.02999999997
  0
SEQEND
  5
131
  8
LOTS
  0
POLYLINE
  5
7D
  8
LOTS
 66
     1
 10
0.0
 20
0.0
 30
0.1249999999375
 70
     1
1001
DCO15
1071
        3
1071
        3
1000
densities
1004
074231393900
1001
ADE
1011
-18.499846369028091
1021
0.0
1031
0.0
1021
-4.2626306824386111
1031
0.0
  0
VERTEX
  5
132
  8
LOTS
 10
736068.45206500217
 20
4557922.5460823076
 30
0.1249999999375
  0
VERTEX
  5
133
  8
LOTS
 10
736054.21509272605
 20
4557922.5460823076
 30
0.1249999999375
  0
VERTEX
  5
134
  8
LOTS
 10
736044.5594261029
 20
4557957.2361847656
 30
0.1249999999375
  0
VERTEX
  5
135
  8
LOTS
 10
736057.07070476934
 20
4557968.0427032541
 30
0.1249999999375
  0
VERTEX
  5
136
  8
LOTS
 10
736070.15721463785
 20
4557971.4485237487
 30
0.1249999999375
  0
VERTEX
  5
137
  8
LOTS
 10
736080.38811246306
 20
4557973.1621441217
 30
0.1249999999375
  0
VERTEX
  5
138
  8
LOTS
 10
736087.78394221875
 20
4557970.8808869999
 30
0.1249999999375
  0
VERTEX
  5
139
  8
LOTS
 10
736102.02091449115
 20
4557960.6527153878
 30
0.1249999999375
  0
VERTEX
  5
13A
  8
LOTS
 10
736083.81895571202
 20
4557931.0820537992
 30
0.1249999999375
  0
SEQEND
  5
13B
  8
LOTS
  0
POLYLINE
  5
7E
  8
LOTS
 66
     1
 10
0.0
 20
0.0
 30
0.0454545454132231
 70
     1
1001
DCO15
1071
        3
1071
        3
1000
densities
1004
074232303100
1001
ADE
1011
-2.2803808394819489
1021
0.0
1031
0.0
1021
-19.904771664179862
1031
0.0
  0
VERTEX
  5
13C
  8
LOTS
 10
736050.80479345098
 20
4557920.2755353115
 30
0.0454545454132231
  0
VERTEX
  5
13D
  8
LOTS
 10
736042.27904526517
 20
4557912.3072005687
 30
0.0454545454132231
  0
VERTEX
  5
13E
  8
LOTS
 10
736036.01313394296
 20
4557904.9172127042
 30
0.0454545454132231
  0
VERTEX
  5
13F
  8
LOTS
 10
736029.19253539306
 20
4557902.0790289585
 30
0.0454545454132231
  0
VERTEX
  5
140
  8
LOTS
 10
736024.07708648231
 20
4557902.0790289585
 30
0.0454545454132231
  0
VERTEX
  5
141
  8
LOTS
 10
736022.37193684292
 20
4557914.5884576924
 30
0.0454545454132231
  0
VERTEX
  5
142
  8
LOTS
 10
736022.92662407469
 20
4557932.2173272967
 30
0.0454545454132231
  0
VERTEX
  5
143
  8
LOTS
 10
736029.76776659861
 20
4557944.1591192819
 30
0.0454545454132231
  0
VERTEX
  5
144
  8
LOTS
 10
736041.14912682772
 20
4557955.5332745211
 30
0.0454545454132231
  0
SEQEND
  5
145
  8
LOTS
  0
POLYLINE
  5
7F
  8
LOTS
 66
     1
 10
0.0
 20
0.0
 30
0.0062499999921875
 70
     1
1001
DCO15
1071
        3
1071
        3
1000
densities
1004
074235343400
1001
ADE
1011
-23.4691858747974
1021
0.0
1031
0.0
1021
-9.6131082251667976
1031
0.0
  0
VERTEX
  5
146
  8
LOTS
 10
739535.79975288373
 20
4563967.4047381692
 30
0.0062499999921875
  0
VERTEX
  5
147
  8
LOTS
 10
739516.01506331202
 20
4563969.0970736546
 30
0.0062499999921875
  0
VERTEX
  5
148
  8
LOTS
 10
739500.74425870925
 20
4563974.7417622721
 30
0.0062499999921875
  0
VERTEX
  5
149
  8
LOTS
 10
739489.44446649589
 20
4563983.7925438322
 30
0.0062499999921875
  0
VERTEX
  5
14A
  8
LOTS
 10
739491.13340341114
 20
4563999.6126673389
 30
0.0062499999921875
  0
VERTEX
  5
14B
  8
LOTS
 10
739505.26819687337
 20
4564008.0850557555
 30
0.0062499999921875
  0
VERTEX
  5
14C
  8
LOTS
 10
739523.92692850169
 20
4564016.5681551583
 30
0.0062499999921875
  0
VERTEX
  5
14D
  8
LOTS
 10
739542.58566012979
 20
4564019.9528261311
 30
0.0062499999921875
  0
VERTEX
  5
14E
  8
LOTS
 10
739557.85646473244
 20
4564020.5205082893
 30
0.0062499999921875
  0
SEQEND
  5
14F
  8
LOTS
  0
POLYLINE
  5
80
  8
LOTS
 66
     1
 10
0.0
 20
0.0
 30
0.03999999992
 70
     1
1001
DCO15
1071
        3
1071
        3
1000
densities
1004
074235333100
1001
ADE
1011
-16.495213940739632
1021
0.0
1031
0.0
1021
-7.3844975940883151
1031
0.0
  0
VERTEX
  5
150
  8
LOTS
 10
738718.48971143365
 20
4562787.491745498
 30
0.03999999992
  0
VERTEX
  5
151
  8
LOTS
 10
738717.35490556061
 20
4562806.2540741442
 30
0.03999999992
  0
VERTEX
  5
152
  8
LOTS
 10
738717.92230849725
 20
4562818.7622932456
 30
0.03999999992
  0
VERTEX
  5
153
  8
LOTS
 10
738725.29854666442
 20
4562828.9886075109
 30
0.03999999992
  0
VERTEX
  5
154
  8
LOTS
 10
738745.80610994261
 20
4562832.4114647619
 30
0.03999999992
  0
VERTEX
  5
155
  8
LOTS
 10
738769.67756205064
 20
4562831.2705123462
 30
0.03999999992
  0
VERTEX
  5
156
  8
LOTS
 10
738781.63355249912
 20
4562828.9886075109
 30
0.03999999992
  0
VERTEX
  5
157
  8
LOTS
 10
738785.60537305474
 20
4562782.3574596159
 30
0.03999999992
  0
SEQEND
  5
158
  8
LOTS
  0
POLYLINE
  5
81
  8
LOTS
 66
     1
 10
0.0
 20
0.0
 30
0.0222222221975309
 70
     1
1001
DCO15
1071
        3
1071
        3
1000
densities
1004
074235333000
1001
ADE
1011
-24.459119435399771
1021
0.0
1031
0.0
1021
-3.1270547751337281
1031
0.0
  0
VERTEX
  5
159
  8
LOTS
 10
738787.87498480082
 20
4562782.3574596159
 30
0.0222222221975309
  0
VERTEX
  5
15A
  8
LOTS
 10
738783.9031642453
 20
4562830.1295599267
 30
0.0222222221975309
  0
VERTEX
  5
15B
  8
LOTS
 10
738804.41072751582
 20
4562827.8476550924
 30
0.0222222221975309
  0
VERTEX
  5
15C
  8
LOTS
 10
738828.28217963129
 20
4562824.445926588
 30
0.0222222221975309
  0
VERTEX
  5
15D
  8
LOTS
 10
738842.50778182596
 20
4562813.0786599033
 30
0.0222222221975309
  0
VERTEX
  5
15E
  8
LOTS
 10
738851.05935464811
 20
4562795.4361549243
 30
0.0222222221975309
  0
VERTEX
  5
15F
  8
LOTS
 10
738854.4637722671
 20
4562774.9835263984
 30
0.0222222221975309
  0
SEQEND
  5
160
  8
LOTS
  0
POLYLINE
  5
82
  8
LOTS
 66
     1
 10
0.0
 20
0.0
 30
0.0285714285306123
 70
     1
1001
DCO15
1071
        3
1071
        3
1000
densities
1004
074232373000
1001
ADE
1011
-11.871367198415101
1021
0.0
1031
0.0
1021
-4.5186166716739526
1031
0.0
  0
VERTEX
  5
161
  8
LOTS
 10
736546.56828959647
 20
4560487.508834593
 30
0.0285714285306123
  0
VERTEX
  5
162
  8
LOTS
 10
736534.69692239724
 20
4560491.4607600616
 30
0.0285714285306123
  0
VERTEX
  5
163
  8
LOTS
 10
736533.56699708675
 20
4560502.7573017394
 30
0.0285714285306123
  0
VERTEX
  5
164
  8
LOTS
 10
736538.65881241485
 20
4560512.9279174777
 30
0.0285714285306123
  0
VERTEX
  5
165
  8
LOTS
 10
736550.5301796142
 20
4560518.0057688849
 30
0.0285714285306123
  0
VERTEX
  5
166
  8
LOTS
 10
736562.38724396005
 20
4560510.6686091442
 30
0.0285714285306123
  0
VERTEX
  5
167
  8
LOTS
 10
736564.08928335458
 20
4560498.805376268
 30
0.0285714285306123
  0
VERTEX
  5
168
  8
LOTS
 10
736560.12739333697
 20
4560489.2014517281
 30
0.0285714285306123
  0
SEQEND
  5
169
  8
LOTS
  0
POLYLINE
  5
83
  8
LOTS
 66
     1
 10
0.0
 20
0.0
 30
0.037499999953125
 70
     1
1001
DCO15
1071
        3
1071
        3
1000
densities
1004
074232383800
1001
ADE
1011
-24.529798763920549
1021
0.0
1031
0.0
1021
-4.440475657582283
1031
0.0
  0
VERTEX
  5
16A
  8
LOTS
 10
737390.47903532418
 20
4560451.6135105276
 30
0.037499999953125
  0
VERTEX
  5
16B
  8
LOTS
 10
737384.40669145016
 20
4560457.0152307721
 30
0.037499999953125
  0
VERTEX
  5
16C
  8
LOTS
 10
737372.34193822439
 20
4560468.3872273332
 30
0.037499999953125
  0
VERTEX
  5
16D
  8
LOTS
 10
737370.39700555999
 20
4560478.9011912551
 30
0.037499999953125
  0
VERTEX
  5
16E
  8
LOTS
 10
737370.68347854621
 20
4560497.0679605398
 30
0.037499999953125
  0
VERTEX
  5
16F
  8
LOTS
 10
737382.36970417015
 20
4560511.3580159442
 30
0.037499999953125
  0
VERTEX
  5
170
  8
LOTS
 10
737396.47434479347
 20
4560514.4952750821
 30
0.037499999953125
  0
VERTEX
  5
171
  8
LOTS
 10
737414.88696953782
 20
4560511.906604656
 30
0.037499999953125
  0
VERTEX
  5
172
  8
LOTS
 10
737437.24349970126
 20
4560500.7969286321
 30
0.037499999953125
  0
VERTEX
  5
173
  8
LOTS
 10
737447.85844069975
 20
4560491.3380278256
 30
0.037499999953125
  0
SEQEND
  5
174
  8
LOTS
  0
POLYLINE
  5
84
  8
LOTS
 66
     1
 10
0.0
 20
0.0
 30
0.0249999999791667
 70
     1
1001
DCO15
1071
        3
1071
        3
1000
densities
1004
074232383700
1001
ADE
1011
-21.638044102815911
1021
0.0
1031
0.0
1021
-0.2056211344897747
1031
0.0
  0
VERTEX
  5
175
  8
LOTS
 10
737392.3103080315
 20
4560448.509785329
 30
0.0249999999791667
  0
VERTEX
  5
176
  8
LOTS
 10
737400.40440475487
 20
4560433.1405057041
 30
0.0249999999791667
  0
VERTEX
  5
177
  8
LOTS
 10
737413.43236242875
 20
4560420.5036208611
 30
0.0249999999791667
  0
VERTEX
  5
178
  8
LOTS
 10
737416.62142550852
 20
4560414.9350028066
 30
0.0249999999791667
  0
VERTEX
  5
179
  8
LOTS
 10
737425.63970680279
 20
4560410.2485761996
 30
0.0249999999791667
  0
VERTEX
  5
17A
  8
LOTS
 10
737482.14782570105
 20
4560455.7956446074
 30
0.0249999999791667
  0
VERTEX
  5
17B
  8
LOTS
 10
737472.79439689266
 20
4560466.2141858032
 30
0.0249999999791667
  0
VERTEX
  5
17C
  8
LOTS
 10
737457.29076591437
 20
4560481.4806588599
 30
0.0249999999791667
  0
VERTEX
  5
17D
  8
LOTS
 10
737451.14056374494
 20
4560486.3285907153
 30
0.0249999999791667
  0
SEQEND
  5
17E
  8
LOTS
  0
POLYLINE
  5
85
  8
LOTS
 66
     1
 10
0.0
 20
0.0
 30
0.0999999999642857
 70
     1
1001
DCO15
1071
        3
1071
        3
1000
densities
1004
074235353000
1001
ADE
1011
-14.48388301581144
1021
0.0
1031
0.0
1021
-5.5051510576158762
1031
0.0
  0
VERTEX
  5
17F
  8
LOTS
 10
739096.55496042676
 20
4565168.8991772542
 30
0.0999999999642857
  0
VERTEX
  5
180
  8
LOTS
 10
739181.15727283887
 20
4565131.2413735194
 30
0.0999999999642857
  0
VERTEX
  5
181
  8
LOTS
 10
739177.68524981756
 20
4565119.6634196416
 30
0.0999999999642857
  0
VERTEX
  5
182
  8
LOTS
 10
739176.51421246747
 20
4565102.8587853815
 30
0.0999999999642857
  0
VERTEX
  5
183
  8
LOTS
 10
739178.26049623359
 20
4565088.3783102268
 30
0.0999999999642857
  0
VERTEX
  5
184
  8
LOTS
 10
739086.11834684841
 20
4565115.604174017
 30
0.0999999999642857
  0
SEQEND
  5
185
  8
LOTS
  0
POLYLINE
  5
86
  8
LOTS
 66
     1
 10
0.0
 20
0.0
 30
0.0199999999866667
 70
     1
1001
DCO15
1071
        3
1071
        3
1000
densities
1004
074235353200
1001
ADE
1011
-11.364540765061969
1021
0.0
1031
0.0
1021
10.664893361739811
1031
0.0
  0
VERTEX
  5
186
  8
LOTS
 10
739077.50334686134
 20
4565100.885390237
 30
0.0199999999866667
  0
VERTEX
  5
187
  8
LOTS
 10
739009.11065671674
 20
4565122.3169218851
 30
0.0199999999866667
  0
VERTEX
  5
188
  8
LOTS
 10
739004.46759634546
 20
4565109.5715332478
 30
0.0199999999866667
  0
VERTEX
  5
189
  8
LOTS
 10
738991.72999709926
 20
4565086.9832772547
 30
0.0199999999866667
  0
VERTEX
  5
18A
  8
LOTS
 10
738985.36119747604
 20
4565077.1404098971
 30
0.0199999999866667
  0
VERTEX
  5
18B
  8
LOTS
 10
738980.71813710488
 20
4565062.0708621582
 30
0.0199999999866667
  0
VERTEX
  5
18C
  8
LOTS
 10
738980.71813710488
 20
4565047.0120248282
 30
0.0199999999866667
  0
VERTEX
  5
18D
  8
LOTS
 10
738984.76540654246
 20
4565033.1099118451
 30
0.0199999999866667
  0
VERTEX
  5
18E
  8
LOTS
 10
739003.89234992943
 20
4565035.4340709494
 30
0.0199999999866667
  0
VERTEX
  5
18F
  8
LOTS
 10
739028.23760010011
 20
4565044.6985761346
 30
0.0199999999866667
  0
VERTEX
  5
190
  8
LOTS
 10
739050.83656650479
 20
4565049.9145461051
 30
0.0199999999866667
  0
VERTEX
  5
191
  8
LOTS
 10
739065.89569593675
 20
4565051.6496326262
 30
0.0199999999866667
  0
SEQEND
  5
192
  8
LOTS
  0
POLYLINE
  5
87
  8
LOTS
 66
     1
 10
0.0
 20
0.0
 30
0.0166666666111111
 70
     1
1001
DCO15
1071
        1
1071
        1
1000
densities
1004
074433303300
1001
ADE
1011
-6.0292073488235474
1021
0.0
1031
0.0
1021
0.5240960977971554
1031
0.0
  0
VERTEX
  5
193
  8
LOTS
 10
741637.27738724137
 20
4569725.6609672643
 30
0.0166666666111111
  0
VERTEX
  5
194
  8
LOTS
 10
741599.52963180828
 20
4569705.7462805416
 30
0.0166666666111111
  0
VERTEX
  5
195
  8
LOTS
 10
741610.53936391068
 20
4569695.7889716448
 30
0.0166666666111111
  0
VERTEX
  5
196
  8
LOTS
 10
741615.25782052602
 20
4569682.163093457
 30
0.0166666666111111
  0
VERTEX
  5
197
  8
LOTS
 10
741621.54919852375
 20
4569672.7298461944
 30
0.0166666666111111
  0
VERTEX
  5
198
  8
LOTS
 10
741630.98611175444
 20
4569672.2057845611
 30
0.0166666666111111
  0
VERTEX
  5
199
  8
LOTS
 10
741640.94736628258
 20
4569676.3983465582
 30
0.0166666666111111
  0
VERTEX
  5
19A
  8
LOTS
 10
741654.57849734148
 20
4569682.6871550921
 30
0.0166666666111111
  0
SEQEND
  5
19B
  8
LOTS
  0
POLYLINE
  5
88
  8
LOTS
 66
     1
 10
0.0
 20
0.0
 30
0.0176470588131488
 70
     1
1001
DCO15
1071
        1
1071
        1
1000
densities
1004
074239323000
1001
ADE
1011
-15.73710713279433
1021
0.0
1031
0.0
1021
2.3996343128383151
1031
0.0
  0
VERTEX
  5
19C
  8
LOTS
 10
735511.29272903618
 20
4568956.4823423298
 30
0.0176470588131488
  0
VERTEX
  5
19D
  8
LOTS
 10
735523.02895317692
 20
4568968.2139338143
 30
0.0176470588131488
  0
VERTEX
  5
19E
  8
LOTS
 10
735536.36546900822
 20
4568978.3457690887
 30
0.0176470588131488
  0
VERTEX
  5
19F
  8
LOTS
 10
735545.96783421433
 20
4568985.8113210397
 30
0.0176470588131488
  0
VERTEX
  5
1A0
  8
LOTS
 10
735555.57009690977
 20
4568987.94437527
 30
0.0176470588131488
  0
VERTEX
  5
1A1
  8
LOTS
 10
735571.57403891999
 20
4568986.8778481549
 30
0.0176470588131488
  0
VERTEX
  5
1A2
  8
LOTS
 10
735584.91055475129
 20
4568981.0120524131
 30
0.0176470588131488
  0
VERTEX
  5
1A3
  8
LOTS
 10
735600.38092951733
 20
4568972.479973346
 30
0.0176470588131488
  0
VERTEX
  5
1A4
  8
LOTS
 10
735548.6351578827
 20
4568929.8195780171
 30
0.0176470588131488
  0
SEQEND
  5
1A5
  8
LOTS
  0
POLYLINE
  5
89
  8
LOTS
 66
     1
 10
0.0
 20
0.0
 30
0.1399999999363636
 70
     1
1001
DCO15
1071
        1
1071
        1
1000
densities
1004
074630303100
1001
ADE
1011
-9.8062555845826864
1021
0.0
1031
0.0
1021
-3.7897361703217021
1031
0.0
  0
VERTEX
  5
1A6
  8
LOTS
 10
737390.87838580646
 20
4560423.5026045833
 30
0.1399999999363636
  0
VERTEX
  5
1A7
  8
LOTS
 10
737400.36556583096
 20
4560412.7605518447
 30
0.1399999999363636
  0
VERTEX
  5
1A8
  8
LOTS
 10
737407.01651864313
 20
4560395.6826177035
 30
0.1399999999363636
  0
VERTEX
  5
1A9
  8
LOTS
 10
737407.01651864313
 20
4560377.6505491361
 30
0.1399999999363636
  0
VERTEX
  5
1AA
  8
LOTS
 10
737402.90398918651
 20
4560369.1169423712
 30
0.1399999999363636
  0
VERTEX
  5
1AB
  8
LOTS
 10
737365.2530729454
 20
4560391.8875212278
 30
0.1399999999363636
  0
VERTEX
  5
1AC
  8
LOTS
 10
737383.60346300912
 20
4560423.1917068493
 30
0.1399999999363636
  0
SEQEND
  5
1AD
  8
LOTS
  0
POLYLINE
  5
8A
  8
LOTS
 66
     1
 10
0.0
 20
0.0
 30
0.0599999999793103
 70
     1
1001
DCO15
1071
        1
1071
        1
1000
densities
1004
074630303200
1001
ADE
1011
-19.144533681683239
1021
0.0
1031
0.0
1021
-8.8552251113578677
1031
0.0
  0
VERTEX
  5
1AE
  8
LOTS
 10
737363.67896684445
 20
4560389.98997299
 30
0.0599999999793103
  0
VERTEX
  5
1AF
  8
LOTS
 10
737340.90406233072
 20
4560350.1414599903
 30
0.0599999999793103
  0
VERTEX
  5
1B0
  8
LOTS
 10
737376.64052520331
 20
4560329.2684293697
 30
0.0599999999793103
  0
VERTEX
  5
1B1
  8
LOTS
 10
737384.86558411829
 20
4560340.6537187994
 30
0.0599999999793103
  0
VERTEX
  5
1B2
  8
LOTS
 10
737391.82852192235
 20
4560350.1414599903
 30
0.0599999999793103
  0
VERTEX
  5
1B3
  8
LOTS
 10
737397.52933861874
 20
4560359.6292011812
 30
0.0599999999793103
  0
VERTEX
  5
1B4
  8
LOTS
 10
737400.69173196144
 20
4560366.5868780529
 30
0.0599999999793103
  0
SEQEND
  5
1B5
  8
LOTS
  0
POLYLINE
  5
8B
  8
LOTS
 66
     1
 10
0.0
 20
0.0
 30
0.1999999999090909
 70
     1
1001
DCO15
1071
        1
1071
        1
1000
densities
1004
074630303300
1001
ADE
1011
-18.35039006173611
1021
0.0
1031
0.0
1021
-6.3198004877194762
1031
0.0
  0
VERTEX
  5
1B6
  8
LOTS
 10
737339.31577509269
 20
4560348.2439117534
 30
0.1999999999090909
  0
VERTEX
  5
1B7
  8
LOTS
 10
737375.06641910039
 20
4560327.6924994793
 30
0.1999999999090909
  0
VERTEX
  5
1B8
  8
LOTS
 10
737367.79149630095
 20
4560321.3673386853
 30
0.1999999999090909
  0
VERTEX
  5
1B9
  8
LOTS
 10
737363.99095183611
 20
4560309.9820492556
 30
0.1999999999090909
  0
VERTEX
  5
1BA
  8
LOTS
 10
737359.25445239234
 20
4560301.7593402248
 30
0.1999999999090909
  0
VERTEX
  5
1BB
  8
LOTS
 10
737357.66616515454
 20
4560299.2292759074
 30
0.1999999999090909
  0
VERTEX
  5
1BC
  8
LOTS
 10
737355.14192293584
 20
4560294.4800450057
 30
0.1999999999090909
  0
VERTEX
  5
1BD
  8
LOTS
 10
737321.29155115969
 20
4560315.0421778914
 30
0.1999999999090909
  0
SEQEND
  5
1BE
  8
LOTS
  0
POLYLINE
  5
8C
  8
LOTS
 66
     1
 10
0.0
 20
0.0
 30
0.1199999999076923
 70
     1
1001
DCO15
1071
        1
1071
        1
1000
densities
1004
074630303400
1001
ADE
1011
-17.23008031304926
1021
0.0
1031
0.0
1021
-12.017805507406591
1031
0.0
  0
VERTEX
  5
1BF
  8
LOTS
 10
737320.65340003744
 20
4560312.1904952293
 30
0.1199999999076923
  0
VERTEX
  5
1C0
  8
LOTS
 10
737354.81575680524
 20
4560292.2715990338
 30
0.1199999999076923
  0
VERTEX
  5
1C1
  8
LOTS
 10
737350.07925736147
 20
4560285.6248198953
 30
0.1199999999076923
  0
VERTEX
  5
1C2
  8
LOTS
 10
737345.96672790498
 20
4560278.9887613673
 30
0.1199999999076923
  0
VERTEX
  5
1C3
  8
LOTS
 10
737340.26591120847
 20
4560269.5010201791
 30
0.1199999999076923
  0
VERTEX
  5
1C4
  8
LOTS
 10
737334.8912606407
 20
4560260.9674134124
 30
0.1199999999076923
  0
VERTEX
  5
1C5
  8
LOTS
 10
737331.72886729985
 20
4560258.4373490931
 30
0.1199999999076923
  0
VERTEX
  5
1C6
  8
LOTS
 10
737300.72890387289
 20
4560273.2961166538
 30
0.1199999999076923
  0
VERTEX
  5
1C7
  8
LOTS
 10
737306.4297205694
 20
4560286.8898520544
 30
0.1199999999076923
  0
VERTEX
  5
1C8
  8
LOTS
 10
737311.47820500657
 20
4560297.010109324
 30
0.1199999999076923
  0
VERTEX
  5
1C9
  8
LOTS
 10
737316.2288855873
 20
4560305.2328183558
 30
0.1199999999076923
  0
SEQEND
  5
1CA
  8
LOTS
  0
POLYLINE
  5
8D
  8
LOTS
 66
     1
 10
0.0
 20
0.0
 30
0.0249999999375
 70
     1
1001
DCO15
1071
        1
1071
        1
1000
densities
1004
074630303500
1001
ADE
1011
-17.556246441788971
1021
0.0
1031
0.0
1021
-6.0089027537032962
1031
0.0
  0
VERTEX
  5
1CB
  8
LOTS
 10
737299.46678276372
 20
4560271.398568416
 30
0.0249999999375
  0
VERTEX
  5
1CC
  8
LOTS
 10
737330.15476119705
 20
4560256.8506985903
 30
0.0249999999375
  0
VERTEX
  5
1CD
  8
LOTS
 10
737326.97818671912
 20
4560251.1580538768
 30
0.0249999999375
  0
VERTEX
  5
1CE
  8
LOTS
 10
737324.45394450054
 20
4560244.8328930829
 30
0.0249999999375
  0
VERTEX
  5
1CF
  8
LOTS
 10
737319.39127892815
 20
4560235.3451518919
 30
0.0249999999375
  0
VERTEX
  5
1D0
  8
LOTS
 10
737314.01662836038
 20
4560225.857410701
 30
0.0249999999375
  0
VERTEX
  5
1D1
  8
LOTS
 10
737305.47958445374
 20
4560220.1647659866
 30
0.0249999999375
  0
VERTEX
  5
1D2
  8
LOTS
 10
737294.71610218275
 20
4560220.7972820662
 30
0.0249999999375
  0
VERTEX
  5
1D3
  8
LOTS
 10
737288.07933050767
 20
4560227.7549589397
 30
0.0249999999375
  0
VERTEX
  5
1D4
  8
LOTS
 10
737285.54090715211
 20
4560239.4618667131
 30
0.0249999999375
  0
VERTEX
  5
1D5
  8
LOTS
 10
737289.34145161696
 20
4560251.4796722205
 30
0.0249999999375
  0
VERTEX
  5
1D6
  8
LOTS
 10
737294.40411718935
 20
4560261.2783111464
 30
0.0249999999375
  0
SEQEND
  5
1D7
  8
LOTS
  0
POLYLINE
  5
8E
  8
LOTS
 66
     1
 10
0.0
 20
0.0
 30
0.0333333332962963
 70
     1
1001
DCO15
1071
        1
1071
        1
1000
densities
1004
074630313000
1001
ADE
1011
-21.6758664669469
1021
0.0
1031
0.0
1021
-2.8463223576545711
1031
0.0
  0
VERTEX
  5
1D8
  8
LOTS
 10
737382.34134189785
 20
4560424.1351206638
 30
0.0333333332962963
  0
VERTEX
  5
1D9
  8
LOTS
 10
737377.91682744771
 20
4560429.8277653782
 30
0.0333333332962963
  0
VERTEX
  5
1DA
  8
LOTS
 10
737367.79149630095
 20
4560435.8420284381
 30
0.0333333332962963
  0
VERTEX
  5
1DB
  8
LOTS
 10
737359.56643738598
 20
4560440.5805387273
 30
0.0333333332962963
  0
VERTEX
  5
1DC
  8
LOTS
 10
737351.6533634644
 20
4560443.4322213903
 30
0.0333333332962963
  0
VERTEX
  5
1DD
  8
LOTS
 10
737342.47816843353
 20
4560443.7431191243
 30
0.0333333332962963
  0
VERTEX
  5
1DE
  8
LOTS
 10
737334.8912606407
 20
4560439.0046088342
 30
0.0333333332962963
  0
VERTEX
  5
1DF
  8
LOTS
 10
737326.66620172746
 20
4560428.2518354831
 30
0.0333333332962963
  0
VERTEX
  5
1E0
  8
LOTS
 10
737323.19182339124
 20
4560414.9689978193
 30
0.0333333332962963
  0
VERTEX
  5
1E1
  8
LOTS
 10
737364.31711796671
 20
4560393.152553387
 30
0.0333333332962963
  0
SEQEND
  5
1E2
  8
LOTS
  0
POLYLINE
  5
8F
  8
LOTS
 66
     1
 10
0.0
 20
0.0
 30
0.019999999975
 70
     1
1001
DCO15
1071
        1
1071
        1
1000
densities
1004
074630303900
1001
ADE
1011
-14.705838094465429
1021
0.0
1031
0.0
1021
-7.1184860449284306
1031
0.0
  0
VERTEX
  5
1E3
  8
LOTS
 10
737362.72883072682
 20
4560391.5659028813
 30
0.019999999975
  0
VERTEX
  5
1E4
  8
LOTS
 10
737321.92970228195
 20
4560413.0714495797
 30
0.019999999975
  0
VERTEX
  5
1E5
  8
LOTS
 10
737319.39127892815
 20
4560402.9511923101
 30
0.019999999975
  0
VERTEX
  5
1E6
  8
LOTS
 10
737318.12915781885
 20
4560396.6260315161
 30
0.019999999975
  0
VERTEX
  5
1E7
  8
LOTS
 10
737315.9169005939
 20
4560389.6683546426
 30
0.019999999975
  0
VERTEX
  5
1E8
  8
LOTS
 10
737313.0664922446
 20
4560381.4456456117
 30
0.019999999975
  0
VERTEX
  5
1E9
  8
LOTS
 10
737347.22884901427
 20
4560365.3218458937
 30
0.019999999975
  0
SEQEND
  5
1EA
  8
LOTS
  0
POLYLINE
  5
90
  8
LOTS
 66
     1
 10
0.0
 20
0.0
 30
0.05999999994
 70
     1
1001
DCO15
1071
        1
1071
        1
1000
densities
1004
074630303800
1001
ADE
1011
-13.762792547233399
1021
0.0
1031
0.0
1021
-4.9046797687187791
1031
0.0
  0
VERTEX
  5
1EB
  8
LOTS
 10
737346.27871289849
 20
4560363.7351953909
 30
0.05999999994
  0
VERTEX
  5
1EC
  8
LOTS
 10
737311.47820500657
 20
4560379.548097373
 30
0.05999999994
  0
VERTEX
  5
1ED
  8
LOTS
 10
737289.65343661048
 20
4560345.3922290886
 30
0.05999999994
  0
VERTEX
  5
1EE
  8
LOTS
 10
737326.97818671912
 20
4560329.9009454511
 30
0.05999999994
  0
SEQEND
  5
1EF
  8
LOTS
  0
POLYLINE
  5
91
  8
LOTS
 66
     1
 10
0.0
 20
0.0
 30
0.02999999997
 70
     1
1001
DCO15
1071
        1
1071
        1
1000
densities
1004
074630303700
1001
ADE
1011
-14.705838094465429
1021
0.0
1031
0.0
1021
-5.8480935813859096
1031
0.0
  0
VERTEX
  5
1F0
  8
LOTS
 10
737325.40408061817
 20
4560328.0033972133
 30
0.02999999997
  0
VERTEX
  5
1F1
  8
LOTS
 10
737288.07933050767
 20
4560343.4946808508
 30
0.02999999997
  0
VERTEX
  5
1F2
  8
LOTS
 10
737282.06652881776
 20
4560330.8550798744
 30
0.02999999997
  0
VERTEX
  5
1F3
  8
LOTS
 10
737277.95399935904
 20
4560323.5757846572
 30
0.02999999997
  0
VERTEX
  5
1F4
  8
LOTS
 10
737271.31722768396
 20
4560315.0421778914
 30
0.02999999997
  0
VERTEX
  5
1F5
  8
LOTS
 10
737270.0409254377
 20
4560310.2929469896
 30
0.02999999997
  0
VERTEX
  5
1F6
  8
LOTS
 10
737308.00382667221
 20
4560295.1125610862
 30
0.02999999997
  0
SEQEND
  5
1F7
  8
LOTS
  0
POLYLINE
  5
92
  8
LOTS
 66
     1
 10
0.0
 20
0.0
 30
0.01999999996
 70
     1
1001
DCO15
1071
        1
1071
        1
1000
densities
1004
074630303600
1001
ADE
1011
-14.23077003657818
1021
0.0
1031
0.0
1021
-3.167940702289342
1031
0.0
  0
VERTEX
  5
1F8
  8
LOTS
 10
737306.4297205694
 20
4560293.847528927
 30
0.01999999996
  0
VERTEX
  5
1F9
  8
LOTS
 10
737294.09213219583
 20
4560266.0275420481
 30
0.01999999996
  0
VERTEX
  5
1FA
  8
LOTS
 10
737288.39131550107
 20
4560268.5576063637
 30
0.01999999996
  0
VERTEX
  5
1FB
  8
LOTS
 10
737276.69187824987
 20
4560273.6070143869
 30
0.01999999996
  0
VERTEX
  5
1FC
  8
LOTS
 10
737267.51668321912
 20
4560278.034626944
 30
0.01999999996
  0
VERTEX
  5
1FD
  8
LOTS
 10
737262.76600264024
 20
4560283.0947555779
 30
0.01999999996
  0
VERTEX
  5
1FE
  8
LOTS
 10
737269.41695545253
 20
4560307.7628826723
 30
0.01999999996
  0
SEQEND
  5
1FF
  8
LOTS
  0
POLYLINE
  5
93
  8
LOTS
 66
     1
 10
0.0
 20
0.0
 30
0.0799999999333333
 70
     1
1001
DCO15
1071
        1
1071
        1
1000
densities
1004
074630313200
1001
ADE
1011
-15.819057276472449
1021
0.0
1031
0.0
1021
-7.5901929521933189
1031
0.0
  0
VERTEX
  5
200
  8
LOTS
 10
737267.20469822735
 20
4560309.349533177
 30
0.0799999999333333
  0
VERTEX
  5
201
  8
LOTS
 10
737269.72894044605
 20
4560315.0421778914
 30
0.0799999999333333
  0
VERTEX
  5
202
  8
LOTS
 10
737256.12923096295
 20
4560315.985591704
 30
0.0799999999333333
  0
VERTEX
  5
203
  8
LOTS
 10
737246.33006594505
 20
4560327.6924994793
 30
0.0799999999333333
  0
VERTEX
  5
204
  8
LOTS
 10
737237.46685590781
 20
4560315.985591704
 30
0.0799999999333333
  0
VERTEX
  5
205
  8
LOTS
 10
737228.29166087694
 20
4560299.5401736395
 30
0.0799999999333333
  0
VERTEX
  5
206
  8
LOTS
 10
737222.91701031115
 20
4560281.8297234196
 30
0.0799999999333333
  0
VERTEX
  5
207
  8
LOTS
 10
737225.1292675361
 20
4560274.872046547
 30
0.0799999999333333
  0
VERTEX
  5
208
  8
LOTS
 10
737234.30446256697
 20
4560268.5576063637
 30
0.0799999999333333
  0
VERTEX
  5
209
  8
LOTS
 10
737245.69191482291
 20
4560263.1758593842
 30
0.0799999999333333
  0
VERTEX
  5
20A
  8
LOTS
 10
737254.54094372503
 20
4560265.0734076221
 30
0.0799999999333333
  0
VERTEX
  5
20B
  8
LOTS
 10
737261.19189653732
 20
4560277.0912131295
 30
0.0799999999333333
  0
VERTEX
  5
20C
  8
LOTS
 10
737260.55374541518
 20
4560282.7838578448
 30
0.0799999999333333
  0
SEQEND
  5
20D
  8
LOTS
  0
POLYLINE
  5
94
  8
LOTS
 66
     1
 10
0.0
 20
0.0
 30
0.0399999999666667
 70
     1
1001
DCO15
1071
        1
1071
        1
1000
densities
1004
074630313100
1001
ADE
1011
-14.3867625342682
1021
0.0
1031
0.0
1021
-4.266803382895886
1031
0.0
  0
VERTEX
  5
20E
  8
LOTS
 10
737288.39131550107
 20
4560347.2897773273
 30
0.0399999999666667
  0
VERTEX
  5
20F
  8
LOTS
 10
737284.60495217144
 20
4560353.3040403873
 30
0.0399999999666667
  0
VERTEX
  5
210
  8
LOTS
 10
737273.21749991563
 20
4560360.2617172599
 30
0.0399999999666667
  0
VERTEX
  5
211
  8
LOTS
 10
737260.55374541518
 20
4560363.1026793104
 30
0.0399999999666667
  0
VERTEX
  5
212
  8
LOTS
 10
737267.51668321912
 20
4560379.548097373
 30
0.0399999999666667
  0
VERTEX
  5
213
  8
LOTS
 10
737276.69187824987
 20
4560396.6260315161
 30
0.0399999999666667
  0
VERTEX
  5
214
  8
LOTS
 10
737287.44117938355
 20
4560410.2304875292
 30
0.0399999999666667
  0
VERTEX
  5
215
  8
LOTS
 10
737296.30438942276
 20
4560419.3966103727
 30
0.0399999999666667
  0
VERTEX
  5
216
  8
LOTS
 10
737309.26594778162
 20
4560420.3400241863
 30
0.0399999999666667
  0
VERTEX
  5
217
  8
LOTS
 10
737319.70326392166
 20
4560412.7605518447
 30
0.0399999999666667
  0
VERTEX
  5
218
  8
LOTS
 10
737310.85423501953
 20
4560382.3997800369
 30
0.0399999999666667
  0
SEQEND
  5
219
  8
LOTS
  0
POLYLINE
  5
95
  8
LOTS
 66
     1
 10
0.0
 20
0.0
 30
0.02999999997
 70
     1
1001
DCO15
1071
        1
1071
        1
1000
densities
1004
074332303400
1001
ADE
1011
-13.264224697952161
1021
0.0
1031
0.0
1021
0.2945841522887349
1031
0.0
  0
VERTEX
  5
21A
  8
LOTS
 10
739104.41911098617
 20
4557714.5323734824
 30
0.02999999997
  0
VERTEX
  5
21B
  8
LOTS
 10
739097.934383858
 20
4557716.3001112379
 30
0.02999999997
  0
VERTEX
  5
21C
  8
LOTS
 10
739093.21827938152
 20
4557726.9063049322
 30
0.02999999997
  0
VERTEX
  5
21D
  8
LOTS
 10
739090.86022714316
 20
4557742.815556665
 30
0.02999999997
  0
VERTEX
  5
21E
  8
LOTS
 10
739094.98679073586
 20
4557759.9033778487
 30
0.02999999997
  0
VERTEX
  5
21F
  8
LOTS
 10
739104.41911098617
 20
4557774.6342153586
 30
0.02999999997
  0
VERTEX
  5
220
  8
LOTS
 10
739111.49326770089
 20
4557778.1696132571
 30
0.02999999997
  0
VERTEX
  5
221
  8
LOTS
 10
739121.51512883487
 20
4557781.7050111555
 30
0.02999999997
  0
VERTEX
  5
222
  8
LOTS
 10
739136.25309444545
 20
4557784.0619172156
 30
0.02999999997
  0
VERTEX
  5
223
  8
LOTS
 10
739150.40151917213
 20
4557775.8126295824
 30
0.02999999997
  0
VERTEX
  5
224
  8
LOTS
 10
739155.70716453262
 20
4557768.7418337874
 30
0.02999999997
  0
VERTEX
  5
225
  8
LOTS
 10
739158.65475765464
 20
4557748.7079382371
 30
0.02999999997
  0
VERTEX
  5
226
  8
LOTS
 10
739153.34900099714
 20
4557731.0309487469
 30
0.02999999997
  0
VERTEX
  5
227
  8
LOTS
 10
739135.66355356155
 20
4557710.4078072794
 30
0.02999999997
  0
SEQEND
  5
228
  8
LOTS
  0
POLYLINE
  5
96
  8
LOTS
 66
     1
 10
0.0
 20
0.0
 30
0.5999999998604652
 70
     1
1001
DCO15
1071
        3
1071
        3
1000
densities
1004
074131373900
1001
ADE
1011
-8.9792913467390463
1021
0.0
1031
0.0
1021
-22.519433306530122
1031
0.0
  0
VERTEX
  5
229
  8
LOTS
 10
733457.20546806464
 20
4554404.6484312844
 30
0.5999999998604652
  0
VERTEX
  5
22A
  8
LOTS
 10
733504.22440045245
 20
4554445.4445394473
 30
0.5999999998604652
  0
VERTEX
  5
22B
  8
LOTS
 10
733513.69342351647
 20
4554419.0086940695
 30
0.5999999998604652
  0
VERTEX
  5
22C
  8
LOTS
 10
733485.28623999469
 20
4554394.2046657568
 30
0.5999999998604652
  0
VERTEX
  5
22D
  8
LOTS
 10
733475.49057667935
 20
4554393.8782909857
 30
0.5999999998604652
  0
VERTEX
  5
22E
  8
LOTS
 10
733460.79713887128
 20
4554399.752923293
 30
0.5999999998604652
  0
SEQEND
  5
22F
  8
LOTS
  0
POLYLINE
  5
97
  8
LOTS
 66
     1
 10
0.0
 20
0.0
 30
0.0499999995
 70
     1
1001
DCO15
1071
        3
1071
        3
1000
densities
1004
074233363100
1001
ADE
1011
-8.2527456302195787
1021
0.0
1031
0.0
1021
-4.2650969224050641
1031
0.0
  0
VERTEX
  5
230
  8
LOTS
 10
734408.34912001528
 20
4562196.5078197168
 30
0.0499999995
  0
VERTEX
  5
231
  8
LOTS
 10
734399.25250611454
 20
4562193.6669072574
 30
0.0499999995
  0
VERTEX
  5
232
  8
LOTS
 10
734387.86743588385
 20
4562197.0745109171
 30
0.0499999995
  0
VERTEX
  5
233
  8
LOTS
 10
734387.86743588385
 20
4562209.5864560883
 30
0.0499999995
  0
VERTEX
  5
234
  8
LOTS
 10
734395.26201039366
 20
4562216.4016634095
 30
0.0499999995
  0
VERTEX
  5
235
  8
LOTS
 10
734410.62327349186
 20
4562218.1091934703
 30
0.0499999995
  0
VERTEX
  5
236
  8
LOTS
 10
734418.01784799993
 20
4562209.5864560883
 30
0.0499999995
  0
VERTEX
  5
237
  8
LOTS
 10
734415.74369452335
 20
4562205.0380135654
 30
0.0499999995
  0
SEQEND
  5
238
  8
LOTS
  0
POLYLINE
  5
98
  8
LOTS
 66
     1
 10
0.0
 20
0.0
 30
0.0545454544958678
 70
     1
1001
DCO15
1071
        3
1071
        3
1000
densities
1004
074430383800
1001
ADE
1011
-11.04267676547169
1021
0.0
1031
0.0
1021
-1.697600082494318
1031
0.0
  0
VERTEX
  5
239
  8
LOTS
 10
728377.74506577477
 20
4554121.0766897593
 30
0.0545454544958678
  0
VERTEX
  5
23A
  8
LOTS
 10
728386.22995043185
 20
4554125.0395416878
 30
0.0545454544958678
  0
VERTEX
  5
23B
  8
LOTS
 10
728400.40566572174
 20
4554129.5700453799
 30
0.0545454544958678
  0
VERTEX
  5
23C
  8
LOTS
 10
728413.43088817596
 20
4554129.0023936164
 30
0.0545454544958678
  0
VERTEX
  5
23D
  8
LOTS
 10
728420.23112261295
 20
4554121.0766897593
 30
0.0545454544958678
  0
VERTEX
  5
23E
  8
LOTS
 10
728421.36107093468
 20
4554110.3234374989
 30
0.0545454544958678
  0
VERTEX
  5
23F
  8
LOTS
 10
728417.95068145916
 20
4554101.8300818782
 30
0.0545454544958678
  0
VERTEX
  5
240
  8
LOTS
 10
728406.6306537427
 20
4554093.9043780211
 30
0.0545454544958678
  0
VERTEX
  5
241
  8
LOTS
 10
728394.73537960649
 20
4554092.2014227323
 30
0.0545454544958678
  0
SEQEND
  5
242
  8
LOTS
  0
POLYLINE
  5
99
  8
LOTS
 66
     1
 10
0.0
 20
0.0
 30
0.0708333332743056
 70
     1
1001
DCO15
1071
        3
1071
        3
1000
densities
1004
074430383900
1001
ADE
1011
-16.137716464698311
1021
0.0
1031
0.0
1021
-6.7957555372267962
1031
0.0
  0
VERTEX
  5
243
  8
LOTS
 10
728426.45611063391
 20
4554124.4718899252
 30
0.0708333332743056
  0
VERTEX
  5
244
  8
LOTS
 10
728421.91577283666
 20
4554132.9652455449
 30
0.0708333332743056
  0
VERTEX
  5
245
  8
LOTS
 10
728423.04572115839
 20
4554147.124408382
 30
0.0708333332743056
  0
VERTEX
  5
246
  8
LOTS
 10
728427.58605895203
 20
4554158.4453124069
 30
0.0708333332743056
  0
VERTEX
  5
247
  8
LOTS
 10
728441.18652782601
 20
4554166.9386680247
 30
0.0708333332743056
  0
VERTEX
  5
248
  8
LOTS
 10
728455.91694501787
 20
4554166.371016264
 30
0.0708333332743056
  0
VERTEX
  5
249
  8
LOTS
 10
728462.71717945475
 20
4554162.9758160971
 30
0.0708333332743056
  0
VERTEX
  5
24A
  8
LOTS
 10
728465.53177799657
 20
4554151.6549120741
 30
0.0708333332743056
  0
VERTEX
  5
24B
  8
LOTS
 10
728463.84712777287
 20
4554144.2968599796
 30
0.0708333332743056
  0
VERTEX
  5
24C
  8
LOTS
 10
728458.75208807737
 20
4554134.6682008328
 30
0.0708333332743056
  0
VERTEX
  5
24D
  8
LOTS
 10
728450.24665890262
 20
4554127.3101487383
 30
0.0708333332743056
  0
VERTEX
  5
24E
  8
LOTS
 10
728442.87117804575
 20
4554120.5090379948
 30
0.0708333332743056
  0
VERTEX
  5
24F
  8
LOTS
 10
728433.81104697287
 20
4554121.0766897593
 30
0.0708333332743056
  0
SEQEND
  5
250
  8
LOTS
  0
POLYLINE
  5
9A
  8
LOTS
 66
     1
 10
0.0
 20
0.0
 30
0.0999999998
 70
     1
1001
DCO15
1071
        1
1071
        1
1000
densities
1004
074331383300
1001
ADE
1011
-10.848570578033099
1021
0.0
1031
0.0
1021
-19.208260989747941
1031
0.0
  0
VERTEX
  5
251
  8
LOTS
 10
733711.61815745349
 20
4553279.4096806608
 30
0.0999999998
  0
VERTEX
  5
252
  8
LOTS
 10
733706.96877006302
 20
4553273.5233174069
 30
0.0999999998
  0
VERTEX
  5
253
  8
LOTS
 10
733701.07945699175
 20
4553264.2289863434
 30
0.0999999998
  0
VERTEX
  5
254
  8
LOTS
 10
733693.64045942749
 20
4553258.6524225203
 30
0.0999999998
  0
VERTEX
  5
255
  8
LOTS
 10
733684.65155476274
 20
4553254.315056419
 30
0.0999999998
  0
VERTEX
  5
256
  8
LOTS
 10
733674.11296560487
 20
4553255.5543121649
 30
0.0999999998
  0
VERTEX
  5
257
  8
LOTS
 10
733670.39341117069
 20
4553259.891620242
 30
0.0999999998
  0
VERTEX
  5
258
  8
LOTS
 10
733668.22365253372
 20
4553268.5663524447
 30
0.0999999998
  0
VERTEX
  5
259
  8
LOTS
 10
733670.70339259098
 20
4553280.9587358395
 30
0.0999999998
  0
VERTEX
  5
25A
  8
LOTS
 10
733674.73281714122
 20
4553290.5628663339
 30
0.0999999998
  0
VERTEX
  5
25B
  8
LOTS
 10
733682.7917775457
 20
4553300.7865956891
 30
0.0999999998
  0
SEQEND
  5
25C
  8
LOTS
  0
POLYLINE
  5
9B
  8
LOTS
 66
     1
 10
0.0
 20
0.0
 30
0.049999999875
 70
     1
1001
DCO15
1071
        1
1071
        1
1000
densities
1004
074331383200
1001
ADE
1011
-5.2692945789312944
1021
0.0
1031
0.0
1021
3.4079097853973499
1031
0.0
  0
VERTEX
  5
25D
  8
LOTS
 10
733684.65155476274
 20
4553301.716052006
 30
0.049999999875
  0
VERTEX
  5
25E
  8
LOTS
 10
733688.37110919668
 20
4553307.292615829
 30
0.049999999875
  0
VERTEX
  5
25F
  8
LOTS
 10
733697.0500324415
 20
4553310.3907261826
 30
0.049999999875
  0
VERTEX
  5
260
  8
LOTS
 10
733707.89860301965
 20
4553307.9122727159
 30
0.049999999875
  0
VERTEX
  5
261
  8
LOTS
 10
733711.61815745349
 20
4553303.5749066137
 30
0.049999999875
  0
VERTEX
  5
262
  8
LOTS
 10
733714.71774904709
 20
4553297.0688864738
 30
0.049999999875
  0
VERTEX
  5
263
  8
LOTS
 10
733716.26754484407
 20
4553287.4647559794
 30
0.049999999875
  0
VERTEX
  5
264
  8
LOTS
 10
733713.16795325035
 20
4553280.6489364076
 30
0.049999999875
  0
SEQEND
  5
265
  8
LOTS
  0
POLYLINE
  5
9C
  8
LOTS
 66
     1
 10
0.0
 20
0.0
 30
0.02999999997
 70
     1
1001
DCO15
1071
        1
1071
        1
1000
densities
1004
074331393500
1001
ADE
1011
-9.2723881297279132
1021
0.0
1031
0.0
1021
10.953085949644439
1031
0.0
  0
VERTEX
  5
266
  8
LOTS
 10
732751.70641020709
 20
4551867.5897247931
 30
0.02999999997
  0
VERTEX
  5
267
  8
LOTS
 10
732738.21922936011
 20
4551870.3982247384
 30
0.02999999997
  0
VERTEX
  5
268
  8
LOTS
 10
732727.54187321814
 20
4551874.8918014374
 30
0.02999999997
  0
VERTEX
  5
269
  8
LOTS
 10
732723.04622048221
 20
4551883.8788968027
 30
0.02999999997
  0
VERTEX
  5
26A
  8
LOTS
 10
732719.1123991037
 20
4551897.3595688669
 30
0.02999999997
  0
VERTEX
  5
26B
  8
LOTS
 10
732722.48427780543
 20
4551914.2103944384
 30
0.02999999997
  0
VERTEX
  5
26C
  8
LOTS
 10
732726.97993054113
 20
4551924.3208549609
 30
0.02999999997
  0
VERTEX
  5
26D
  8
LOTS
 10
732736.53340132919
 20
4551928.8144316599
 30
0.02999999997
  0
VERTEX
  5
26E
  8
LOTS
 10
732747.21075747127
 20
4551921.5124130491
 30
0.02999999997
  0
VERTEX
  5
26F
  8
LOTS
 10
732755.64023158583
 20
4551908.5934525812
 30
0.02999999997
  0
SEQEND
  5
270
  8
LOTS
  0
ENDSEC
  0
EOF
