  0
SECTION
  2
HEADER
  9
$ACADVER
  1
AC1009
  9
$INSBASE
 10
0.0
 20
0.0
 30
0.0
  9
$EXTMIN
 10
726350.12794699986
 20
4549347.7057446577
 30
0.0
  9
$EXTMAX
 10
744191.12911099999
 20
4572799.0716699986
 30
0.0
  9
$LIMMIN
 10
0.0
 20
0.0
  9
$LIMMAX
 10
12.0
 20
9.0
  9
$ORTHOMODE
 70
     0
  9
$REGENMODE
 70
     1
  9
$FILLMODE
 70
     1
  9
$QTEXTMODE
 70
     0
  9
$MIRRTEXT
 70
     1
  9
$DRAGMODE
 70
     2
  9
$LTSCALE
 40
1.0
  9
$OSMODE
 70
   613
  9
$ATTMODE
 70
     1
  9
$TEXTSIZE
 40
0.2
  9
$TRACEWID
 40
0.05
  9
$TEXTSTYLE
  7
STANDARD
  9
$CLAYER
  8
CLUSTERS
  9
$CELTYPE
  6
BYLAYER
  9
$CECOLOR
 62
   256
  9
$DIMSCALE
 40
1.0
  9
$DIMASZ
 40
0.18
  9
$DIMEXO
 40
0.0625
  9
$DIMDLI
 40
0.38
  9
$DIMRND
 40
0.0
  9
$DIMDLE
 40
0.0
  9
$DIMEXE
 40
0.18
  9
$DIMTP
 40
0.0
  9
$DIMTM
 40
0.0
  9
$DIMTXT
 40
0.18
  9
$DIMCEN
 40
0.09
  9
$DIMTSZ
 40
0.0
  9
$DIMTOL
 70
     0
  9
$DIMLIM
 70
     0
  9
$DIMTIH
 70
     1
  9
$DIMTOH
 70
     1
  9
$DIMSE1
 70
     0
  9
$DIMSE2
 70
     0
  9
$DIMTAD
 70
     0
  9
$DIMZIN
 70
     0
  9
$DIMBLK
  1

  9
$DIMASO
 70
     1
  9
$DIMSHO
 70
     1
  9
$DIMPOST
  1

  9
$DIMAPOST
  1

  9
$DIMALT
 70
     0
  9
$DIMALTD
 70
     2
  9
$DIMALTF
 40
25.399999999999999
  9
$DIMLFAC
 40
1.0
  9
$DIMTOFL
 70
     0
  9
$DIMTVP
 40
0.0
  9
$DIMTIX
 70
     0
  9
$DIMSOXD
 70
     0
  9
$DIMSAH
 70
     0
  9
$DIMBLK1
  1

  9
$DIMBLK2
  1

  9
$DIMSTYLE
  2
STANDARD
  9
$DIMCLRD
 70
     0
  9
$DIMCLRE
 70
     0
  9
$DIMCLRT
 70
     0
  9
$DIMTFAC
 40
1.0
  9
$DIMGAP
 40
0.09
  9
$LUNITS
 70
     2
  9
$LUPREC
 70
     4
  9
$SKETCHINC
 40
0.1
  9
$FILLETRAD
 40
0.5
  9
$AUNITS
 70
     0
  9
$AUPREC
 70
     0
  9
$MENU
  1
.
  9
$ELEVATION
 40
0.0
  9
$PELEVATION
 40
0.0
  9
$THICKNESS
 40
0.0
  9
$LIMCHECK
 70
     0
  9
$BLIPMODE
 70
     0
  9
$CHAMFERA
 40
0.5
  9
$CHAMFERB
 40
0.5
  9
$SKPOLY
 70
     0
  9
$TDCREATE
 40
2455395.9464814821
  9
$TDUPDATE
 40
2456579.6749217128
  9
$TDINDWG
 40
0.2604919792
  9
$TDUSRTIMER
 40
0.2604919792
  9
$USRTIMER
 70
     1
  9
$ANGBASE
 50
0.0
  9
$ANGDIR
 70
     1
  9
$PDMODE
 70
    66
  9
$PDSIZE
 40
0.0
  9
$PLINEWID
 40
0.0
  9
$COORDS
 70
     1
  9
$SPLFRAME
 70
     0
  9
$SPLINETYPE
 70
     6
  9
$SPLINESEGS
 70
     8
  9
$ATTDIA
 70
     0
  9
$ATTREQ
 70
     1
  9
$HANDLING
 70
     1
  9
$HANDSEED
  5
113E
  9
$SURFTAB1
 70
     6
  9
$SURFTAB2
 70
     6
  9
$SURFTYPE
 70
     6
  9
$SURFU
 70
     6
  9
$SURFV
 70
     6
  9
$UCSNAME
  2

  9
$UCSORG
 10
0.0
 20
0.0
 30
0.0
  9
$UCSXDIR
 10
1.0
 20
0.0
 30
0.0
  9
$UCSYDIR
 10
0.0
 20
1.0
 30
0.0
  9
$PUCSNAME
  2

  9
$PUCSORG
 10
0.0
 20
0.0
 30
0.0
  9
$PUCSXDIR
 10
1.0
 20
0.0
 30
0.0
  9
$PUCSYDIR
 10
0.0
 20
1.0
 30
0.0
  9
$USERI1
 70
     0
  9
$USERI2
 70
     0
  9
$USERI3
 70
     0
  9
$USERI4
 70
     0
  9
$USERI5
 70
     0
  9
$USERR1
 40
0.0
  9
$USERR2
 40
0.0
  9
$USERR3
 40
0.0
  9
$USERR4
 40
0.0
  9
$USERR5
 40
0.0
  9
$WORLDVIEW
 70
     1
  9
$SHADEDGE
 70
     3
  9
$SHADEDIF
 70
    70
  9
$TILEMODE
 70
     1
  9
$MAXACTVP
 70
    64
  9
$PLIMCHECK
 70
     0
  9
$PEXTMIN
 10
0.0
 20
0.0
 30
0.0
  9
$PEXTMAX
 10
0.0
 20
0.0
 30
0.0
  9
$PLIMMIN
 10
0.0
 20
0.0
  9
$PLIMMAX
 10
12.0
 20
9.0
  9
$UNITMODE
 70
     0
  9
$VISRETAIN
 70
     1
  9
$PLINEGEN
 70
     0
  9
$PSLTSCALE
 70
     1
  0
ENDSEC
  0
SECTION
  2
TABLES
  0
TABLE
  2
VPORT
 70
     1
  0
VPORT
  2
*ACTIVE
 70
     0
 10
0.0
 20
0.0
 11
1.0
 21
1.0
 12
732459.9136030731
 22
4562255.4679452013
 13
0.0
 23
0.0
 14
0.5
 24
0.5
 15
0.5
 25
0.5
 16
0.0
 26
0.0
 36
1.0
 17
0.0
 27
0.0
 37
0.0
 40
38204.048590972408
 41
1.4411764705882351
 42
50.0
 43
0.0
 44
0.0
 50
0.0
 51
0.0
 71
     0
 72
   100
 73
     1
 74
     2
 75
     0
 76
     0
 77
     0
 78
     0
  0
ENDTAB
  0
TABLE
  2
LTYPE
 70
     1
  0
LTYPE
  2
CONTINUOUS
 70
     0
  3
Solid line
 72
    65
 73
     0
 40
0.0
  0
ENDTAB
  0
TABLE
  2
LAYER
 70
     2
  0
LAYER
  2
0
 70
     0
 62
    -7
  6
CONTINUOUS
  0
LAYER
  2
CLUSTERS
 70
     0
 62
     6
  6
CONTINUOUS
  0
ENDTAB
  0
TABLE
  2
STYLE
 70
     3
  0
STYLE
  2
STANDARD
 70
     0
 40
0.0
 41
1.0
 50
0.0
 71
     0
 42
0.2
  3
txt
  4

  0
STYLE
  2
ANNOTATIVE
 70
     0
 40
0.0
 41
1.0
 50
0.0
 71
     0
 42
0.2
  3
txt
  4

  0
STYLE
  2
LEGEND
 70
     0
 40
0.0
 41
1.0
 50
0.0
 71
     0
 42
0.2
  3
txt
  4

  0
ENDTAB
  0
TABLE
  2
VIEW
 70
     0
  0
ENDTAB
  0
TABLE
  2
UCS
 70
     0
  0
ENDTAB
  0
TABLE
  2
APPID
 70
     7
  0
APPID
  2
ACAD
 70
     0
  0
APPID
  2
ACADANNOTATIVE
 70
     0
  0
APPID
  2
ADE
 70
     0
  0
APPID
  2
ACMAPDMDISPLAYSTYLEREGAPP
 70
     0
  0
APPID
  2
MAPGWS
 70
     0
  0
APPID
  2
DCO15
 70
     0
  0
APPID
  2
ACAD_MLEADERVER
 70
     0
  0
ENDTAB
  0
TABLE
  2
DIMSTYLE
 70
     2
  0
DIMSTYLE
  2
STANDARD
 70
     0
  3

  4

  5

  6

  7

 40
1.0
 41
0.18
 42
0.0625
 43
0.38
 44
0.18
 45
0.0
 46
0.0
 47
0.0
 48
0.0
140
0.18
141
0.09
142
0.0
143
25.399999999999999
144
1.0
145
0.0
146
1.0
147
0.09
 71
     0
 72
     0
 73
     1
 74
     1
 75
     0
 76
     0
 77
     0
 78
     0
170
     0
171
     2
172
     0
173
     0
174
     0
175
     0
176
     0
177
     0
178
     0
  0
DIMSTYLE
  2
ANNOTATIVE
 70
     0
  3

  4

  5

  6

  7

 40
1.0
 41
0.18
 42
0.0625
 43
0.38
 44
0.18
 45
0.0
 46
0.0
 47
0.0
 48
0.0
140
0.18
141
0.09
142
0.0
143
25.399999999999999
144
1.0
145
0.0
146
1.0
147
0.09
 71
     0
 72
     0
 73
     1
 74
     1
 75
     0
 76
     0
 77
     0
 78
     0
170
     0
171
     2
172
     0
173
     0
174
     0
175
     0
176
     0
177
     0
178
     0
  0
ENDTAB
  0
ENDSEC
  0
SECTION
  2
BLOCKS
  0
BLOCK
  8
0
  2
$MODEL_SPACE
 70
     0
 10
0.0
 20
0.0
 30
0.0
  3
$MODEL_SPACE
  1

  0
ENDBLK
  5
943
  8
0
  0
BLOCK
 67
     1
  8
0
  2
$PAPER_SPACE
 70
     0
 10
0.0
 20
0.0
 30
0.0
  3
$PAPER_SPACE
  1

  0
ENDBLK
  5
93F
 67
     1
  8
0
  0
ENDSEC
  0
SECTION
  2
ENTITIES
  0
POLYLINE
  5
71
  8
CLUSTERS
 66
     1
 10
0.0
 20
0.0
 30
0.0
 70
     1
  0
VERTEX
  5
97C
  8
CLUSTERS
 10
727357.67131775734
 20
4549452.7262857044
 30
0.0
  0
VERTEX
  5
97D
  8
CLUSTERS
 10
727434.61109754711
 20
4549419.4270521449
 30
0.0
  0
VERTEX
  5
97E
  8
CLUSTERS
 10
727416.65839515766
 20
4549360.5131260026
 30
0.0
  0
VERTEX
  5
97F
  8
CLUSTERS
 10
727360.23596619535
 20
4549347.7057446577
 30
0.0
  0
VERTEX
  5
980
  8
CLUSTERS
 10
727329.46002161514
 20
4549383.5663984017
 30
0.0
  0
SEQEND
  5
981
  8
CLUSTERS
  0
POLYLINE
  5
72
  8
CLUSTERS
 66
     1
 10
0.0
 20
0.0
 30
0.0
 70
     1
  0
VERTEX
  5
982
  8
CLUSTERS
 10
729622.54823540675
 20
4562536.801649224
 30
0.0
  0
VERTEX
  5
983
  8
CLUSTERS
 10
729587.82952970138
 20
4562583.0358514236
 30
0.0
  0
VERTEX
  5
984
  8
CLUSTERS
 10
729613.86864064168
 20
4562626.3804116063
 30
0.0
  0
VERTEX
  5
985
  8
CLUSTERS
 10
729674.62629396515
 20
4562637.9389095791
 30
0.0
  0
VERTEX
  5
986
  8
CLUSTERS
 10
729703.55865760113
 20
4562600.373633435
 30
0.0
  0
VERTEX
  5
987
  8
CLUSTERS
 10
729674.62629396515
 20
4562545.470505178
 30
0.0
  0
SEQEND
  5
988
  8
CLUSTERS
  0
POLYLINE
  5
73
  8
CLUSTERS
 66
     1
 10
0.0
 20
0.0
 30
0.0
 70
     1
  0
VERTEX
  5
989
  8
CLUSTERS
 10
743987.22288673173
 20
4572006.8330599209
 30
0.0
  0
VERTEX
  5
98A
  8
CLUSTERS
 10
744102.94673220965
 20
4572006.8330599209
 30
0.0
  0
VERTEX
  5
98B
  8
CLUSTERS
 10
744102.94673220965
 20
4572090.9478836544
 30
0.0
  0
VERTEX
  5
98C
  8
CLUSTERS
 10
743987.22288673173
 20
4572090.9478836544
 30
0.0
  0
SEQEND
  5
98D
  8
CLUSTERS
  0
POLYLINE
  5
74
  8
CLUSTERS
 66
     1
 10
0.0
 20
0.0
 30
0.0
 70
     1
  0
VERTEX
  5
98E
  8
CLUSTERS
 10
743050.91247234063
 20
4571549.4589044144
 30
0.0
  0
VERTEX
  5
98F
  8
CLUSTERS
 10
743140.33536683547
 20
4571549.4589044144
 30
0.0
  0
VERTEX
  5
990
  8
CLUSTERS
 10
743140.33536683547
 20
4571659.8595984094
 30
0.0
  0
VERTEX
  5
991
  8
CLUSTERS
 10
743050.91247234063
 20
4571659.8595984094
 30
0.0
  0
SEQEND
  5
992
  8
CLUSTERS
  0
POLYLINE
  5
75
  8
CLUSTERS
 66
     1
 10
0.0
 20
0.0
 30
0.0
 70
     1
  0
VERTEX
  5
993
  8
CLUSTERS
 10
743135.07515057363
 20
4570781.9115187293
 30
0.0
  0
VERTEX
  5
994
  8
CLUSTERS
 10
743219.23795913265
 20
4570781.9115187293
 30
0.0
  0
VERTEX
  5
995
  8
CLUSTERS
 10
743219.23795913265
 20
4570902.8265089616
 30
0.0
  0
VERTEX
  5
996
  8
CLUSTERS
 10
743135.07515057363
 20
4570902.8265089616
 30
0.0
  0
SEQEND
  5
997
  8
CLUSTERS
  0
POLYLINE
  5
76
  8
CLUSTERS
 66
     1
 10
0.0
 20
0.0
 30
0.0
 70
     1
  0
VERTEX
  5
998
  8
CLUSTERS
 10
741888.41471358144
 20
4571344.4291552799
 30
0.0
  0
VERTEX
  5
999
  8
CLUSTERS
 10
741988.35791027395
 20
4571344.4291552799
 30
0.0
  0
VERTEX
  5
99A
  8
CLUSTERS
 10
741988.35791027395
 20
4571486.372867655
 30
0.0
  0
VERTEX
  5
99B
  8
CLUSTERS
 10
741888.41471358144
 20
4571486.372867655
 30
0.0
  0
SEQEND
  5
99C
  8
CLUSTERS
  0
POLYLINE
  5
77
  8
CLUSTERS
 66
     1
 10
0.0
 20
0.0
 30
0.0
 70
     1
  0
VERTEX
  5
99D
  8
CLUSTERS
 10
742646.55221189698
 20
4568985.6946301023
 30
0.0
  0
VERTEX
  5
99E
  8
CLUSTERS
 10
742742.11919329164
 20
4568985.6946301023
 30
0.0
  0
VERTEX
  5
99F
  8
CLUSTERS
 10
742742.11919329164
 20
4569057.9744035918
 30
0.0
  0
VERTEX
  5
9A0
  8
CLUSTERS
 10
742646.55221189698
 20
4569057.9744035918
 30
0.0
  0
SEQEND
  5
9A1
  8
CLUSTERS
  0
POLYLINE
  5
78
  8
CLUSTERS
 66
     1
 10
0.0
 20
0.0
 30
0.0
 70
     1
  0
VERTEX
  5
9A2
  8
CLUSTERS
 10
742974.57951693062
 20
4568353.2465310227
 30
0.0
  0
VERTEX
  5
9A3
  8
CLUSTERS
 10
743039.15185801359
 20
4568353.2465310227
 30
0.0
  0
VERTEX
  5
9A4
  8
CLUSTERS
 10
743039.15185801359
 20
4568412.6191951558
 30
0.0
  0
VERTEX
  5
9A5
  8
CLUSTERS
 10
742974.57951693062
 20
4568412.6191951558
 30
0.0
  0
SEQEND
  5
9A6
  8
CLUSTERS
  0
POLYLINE
  5
79
  8
CLUSTERS
 66
     1
 10
0.0
 20
0.0
 30
0.0
 70
     1
  0
VERTEX
  5
9A7
  8
CLUSTERS
 10
737928.40161382104
 20
4566392.1713796593
 30
0.0
  0
VERTEX
  5
9A8
  8
CLUSTERS
 10
738028.34494083968
 20
4566392.1713796593
 30
0.0
  0
VERTEX
  5
9A9
  8
CLUSTERS
 10
738028.34494083968
 20
4566534.1150920317
 30
0.0
  0
VERTEX
  5
9AA
  8
CLUSTERS
 10
737928.40161382104
 20
4566534.1150920317
 30
0.0
  0
SEQEND
  5
9AB
  8
CLUSTERS
  0
POLYLINE
  5
7A
  8
CLUSTERS
 66
     1
 10
0.0
 20
0.0
 30
0.0
 70
     1
  0
VERTEX
  5
9AC
  8
CLUSTERS
 10
737838.97871932655
 20
4566113.5411678599
 30
0.0
  0
VERTEX
  5
9AD
  8
CLUSTERS
 10
737959.96265074029
 20
4566113.5411678599
 30
0.0
  0
VERTEX
  5
9AE
  8
CLUSTERS
 10
737959.96265074029
 20
4566192.3987786435
 30
0.0
  0
VERTEX
  5
9AF
  8
CLUSTERS
 10
737838.97871932655
 20
4566192.3987786435
 30
0.0
  0
SEQEND
  5
9B0
  8
CLUSTERS
  0
POLYLINE
  5
7B
  8
CLUSTERS
 66
     1
 10
0.0
 20
0.0
 30
0.0
 70
     1
  0
VERTEX
  5
9B1
  8
CLUSTERS
 10
736281.96812940738
 20
4565771.824854468
 30
0.0
  0
VERTEX
  5
9B2
  8
CLUSTERS
 10
736355.61050544272
 20
4565771.824854468
 30
0.0
  0
VERTEX
  5
9B3
  8
CLUSTERS
 10
736355.61050544272
 20
4565861.1968263211
 30
0.0
  0
VERTEX
  5
9B4
  8
CLUSTERS
 10
736281.96812940738
 20
4565861.1968263211
 30
0.0
  0
SEQEND
  5
9B5
  8
CLUSTERS
  0
POLYLINE
  5
7C
  8
CLUSTERS
 66
     1
 10
0.0
 20
0.0
 30
0.0
 70
     1
  0
VERTEX
  5
9B6
  8
CLUSTERS
 10
738443.34514270909
 20
4564573.18924837
 30
0.0
  0
VERTEX
  5
9B7
  8
CLUSTERS
 10
738516.98751874454
 20
4564573.18924837
 30
0.0
  0
VERTEX
  5
9B8
  8
CLUSTERS
 10
738516.98751874454
 20
4564641.5324980821
 30
0.0
  0
VERTEX
  5
9B9
  8
CLUSTERS
 10
738443.34514270909
 20
4564641.5324980821
 30
0.0
  0
SEQEND
  5
9BA
  8
CLUSTERS
  0
POLYLINE
  5
7D
  8
CLUSTERS
 66
     1
 10
0.0
 20
0.0
 30
0.0
 70
     1
  0
VERTEX
  5
9BB
  8
CLUSTERS
 10
737975.18993551366
 20
4564457.5314062564
 30
0.0
  0
VERTEX
  5
9BC
  8
CLUSTERS
 10
738090.91378099145
 20
4564457.5314062564
 30
0.0
  0
VERTEX
  5
9BD
  8
CLUSTERS
 10
738090.91378099145
 20
4564546.9033781104
 30
0.0
  0
VERTEX
  5
9BE
  8
CLUSTERS
 10
737975.18993551366
 20
4564546.9033781104
 30
0.0
  0
SEQEND
  5
9BF
  8
CLUSTERS
  0
POLYLINE
  5
7E
  8
CLUSTERS
 66
     1
 10
0.0
 20
0.0
 30
0.0
 70
     1
  0
VERTEX
  5
9C0
  8
CLUSTERS
 10
733334.24808327691
 20
4563248.381439087
 30
0.0
  0
VERTEX
  5
9C1
  8
CLUSTERS
 10
733449.9717984288
 20
4563248.381439087
 30
0.0
  0
VERTEX
  5
9C2
  8
CLUSTERS
 10
733449.9717984288
 20
4563337.7534109401
 30
0.0
  0
VERTEX
  5
9C3
  8
CLUSTERS
 10
733334.24808327691
 20
4563337.7534109401
 30
0.0
  0
SEQEND
  5
9C4
  8
CLUSTERS
  0
POLYLINE
  5
7F
  8
CLUSTERS
 66
     1
 10
0.0
 20
0.0
 30
0.0
 70
     1
  0
VERTEX
  5
9C5
  8
CLUSTERS
 10
733350.02860173595
 20
4562254.7755821254
 30
0.0
  0
VERTEX
  5
9C6
  8
CLUSTERS
 10
733434.19127996929
 20
4562254.7755821254
 30
0.0
  0
VERTEX
  5
9C7
  8
CLUSTERS
 10
733434.19127996929
 20
4562328.3759799562
 30
0.0
  0
VERTEX
  5
9C8
  8
CLUSTERS
 10
733350.02860173595
 20
4562328.3759799562
 30
0.0
  0
SEQEND
  5
9C9
  8
CLUSTERS
  0
POLYLINE
  5
80
  8
CLUSTERS
 66
     1
 10
0.0
 20
0.0
 30
0.0
 70
     1
  0
VERTEX
  5
9CA
  8
CLUSTERS
 10
731629.95261096093
 20
4562086.5459994888
 30
0.0
  0
VERTEX
  5
9CB
  8
CLUSTERS
 10
731703.59498699673
 20
4562086.5459994888
 30
0.0
  0
VERTEX
  5
9CC
  8
CLUSTERS
 10
731703.59498699673
 20
4562149.6321010822
 30
0.0
  0
VERTEX
  5
9CD
  8
CLUSTERS
 10
731629.95261096093
 20
4562149.6321010822
 30
0.0
  0
SEQEND
  5
9CE
  8
CLUSTERS
  0
POLYLINE
  5
81
  8
CLUSTERS
 66
     1
 10
0.0
 20
0.0
 30
0.0
 70
     1
  0
VERTEX
  5
9CF
  8
CLUSTERS
 10
729783.63260283635
 20
4561287.4555305922
 30
0.0
  0
VERTEX
  5
9D0
  8
CLUSTERS
 10
729867.79528106924
 20
4561287.4555305922
 30
0.0
  0
VERTEX
  5
9D1
  8
CLUSTERS
 10
729867.79528106924
 20
4561413.6277337763
 30
0.0
  0
VERTEX
  5
9D2
  8
CLUSTERS
 10
729783.63260283635
 20
4561413.6277337763
 30
0.0
  0
SEQEND
  5
9D3
  8
CLUSTERS
  0
POLYLINE
  5
82
  8
CLUSTERS
 66
     1
 10
0.0
 20
0.0
 30
0.0
 70
     1
  0
VERTEX
  5
9D4
  8
CLUSTERS
 10
737966.32346970576
 20
4562706.9152806513
 30
0.0
  0
VERTEX
  5
9D5
  8
CLUSTERS
 10
738009.761502031
 20
4562706.9152806513
 30
0.0
  0
VERTEX
  5
9D6
  8
CLUSTERS
 10
738009.761502031
 20
4562755.7553011402
 30
0.0
  0
VERTEX
  5
9D7
  8
CLUSTERS
 10
737966.32346970576
 20
4562755.7553011402
 30
0.0
  0
SEQEND
  5
9D8
  8
CLUSTERS
  0
POLYLINE
  5
83
  8
CLUSTERS
 66
     1
 10
0.0
 20
0.0
 30
0.0
 70
     1
  0
VERTEX
  5
9D9
  8
CLUSTERS
 10
740658.43052534875
 20
4562801.5216446519
 30
0.0
  0
VERTEX
  5
9DA
  8
CLUSTERS
 10
740874.09743719338
 20
4562622.7777657779
 30
0.0
  0
VERTEX
  5
9DB
  8
CLUSTERS
 10
740868.83748158347
 20
4562854.0933851739
 30
0.0
  0
VERTEX
  5
9DC
  8
CLUSTERS
 10
740705.77208072715
 20
4562854.0933851739
 30
0.0
  0
SEQEND
  5
9DD
  8
CLUSTERS
  0
POLYLINE
  5
84
  8
CLUSTERS
 66
     1
 10
0.0
 20
0.0
 30
0.0
 70
     1
  0
VERTEX
  5
9DE
  8
CLUSTERS
 10
740695.25164820382
 20
4562543.9201549953
 30
0.0
  0
VERTEX
  5
9DF
  8
CLUSTERS
 10
740784.67454269854
 20
4562543.9201549953
 30
0.0
  0
VERTEX
  5
9E0
  8
CLUSTERS
 10
740781.32125583419
 20
4562609.6486074086
 30
0.0
  0
VERTEX
  5
9E1
  8
CLUSTERS
 10
740695.25164820382
 20
4562622.7777657779
 30
0.0
  0
SEQEND
  5
9E2
  8
CLUSTERS
  0
POLYLINE
  5
85
  8
CLUSTERS
 66
     1
 10
0.0
 20
0.0
 30
0.0
 70
     1
  0
VERTEX
  5
9E3
  8
CLUSTERS
 10
741182.81099538784
 20
4562914.0467487033
 30
0.0
  0
VERTEX
  5
9E4
  8
CLUSTERS
 10
741272.2338898828
 20
4562914.0467487033
 30
0.0
  0
VERTEX
  5
9E5
  8
CLUSTERS
 10
741272.2338898828
 20
4563019.1902297493
 30
0.0
  0
VERTEX
  5
9E6
  8
CLUSTERS
 10
741182.81099538784
 20
4563019.1902297493
 30
0.0
  0
SEQEND
  5
9E7
  8
CLUSTERS
  0
POLYLINE
  5
86
  8
CLUSTERS
 66
     1
 10
0.0
 20
0.0
 30
0.0
 70
     1
  0
VERTEX
  5
9E8
  8
CLUSTERS
 10
736402.12227545504
 20
4559578.8740932979
 30
0.0
  0
VERTEX
  5
9E9
  8
CLUSTERS
 10
736554.66724378779
 20
4559578.8740932979
 30
0.0
  0
VERTEX
  5
9EA
  8
CLUSTERS
 10
736554.66724378779
 20
4559662.9888522001
 30
0.0
  0
VERTEX
  5
9EB
  8
CLUSTERS
 10
736402.12227545504
 20
4559662.9888522001
 30
0.0
  0
SEQEND
  5
9EC
  8
CLUSTERS
  0
POLYLINE
  5
87
  8
CLUSTERS
 66
     1
 10
0.0
 20
0.0
 30
0.0
 70
     1
  0
VERTEX
  5
9ED
  8
CLUSTERS
 10
736054.95086934755
 20
4559126.7570859129
 30
0.0
  0
VERTEX
  5
9EE
  8
CLUSTERS
 10
736118.07294318546
 20
4559126.7570859129
 30
0.0
  0
VERTEX
  5
9EF
  8
CLUSTERS
 10
736118.07294318546
 20
4559205.6146966936
 30
0.0
  0
VERTEX
  5
9F0
  8
CLUSTERS
 10
736054.95086934755
 20
4559205.6146966936
 30
0.0
  0
SEQEND
  5
9F1
  8
CLUSTERS
  0
POLYLINE
  5
88
  8
CLUSTERS
 66
     1
 10
0.0
 20
0.0
 30
0.0
 70
     1
  0
VERTEX
  5
9F2
  8
CLUSTERS
 10
734923.43901906058
 20
4560025.7338877339
 30
0.0
  0
VERTEX
  5
9F3
  8
CLUSTERS
 10
735044.42295047443
 20
4560025.7338877339
 30
0.0
  0
VERTEX
  5
9F4
  8
CLUSTERS
 10
735044.42295047443
 20
4560130.8773687761
 30
0.0
  0
VERTEX
  5
9F5
  8
CLUSTERS
 10
734923.43901906058
 20
4560130.8773687761
 30
0.0
  0
SEQEND
  5
9F6
  8
CLUSTERS
  0
POLYLINE
  5
89
  8
CLUSTERS
 66
     1
 10
0.0
 20
0.0
 30
0.0
 70
     1
  0
VERTEX
  5
9F7
  8
CLUSTERS
 10
733950.30735148897
 20
4559216.1290577659
 30
0.0
  0
VERTEX
  5
9F8
  8
CLUSTERS
 10
734044.99046224565
 20
4559216.1290577659
 30
0.0
  0
VERTEX
  5
9F9
  8
CLUSTERS
 10
734044.99046224565
 20
4559289.729520428
 30
0.0
  0
VERTEX
  5
9FA
  8
CLUSTERS
 10
733950.30735148897
 20
4559289.729520428
 30
0.0
  0
SEQEND
  5
9FB
  8
CLUSTERS
  0
POLYLINE
  5
8A
  8
CLUSTERS
 66
     1
 10
0.0
 20
0.0
 30
0.0
 70
     1
  0
VERTEX
  5
9FC
  8
CLUSTERS
 10
733540.01400186948
 20
4559079.4425583398
 30
0.0
  0
VERTEX
  5
9FD
  8
CLUSTERS
 10
733660.99793328345
 20
4559079.4425583398
 30
0.0
  0
VERTEX
  5
9FE
  8
CLUSTERS
 10
733660.99793328345
 20
4559184.5860393848
 30
0.0
  0
VERTEX
  5
9FF
  8
CLUSTERS
 10
733540.01400186948
 20
4559184.5860393848
 30
0.0
  0
SEQEND
  5
A00
  8
CLUSTERS
  0
POLYLINE
  5
8B
  8
CLUSTERS
 66
     1
 10
0.0
 20
0.0
 30
0.0
 70
     1
  0
VERTEX
  5
A01
  8
CLUSTERS
 10
731646.35243836627
 20
4560362.192988174
 30
0.0
  0
VERTEX
  5
A02
  8
CLUSTERS
 10
731714.73459814012
 20
4560362.192988174
 30
0.0
  0
VERTEX
  5
A03
  8
CLUSTERS
 10
731714.73459814012
 20
4560435.793450837
 30
0.0
  0
VERTEX
  5
A04
  8
CLUSTERS
 10
731646.35243836627
 20
4560435.793450837
 30
0.0
  0
SEQEND
  5
A05
  8
CLUSTERS
  0
POLYLINE
  5
8C
  8
CLUSTERS
 66
     1
 10
0.0
 20
0.0
 30
0.0
 70
     1
  0
VERTEX
  5
A06
  8
CLUSTERS
 10
731756.81593725621
 20
4559016.3564567501
 30
0.0
  0
VERTEX
  5
A07
  8
CLUSTERS
 10
731835.71852955362
 20
4559016.3564567501
 30
0.0
  0
VERTEX
  5
A08
  8
CLUSTERS
 10
731835.71852955362
 20
4559079.4425583398
 30
0.0
  0
VERTEX
  5
A09
  8
CLUSTERS
 10
731756.81593725621
 20
4559079.4425583398
 30
0.0
  0
SEQEND
  5
A0A
  8
CLUSTERS
  0
POLYLINE
  5
8D
  8
CLUSTERS
 66
     1
 10
0.0
 20
0.0
 30
0.0
 70
     1
  0
VERTEX
  5
A0B
  8
CLUSTERS
 10
730347.09009940794
 20
4559142.5286599342
 30
0.0
  0
VERTEX
  5
A0C
  8
CLUSTERS
 10
730447.03342642658
 20
4559142.5286599342
 30
0.0
  0
VERTEX
  5
A0D
  8
CLUSTERS
 10
730447.03342642658
 20
4559231.9005669551
 30
0.0
  0
VERTEX
  5
A0E
  8
CLUSTERS
 10
730347.09009940794
 20
4559231.9005669551
 30
0.0
  0
SEQEND
  5
A0F
  8
CLUSTERS
  0
POLYLINE
  5
8E
  8
CLUSTERS
 66
     1
 10
0.0
 20
0.0
 30
0.0
 70
     1
  0
VERTEX
  5
A10
  8
CLUSTERS
 10
730099.86215064465
 20
4558264.5806450862
 30
0.0
  0
VERTEX
  5
A11
  8
CLUSTERS
 10
730194.54513107543
 20
4558264.5806450862
 30
0.0
  0
VERTEX
  5
A12
  8
CLUSTERS
 10
730194.54513107543
 20
4558396.0099963909
 30
0.0
  0
VERTEX
  5
A13
  8
CLUSTERS
 10
730099.86215064465
 20
4558396.0099963909
 30
0.0
  0
SEQEND
  5
A14
  8
CLUSTERS
  0
POLYLINE
  5
8F
  8
CLUSTERS
 66
     1
 10
0.0
 20
0.0
 30
0.0
 70
     1
  0
VERTEX
  5
A15
  8
CLUSTERS
 10
733338.51612803061
 20
4556520.9801012781
 30
0.0
  0
VERTEX
  5
A16
  8
CLUSTERS
 10
733451.11593000183
 20
4556520.9801012781
 30
0.0
  0
VERTEX
  5
A17
  8
CLUSTERS
 10
733451.11593000183
 20
4556648.5205801986
 30
0.0
  0
VERTEX
  5
A18
  8
CLUSTERS
 10
733338.51612803061
 20
4556648.5205801986
 30
0.0
  0
SEQEND
  5
A19
  8
CLUSTERS
  0
POLYLINE
  5
90
  8
CLUSTERS
 66
     1
 10
0.0
 20
0.0
 30
0.0
 70
     1
  0
VERTEX
  5
A1A
  8
CLUSTERS
 10
737865.03100838407
 20
4556626.0134330448
 30
0.0
  0
VERTEX
  5
A1B
  8
CLUSTERS
 10
737947.60423125012
 20
4556626.0134330448
 30
0.0
  0
VERTEX
  5
A1C
  8
CLUSTERS
 10
737947.60423125012
 20
4556701.0372136654
 30
0.0
  0
VERTEX
  5
A1D
  8
CLUSTERS
 10
737865.03100838407
 20
4556701.0372136654
 30
0.0
  0
SEQEND
  5
A1E
  8
CLUSTERS
  0
POLYLINE
  5
91
  8
CLUSTERS
 66
     1
 10
0.0
 20
0.0
 30
0.0
 70
     1
  0
VERTEX
  5
A1F
  8
CLUSTERS
 10
734127.55430164258
 20
4553189.1945854481
 30
0.0
  0
VERTEX
  5
A20
  8
CLUSTERS
 10
734216.01786677062
 20
4553189.1945854481
 30
0.0
  0
VERTEX
  5
A21
  8
CLUSTERS
 10
734216.01786677062
 20
4553237.0850141468
 30
0.0
  0
VERTEX
  5
A22
  8
CLUSTERS
 10
734127.55430164258
 20
4553237.0850141468
 30
0.0
  0
SEQEND
  5
A23
  8
CLUSTERS
  0
POLYLINE
  5
92
  8
CLUSTERS
 66
     1
 10
0.0
 20
0.0
 30
0.0
 70
     1
  0
VERTEX
  5
A24
  8
CLUSTERS
 10
731510.4549167566
 20
4550639.1133926427
 30
0.0
  0
VERTEX
  5
A25
  8
CLUSTERS
 10
731668.09471771226
 20
4550639.1133926427
 30
0.0
  0
VERTEX
  5
A26
  8
CLUSTERS
 10
731668.09471771226
 20
4550774.1562755564
 30
0.0
  0
VERTEX
  5
A27
  8
CLUSTERS
 10
731510.4549167566
 20
4550774.1562755564
 30
0.0
  0
SEQEND
  5
A28
  8
CLUSTERS
  0
POLYLINE
  5
93
  8
CLUSTERS
 66
     1
 10
0.0
 20
0.0
 30
0.0
 70
     1
  0
VERTEX
  5
A29
  8
CLUSTERS
 10
728297.60521813296
 20
4553992.6777348658
 30
0.0
  0
VERTEX
  5
A2A
  8
CLUSTERS
 10
728455.24501908862
 20
4553992.6777348658
 30
0.0
  0
VERTEX
  5
A2B
  8
CLUSTERS
 10
728455.24501908862
 20
4554150.2277649343
 30
0.0
  0
VERTEX
  5
A2C
  8
CLUSTERS
 10
728297.60521813296
 20
4554150.2277649343
 30
0.0
  0
SEQEND
  5
A2D
  8
CLUSTERS
  0
POLYLINE
  5
94
  8
CLUSTERS
 66
     1
 10
0.0
 20
0.0
 30
0.0
 70
     1
  0
VERTEX
  5
A2E
  8
CLUSTERS
 10
728560.33830660966
 20
4550751.6491284054
 30
0.0
  0
VERTEX
  5
A2F
  8
CLUSTERS
 10
728755.5113314467
 20
4550751.6491284054
 30
0.0
  0
VERTEX
  5
A30
  8
CLUSTERS
 10
728755.5113314467
 20
4550976.7205350958
 30
0.0
  0
VERTEX
  5
A31
  8
CLUSTERS
 10
728560.33830660966
 20
4550976.7205350958
 30
0.0
  0
SEQEND
  5
A32
  8
CLUSTERS
  0
POLYLINE
  5
95
  8
CLUSTERS
 66
     1
 10
0.0
 20
0.0
 30
0.0
 70
     1
  0
VERTEX
  5
A33
  8
CLUSTERS
 10
728222.5386400437
 20
4551441.8681564713
 30
0.0
  0
VERTEX
  5
A34
  8
CLUSTERS
 10
728372.6717962228
 20
4551441.8681564713
 30
0.0
  0
VERTEX
  5
A35
  8
CLUSTERS
 10
728372.6717962228
 20
4551569.4086353909
 30
0.0
  0
VERTEX
  5
A36
  8
CLUSTERS
 10
728222.5386400437
 20
4551569.4086353909
 30
0.0
  0
SEQEND
  5
A37
  8
CLUSTERS
  0
POLYLINE
  5
96
  8
CLUSTERS
 66
     1
 10
0.0
 20
0.0
 30
0.0
 70
     1
  0
VERTEX
  5
A38
  8
CLUSTERS
 10
726586.08721162623
 20
4552057.0634039193
 30
0.0
  0
VERTEX
  5
A39
  8
CLUSTERS
 10
726991.44668117946
 20
4552057.0634039193
 30
0.0
  0
VERTEX
  5
A3A
  8
CLUSTERS
 10
726991.44668117946
 20
4552267.1300674528
 30
0.0
  0
VERTEX
  5
A3B
  8
CLUSTERS
 10
726586.08721162623
 20
4552267.1300674528
 30
0.0
  0
SEQEND
  5
A3C
  8
CLUSTERS
  0
POLYLINE
  5
97
  8
CLUSTERS
 66
     1
 10
0.0
 20
0.0
 30
0.0
 70
   129
  0
VERTEX
  5
A3D
  8
CLUSTERS
 10
742654.95962500013
 20
4572297.3977699988
 30
0.0
  0
VERTEX
  5
A3E
  8
CLUSTERS
 10
742587.7490300003
 20
4572397.7695200006
 30
0.0
  0
VERTEX
  5
A3F
  8
CLUSTERS
 10
742587.54237800022
 20
4572498.141259999
 30
0.0
  0
VERTEX
  5
A40
  8
CLUSTERS
 10
742646.66607799998
 20
4572598.5130099989
 30
0.0
  0
VERTEX
  5
A41
  8
CLUSTERS
 10
742687.83068799996
 20
4572635.8750999989
 30
0.0
  0
VERTEX
  5
A42
  8
CLUSTERS
 10
742788.35978800012
 20
4572676.0038799988
 30
0.0
  0
VERTEX
  5
A43
  8
CLUSTERS
 10
742888.88888899994
 20
4572672.27642
 30
0.0
  0
VERTEX
  5
A44
  8
CLUSTERS
 10
742989.41798899963
 20
4572618.5683900006
 30
0.0
  0
VERTEX
  5
A45
  8
CLUSTERS
 10
743089.94709000003
 20
4572689.1637299992
 30
0.0
  0
VERTEX
  5
A46
  8
CLUSTERS
 10
743175.72058100021
 20
4572698.8847599998
 30
0.0
  0
VERTEX
  5
A47
  8
CLUSTERS
 10
743190.47619000031
 20
4572707.3151399987
 30
0.0
  0
VERTEX
  5
A48
  8
CLUSTERS
 10
743291.00529100001
 20
4572705.3206900004
 30
0.0
  0
VERTEX
  5
A49
  8
CLUSTERS
 10
743300.73290599999
 20
4572698.8847599998
 30
0.0
  0
VERTEX
  5
A4A
  8
CLUSTERS
 10
743391.53439199983
 20
4572685.3884100001
 30
0.0
  0
VERTEX
  5
A4B
  8
CLUSTERS
 10
743482.78011114779
 20
4572641.6401947336
 30
0.0
  0
VERTEX
  5
A4C
  8
CLUSTERS
 10
743514.48698281206
 20
4572630.2322565746
 30
0.0
  0
VERTEX
  5
A4D
  8
CLUSTERS
 10
743547.46205636056
 20
4572655.583251873
 30
0.0
  0
VERTEX
  5
A4E
  8
CLUSTERS
 10
743592.59259300004
 20
4572697.29342
 30
0.0
  0
VERTEX
  5
A4F
  8
CLUSTERS
 10
743608.7123880001
 20
4572698.8847599998
 30
0.0
  0
VERTEX
  5
A50
  8
CLUSTERS
 10
743693.1216930002
 20
4572752.4375800006
 30
0.0
  0
VERTEX
  5
A51
  8
CLUSTERS
 10
743793.65079400002
 20
4572774.6056999993
 30
0.0
  0
VERTEX
  5
A52
  8
CLUSTERS
 10
743894.17989399994
 20
4572797.3480700003
 30
0.0
  0
VERTEX
  5
A53
  8
CLUSTERS
 10
743994.70899499999
 20
4572799.0716699986
 30
0.0
  0
VERTEX
  5
A54
  8
CLUSTERS
 10
744095.23809500004
 20
4572795.3141300008
 30
0.0
  0
VERTEX
  5
A55
  8
CLUSTERS
 10
744191.12911099999
 20
4572698.8847599998
 30
0.0
  0
VERTEX
  5
A56
  8
CLUSTERS
 10
744190.78727600025
 20
4572598.5130099989
 30
0.0
  0
VERTEX
  5
A57
  8
CLUSTERS
 10
744095.23809500004
 20
4572499.9818200003
 30
0.0
  0
VERTEX
  5
A58
  8
CLUSTERS
 10
744091.69704300014
 20
4572498.141259999
 30
0.0
  0
VERTEX
  5
A59
  8
CLUSTERS
 10
743994.70899499999
 20
4572403.8993000006
 30
0.0
  0
VERTEX
  5
A5A
  8
CLUSTERS
 10
743966.68682799989
 20
4572397.7695200006
 30
0.0
  0
VERTEX
  5
A5B
  8
CLUSTERS
 10
743894.17989399994
 20
4572341.2015900007
 30
0.0
  0
VERTEX
  5
A5C
  8
CLUSTERS
 10
743793.65079400002
 20
4572301.3035199987
 30
0.0
  0
VERTEX
  5
A5D
  8
CLUSTERS
 10
743693.1216930002
 20
4572299.3131600004
 30
0.0
  0
VERTEX
  5
A5E
  8
CLUSTERS
 10
743592.59259300004
 20
4572307.9517900003
 30
0.0
  0
VERTEX
  5
A5F
  8
CLUSTERS
 10
743500.91081399983
 20
4572397.7695200006
 30
0.0
  0
VERTEX
  5
A60
  8
CLUSTERS
 10
743449.80503759941
 20
4572416.016226369
 30
0.0
  0
VERTEX
  5
A61
  8
CLUSTERS
 10
743391.53439199983
 20
4572411.61852
 30
0.0
  0
VERTEX
  5
A62
  8
CLUSTERS
 10
743340.27119
 20
4572397.7695200006
 30
0.0
  0
VERTEX
  5
A63
  8
CLUSTERS
 10
743291.00529100001
 20
4572358.1448899992
 30
0.0
  0
VERTEX
  5
A64
  8
CLUSTERS
 10
743190.47619000031
 20
4572300.3218400003
 30
0.0
  0
VERTEX
  5
A65
  8
CLUSTERS
 10
743089.94709000003
 20
4572303.2372999992
 30
0.0
  0
VERTEX
  5
A66
  8
CLUSTERS
 10
742989.41798899963
 20
4572302.9094500002
 30
0.0
  0
VERTEX
  5
A67
  8
CLUSTERS
 10
742981.16450099996
 20
4572297.3977699988
 30
0.0
  0
VERTEX
  5
A68
  8
CLUSTERS
 10
742888.88888899994
 20
4572229.5072099986
 30
0.0
  0
VERTEX
  5
A69
  8
CLUSTERS
 10
742788.35978800012
 20
4572224.242899999
 30
0.0
  0
VERTEX
  5
A6A
  8
CLUSTERS
 10
742687.83068799996
 20
4572267.89145
 30
0.0
  0
VERTEX
  5
A6B
  8
CLUSTERS
 10
742654.95962500013
 20
4572297.3977699988
 30
0.0
  0
SEQEND
  5
A6C
  8
CLUSTERS
  0
POLYLINE
  5
98
  8
CLUSTERS
 66
     1
 10
0.0
 20
0.0
 30
0.0
 70
   129
  0
VERTEX
  5
A6D
  8
CLUSTERS
 10
743088.05208099994
 20
4571594.7955400003
 30
0.0
  0
VERTEX
  5
A6E
  8
CLUSTERS
 10
743089.94709000003
 20
4571599.53835
 30
0.0
  0
VERTEX
  5
A6F
  8
CLUSTERS
 10
743099.43931900011
 20
4571594.7955400003
 30
0.0
  0
VERTEX
  5
A70
  8
CLUSTERS
 10
743089.94709000003
 20
4571592.6847599987
 30
0.0
  0
VERTEX
  5
A71
  8
CLUSTERS
 10
743088.05208099994
 20
4571594.7955400003
 30
0.0
  0
SEQEND
  5
A72
  8
CLUSTERS
  0
POLYLINE
  5
99
  8
CLUSTERS
 66
     1
 10
0.0
 20
0.0
 30
0.0
 70
   129
  0
VERTEX
  5
A73
  8
CLUSTERS
 10
742337.45199100021
 20
4571193.3085500002
 30
0.0
  0
VERTEX
  5
A74
  8
CLUSTERS
 10
742296.80986100005
 20
4571293.6803000001
 30
0.0
  0
VERTEX
  5
A75
  8
CLUSTERS
 10
742386.24338600005
 20
4571360.314629999
 30
0.0
  0
VERTEX
  5
A76
  8
CLUSTERS
 10
742465.71417199995
 20
4571293.6803000001
 30
0.0
  0
VERTEX
  5
A77
  8
CLUSTERS
 10
742425.18100999994
 20
4571193.3085500002
 30
0.0
  0
VERTEX
  5
A78
  8
CLUSTERS
 10
742386.24338600005
 20
4571160.995459999
 30
0.0
  0
VERTEX
  5
A79
  8
CLUSTERS
 10
742337.45199100021
 20
4571193.3085500002
 30
0.0
  0
SEQEND
  5
A7A
  8
CLUSTERS
  0
POLYLINE
  5
9A
  8
CLUSTERS
 66
     1
 10
0.0
 20
0.0
 30
0.0
 70
   129
  0
VERTEX
  5
A7B
  8
CLUSTERS
 10
741157.15346600011
 20
4571092.9367999993
 30
0.0
  0
VERTEX
  5
A7C
  8
CLUSTERS
 10
741079.36507900013
 20
4571099.1440599998
 30
0.0
  0
VERTEX
  5
A7D
  8
CLUSTERS
 10
740983.06353899965
 20
4571193.3085500002
 30
0.0
  0
VERTEX
  5
A7E
  8
CLUSTERS
 10
740978.83597899985
 20
4571215.6537800003
 30
0.0
  0
VERTEX
  5
A7F
  8
CLUSTERS
 10
740928.95940399985
 20
4571293.6803000001
 30
0.0
  0
VERTEX
  5
A80
  8
CLUSTERS
 10
740928.45788999985
 20
4571394.0520400004
 30
0.0
  0
VERTEX
  5
A81
  8
CLUSTERS
 10
740978.83597899985
 20
4571470.5817900002
 30
0.0
  0
VERTEX
  5
A82
  8
CLUSTERS
 10
740985.61041400011
 20
4571494.4237900004
 30
0.0
  0
VERTEX
  5
A83
  8
CLUSTERS
 10
741079.36507900013
 20
4571586.08079
 30
0.0
  0
VERTEX
  5
A84
  8
CLUSTERS
 10
741123.8682749999
 20
4571594.7955400003
 30
0.0
  0
VERTEX
  5
A85
  8
CLUSTERS
 10
741179.89417999994
 20
4571633.0739799999
 30
0.0
  0
VERTEX
  5
A86
  8
CLUSTERS
 10
741280.42328000022
 20
4571693.6312099993
 30
0.0
  0
VERTEX
  5
A87
  8
CLUSTERS
 10
741283.516558
 20
4571695.1672900002
 30
0.0
  0
VERTEX
  5
A88
  8
CLUSTERS
 10
741295.03817699989
 20
4571795.5390299996
 30
0.0
  0
VERTEX
  5
A89
  8
CLUSTERS
 10
741286.57331000001
 20
4571895.9107800014
 30
0.0
  0
VERTEX
  5
A8A
  8
CLUSTERS
 10
741291.47404799995
 20
4571996.2825299986
 30
0.0
  0
VERTEX
  5
A8B
  8
CLUSTERS
 10
741365.73332300026
 20
4572096.6542800013
 30
0.0
  0
VERTEX
  5
A8C
  8
CLUSTERS
 10
741380.95238100016
 20
4572111.2498700004
 30
0.0
  0
VERTEX
  5
A8D
  8
CLUSTERS
 10
741481.48148099985
 20
4572176.0634599999
 30
0.0
  0
VERTEX
  5
A8E
  8
CLUSTERS
 10
741567.37280300003
 20
4572096.6542800013
 30
0.0
  0
VERTEX
  5
A8F
  8
CLUSTERS
 10
741582.0105819999
 20
4572052.6464200001
 30
0.0
  0
VERTEX
  5
A90
  8
CLUSTERS
 10
741634.82909499994
 20
4572096.6542800013
 30
0.0
  0
VERTEX
  5
A91
  8
CLUSTERS
 10
741682.53968299995
 20
4572143.8782200003
 30
0.0
  0
VERTEX
  5
A92
  8
CLUSTERS
 10
741700.66835499986
 20
4572197.0260199988
 30
0.0
  0
VERTEX
  5
A93
  8
CLUSTERS
 10
741783.06878300023
 20
4572273.0128899999
 30
0.0
  0
VERTEX
  5
A94
  8
CLUSTERS
 10
741883.59788399981
 20
4572289.6721400013
 30
0.0
  0
VERTEX
  5
A95
  8
CLUSTERS
 10
741977.04377400002
 20
4572197.0260199988
 30
0.0
  0
VERTEX
  5
A96
  8
CLUSTERS
 10
741975.64970299986
 20
4572096.6542800013
 30
0.0
  0
VERTEX
  5
A97
  8
CLUSTERS
 10
741934.10273899999
 20
4571996.2825299986
 30
0.0
  0
VERTEX
  5
A98
  8
CLUSTERS
 10
741883.59788399981
 20
4571909.0233599991
 30
0.0
  0
VERTEX
  5
A99
  8
CLUSTERS
 10
741882.57391699986
 20
4571895.9107800014
 30
0.0
  0
VERTEX
  5
A9A
  8
CLUSTERS
 10
741866.42920999986
 20
4571795.5390299996
 30
0.0
  0
VERTEX
  5
A9B
  8
CLUSTERS
 10
741848.93155700027
 20
4571695.1672900002
 30
0.0
  0
VERTEX
  5
A9C
  8
CLUSTERS
 10
741783.06878300023
 20
4571628.4160900004
 30
0.0
  0
VERTEX
  5
A9D
  8
CLUSTERS
 10
741682.53968299995
 20
4571688.8826100007
 30
0.0
  0
VERTEX
  5
A9E
  8
CLUSTERS
 10
741657.59833700024
 20
4571594.7955400003
 30
0.0
  0
VERTEX
  5
A9F
  8
CLUSTERS
 10
741680.52049499995
 20
4571494.4237900004
 30
0.0
  0
VERTEX
  5
AA0
  8
CLUSTERS
 10
741676.39509899996
 20
4571394.0520400004
 30
0.0
  0
VERTEX
  5
AA1
  8
CLUSTERS
 10
741582.0105819999
 20
4571299.4018099997
 30
0.0
  0
VERTEX
  5
AA2
  8
CLUSTERS
 10
741520.18222099997
 20
4571293.6803000001
 30
0.0
  0
VERTEX
  5
AA3
  8
CLUSTERS
 10
741481.48148099985
 20
4571256.0980500001
 30
0.0
  0
VERTEX
  5
AA4
  8
CLUSTERS
 10
741443.37891300011
 20
4571193.3085500002
 30
0.0
  0
VERTEX
  5
AA5
  8
CLUSTERS
 10
741380.95238100016
 20
4571134.1288699983
 30
0.0
  0
VERTEX
  5
AA6
  8
CLUSTERS
 10
741280.42328000022
 20
4571094.4312300002
 30
0.0
  0
VERTEX
  5
AA7
  8
CLUSTERS
 10
741221.40549499984
 20
4571092.9367999993
 30
0.0
  0
VERTEX
  5
AA8
  8
CLUSTERS
 10
741179.89417999994
 20
4571082.9907099986
 30
0.0
  0
VERTEX
  5
AA9
  8
CLUSTERS
 10
741157.15346600011
 20
4571092.9367999993
 30
0.0
  0
SEQEND
  5
AAA
  8
CLUSTERS
  0
POLYLINE
  5
9B
  8
CLUSTERS
 66
     1
 10
0.0
 20
0.0
 30
0.0
 70
   129
  0
VERTEX
  5
AAB
  8
CLUSTERS
 10
740743.66706300015
 20
4570390.3345699981
 30
0.0
  0
VERTEX
  5
AAC
  8
CLUSTERS
 10
740705.47679099999
 20
4570490.7063199999
 30
0.0
  0
VERTEX
  5
AAD
  8
CLUSTERS
 10
740737.67111999984
 20
4570591.0780699989
 30
0.0
  0
VERTEX
  5
AAE
  8
CLUSTERS
 10
740777.77777800011
 20
4570632.1229499998
 30
0.0
  0
VERTEX
  5
AAF
  8
CLUSTERS
 10
740878.30687800003
 20
4570684.8660199996
 30
0.0
  0
VERTEX
  5
AB0
  8
CLUSTERS
 10
740978.83597899985
 20
4570674.4886799986
 30
0.0
  0
VERTEX
  5
AB1
  8
CLUSTERS
 10
741062.5734339999
 20
4570591.0780699989
 30
0.0
  0
VERTEX
  5
AB2
  8
CLUSTERS
 10
741071.74758199998
 20
4570490.7063199999
 30
0.0
  0
VERTEX
  5
AB3
  8
CLUSTERS
 10
741047.91734100005
 20
4570390.3345699981
 30
0.0
  0
VERTEX
  5
AB4
  8
CLUSTERS
 10
740978.83597899985
 20
4570322.3717900002
 30
0.0
  0
VERTEX
  5
AB5
  8
CLUSTERS
 10
740878.30687800003
 20
4570303.0757999998
 30
0.0
  0
VERTEX
  5
AB6
  8
CLUSTERS
 10
740777.77777800011
 20
4570355.8959799986
 30
0.0
  0
VERTEX
  5
AB7
  8
CLUSTERS
 10
740743.66706300015
 20
4570390.3345699981
 30
0.0
  0
SEQEND
  5
AB8
  8
CLUSTERS
  0
POLYLINE
  5
9C
  8
CLUSTERS
 66
     1
 10
0.0
 20
0.0
 30
0.0
 70
   129
  0
VERTEX
  5
AB9
  8
CLUSTERS
 10
742896.89537200006
 20
4570289.9628300006
 30
0.0
  0
VERTEX
  5
ABA
  8
CLUSTERS
 10
742888.88888899994
 20
4570295.1712400001
 30
0.0
  0
VERTEX
  5
ABB
  8
CLUSTERS
 10
742834.52335699985
 20
4570390.3345699981
 30
0.0
  0
VERTEX
  5
ABC
  8
CLUSTERS
 10
742888.88888899994
 20
4570440.9645400001
 30
0.0
  0
VERTEX
  5
ABD
  8
CLUSTERS
 10
742989.41798899963
 20
4570468.5664099986
 30
0.0
  0
VERTEX
  5
ABE
  8
CLUSTERS
 10
743067.75986899994
 20
4570390.3345699981
 30
0.0
  0
VERTEX
  5
ABF
  8
CLUSTERS
 10
743028.60959699994
 20
4570289.9628300006
 30
0.0
  0
VERTEX
  5
AC0
  8
CLUSTERS
 10
742989.41798899963
 20
4570251.3844600003
 30
0.0
  0
VERTEX
  5
AC1
  8
CLUSTERS
 10
742896.89537200006
 20
4570289.9628300006
 30
0.0
  0
SEQEND
  5
AC2
  8
CLUSTERS
  0
POLYLINE
  5
9D
  8
CLUSTERS
 66
     1
 10
0.0
 20
0.0
 30
0.0
 70
   129
  0
VERTEX
  5
AC3
  8
CLUSTERS
 10
740192.680758
 20
4570089.2193299988
 30
0.0
  0
VERTEX
  5
AC4
  8
CLUSTERS
 10
740174.60317500005
 20
4570187.0118500004
 30
0.0
  0
VERTEX
  5
AC5
  8
CLUSTERS
 10
740173.48714100011
 20
4570189.5910800006
 30
0.0
  0
VERTEX
  5
AC6
  8
CLUSTERS
 10
740174.60317500005
 20
4570190.7481699986
 30
0.0
  0
VERTEX
  5
AC7
  8
CLUSTERS
 10
740275.13227499987
 20
4570282.0970900003
 30
0.0
  0
VERTEX
  5
AC8
  8
CLUSTERS
 10
740368.19570399984
 20
4570189.5910800006
 30
0.0
  0
VERTEX
  5
AC9
  8
CLUSTERS
 10
740343.80384499999
 20
4570089.2193299988
 30
0.0
  0
VERTEX
  5
ACA
  8
CLUSTERS
 10
740275.13227499987
 20
4570022.37371
 30
0.0
  0
VERTEX
  5
ACB
  8
CLUSTERS
 10
740192.680758
 20
4570089.2193299988
 30
0.0
  0
SEQEND
  5
ACC
  8
CLUSTERS
  0
POLYLINE
  5
9E
  8
CLUSTERS
 66
     1
 10
0.0
 20
0.0
 30
0.0
 70
   129
  0
VERTEX
  5
ACD
  8
CLUSTERS
 10
741635.64973622456
 20
4569010.2439798433
 30
0.0
  0
VERTEX
  5
ACE
  8
CLUSTERS
 10
741682.53968299995
 20
4569138.2964000013
 30
0.0
  0
VERTEX
  5
ACF
  8
CLUSTERS
 10
741639.14692500001
 20
4569185.8736100001
 30
0.0
  0
VERTEX
  5
AD0
  8
CLUSTERS
 10
741582.0105819999
 20
4569199.306669998
 30
0.0
  0
VERTEX
  5
AD1
  8
CLUSTERS
 10
741496.57884300011
 20
4569286.2453500004
 30
0.0
  0
VERTEX
  5
AD2
  8
CLUSTERS
 10
741481.48148099985
 20
4569297.4591800002
 30
0.0
  0
VERTEX
  5
AD3
  8
CLUSTERS
 10
741380.95238100016
 20
4569317.8596599987
 30
0.0
  0
VERTEX
  5
AD4
  8
CLUSTERS
 10
741316.39234999998
 20
4569386.6171000013
 30
0.0
  0
VERTEX
  5
AD5
  8
CLUSTERS
 10
741311.94770700007
 20
4569486.9888500003
 30
0.0
  0
VERTEX
  5
AD6
  8
CLUSTERS
 10
741320.29511800001
 20
4569587.3605899988
 30
0.0
  0
VERTEX
  5
AD7
  8
CLUSTERS
 10
741380.95238100016
 20
4569650.9869600004
 30
0.0
  0
VERTEX
  5
AD8
  8
CLUSTERS
 10
741481.48148099985
 20
4569685.5870500002
 30
0.0
  0
VERTEX
  5
AD9
  8
CLUSTERS
 10
741493.78187099984
 20
4569687.7323400006
 30
0.0
  0
VERTEX
  5
ADA
  8
CLUSTERS
 10
741490.42304199981
 20
4569788.1040899996
 30
0.0
  0
VERTEX
  5
ADB
  8
CLUSTERS
 10
741582.0105819999
 20
4569875.8848700002
 30
0.0
  0
VERTEX
  5
ADC
  8
CLUSTERS
 10
741682.53968299995
 20
4569886.0218500001
 30
0.0
  0
VERTEX
  5
ADD
  8
CLUSTERS
 10
741783.06878300023
 20
4569870.2297900012
 30
0.0
  0
VERTEX
  5
ADE
  8
CLUSTERS
 10
741868.18917000026
 20
4569788.1040899996
 30
0.0
  0
VERTEX
  5
ADF
  8
CLUSTERS
 10
741883.59788399981
 20
4569711.3817400001
 30
0.0
  0
VERTEX
  5
AE0
  8
CLUSTERS
 10
741984.12698399986
 20
4569726.7856300008
 30
0.0
  0
VERTEX
  5
AE1
  8
CLUSTERS
 10
742084.65608500026
 20
4569737.6255299998
 30
0.0
  0
VERTEX
  5
AE2
  8
CLUSTERS
 10
742146.0119230001
 20
4569687.7323400006
 30
0.0
  0
VERTEX
  5
AE3
  8
CLUSTERS
 10
742185.18518499995
 20
4569650.5936000003
 30
0.0
  0
VERTEX
  5
AE4
  8
CLUSTERS
 10
742236.73362099996
 20
4569587.3605899988
 30
0.0
  0
VERTEX
  5
AE5
  8
CLUSTERS
 10
742224.08172399981
 20
4569486.9888500003
 30
0.0
  0
VERTEX
  5
AE6
  8
CLUSTERS
 10
742285.714286
 20
4569417.7155199992
 30
0.0
  0
VERTEX
  5
AE7
  8
CLUSTERS
 10
742312.5348860001
 20
4569386.6171000013
 30
0.0
  0
VERTEX
  5
AE8
  8
CLUSTERS
 10
742285.714286
 20
4569350.8496200023
 30
0.0
  0
VERTEX
  5
AE9
  8
CLUSTERS
 10
742234.84742899984
 20
4569286.2453500004
 30
0.0
  0
VERTEX
  5
AEA
  8
CLUSTERS
 10
742185.18518499995
 20
4569241.4061700003
 30
0.0
  0
VERTEX
  5
AEB
  8
CLUSTERS
 10
742084.65608500026
 20
4569186.9075199999
 30
0.0
  0
VERTEX
  5
AEC
  8
CLUSTERS
 10
741984.12698399986
 20
4569262.6914799986
 30
0.0
  0
VERTEX
  5
AED
  8
CLUSTERS
 10
741954.90511000005
 20
4569286.2453500004
 30
0.0
  0
VERTEX
  5
AEE
  8
CLUSTERS
 10
741890.11463800003
 20
4569386.6171000013
 30
0.0
  0
VERTEX
  5
AEF
  8
CLUSTERS
 10
741883.59788399981
 20
4569388.0843299981
 30
0.0
  0
VERTEX
  5
AF0
  8
CLUSTERS
 10
741883.274171
 20
4569386.6171000013
 30
0.0
  0
VERTEX
  5
AF1
  8
CLUSTERS
 10
741880.82838600012
 20
4569286.2453500004
 30
0.0
  0
VERTEX
  5
AF2
  8
CLUSTERS
 10
741858.92489000014
 20
4569185.8736100001
 30
0.0
  0
VERTEX
  5
AF3
  8
CLUSTERS
 10
741861.24193200003
 20
4569085.5018600002
 30
0.0
  0
VERTEX
  5
AF4
  8
CLUSTERS
 10
741783.06878300023
 20
4568991.9437500006
 30
0.0
  0
VERTEX
  5
AF5
  8
CLUSTERS
 10
741635.64973622456
 20
4569010.2439798433
 30
0.0
  0
SEQEND
  5
AF6
  8
CLUSTERS
  0
POLYLINE
  5
9F
  8
CLUSTERS
 66
     1
 10
0.0
 20
0.0
 30
0.0
 70
   129
  0
VERTEX
  5
AF7
  8
CLUSTERS
 10
743261.62111800001
 20
4568583.6431199992
 30
0.0
  0
VERTEX
  5
AF8
  8
CLUSTERS
 10
743202.7653689998
 20
4568684.0148700001
 30
0.0
  0
VERTEX
  5
AF9
  8
CLUSTERS
 10
743146.34285579249
 20
4568784.3866199991
 30
0.0
  0
VERTEX
  5
AFA
  8
CLUSTERS
 10
743171.29848728655
 20
4568884.7583600003
 30
0.0
  0
VERTEX
  5
AFB
  8
CLUSTERS
 10
743230.26499199984
 20
4568985.1301099993
 30
0.0
  0
VERTEX
  5
AFC
  8
CLUSTERS
 10
743291.00529100001
 20
4569046.4948400008
 30
0.0
  0
VERTEX
  5
AFD
  8
CLUSTERS
 10
743391.53439199983
 20
4569070.9386000009
 30
0.0
  0
VERTEX
  5
AFE
  8
CLUSTERS
 10
743477.38387699996
 20
4568985.1301099993
 30
0.0
  0
VERTEX
  5
AFF
  8
CLUSTERS
 10
743448.87195900001
 20
4568884.7583600003
 30
0.0
  0
VERTEX
  5
B00
  8
CLUSTERS
 10
743478.29979600024
 20
4568784.3866199991
 30
0.0
  0
VERTEX
  5
B01
  8
CLUSTERS
 10
743485.33238299994
 20
4568684.0148700001
 30
0.0
  0
VERTEX
  5
B02
  8
CLUSTERS
 10
743451.053051
 20
4568583.6431199992
 30
0.0
  0
VERTEX
  5
B03
  8
CLUSTERS
 10
743391.53439199983
 20
4568525.7826199997
 30
0.0
  0
VERTEX
  5
B04
  8
CLUSTERS
 10
743291.00529100001
 20
4568555.0959200002
 30
0.0
  0
VERTEX
  5
B05
  8
CLUSTERS
 10
743261.62111800001
 20
4568583.6431199992
 30
0.0
  0
SEQEND
  5
B06
  8
CLUSTERS
  0
POLYLINE
  5
A0
  8
CLUSTERS
 66
     1
 10
0.0
 20
0.0
 30
0.0
 70
   129
  0
VERTEX
  5
B07
  8
CLUSTERS
 10
742927.33713799983
 20
4568583.6431199992
 30
0.0
  0
VERTEX
  5
B08
  8
CLUSTERS
 10
742989.41798899963
 20
4568626.4063299987
 30
0.0
  0
VERTEX
  5
B09
  8
CLUSTERS
 10
743032.59017000033
 20
4568583.6431199992
 30
0.0
  0
VERTEX
  5
B0A
  8
CLUSTERS
 10
742989.41798899963
 20
4568530.3895200007
 30
0.0
  0
VERTEX
  5
B0B
  8
CLUSTERS
 10
742927.33713799983
 20
4568583.6431199992
 30
0.0
  0
SEQEND
  5
B0C
  8
CLUSTERS
  0
POLYLINE
  5
A1
  8
CLUSTERS
 66
     1
 10
0.0
 20
0.0
 30
0.0
 70
   129
  0
VERTEX
  5
B0D
  8
CLUSTERS
 10
742654.23512042605
 20
4568538.6553106532
 30
0.0
  0
VERTEX
  5
B0E
  8
CLUSTERS
 10
742744.70212342637
 20
4568606.2257706542
 30
0.0
  0
VERTEX
  5
B0F
  8
CLUSTERS
 10
742826.66425542615
 20
4568538.6553106532
 30
0.0
  0
VERTEX
  5
B10
  8
CLUSTERS
 10
742744.70212342637
 20
4568456.0977406539
 30
0.0
  0
VERTEX
  5
B11
  8
CLUSTERS
 10
742654.23512042605
 20
4568538.6553106532
 30
0.0
  0
SEQEND
  5
B12
  8
CLUSTERS
  0
POLYLINE
  5
A2
  8
CLUSTERS
 66
     1
 10
0.0
 20
0.0
 30
0.0
 70
   129
  0
VERTEX
  5
B13
  8
CLUSTERS
 10
740084.4214483496
 20
4568598.7483269135
 30
0.0
  0
VERTEX
  5
B14
  8
CLUSTERS
 10
740174.60317500005
 20
4568659.3041200005
 30
0.0
  0
VERTEX
  5
B15
  8
CLUSTERS
 10
740214.86791699985
 20
4568583.6431199992
 30
0.0
  0
VERTEX
  5
B16
  8
CLUSTERS
 10
740128.33060900785
 20
4568523.8870796859
 30
0.0
  0
VERTEX
  5
B17
  8
CLUSTERS
 10
740084.4214483496
 20
4568598.7483269135
 30
0.0
  0
SEQEND
  5
B18
  8
CLUSTERS
  0
POLYLINE
  5
A3
  8
CLUSTERS
 66
     1
 10
0.0
 20
0.0
 30
0.0
 70
   129
  0
VERTEX
  5
B19
  8
CLUSTERS
 10
739890.67276060779
 20
4567962.5790791335
 30
0.0
  0
VERTEX
  5
B1A
  8
CLUSTERS
 10
739975.93994660792
 20
4568043.7428191323
 30
0.0
  0
VERTEX
  5
B1B
  8
CLUSTERS
 10
740057.64426760795
 20
4567962.5790791335
 30
0.0
  0
VERTEX
  5
B1C
  8
CLUSTERS
 10
739975.93994660792
 20
4567871.3262491319
 30
0.0
  0
VERTEX
  5
B1D
  8
CLUSTERS
 10
739890.67276060779
 20
4567962.5790791335
 30
0.0
  0
SEQEND
  5
B1E
  8
CLUSTERS
  0
POLYLINE
  5
A4
  8
CLUSTERS
 66
     1
 10
0.0
 20
0.0
 30
0.0
 70
   129
  0
VERTEX
  5
B1F
  8
CLUSTERS
 10
742613.17403200013
 20
4567780.6691399999
 30
0.0
  0
VERTEX
  5
B20
  8
CLUSTERS
 10
742587.30158699967
 20
4567802.9704799987
 30
0.0
  0
VERTEX
  5
B21
  8
CLUSTERS
 10
742527.49016299995
 20
4567881.0408899989
 30
0.0
  0
VERTEX
  5
B22
  8
CLUSTERS
 10
742522.80983100005
 20
4567981.4126399998
 30
0.0
  0
VERTEX
  5
B23
  8
CLUSTERS
 10
742517.40416599985
 20
4568081.7843900006
 30
0.0
  0
VERTEX
  5
B24
  8
CLUSTERS
 10
742602.64305123861
 20
4568082.197364226
 30
0.0
  0
VERTEX
  5
B25
  8
CLUSTERS
 10
742718.8732130581
 20
4568079.615890489
 30
0.0
  0
VERTEX
  5
B26
  8
CLUSTERS
 10
742700.79296276765
 20
4568175.1284737848
 30
0.0
  0
VERTEX
  5
B27
  8
CLUSTERS
 10
742694.5676239999
 20
4568282.52788
 30
0.0
  0
VERTEX
  5
B28
  8
CLUSTERS
 10
742775.69689406338
 20
4568327.4323123125
 30
0.0
  0
VERTEX
  5
B29
  8
CLUSTERS
 10
742858.45571799995
 20
4568282.52788
 30
0.0
  0
VERTEX
  5
B2A
  8
CLUSTERS
 10
742863.51521538012
 20
4568206.1055103047
 30
0.0
  0
VERTEX
  5
B2B
  8
CLUSTERS
 10
742888.88888899994
 20
4568151.509899999
 30
0.0
  0
VERTEX
  5
B2C
  8
CLUSTERS
 10
742955.92747899995
 20
4568081.7843900006
 30
0.0
  0
VERTEX
  5
B2D
  8
CLUSTERS
 10
742888.88888899994
 20
4567991.5296700001
 30
0.0
  0
VERTEX
  5
B2E
  8
CLUSTERS
 10
742886.59954800014
 20
4567981.4126399998
 30
0.0
  0
VERTEX
  5
B2F
  8
CLUSTERS
 10
742883.87995500001
 20
4567881.0408899989
 30
0.0
  0
VERTEX
  5
B30
  8
CLUSTERS
 10
742843.15434500005
 20
4567780.6691399999
 30
0.0
  0
VERTEX
  5
B31
  8
CLUSTERS
 10
742788.35978800012
 20
4567727.8220500005
 30
0.0
  0
VERTEX
  5
B32
  8
CLUSTERS
 10
742687.83068799996
 20
4567725.8818100002
 30
0.0
  0
VERTEX
  5
B33
  8
CLUSTERS
 10
742613.17403200013
 20
4567780.6691399999
 30
0.0
  0
SEQEND
  5
B34
  8
CLUSTERS
  0
POLYLINE
  5
A5
  8
CLUSTERS
 66
     1
 10
0.0
 20
0.0
 30
0.0
 70
   129
  0
VERTEX
  5
B35
  8
CLUSTERS
 10
739882.14668100025
 20
4567278.8104100004
 30
0.0
  0
VERTEX
  5
B36
  8
CLUSTERS
 10
739929.8168619998
 20
4567379.1821600003
 30
0.0
  0
VERTEX
  5
B37
  8
CLUSTERS
 10
739873.01587300014
 20
4567383.3887900002
 30
0.0
  0
VERTEX
  5
B38
  8
CLUSTERS
 10
739772.48677199997
 20
4567390.6237000003
 30
0.0
  0
VERTEX
  5
B39
  8
CLUSTERS
 10
739671.95767199981
 20
4567409.92588
 30
0.0
  0
VERTEX
  5
B3A
  8
CLUSTERS
 10
739592.21715000016
 20
4567479.5538999997
 30
0.0
  0
VERTEX
  5
B3B
  8
CLUSTERS
 10
739571.42857100011
 20
4567543.2248899993
 30
0.0
  0
VERTEX
  5
B3C
  8
CLUSTERS
 10
739548.944426
 20
4567579.9256499996
 30
0.0
  0
VERTEX
  5
B3D
  8
CLUSTERS
 10
739571.42857100011
 20
4567607.2095100004
 30
0.0
  0
VERTEX
  5
B3E
  8
CLUSTERS
 10
739595.63567700004
 20
4567680.2973999986
 30
0.0
  0
VERTEX
  5
B3F
  8
CLUSTERS
 10
739671.95767199981
 20
4567754.9399999985
 30
0.0
  0
VERTEX
  5
B40
  8
CLUSTERS
 10
739713.51897500001
 20
4567780.6691399999
 30
0.0
  0
VERTEX
  5
B41
  8
CLUSTERS
 10
739792.55464389652
 20
4567783.0193527872
 30
0.0
  0
VERTEX
  5
B42
  8
CLUSTERS
 10
739877.79003507877
 20
4567767.5307696937
 30
0.0
  0
VERTEX
  5
B43
  8
CLUSTERS
 10
739973.35714679945
 20
4567759.7865429819
 30
0.0
  0
VERTEX
  5
B44
  8
CLUSTERS
 10
740022.4320374009
 20
4567733.9723242717
 30
0.0
  0
VERTEX
  5
B45
  8
CLUSTERS
 10
740076.67278827168
 20
4567695.250996205
 30
0.0
  0
VERTEX
  5
B46
  8
CLUSTERS
 10
740099.91889883124
 20
4567628.1341053573
 30
0.0
  0
VERTEX
  5
B47
  8
CLUSTERS
 10
740120.51506999996
 20
4567579.9256499996
 30
0.0
  0
VERTEX
  5
B48
  8
CLUSTERS
 10
740110.25035871787
 20
4567511.9701211592
 30
0.0
  0
VERTEX
  5
B49
  8
CLUSTERS
 10
740074.07407400012
 20
4567381.8838300006
 30
0.0
  0
VERTEX
  5
B4A
  8
CLUSTERS
 10
740032.56758399983
 20
4567379.1821600003
 30
0.0
  0
VERTEX
  5
B4B
  8
CLUSTERS
 10
739996.60521224828
 20
4567283.4639242077
 30
0.0
  0
VERTEX
  5
B4C
  8
CLUSTERS
 10
739937.62958904658
 20
4567235.5734955072
 30
0.0
  0
VERTEX
  5
B4D
  8
CLUSTERS
 10
739882.14668100025
 20
4567278.8104100004
 30
0.0
  0
SEQEND
  5
B4E
  8
CLUSTERS
  0
POLYLINE
  5
A6
  8
CLUSTERS
 66
     1
 10
0.0
 20
0.0
 30
0.0
 70
   129
  0
VERTEX
  5
B4F
  8
CLUSTERS
 10
740013.84850685624
 20
4567134.5610950561
 30
0.0
  0
VERTEX
  5
B50
  8
CLUSTERS
 10
740111.37272585626
 20
4567228.0620150538
 30
0.0
  0
VERTEX
  5
B51
  8
CLUSTERS
 10
740204.87005985621
 20
4567134.5610950561
 30
0.0
  0
VERTEX
  5
B52
  8
CLUSTERS
 10
740111.37272585626
 20
4567036.1521050548
 30
0.0
  0
VERTEX
  5
B53
  8
CLUSTERS
 10
740013.84850685624
 20
4567134.5610950561
 30
0.0
  0
SEQEND
  5
B54
  8
CLUSTERS
  0
POLYLINE
  5
A7
  8
CLUSTERS
 66
     1
 10
0.0
 20
0.0
 30
0.0
 70
   129
  0
VERTEX
  5
B55
  8
CLUSTERS
 10
738806.85030096234
 20
4567049.3181361808
 30
0.0
  0
VERTEX
  5
B56
  8
CLUSTERS
 10
738859.45194227656
 20
4567122.9185340097
 30
0.0
  0
VERTEX
  5
B57
  8
CLUSTERS
 10
738968.25396799983
 20
4567166.5936599988
 30
0.0
  0
VERTEX
  5
B58
  8
CLUSTERS
 10
739057.05104499985
 20
4567078.0669099987
 30
0.0
  0
VERTEX
  5
B59
  8
CLUSTERS
 10
738985.6960899519
 20
4566928.4031459447
 30
0.0
  0
VERTEX
  5
B5A
  8
CLUSTERS
 10
738843.67142381705
 20
4566986.2320345882
 30
0.0
  0
VERTEX
  5
B5B
  8
CLUSTERS
 10
738806.85030096234
 20
4567049.3181361808
 30
0.0
  0
SEQEND
  5
B5C
  8
CLUSTERS
  0
POLYLINE
  5
A8
  8
CLUSTERS
 66
     1
 10
0.0
 20
0.0
 30
0.0
 70
   129
  0
VERTEX
  5
B5D
  8
CLUSTERS
 10
739492.67099500005
 20
4566576.2081800001
 30
0.0
  0
VERTEX
  5
B5E
  8
CLUSTERS
 10
739472.49361900007
 20
4566676.57993
 30
0.0
  0
VERTEX
  5
B5F
  8
CLUSTERS
 10
739470.89947099995
 20
4566703.2525500003
 30
0.0
  0
VERTEX
  5
B60
  8
CLUSTERS
 10
739439.30915300024
 20
4566776.9516700003
 30
0.0
  0
VERTEX
  5
B61
  8
CLUSTERS
 10
739470.89947099995
 20
4566817.2175700003
 30
0.0
  0
VERTEX
  5
B62
  8
CLUSTERS
 10
739511.84421600006
 20
4566877.3234200003
 30
0.0
  0
VERTEX
  5
B63
  8
CLUSTERS
 10
739571.42857100011
 20
4566931.3556599999
 30
0.0
  0
VERTEX
  5
B64
  8
CLUSTERS
 10
739671.95767199981
 20
4566955.0074899998
 30
0.0
  0
VERTEX
  5
B65
  8
CLUSTERS
 10
739770.58750100015
 20
4566877.3234200003
 30
0.0
  0
VERTEX
  5
B66
  8
CLUSTERS
 10
739772.48677199997
 20
4566875.71098
 30
0.0
  0
VERTEX
  5
B67
  8
CLUSTERS
 10
739853.6297589998
 20
4566776.9516700003
 30
0.0
  0
VERTEX
  5
B68
  8
CLUSTERS
 10
739834.32125899987
 20
4566676.57993
 30
0.0
  0
VERTEX
  5
B69
  8
CLUSTERS
 10
739772.48677199997
 20
4566609.7138700001
 30
0.0
  0
VERTEX
  5
B6A
  8
CLUSTERS
 10
739671.95767199981
 20
4566576.5147299999
 30
0.0
  0
VERTEX
  5
B6B
  8
CLUSTERS
 10
739669.09910399979
 20
4566576.2081800001
 30
0.0
  0
VERTEX
  5
B6C
  8
CLUSTERS
 10
739579.19958419714
 20
4566549.8865363924
 30
0.0
  0
VERTEX
  5
B6D
  8
CLUSTERS
 10
739492.67099500005
 20
4566576.2081800001
 30
0.0
  0
SEQEND
  5
B6E
  8
CLUSTERS
  0
POLYLINE
  5
A9
  8
CLUSTERS
 66
     1
 10
0.0
 20
0.0
 30
0.0
 70
   129
  0
VERTEX
  5
B6F
  8
CLUSTERS
 10
740398.44228803331
 20
4566319.5571077773
 30
0.0
  0
VERTEX
  5
B70
  8
CLUSTERS
 10
740479.58460603317
 20
4566397.4285277771
 30
0.0
  0
VERTEX
  5
B71
  8
CLUSTERS
 10
740557.55660903326
 20
4566319.5571077773
 30
0.0
  0
VERTEX
  5
B72
  8
CLUSTERS
 10
740479.58460603317
 20
4566238.670877778
 30
0.0
  0
VERTEX
  5
B73
  8
CLUSTERS
 10
740398.44228803331
 20
4566319.5571077773
 30
0.0
  0
SEQEND
  5
B74
  8
CLUSTERS
  0
POLYLINE
  5
AA
  8
CLUSTERS
 66
     1
 10
0.0
 20
0.0
 30
0.0
 70
   129
  0
VERTEX
  5
B75
  8
CLUSTERS
 10
738986.63679699996
 20
4566375.4646800002
 30
0.0
  0
VERTEX
  5
B76
  8
CLUSTERS
 10
738979.99351399986
 20
4566475.8364299992
 30
0.0
  0
VERTEX
  5
B77
  8
CLUSTERS
 10
739068.783069
 20
4566563.1381100006
 30
0.0
  0
VERTEX
  5
B78
  8
CLUSTERS
 10
739156.37858599995
 20
4566475.8364299992
 30
0.0
  0
VERTEX
  5
B79
  8
CLUSTERS
 10
739149.46361699991
 20
4566375.4646800002
 30
0.0
  0
VERTEX
  5
B7A
  8
CLUSTERS
 10
739068.783069
 20
4566293.3374699987
 30
0.0
  0
VERTEX
  5
B7B
  8
CLUSTERS
 10
738986.63679699996
 20
4566375.4646800002
 30
0.0
  0
SEQEND
  5
B7C
  8
CLUSTERS
  0
POLYLINE
  5
AB
  8
CLUSTERS
 66
     1
 10
0.0
 20
0.0
 30
0.0
 70
   129
  0
VERTEX
  5
B7D
  8
CLUSTERS
 10
739588.032672
 20
4566275.092939999
 30
0.0
  0
VERTEX
  5
B7E
  8
CLUSTERS
 10
739573.79757899966
 20
4566375.4646800002
 30
0.0
  0
VERTEX
  5
B7F
  8
CLUSTERS
 10
739671.95767199981
 20
4566472.198189999
 30
0.0
  0
VERTEX
  5
B80
  8
CLUSTERS
 10
739772.48677199997
 20
4566473.2348600011
 30
0.0
  0
VERTEX
  5
B81
  8
CLUSTERS
 10
739870.11601999984
 20
4566375.4646800002
 30
0.0
  0
VERTEX
  5
B82
  8
CLUSTERS
 10
739840.84049899993
 20
4566275.092939999
 30
0.0
  0
VERTEX
  5
B83
  8
CLUSTERS
 10
739772.48677199997
 20
4566206.6753200013
 30
0.0
  0
VERTEX
  5
B84
  8
CLUSTERS
 10
739671.95767199981
 20
4566193.2956600003
 30
0.0
  0
VERTEX
  5
B85
  8
CLUSTERS
 10
739588.032672
 20
4566275.092939999
 30
0.0
  0
SEQEND
  5
B86
  8
CLUSTERS
  0
POLYLINE
  5
AC
  8
CLUSTERS
 66
     1
 10
0.0
 20
0.0
 30
0.0
 70
   129
  0
VERTEX
  5
B87
  8
CLUSTERS
 10
740344.5943019999
 20
4565508.939389999
 30
0.0
  0
VERTEX
  5
B88
  8
CLUSTERS
 10
740410.39238900004
 20
4565572.4907100014
 30
0.0
  0
VERTEX
  5
B89
  8
CLUSTERS
 10
740474.04512799985
 20
4565508.939389999
 30
0.0
  0
VERTEX
  5
B8A
  8
CLUSTERS
 10
740410.39238900004
 20
4565409.5993600003
 30
0.0
  0
VERTEX
  5
B8B
  8
CLUSTERS
 10
740344.5943019999
 20
4565508.939389999
 30
0.0
  0
SEQEND
  5
B8C
  8
CLUSTERS
  0
POLYLINE
  5
AD
  8
CLUSTERS
 66
     1
 10
0.0
 20
0.0
 30
0.0
 70
   129
  0
VERTEX
  5
B8D
  8
CLUSTERS
 10
738180.39102900005
 20
4565572.4907100014
 30
0.0
  0
VERTEX
  5
B8E
  8
CLUSTERS
 10
738195.83489299985
 20
4565672.862449999
 30
0.0
  0
VERTEX
  5
B8F
  8
CLUSTERS
 10
738164.02116400015
 20
4565688.5862500006
 30
0.0
  0
VERTEX
  5
B90
  8
CLUSTERS
 10
738080.17514800013
 20
4565773.2341999998
 30
0.0
  0
VERTEX
  5
B91
  8
CLUSTERS
 10
738164.02116400015
 20
4565856.4788999986
 30
0.0
  0
VERTEX
  5
B92
  8
CLUSTERS
 10
738247.64139999985
 20
4565773.2341999998
 30
0.0
  0
VERTEX
  5
B93
  8
CLUSTERS
 10
738264.55026499985
 20
4565739.5993900001
 30
0.0
  0
VERTEX
  5
B94
  8
CLUSTERS
 10
738331.81140000024
 20
4565672.862449999
 30
0.0
  0
VERTEX
  5
B95
  8
CLUSTERS
 10
738348.47228900006
 20
4565572.4907100014
 30
0.0
  0
VERTEX
  5
B96
  8
CLUSTERS
 10
738264.55026499985
 20
4565488.156919999
 30
0.0
  0
VERTEX
  5
B97
  8
CLUSTERS
 10
738180.39102900005
 20
4565572.4907100014
 30
0.0
  0
SEQEND
  5
B98
  8
CLUSTERS
  0
POLYLINE
  5
AE
  8
CLUSTERS
 66
     1
 10
0.0
 20
0.0
 30
0.0
 70
   129
  0
VERTEX
  5
B99
  8
CLUSTERS
 10
740922.14202491066
 20
4565457.1330861431
 30
0.0
  0
VERTEX
  5
B9A
  8
CLUSTERS
 10
741021.10576791025
 20
4565551.0235961424
 30
0.0
  0
VERTEX
  5
B9B
  8
CLUSTERS
 10
741115.11856891064
 20
4565457.1330861431
 30
0.0
  0
VERTEX
  5
B9C
  8
CLUSTERS
 10
741021.10576791025
 20
4565360.3293361422
 30
0.0
  0
VERTEX
  5
B9D
  8
CLUSTERS
 10
740922.14202491066
 20
4565457.1330861431
 30
0.0
  0
SEQEND
  5
B9E
  8
CLUSTERS
  0
POLYLINE
  5
AF
  8
CLUSTERS
 66
     1
 10
0.0
 20
0.0
 30
0.0
 70
   129
  0
VERTEX
  5
B9F
  8
CLUSTERS
 10
736815.81580500002
 20
4565472.1189599987
 30
0.0
  0
VERTEX
  5
BA0
  8
CLUSTERS
 10
736757.80787899997
 20
4565572.4907100014
 30
0.0
  0
VERTEX
  5
BA1
  8
CLUSTERS
 10
736759.08525
 20
4565672.862449999
 30
0.0
  0
VERTEX
  5
BA2
  8
CLUSTERS
 10
736787.84870500013
 20
4565773.2341999998
 30
0.0
  0
VERTEX
  5
BA3
  8
CLUSTERS
 10
736857.142857
 20
4565841.8401199998
 30
0.0
  0
VERTEX
  5
BA4
  8
CLUSTERS
 10
736957.67195800005
 20
4565861.5013800003
 30
0.0
  0
VERTEX
  5
BA5
  8
CLUSTERS
 10
737046.66150499985
 20
4565773.2341999998
 30
0.0
  0
VERTEX
  5
BA6
  8
CLUSTERS
 10
737057.56992899987
 20
4565672.862449999
 30
0.0
  0
VERTEX
  5
BA7
  8
CLUSTERS
 10
737057.65389899979
 20
4565572.4907100014
 30
0.0
  0
VERTEX
  5
BA8
  8
CLUSTERS
 10
736958.50203800004
 20
4565472.1189599987
 30
0.0
  0
VERTEX
  5
BA9
  8
CLUSTERS
 10
736957.67195800005
 20
4565471.3699700003
 30
0.0
  0
VERTEX
  5
BAA
  8
CLUSTERS
 10
736857.142857
 20
4565432.4518600004
 30
0.0
  0
VERTEX
  5
BAB
  8
CLUSTERS
 10
736815.81580500002
 20
4565472.1189599987
 30
0.0
  0
SEQEND
  5
BAC
  8
CLUSTERS
  0
POLYLINE
  5
B0
  8
CLUSTERS
 66
     1
 10
0.0
 20
0.0
 30
0.0
 70
   129
  0
VERTEX
  5
BAD
  8
CLUSTERS
 10
737074.72341000033
 20
4565271.3754599998
 30
0.0
  0
VERTEX
  5
BAE
  8
CLUSTERS
 10
737091.01407800021
 20
4565371.7472099997
 30
0.0
  0
VERTEX
  5
BAF
  8
CLUSTERS
 10
737158.73015900003
 20
4565439.1525900001
 30
0.0
  0
VERTEX
  5
BB0
  8
CLUSTERS
 10
737259.25925899995
 20
4565455.3128300011
 30
0.0
  0
VERTEX
  5
BB1
  8
CLUSTERS
 10
737342.93683799985
 20
4565371.7472099997
 30
0.0
  0
VERTEX
  5
BB2
  8
CLUSTERS
 10
737259.25925899995
 20
4565287.540049999
 30
0.0
  0
VERTEX
  5
BB3
  8
CLUSTERS
 10
737243.16172400012
 20
4565271.3754599998
 30
0.0
  0
VERTEX
  5
BB4
  8
CLUSTERS
 10
737158.73015900003
 20
4565187.3166500013
 30
0.0
  0
VERTEX
  5
BB5
  8
CLUSTERS
 10
737074.72341000033
 20
4565271.3754599998
 30
0.0
  0
SEQEND
  5
BB6
  8
CLUSTERS
  0
POLYLINE
  5
B1
  8
CLUSTERS
 66
     1
 10
0.0
 20
0.0
 30
0.0
 70
   129
  0
VERTEX
  5
BB7
  8
CLUSTERS
 10
741784.769355
 20
4564970.2602199987
 30
0.0
  0
VERTEX
  5
BB8
  8
CLUSTERS
 10
741783.06878300023
 20
4564970.3192499997
 30
0.0
  0
VERTEX
  5
BB9
  8
CLUSTERS
 10
741747.00935639266
 20
4565041.0777001129
 30
0.0
  0
VERTEX
  5
BBA
  8
CLUSTERS
 10
741715.44831947354
 20
4565119.9353108983
 30
0.0
  0
VERTEX
  5
BBB
  8
CLUSTERS
 10
741683.88728255464
 20
4565225.0787919397
 30
0.0
  0
VERTEX
  5
BBC
  8
CLUSTERS
 10
741657.58646189782
 20
4565303.9364027232
 30
0.0
  0
VERTEX
  5
BBD
  8
CLUSTERS
 10
741673.36698035744
 20
4565403.8227356467
 30
0.0
  0
VERTEX
  5
BBE
  8
CLUSTERS
 10
741682.53968299995
 20
4565470.7763899993
 30
0.0
  0
VERTEX
  5
BBF
  8
CLUSTERS
 10
741684.00645200012
 20
4565472.1189599987
 30
0.0
  0
VERTEX
  5
BC0
  8
CLUSTERS
 10
741783.06878300023
 20
4565552.4090900002
 30
0.0
  0
VERTEX
  5
BC1
  8
CLUSTERS
 10
741883.59788399981
 20
4565563.1370900003
 30
0.0
  0
VERTEX
  5
BC2
  8
CLUSTERS
 10
741984.12698399986
 20
4565548.56171
 30
0.0
  0
VERTEX
  5
BC3
  8
CLUSTERS
 10
742078.8136489999
 20
4565472.1189599987
 30
0.0
  0
VERTEX
  5
BC4
  8
CLUSTERS
 10
742084.65608500026
 20
4565466.8543800004
 30
0.0
  0
VERTEX
  5
BC5
  8
CLUSTERS
 10
742165.48766700004
 20
4565371.7472099997
 30
0.0
  0
VERTEX
  5
BC6
  8
CLUSTERS
 10
742180.79271899979
 20
4565271.3754599998
 30
0.0
  0
VERTEX
  5
BC7
  8
CLUSTERS
 10
742172.73148299998
 20
4565171.0037200004
 30
0.0
  0
VERTEX
  5
BC8
  8
CLUSTERS
 10
742104.82558399998
 20
4565070.6319700023
 30
0.0
  0
VERTEX
  5
BC9
  8
CLUSTERS
 10
742084.65608500026
 20
4565049.9340700014
 30
0.0
  0
VERTEX
  5
BCA
  8
CLUSTERS
 10
741984.12698399986
 20
4564977.4041500008
 30
0.0
  0
VERTEX
  5
BCB
  8
CLUSTERS
 10
741936.622431
 20
4564970.2602199987
 30
0.0
  0
VERTEX
  5
BCC
  8
CLUSTERS
 10
741883.59788399981
 20
4564946.9015799994
 30
0.0
  0
VERTEX
  5
BCD
  8
CLUSTERS
 10
741784.769355
 20
4564970.2602199987
 30
0.0
  0
SEQEND
  5
BCE
  8
CLUSTERS
  0
POLYLINE
  5
B2
  8
CLUSTERS
 66
     1
 10
0.0
 20
0.0
 30
0.0
 70
   129
  0
VERTEX
  5
BCF
  8
CLUSTERS
 10
736855.47418000002
 20
4564970.2602199987
 30
0.0
  0
VERTEX
  5
BD0
  8
CLUSTERS
 10
736781.7454919999
 20
4565070.6319700023
 30
0.0
  0
VERTEX
  5
BD1
  8
CLUSTERS
 10
736857.142857
 20
4565145.8075900003
 30
0.0
  0
VERTEX
  5
BD2
  8
CLUSTERS
 10
736957.67195800005
 20
4565145.7710899999
 30
0.0
  0
VERTEX
  5
BD3
  8
CLUSTERS
 10
737032.93482800014
 20
4565070.6319700023
 30
0.0
  0
VERTEX
  5
BD4
  8
CLUSTERS
 10
736957.67195800005
 20
4564995.14059
 30
0.0
  0
VERTEX
  5
BD5
  8
CLUSTERS
 10
736858.83018499997
 20
4564970.2602199987
 30
0.0
  0
VERTEX
  5
BD6
  8
CLUSTERS
 10
736857.142857
 20
4564968.5696400004
 30
0.0
  0
VERTEX
  5
BD7
  8
CLUSTERS
 10
736855.47418000002
 20
4564970.2602199987
 30
0.0
  0
SEQEND
  5
BD8
  8
CLUSTERS
  0
POLYLINE
  5
B3
  8
CLUSTERS
 66
     1
 10
0.0
 20
0.0
 30
0.0
 70
   129
  0
VERTEX
  5
BD9
  8
CLUSTERS
 10
741137.48235399998
 20
4564869.8884799993
 30
0.0
  0
VERTEX
  5
BDA
  8
CLUSTERS
 10
741079.36507900013
 20
4564894.2511100005
 30
0.0
  0
VERTEX
  5
BDB
  8
CLUSTERS
 10
741017.0019589999
 20
4564970.2602199987
 30
0.0
  0
VERTEX
  5
BDC
  8
CLUSTERS
 10
741020.72208400001
 20
4565070.6319700023
 30
0.0
  0
VERTEX
  5
BDD
  8
CLUSTERS
 10
741030.40802600025
 20
4565171.0037200004
 30
0.0
  0
VERTEX
  5
BDE
  8
CLUSTERS
 10
741079.36507900013
 20
4565218.0997500001
 30
0.0
  0
VERTEX
  5
BDF
  8
CLUSTERS
 10
741135.54793799995
 20
4565171.0037200004
 30
0.0
  0
VERTEX
  5
BE0
  8
CLUSTERS
 10
741179.89417999994
 20
4565146.9861999992
 30
0.0
  0
VERTEX
  5
BE1
  8
CLUSTERS
 10
741197.22956300003
 20
4565171.0037200004
 30
0.0
  0
VERTEX
  5
BE2
  8
CLUSTERS
 10
741280.42328000022
 20
4565249.6863599988
 30
0.0
  0
VERTEX
  5
BE3
  8
CLUSTERS
 10
741380.95238100016
 20
4565259.7773500001
 30
0.0
  0
VERTEX
  5
BE4
  8
CLUSTERS
 10
741471.9088689998
 20
4565171.0037200004
 30
0.0
  0
VERTEX
  5
BE5
  8
CLUSTERS
 10
741479.7013780002
 20
4565070.6319700023
 30
0.0
  0
VERTEX
  5
BE6
  8
CLUSTERS
 10
741406.81030199991
 20
4564970.2602199987
 30
0.0
  0
VERTEX
  5
BE7
  8
CLUSTERS
 10
741380.95238100016
 20
4564947.1223200001
 30
0.0
  0
VERTEX
  5
BE8
  8
CLUSTERS
 10
741326.39701600012
 20
4564970.2602199987
 30
0.0
  0
VERTEX
  5
BE9
  8
CLUSTERS
 10
741280.42328000022
 20
4564982.8044100003
 30
0.0
  0
VERTEX
  5
BEA
  8
CLUSTERS
 10
741279.87828499998
 20
4564970.2602199987
 30
0.0
  0
VERTEX
  5
BEB
  8
CLUSTERS
 10
741209.89151300024
 20
4564869.8884799993
 30
0.0
  0
VERTEX
  5
BEC
  8
CLUSTERS
 10
741179.89417999994
 20
4564842.8626499986
 30
0.0
  0
VERTEX
  5
BED
  8
CLUSTERS
 10
741137.48235399998
 20
4564869.8884799993
 30
0.0
  0
SEQEND
  5
BEE
  8
CLUSTERS
  0
POLYLINE
  5
B4
  8
CLUSTERS
 66
     1
 10
0.0
 20
0.0
 30
0.0
 70
   129
  0
VERTEX
  5
BEF
  8
CLUSTERS
 10
738180.68261300016
 20
4564869.8884799993
 30
0.0
  0
VERTEX
  5
BF0
  8
CLUSTERS
 10
738264.55026499985
 20
4564953.3496200005
 30
0.0
  0
VERTEX
  5
BF1
  8
CLUSTERS
 10
738348.18943300005
 20
4564869.8884799993
 30
0.0
  0
VERTEX
  5
BF2
  8
CLUSTERS
 10
738264.55026499985
 20
4564785.9672899991
 30
0.0
  0
VERTEX
  5
BF3
  8
CLUSTERS
 10
738180.68261300016
 20
4564869.8884799993
 30
0.0
  0
SEQEND
  5
BF4
  8
CLUSTERS
  0
POLYLINE
  5
B5
  8
CLUSTERS
 66
     1
 10
0.0
 20
0.0
 30
0.0
 70
   129
  0
VERTEX
  5
BF5
  8
CLUSTERS
 10
737290.24227500008
 20
4564869.8884799993
 30
0.0
  0
VERTEX
  5
BF6
  8
CLUSTERS
 10
737270.92042000033
 20
4564970.2602199987
 30
0.0
  0
VERTEX
  5
BF7
  8
CLUSTERS
 10
737359.78836000001
 20
4565059.4426699989
 30
0.0
  0
VERTEX
  5
BF8
  8
CLUSTERS
 10
737375.12630099989
 20
4565070.6319700023
 30
0.0
  0
VERTEX
  5
BF9
  8
CLUSTERS
 10
737460.31746000005
 20
4565154.76951
 30
0.0
  0
VERTEX
  5
BFA
  8
CLUSTERS
 10
737545.79952700005
 20
4565070.6319700023
 30
0.0
  0
VERTEX
  5
BFB
  8
CLUSTERS
 10
737560.8465610001
 20
4565068.5227499986
 30
0.0
  0
VERTEX
  5
BFC
  8
CLUSTERS
 10
737659.21734300011
 20
4564970.2602199987
 30
0.0
  0
VERTEX
  5
BFD
  8
CLUSTERS
 10
737619.40346499998
 20
4564869.8884799993
 30
0.0
  0
VERTEX
  5
BFE
  8
CLUSTERS
 10
737560.8465610001
 20
4564811.5433100006
 30
0.0
  0
VERTEX
  5
BFF
  8
CLUSTERS
 10
737460.31746000005
 20
4564775.3270800002
 30
0.0
  0
VERTEX
  5
C00
  8
CLUSTERS
 10
737359.78836000001
 20
4564800.1315200003
 30
0.0
  0
VERTEX
  5
C01
  8
CLUSTERS
 10
737290.24227500008
 20
4564869.8884799993
 30
0.0
  0
SEQEND
  5
C02
  8
CLUSTERS
  0
POLYLINE
  5
B6
  8
CLUSTERS
 66
     1
 10
0.0
 20
0.0
 30
0.0
 70
   129
  0
VERTEX
  5
C03
  8
CLUSTERS
 10
738797.57539360644
 20
4564630.04008405
 30
0.0
  0
VERTEX
  5
C04
  8
CLUSTERS
 10
738767.19576699985
 20
4564674.83861
 30
0.0
  0
VERTEX
  5
C05
  8
CLUSTERS
 10
738672.91402599995
 20
4564769.5167300003
 30
0.0
  0
VERTEX
  5
C06
  8
CLUSTERS
 10
738767.19576699985
 20
4564864.9703200003
 30
0.0
  0
VERTEX
  5
C07
  8
CLUSTERS
 10
738772.459454
 20
4564869.8884799993
 30
0.0
  0
VERTEX
  5
C08
  8
CLUSTERS
 10
738767.19576699985
 20
4564938.924949998
 30
0.0
  0
VERTEX
  5
C09
  8
CLUSTERS
 10
738672.80566199985
 20
4564970.2602199987
 30
0.0
  0
VERTEX
  5
C0A
  8
CLUSTERS
 10
738666.66666700016
 20
4564970.2886100002
 30
0.0
  0
VERTEX
  5
C0B
  8
CLUSTERS
 10
738566.13756600011
 20
4564987.7515500002
 30
0.0
  0
VERTEX
  5
C0C
  8
CLUSTERS
 10
738484.23735499999
 20
4565070.6319700023
 30
0.0
  0
VERTEX
  5
C0D
  8
CLUSTERS
 10
738465.60846599995
 20
4565077.6554800002
 30
0.0
  0
VERTEX
  5
C0E
  8
CLUSTERS
 10
738365.07936500001
 20
4565094.3421400003
 30
0.0
  0
VERTEX
  5
C0F
  8
CLUSTERS
 10
738289.11574599997
 20
4565171.0037200004
 30
0.0
  0
VERTEX
  5
C10
  8
CLUSTERS
 10
738365.07936500001
 20
4565246.7288600001
 30
0.0
  0
VERTEX
  5
C11
  8
CLUSTERS
 10
738465.60846599995
 20
4565263.2062999997
 30
0.0
  0
VERTEX
  5
C12
  8
CLUSTERS
 10
738558.73963199998
 20
4565171.0037200004
 30
0.0
  0
VERTEX
  5
C13
  8
CLUSTERS
 10
738566.13756600011
 20
4565151.5676199999
 30
0.0
  0
VERTEX
  5
C14
  8
CLUSTERS
 10
738666.66666700016
 20
4565170.0659500007
 30
0.0
  0
VERTEX
  5
C15
  8
CLUSTERS
 10
738682.03927099984
 20
4565171.0037200004
 30
0.0
  0
VERTEX
  5
C16
  8
CLUSTERS
 10
738767.19576699985
 20
4565254.0668799998
 30
0.0
  0
VERTEX
  5
C17
  8
CLUSTERS
 10
738816.37368099997
 20
4565271.3754599998
 30
0.0
  0
VERTEX
  5
C18
  8
CLUSTERS
 10
738779.41513800027
 20
4565371.7472099997
 30
0.0
  0
VERTEX
  5
C19
  8
CLUSTERS
 10
738779.43492899998
 20
4565472.1189599987
 30
0.0
  0
VERTEX
  5
C1A
  8
CLUSTERS
 10
738767.19576699985
 20
4565482.6624699999
 30
0.0
  0
VERTEX
  5
C1B
  8
CLUSTERS
 10
738666.66666700016
 20
4565473.30626
 30
0.0
  0
VERTEX
  5
C1C
  8
CLUSTERS
 10
738655.31124900002
 20
4565472.1189599987
 30
0.0
  0
VERTEX
  5
C1D
  8
CLUSTERS
 10
738619.75649500021
 20
4565371.7472099997
 30
0.0
  0
VERTEX
  5
C1E
  8
CLUSTERS
 10
738566.13756600011
 20
4565318.8361599986
 30
0.0
  0
VERTEX
  5
C1F
  8
CLUSTERS
 10
738487.60188269382
 20
4565390.8529339144
 30
0.0
  0
VERTEX
  5
C20
  8
CLUSTERS
 10
738476.7423420311
 20
4565450.5463211033
 30
0.0
  0
VERTEX
  5
C21
  8
CLUSTERS
 10
738566.13756600011
 20
4565568.5701399986
 30
0.0
  0
VERTEX
  5
C22
  8
CLUSTERS
 10
738566.52023899998
 20
4565572.4907100014
 30
0.0
  0
VERTEX
  5
C23
  8
CLUSTERS
 10
738566.13756600011
 20
4565573.398839999
 30
0.0
  0
VERTEX
  5
C24
  8
CLUSTERS
 10
738470.71942199999
 20
4565672.862449999
 30
0.0
  0
VERTEX
  5
C25
  8
CLUSTERS
 10
738465.60846599995
 20
4565688.6893399991
 30
0.0
  0
VERTEX
  5
C26
  8
CLUSTERS
 10
738384.68722700002
 20
4565773.2341999998
 30
0.0
  0
VERTEX
  5
C27
  8
CLUSTERS
 10
738465.60846599995
 20
4565853.4946299987
 30
0.0
  0
VERTEX
  5
C28
  8
CLUSTERS
 10
738566.13756600011
 20
4565792.6810299996
 30
0.0
  0
VERTEX
  5
C29
  8
CLUSTERS
 10
738666.66666700016
 20
4565860.6334499987
 30
0.0
  0
VERTEX
  5
C2A
  8
CLUSTERS
 10
738767.19576699985
 20
4565863.9064100003
 30
0.0
  0
VERTEX
  5
C2B
  8
CLUSTERS
 10
738867.72486800014
 20
4565869.9717999985
 30
0.0
  0
VERTEX
  5
C2C
  8
CLUSTERS
 10
738878.30035499996
 20
4565873.6059499998
 30
0.0
  0
VERTEX
  5
C2D
  8
CLUSTERS
 10
738968.25396799983
 20
4565960.8200700004
 30
0.0
  0
VERTEX
  5
C2E
  8
CLUSTERS
 10
739068.783069
 20
4565955.9266999997
 30
0.0
  0
VERTEX
  5
C2F
  8
CLUSTERS
 10
739154.33045199979
 20
4565873.6059499998
 30
0.0
  0
VERTEX
  5
C30
  8
CLUSTERS
 10
739169.31216900016
 20
4565863.4011000004
 30
0.0
  0
VERTEX
  5
C31
  8
CLUSTERS
 10
739262.69586899993
 20
4565773.2341999998
 30
0.0
  0
VERTEX
  5
C32
  8
CLUSTERS
 10
739269.84126999974
 20
4565734.1784899998
 30
0.0
  0
VERTEX
  5
C33
  8
CLUSTERS
 10
739319.88216299983
 20
4565672.862449999
 30
0.0
  0
VERTEX
  5
C34
  8
CLUSTERS
 10
739322.11059399985
 20
4565572.4907100014
 30
0.0
  0
VERTEX
  5
C35
  8
CLUSTERS
 10
739269.84126999974
 20
4565492.2781899991
 30
0.0
  0
VERTEX
  5
C36
  8
CLUSTERS
 10
739265.72876100033
 20
4565472.1189599987
 30
0.0
  0
VERTEX
  5
C37
  8
CLUSTERS
 10
739199.71735799999
 20
4565371.7472099997
 30
0.0
  0
VERTEX
  5
C38
  8
CLUSTERS
 10
739267.07822200004
 20
4565271.3754599998
 30
0.0
  0
VERTEX
  5
C39
  8
CLUSTERS
 10
739269.84126999974
 20
4565242.1113000009
 30
0.0
  0
VERTEX
  5
C3A
  8
CLUSTERS
 10
739324.61054300005
 20
4565171.0037200004
 30
0.0
  0
VERTEX
  5
C3B
  8
CLUSTERS
 10
739338.91301500006
 20
4565070.6319700023
 30
0.0
  0
VERTEX
  5
C3C
  8
CLUSTERS
 10
739278.98581399966
 20
4564970.2602199987
 30
0.0
  0
VERTEX
  5
C3D
  8
CLUSTERS
 10
739269.84126999974
 20
4564960.7804199997
 30
0.0
  0
VERTEX
  5
C3E
  8
CLUSTERS
 10
739169.31216900016
 20
4564876.6330300001
 30
0.0
  0
VERTEX
  5
C3F
  8
CLUSTERS
 10
739068.783069
 20
4564880.9932500003
 30
0.0
  0
VERTEX
  5
C40
  8
CLUSTERS
 10
738968.25396799983
 20
4564913.7066500001
 30
0.0
  0
VERTEX
  5
C41
  8
CLUSTERS
 10
738962.962313
 20
4564869.8884799993
 30
0.0
  0
VERTEX
  5
C42
  8
CLUSTERS
 10
738965.02219400008
 20
4564769.5167300003
 30
0.0
  0
VERTEX
  5
C43
  8
CLUSTERS
 10
738924.99302500021
 20
4564669.1449800003
 30
0.0
  0
VERTEX
  5
C44
  8
CLUSTERS
 10
738859.11270381149
 20
4564572.1556345318
 30
0.0
  0
VERTEX
  5
C45
  8
CLUSTERS
 10
738797.57539360644
 20
4564630.04008405
 30
0.0
  0
SEQEND
  5
C46
  8
CLUSTERS
  0
POLYLINE
  5
B7
  8
CLUSTERS
 66
     1
 10
0.0
 20
0.0
 30
0.0
 70
   129
  0
VERTEX
  5
C47
  8
CLUSTERS
 10
736579.07958000025
 20
4564669.1449800003
 30
0.0
  0
VERTEX
  5
C48
  8
CLUSTERS
 10
736555.55555600033
 20
4564692.8540099999
 30
0.0
  0
VERTEX
  5
C49
  8
CLUSTERS
 10
736479.05205000006
 20
4564769.5167300003
 30
0.0
  0
VERTEX
  5
C4A
  8
CLUSTERS
 10
736458.86363299994
 20
4564869.8884799993
 30
0.0
  0
VERTEX
  5
C4B
  8
CLUSTERS
 10
736471.60223600012
 20
4564970.2602199987
 30
0.0
  0
VERTEX
  5
C4C
  8
CLUSTERS
 10
736555.55555600033
 20
4565053.8975400003
 30
0.0
  0
VERTEX
  5
C4D
  8
CLUSTERS
 10
736639.55700199993
 20
4564970.2602199987
 30
0.0
  0
VERTEX
  5
C4E
  8
CLUSTERS
 10
736656.08465600002
 20
4564937.8378499998
 30
0.0
  0
VERTEX
  5
C4F
  8
CLUSTERS
 10
736725.50114399998
 20
4564869.8884799993
 30
0.0
  0
VERTEX
  5
C50
  8
CLUSTERS
 10
736756.61375699996
 20
4564868.6653199987
 30
0.0
  0
VERTEX
  5
C51
  8
CLUSTERS
 10
736855.95413300022
 20
4564769.5167300003
 30
0.0
  0
VERTEX
  5
C52
  8
CLUSTERS
 10
736854.71892799984
 20
4564669.1449800003
 30
0.0
  0
VERTEX
  5
C53
  8
CLUSTERS
 10
736756.61375699996
 20
4564571.0397499986
 30
0.0
  0
VERTEX
  5
C54
  8
CLUSTERS
 10
736656.08465600002
 20
4564592.2040799987
 30
0.0
  0
VERTEX
  5
C55
  8
CLUSTERS
 10
736579.07958000025
 20
4564669.1449800003
 30
0.0
  0
SEQEND
  5
C56
  8
CLUSTERS
  0
POLYLINE
  5
B8
  8
CLUSTERS
 66
     1
 10
0.0
 20
0.0
 30
0.0
 70
   129
  0
VERTEX
  5
C57
  8
CLUSTERS
 10
738246.57047381916
 20
4564413.6836257055
 30
0.0
  0
VERTEX
  5
C58
  8
CLUSTERS
 10
738332.88164381916
 20
4564499.5887857061
 30
0.0
  0
VERTEX
  5
C59
  8
CLUSTERS
 10
738418.91506181902
 20
4564413.6836257055
 30
0.0
  0
VERTEX
  5
C5A
  8
CLUSTERS
 10
738332.88164381916
 20
4564327.4116457049
 30
0.0
  0
VERTEX
  5
C5B
  8
CLUSTERS
 10
738246.57047381916
 20
4564413.6836257055
 30
0.0
  0
SEQEND
  5
C5C
  8
CLUSTERS
  0
POLYLINE
  5
B9
  8
CLUSTERS
 66
     1
 10
0.0
 20
0.0
 30
0.0
 70
   129
  0
VERTEX
  5
C5D
  8
CLUSTERS
 10
739449.56313929916
 20
4563966.8914028639
 30
0.0
  0
VERTEX
  5
C5E
  8
CLUSTERS
 10
739467.25955429918
 20
4564067.2631528629
 30
0.0
  0
VERTEX
  5
C5F
  8
CLUSTERS
 10
739516.42013729946
 20
4564115.8150928626
 30
0.0
  0
VERTEX
  5
C60
  8
CLUSTERS
 10
739565.06174429925
 20
4564067.2631528629
 30
0.0
  0
VERTEX
  5
C61
  8
CLUSTERS
 10
739582.57907229941
 20
4563966.8914028639
 30
0.0
  0
VERTEX
  5
C62
  8
CLUSTERS
 10
739516.42013729946
 20
4563900.4232928641
 30
0.0
  0
VERTEX
  5
C63
  8
CLUSTERS
 10
739449.56313929916
 20
4563966.8914028639
 30
0.0
  0
SEQEND
  5
C64
  8
CLUSTERS
  0
POLYLINE
  5
BA
  8
CLUSTERS
 66
     1
 10
0.0
 20
0.0
 30
0.0
 70
   129
  0
VERTEX
  5
C65
  8
CLUSTERS
 10
732530.3077005822
 20
4563709.7603086634
 30
0.0
  0
VERTEX
  5
C66
  8
CLUSTERS
 10
732630.57953658234
 20
4563789.8702886635
 30
0.0
  0
VERTEX
  5
C67
  8
CLUSTERS
 10
732711.00755858235
 20
4563709.7603086634
 30
0.0
  0
VERTEX
  5
C68
  8
CLUSTERS
 10
732630.57953658234
 20
4563629.4241486639
 30
0.0
  0
VERTEX
  5
C69
  8
CLUSTERS
 10
732530.3077005822
 20
4563709.7603086634
 30
0.0
  0
SEQEND
  5
C6A
  8
CLUSTERS
  0
POLYLINE
  5
BB
  8
CLUSTERS
 66
     1
 10
0.0
 20
0.0
 30
0.0
 70
   129
  0
VERTEX
  5
C6B
  8
CLUSTERS
 10
740499.13239200006
 20
4563163.5687699998
 30
0.0
  0
VERTEX
  5
C6C
  8
CLUSTERS
 10
740476.19047599984
 20
4563171.0026900005
 30
0.0
  0
VERTEX
  5
C6D
  8
CLUSTERS
 10
740390.52419100003
 20
4563263.9405199997
 30
0.0
  0
VERTEX
  5
C6E
  8
CLUSTERS
 10
740379.54274400021
 20
4563364.3122699996
 30
0.0
  0
VERTEX
  5
C6F
  8
CLUSTERS
 10
740442.96629699995
 20
4563464.68401
 30
0.0
  0
VERTEX
  5
C70
  8
CLUSTERS
 10
740476.19047599984
 20
4563496.5649499986
 30
0.0
  0
VERTEX
  5
C71
  8
CLUSTERS
 10
740576.71957700013
 20
4563537.9928700002
 30
0.0
  0
VERTEX
  5
C72
  8
CLUSTERS
 10
740677.24867699982
 20
4563513.5548
 30
0.0
  0
VERTEX
  5
C73
  8
CLUSTERS
 10
740686.38753499999
 20
4563565.0557599999
 30
0.0
  0
VERTEX
  5
C74
  8
CLUSTERS
 10
740777.77777800011
 20
4563651.6157499999
 30
0.0
  0
VERTEX
  5
C75
  8
CLUSTERS
 10
740878.30687800003
 20
4563639.8083199989
 30
0.0
  0
VERTEX
  5
C76
  8
CLUSTERS
 10
740952.94661400001
 20
4563565.0557599999
 30
0.0
  0
VERTEX
  5
C77
  8
CLUSTERS
 10
740878.30687800003
 20
4563487.58079
 30
0.0
  0
VERTEX
  5
C78
  8
CLUSTERS
 10
740777.77777800011
 20
4563472.04715
 30
0.0
  0
VERTEX
  5
C79
  8
CLUSTERS
 10
740732.05433499999
 20
4563464.68401
 30
0.0
  0
VERTEX
  5
C7A
  8
CLUSTERS
 10
740777.77777800011
 20
4563461.5149900001
 30
0.0
  0
VERTEX
  5
C7B
  8
CLUSTERS
 10
740872.89662100025
 20
4563364.3122699996
 30
0.0
  0
VERTEX
  5
C7C
  8
CLUSTERS
 10
740799.29451599997
 20
4563263.9405199997
 30
0.0
  0
VERTEX
  5
C7D
  8
CLUSTERS
 10
740878.30687800003
 20
4563257.1103699999
 30
0.0
  0
VERTEX
  5
C7E
  8
CLUSTERS
 10
740970.61832400004
 20
4563163.5687699998
 30
0.0
  0
VERTEX
  5
C7F
  8
CLUSTERS
 10
740878.30687800003
 20
4563070.1187500004
 30
0.0
  0
VERTEX
  5
C80
  8
CLUSTERS
 10
740777.77777800011
 20
4563065.2467199992
 30
0.0
  0
VERTEX
  5
C81
  8
CLUSTERS
 10
740677.24867699982
 20
4563092.8848299989
 30
0.0
  0
VERTEX
  5
C82
  8
CLUSTERS
 10
740576.71957700013
 20
4563108.17992
 30
0.0
  0
VERTEX
  5
C83
  8
CLUSTERS
 10
740499.13239200006
 20
4563163.5687699998
 30
0.0
  0
SEQEND
  5
C84
  8
CLUSTERS
  0
POLYLINE
  5
BC
  8
CLUSTERS
 66
     1
 10
0.0
 20
0.0
 30
0.0
 70
   129
  0
VERTEX
  5
C85
  8
CLUSTERS
 10
730532.52327699983
 20
4563063.1970300004
 30
0.0
  0
VERTEX
  5
C86
  8
CLUSTERS
 10
730542.08640300005
 20
4563163.5687699998
 30
0.0
  0
VERTEX
  5
C87
  8
CLUSTERS
 10
730624.33862399985
 20
4563245.0421000002
 30
0.0
  0
VERTEX
  5
C88
  8
CLUSTERS
 10
730724.86772500002
 20
4563261.7658500001
 30
0.0
  0
VERTEX
  5
C89
  8
CLUSTERS
 10
730824.74954100023
 20
4563163.5687699998
 30
0.0
  0
VERTEX
  5
C8A
  8
CLUSTERS
 10
730824.19522999984
 20
4563063.1970300004
 30
0.0
  0
VERTEX
  5
C8B
  8
CLUSTERS
 10
730724.86772500002
 20
4562965.1085599996
 30
0.0
  0
VERTEX
  5
C8C
  8
CLUSTERS
 10
730624.33862399985
 20
4562971.3562200004
 30
0.0
  0
VERTEX
  5
C8D
  8
CLUSTERS
 10
730532.52327699983
 20
4563063.1970300004
 30
0.0
  0
SEQEND
  5
C8E
  8
CLUSTERS
  0
POLYLINE
  5
BD
  8
CLUSTERS
 66
     1
 10
0.0
 20
0.0
 30
0.0
 70
   129
  0
VERTEX
  5
C8F
  8
CLUSTERS
 10
737183.83640399994
 20
4562962.8252800005
 30
0.0
  0
VERTEX
  5
C90
  8
CLUSTERS
 10
737178.83331100014
 20
4563063.1970300004
 30
0.0
  0
VERTEX
  5
C91
  8
CLUSTERS
 10
737259.25925899995
 20
4563143.4542699987
 30
0.0
  0
VERTEX
  5
C92
  8
CLUSTERS
 10
737339.65468299994
 20
4563063.1970300004
 30
0.0
  0
VERTEX
  5
C93
  8
CLUSTERS
 10
737334.65455500013
 20
4562962.8252800005
 30
0.0
  0
VERTEX
  5
C94
  8
CLUSTERS
 10
737259.25925899995
 20
4562887.5091500003
 30
0.0
  0
VERTEX
  5
C95
  8
CLUSTERS
 10
737183.83640399994
 20
4562962.8252800005
 30
0.0
  0
SEQEND
  5
C96
  8
CLUSTERS
  0
POLYLINE
  5
BE
  8
CLUSTERS
 66
     1
 10
0.0
 20
0.0
 30
0.0
 70
   129
  0
VERTEX
  5
C97
  8
CLUSTERS
 10
733372.19017399976
 20
4562962.8252800005
 30
0.0
  0
VERTEX
  5
C98
  8
CLUSTERS
 10
733372.24160499999
 20
4563063.1970300004
 30
0.0
  0
VERTEX
  5
C99
  8
CLUSTERS
 10
733439.1534389999
 20
4563130.0343900006
 30
0.0
  0
VERTEX
  5
C9A
  8
CLUSTERS
 10
733506.11109199992
 20
4563063.1970300004
 30
0.0
  0
VERTEX
  5
C9B
  8
CLUSTERS
 10
733506.19628100016
 20
4562962.8252800005
 30
0.0
  0
VERTEX
  5
C9C
  8
CLUSTERS
 10
733439.1534389999
 20
4562895.9148399988
 30
0.0
  0
VERTEX
  5
C9D
  8
CLUSTERS
 10
733372.19017399976
 20
4562962.8252800005
 30
0.0
  0
SEQEND
  5
C9E
  8
CLUSTERS
  0
POLYLINE
  5
BF
  8
CLUSTERS
 66
     1
 10
0.0
 20
0.0
 30
0.0
 70
   129
  0
VERTEX
  5
C9F
  8
CLUSTERS
 10
733545.24089599994
 20
4562862.4535299996
 30
0.0
  0
VERTEX
  5
CA0
  8
CLUSTERS
 10
733640.21164000011
 20
4562957.2674399987
 30
0.0
  0
VERTEX
  5
CA1
  8
CLUSTERS
 10
733735.21305799985
 20
4562862.4535299996
 30
0.0
  0
VERTEX
  5
CA2
  8
CLUSTERS
 10
733640.21164000011
 20
4562767.58818
 30
0.0
  0
VERTEX
  5
CA3
  8
CLUSTERS
 10
733545.24089599994
 20
4562862.4535299996
 30
0.0
  0
SEQEND
  5
CA4
  8
CLUSTERS
  0
POLYLINE
  5
C0
  8
CLUSTERS
 66
     1
 10
0.0
 20
0.0
 30
0.0
 70
   129
  0
VERTEX
  5
CA5
  8
CLUSTERS
 10
733837.03363399592
 20
4562733.1287337597
 30
0.0
  0
VERTEX
  5
CA6
  8
CLUSTERS
 10
733941.79894200026
 20
4562845.7074699998
 30
0.0
  0
VERTEX
  5
CA7
  8
CLUSTERS
 10
734025.57432500005
 20
4562762.0817799987
 30
0.0
  0
VERTEX
  5
CA8
  8
CLUSTERS
 10
733941.79894200026
 20
4562678.4250100004
 30
0.0
  0
VERTEX
  5
CA9
  8
CLUSTERS
 10
733837.03363399592
 20
4562733.1287337597
 30
0.0
  0
SEQEND
  5
CAA
  8
CLUSTERS
  0
POLYLINE
  5
C1
  8
CLUSTERS
 66
     1
 10
0.0
 20
0.0
 30
0.0
 70
   129
  0
VERTEX
  5
CAB
  8
CLUSTERS
 10
729927.79214699985
 20
4562762.0817799987
 30
0.0
  0
VERTEX
  5
CAC
  8
CLUSTERS
 10
729920.63492100022
 20
4562859.4891799996
 30
0.0
  0
VERTEX
  5
CAD
  8
CLUSTERS
 10
729918.63621700008
 20
4562862.4535299996
 30
0.0
  0
VERTEX
  5
CAE
  8
CLUSTERS
 10
729894.46376499999
 20
4562962.8252800005
 30
0.0
  0
VERTEX
  5
CAF
  8
CLUSTERS
 10
729920.63492100022
 20
4563017.6010600012
 30
0.0
  0
VERTEX
  5
CB0
  8
CLUSTERS
 10
729926.60799199983
 20
4563063.1970300004
 30
0.0
  0
VERTEX
  5
CB1
  8
CLUSTERS
 10
730003.82054999995
 20
4563163.5687699998
 30
0.0
  0
VERTEX
  5
CB2
  8
CLUSTERS
 10
730021.16402100015
 20
4563179.4151499989
 30
0.0
  0
VERTEX
  5
CB3
  8
CLUSTERS
 10
730121.69312199985
 20
4563245.4417299991
 30
0.0
  0
VERTEX
  5
CB4
  8
CLUSTERS
 10
730222.22222200001
 20
4563237.7667899998
 30
0.0
  0
VERTEX
  5
CB5
  8
CLUSTERS
 10
730318.23866999999
 20
4563163.5687699998
 30
0.0
  0
VERTEX
  5
CB6
  8
CLUSTERS
 10
730322.7513230003
 20
4563161.8575499989
 30
0.0
  0
VERTEX
  5
CB7
  8
CLUSTERS
 10
730314.90988386935
 20
4563069.637560213
 30
0.0
  0
VERTEX
  5
CB8
  8
CLUSTERS
 10
730320.16996980505
 20
4562969.7512272894
 30
0.0
  0
VERTEX
  5
CB9
  8
CLUSTERS
 10
730418.05454400007
 20
4562862.4535299996
 30
0.0
  0
VERTEX
  5
CBA
  8
CLUSTERS
 10
730416.75901399984
 20
4562762.0817799987
 30
0.0
  0
VERTEX
  5
CBB
  8
CLUSTERS
 10
730322.7513230003
 20
4562668.5311199985
 30
0.0
  0
VERTEX
  5
CBC
  8
CLUSTERS
 10
730222.22222200001
 20
4562662.7103300001
 30
0.0
  0
VERTEX
  5
CBD
  8
CLUSTERS
 10
730121.69312199985
 20
4562667.2972099986
 30
0.0
  0
VERTEX
  5
CBE
  8
CLUSTERS
 10
730021.16402100015
 20
4562669.4579400001
 30
0.0
  0
VERTEX
  5
CBF
  8
CLUSTERS
 10
729927.79214699985
 20
4562762.0817799987
 30
0.0
  0
SEQEND
  5
CC0
  8
CLUSTERS
  0
POLYLINE
  5
C2
  8
CLUSTERS
 66
     1
 10
0.0
 20
0.0
 30
0.0
 70
   129
  0
VERTEX
  5
CC1
  8
CLUSTERS
 10
741072.71849586535
 20
4562696.4752816884
 30
0.0
  0
VERTEX
  5
CC2
  8
CLUSTERS
 10
741161.30872800015
 20
4562762.0817799987
 30
0.0
  0
VERTEX
  5
CC3
  8
CLUSTERS
 10
741179.89417999994
 20
4562780.3283900004
 30
0.0
  0
VERTEX
  5
CC4
  8
CLUSTERS
 10
741280.42328000022
 20
4562849.5398199996
 30
0.0
  0
VERTEX
  5
CC5
  8
CLUSTERS
 10
741312.54935999995
 20
4562862.4535299996
 30
0.0
  0
VERTEX
  5
CC6
  8
CLUSTERS
 10
741380.95238100016
 20
4562926.7495100005
 30
0.0
  0
VERTEX
  5
CC7
  8
CLUSTERS
 10
741445.22175799985
 20
4562862.4535299996
 30
0.0
  0
VERTEX
  5
CC8
  8
CLUSTERS
 10
741445.90253200021
 20
4562762.0817799987
 30
0.0
  0
VERTEX
  5
CC9
  8
CLUSTERS
 10
741380.95238100016
 20
4562696.2785599986
 30
0.0
  0
VERTEX
  5
CCA
  8
CLUSTERS
 10
741280.42328000022
 20
4562675.3066800004
 30
0.0
  0
VERTEX
  5
CCB
  8
CLUSTERS
 10
741247.97845600022
 20
4562661.7100400003
 30
0.0
  0
VERTEX
  5
CCC
  8
CLUSTERS
 10
741107.10695441347
 20
4562662.1063735774
 30
0.0
  0
VERTEX
  5
CCD
  8
CLUSTERS
 10
741072.71849586535
 20
4562696.4752816884
 30
0.0
  0
SEQEND
  5
CCE
  8
CLUSTERS
  0
POLYLINE
  5
C3
  8
CLUSTERS
 66
     1
 10
0.0
 20
0.0
 30
0.0
 70
   129
  0
VERTEX
  5
CCF
  8
CLUSTERS
 10
733139.22707199981
 20
4562661.7100400003
 30
0.0
  0
VERTEX
  5
CD0
  8
CLUSTERS
 10
733238.09523800015
 20
4562760.4227499999
 30
0.0
  0
VERTEX
  5
CD1
  8
CLUSTERS
 10
733337.022153
 20
4562661.7100400003
 30
0.0
  0
VERTEX
  5
CD2
  8
CLUSTERS
 10
733238.09523800015
 20
4562562.9353299988
 30
0.0
  0
VERTEX
  5
CD3
  8
CLUSTERS
 10
733139.22707199981
 20
4562661.7100400003
 30
0.0
  0
SEQEND
  5
CD4
  8
CLUSTERS
  0
POLYLINE
  5
C4
  8
CLUSTERS
 66
     1
 10
0.0
 20
0.0
 30
0.0
 70
   129
  0
VERTEX
  5
CD5
  8
CLUSTERS
 10
731730.9175620001
 20
4562661.7100400003
 30
0.0
  0
VERTEX
  5
CD6
  8
CLUSTERS
 10
731731.26768399985
 20
4562762.0817799987
 30
0.0
  0
VERTEX
  5
CD7
  8
CLUSTERS
 10
731730.15873000014
 20
4562787.3011999996
 30
0.0
  0
VERTEX
  5
CD8
  8
CLUSTERS
 10
731629.62962999998
 20
4562762.1398800006
 30
0.0
  0
VERTEX
  5
CD9
  8
CLUSTERS
 10
731629.60970100004
 20
4562762.0817799987
 30
0.0
  0
VERTEX
  5
CDA
  8
CLUSTERS
 10
731529.10052899981
 20
4562662.2126399986
 30
0.0
  0
VERTEX
  5
CDB
  8
CLUSTERS
 10
731428.571429
 20
4562663.1940599987
 30
0.0
  0
VERTEX
  5
CDC
  8
CLUSTERS
 10
731329.82418700005
 20
4562762.0817799987
 30
0.0
  0
VERTEX
  5
CDD
  8
CLUSTERS
 10
731328.56719400012
 20
4562862.4535299996
 30
0.0
  0
VERTEX
  5
CDE
  8
CLUSTERS
 10
731328.04232799995
 20
4562897.9529200001
 30
0.0
  0
VERTEX
  5
CDF
  8
CLUSTERS
 10
731271.62160099996
 20
4562962.8252800005
 30
0.0
  0
VERTEX
  5
CE0
  8
CLUSTERS
 10
731227.51322799991
 20
4563062.2574500004
 30
0.0
  0
VERTEX
  5
CE1
  8
CLUSTERS
 10
731226.6091280001
 20
4563063.1970300004
 30
0.0
  0
VERTEX
  5
CE2
  8
CLUSTERS
 10
731227.51322799991
 20
4563064.1035799999
 30
0.0
  0
VERTEX
  5
CE3
  8
CLUSTERS
 10
731328.04232799995
 20
4563154.5978300003
 30
0.0
  0
VERTEX
  5
CE4
  8
CLUSTERS
 10
731421.69589899981
 20
4563063.1970300004
 30
0.0
  0
VERTEX
  5
CE5
  8
CLUSTERS
 10
731428.571429
 20
4563061.9897499988
 30
0.0
  0
VERTEX
  5
CE6
  8
CLUSTERS
 10
731529.10052899981
 20
4563011.6135400003
 30
0.0
  0
VERTEX
  5
CE7
  8
CLUSTERS
 10
731629.62962999998
 20
4563056.8711000001
 30
0.0
  0
VERTEX
  5
CE8
  8
CLUSTERS
 10
731730.15873000014
 20
4562976.1521300003
 30
0.0
  0
VERTEX
  5
CE9
  8
CLUSTERS
 10
731743.55079999985
 20
4562962.8252800005
 30
0.0
  0
VERTEX
  5
CEA
  8
CLUSTERS
 10
731803.57174600021
 20
4562862.4535299996
 30
0.0
  0
VERTEX
  5
CEB
  8
CLUSTERS
 10
731830.68783099996
 20
4562861.2361899987
 30
0.0
  0
VERTEX
  5
CEC
  8
CLUSTERS
 10
731930.41185999999
 20
4562762.0817799987
 30
0.0
  0
VERTEX
  5
CED
  8
CLUSTERS
 10
731930.86333800014
 20
4562661.7100400003
 30
0.0
  0
VERTEX
  5
CEE
  8
CLUSTERS
 10
731830.68783099996
 20
4562561.9121500002
 30
0.0
  0
VERTEX
  5
CEF
  8
CLUSTERS
 10
731730.9175620001
 20
4562661.7100400003
 30
0.0
  0
SEQEND
  5
CF0
  8
CLUSTERS
  0
POLYLINE
  5
C5
  8
CLUSTERS
 66
     1
 10
0.0
 20
0.0
 30
0.0
 70
   129
  0
VERTEX
  5
CF1
  8
CLUSTERS
 10
728153.63719899999
 20
4562661.7100400003
 30
0.0
  0
VERTEX
  5
CF2
  8
CLUSTERS
 10
728211.640212
 20
4562719.9858400002
 30
0.0
  0
VERTEX
  5
CF3
  8
CLUSTERS
 10
728279.8703650001
 20
4562661.7100400003
 30
0.0
  0
VERTEX
  5
CF4
  8
CLUSTERS
 10
728211.640212
 20
4562602.4623199999
 30
0.0
  0
VERTEX
  5
CF5
  8
CLUSTERS
 10
728153.63719899999
 20
4562661.7100400003
 30
0.0
  0
SEQEND
  5
CF6
  8
CLUSTERS
  0
POLYLINE
  5
C6
  8
CLUSTERS
 66
     1
 10
0.0
 20
0.0
 30
0.0
 70
   129
  0
VERTEX
  5
CF7
  8
CLUSTERS
 10
738312.07828326104
 20
4562520.817581105
 30
0.0
  0
VERTEX
  5
CF8
  8
CLUSTERS
 10
738378.98536326119
 20
4562587.5285711028
 30
0.0
  0
VERTEX
  5
CF9
  8
CLUSTERS
 10
738445.80968326109
 20
4562520.817581105
 30
0.0
  0
VERTEX
  5
CFA
  8
CLUSTERS
 10
738378.98536326119
 20
4562420.5559511054
 30
0.0
  0
VERTEX
  5
CFB
  8
CLUSTERS
 10
738312.07828326104
 20
4562520.817581105
 30
0.0
  0
SEQEND
  5
CFC
  8
CLUSTERS
  0
POLYLINE
  5
C7
  8
CLUSTERS
 66
     1
 10
0.0
 20
0.0
 30
0.0
 70
   129
  0
VERTEX
  5
CFD
  8
CLUSTERS
 10
731548.62420199998
 20
4562561.3382900003
 30
0.0
  0
VERTEX
  5
CFE
  8
CLUSTERS
 10
731629.62962999998
 20
4562644.7977199992
 30
0.0
  0
VERTEX
  5
CFF
  8
CLUSTERS
 10
731711.56584900001
 20
4562561.3382900003
 30
0.0
  0
VERTEX
  5
D00
  8
CLUSTERS
 10
731629.62962999998
 20
4562480.7667799992
 30
0.0
  0
VERTEX
  5
D01
  8
CLUSTERS
 10
731548.62420199998
 20
4562561.3382900003
 30
0.0
  0
SEQEND
  5
D02
  8
CLUSTERS
  0
POLYLINE
  5
C8
  8
CLUSTERS
 66
     1
 10
0.0
 20
0.0
 30
0.0
 70
   129
  0
VERTEX
  5
D03
  8
CLUSTERS
 10
740985.45008999994
 20
4562460.9665400004
 30
0.0
  0
VERTEX
  5
D04
  8
CLUSTERS
 10
741074.52833242516
 20
4562519.2041226206
 30
0.0
  0
VERTEX
  5
D05
  8
CLUSTERS
 10
741173.92728792306
 20
4562512.377071782
 30
0.0
  0
VERTEX
  5
D06
  8
CLUSTERS
 10
741280.42328000022
 20
4562540.2379099997
 30
0.0
  0
VERTEX
  5
D07
  8
CLUSTERS
 10
741359.38604399981
 20
4562460.9665400004
 30
0.0
  0
VERTEX
  5
D08
  8
CLUSTERS
 10
741280.42328000022
 20
4562381.3161999993
 30
0.0
  0
VERTEX
  5
D09
  8
CLUSTERS
 10
741179.89417999994
 20
4562447.4006199986
 30
0.0
  0
VERTEX
  5
D0A
  8
CLUSTERS
 10
741079.36507900013
 20
4562369.2084400002
 30
0.0
  0
VERTEX
  5
D0B
  8
CLUSTERS
 10
740985.45008999994
 20
4562460.9665400004
 30
0.0
  0
SEQEND
  5
D0C
  8
CLUSTERS
  0
POLYLINE
  5
C9
  8
CLUSTERS
 66
     1
 10
0.0
 20
0.0
 30
0.0
 70
   129
  0
VERTEX
  5
D0D
  8
CLUSTERS
 10
738591.25645799993
 20
4562460.9665400004
 30
0.0
  0
VERTEX
  5
D0E
  8
CLUSTERS
 10
738666.66666700016
 20
4562536.7396600004
 30
0.0
  0
VERTEX
  5
D0F
  8
CLUSTERS
 10
738678.92575400008
 20
4562561.3382900003
 30
0.0
  0
VERTEX
  5
D10
  8
CLUSTERS
 10
738677.56034900015
 20
4562661.7100400003
 30
0.0
  0
VERTEX
  5
D11
  8
CLUSTERS
 10
738691.37789000024
 20
4562762.0817799987
 30
0.0
  0
VERTEX
  5
D12
  8
CLUSTERS
 10
738679.02184199984
 20
4562862.4535299996
 30
0.0
  0
VERTEX
  5
D13
  8
CLUSTERS
 10
738767.19576699985
 20
4562950.2816099999
 30
0.0
  0
VERTEX
  5
D14
  8
CLUSTERS
 10
738833.27532225603
 20
4562945.6886997446
 30
0.0
  0
VERTEX
  5
D15
  8
CLUSTERS
 10
738873.63674600015
 20
4562962.8252800005
 30
0.0
  0
VERTEX
  5
D16
  8
CLUSTERS
 10
738968.25396799983
 20
4563056.9596100003
 30
0.0
  0
VERTEX
  5
D17
  8
CLUSTERS
 10
739062.51894699968
 20
4562962.8252800005
 30
0.0
  0
VERTEX
  5
D18
  8
CLUSTERS
 10
738968.25396799983
 20
4562868.4642400006
 30
0.0
  0
VERTEX
  5
D19
  8
CLUSTERS
 10
738914.72174690082
 20
4562831.7286735494
 30
0.0
  0
VERTEX
  5
D1A
  8
CLUSTERS
 10
738867.915225
 20
4562762.0817799987
 30
0.0
  0
VERTEX
  5
D1B
  8
CLUSTERS
 10
738867.72486800014
 20
4562761.8895300003
 30
0.0
  0
VERTEX
  5
D1C
  8
CLUSTERS
 10
738856.61912299995
 20
4562661.7100400003
 30
0.0
  0
VERTEX
  5
D1D
  8
CLUSTERS
 10
738855.18739099998
 20
4562561.3382900003
 30
0.0
  0
VERTEX
  5
D1E
  8
CLUSTERS
 10
738767.19576699985
 20
4562473.34406
 30
0.0
  0
VERTEX
  5
D1F
  8
CLUSTERS
 10
738742.32078000007
 20
4562460.9665400004
 30
0.0
  0
VERTEX
  5
D20
  8
CLUSTERS
 10
738666.66666700016
 20
4562385.7266499987
 30
0.0
  0
VERTEX
  5
D21
  8
CLUSTERS
 10
738591.25645799993
 20
4562460.9665400004
 30
0.0
  0
SEQEND
  5
D22
  8
CLUSTERS
  0
POLYLINE
  5
CA
  8
CLUSTERS
 66
     1
 10
0.0
 20
0.0
 30
0.0
 70
   129
  0
VERTEX
  5
D23
  8
CLUSTERS
 10
737765.59406100016
 20
4562460.9665400004
 30
0.0
  0
VERTEX
  5
D24
  8
CLUSTERS
 10
737761.90476199985
 20
4562468.3346499996
 30
0.0
  0
VERTEX
  5
D25
  8
CLUSTERS
 10
737668.99308499985
 20
4562561.3382900003
 30
0.0
  0
VERTEX
  5
D26
  8
CLUSTERS
 10
737761.90476199985
 20
4562654.1127699986
 30
0.0
  0
VERTEX
  5
D27
  8
CLUSTERS
 10
737781.73944100004
 20
4562661.7100400003
 30
0.0
  0
VERTEX
  5
D28
  8
CLUSTERS
 10
737825.14957141574
 20
4562708.7242183229
 30
0.0
  0
VERTEX
  5
D29
  8
CLUSTERS
 10
737906.59599606053
 20
4562647.2219582917
 30
0.0
  0
VERTEX
  5
D2A
  8
CLUSTERS
 10
737959.29529299994
 20
4562561.3382900003
 30
0.0
  0
VERTEX
  5
D2B
  8
CLUSTERS
 10
737959.15412100032
 20
4562460.9665400004
 30
0.0
  0
VERTEX
  5
D2C
  8
CLUSTERS
 10
737862.43386199989
 20
4562364.3542200001
 30
0.0
  0
VERTEX
  5
D2D
  8
CLUSTERS
 10
737765.59406100016
 20
4562460.9665400004
 30
0.0
  0
SEQEND
  5
D2E
  8
CLUSTERS
  0
POLYLINE
  5
CB
  8
CLUSTERS
 66
     1
 10
0.0
 20
0.0
 30
0.0
 70
   129
  0
VERTEX
  5
D2F
  8
CLUSTERS
 10
734550.87603600021
 20
4562460.9665400004
 30
0.0
  0
VERTEX
  5
D30
  8
CLUSTERS
 10
734565.07045000012
 20
4562561.3382900003
 30
0.0
  0
VERTEX
  5
D31
  8
CLUSTERS
 10
734645.50264600024
 20
4562641.6336399997
 30
0.0
  0
VERTEX
  5
D32
  8
CLUSTERS
 10
734725.93908500031
 20
4562561.3382900003
 30
0.0
  0
VERTEX
  5
D33
  8
CLUSTERS
 10
734740.13329999987
 20
4562460.9665400004
 30
0.0
  0
VERTEX
  5
D34
  8
CLUSTERS
 10
734645.50264600024
 20
4562366.47958
 30
0.0
  0
VERTEX
  5
D35
  8
CLUSTERS
 10
734550.87603600021
 20
4562460.9665400004
 30
0.0
  0
SEQEND
  5
D36
  8
CLUSTERS
  0
POLYLINE
  5
CC
  8
CLUSTERS
 66
     1
 10
0.0
 20
0.0
 30
0.0
 70
   129
  0
VERTEX
  5
D37
  8
CLUSTERS
 10
733559.80392400001
 20
4562460.9665400004
 30
0.0
  0
VERTEX
  5
D38
  8
CLUSTERS
 10
733590.00729500013
 20
4562561.3382900003
 30
0.0
  0
VERTEX
  5
D39
  8
CLUSTERS
 10
733640.21164000011
 20
4562611.4678599993
 30
0.0
  0
VERTEX
  5
D3A
  8
CLUSTERS
 10
733740.68217900011
 20
4562561.3382900003
 30
0.0
  0
VERTEX
  5
D3B
  8
CLUSTERS
 10
733740.74074100005
 20
4562531.8923199996
 30
0.0
  0
VERTEX
  5
D3C
  8
CLUSTERS
 10
733740.88123000006
 20
4562460.9665400004
 30
0.0
  0
VERTEX
  5
D3D
  8
CLUSTERS
 10
733740.74074100005
 20
4562460.8261999991
 30
0.0
  0
VERTEX
  5
D3E
  8
CLUSTERS
 10
733640.21164000011
 20
4562380.6637000004
 30
0.0
  0
VERTEX
  5
D3F
  8
CLUSTERS
 10
733559.80392400001
 20
4562460.9665400004
 30
0.0
  0
SEQEND
  5
D40
  8
CLUSTERS
  0
POLYLINE
  5
CD
  8
CLUSTERS
 66
     1
 10
0.0
 20
0.0
 30
0.0
 70
   129
  0
VERTEX
  5
D41
  8
CLUSTERS
 10
740756.17866807687
 20
4562292.3796207923
 30
0.0
  0
VERTEX
  5
D42
  8
CLUSTERS
 10
740832.01609807683
 20
4562366.5289507937
 30
0.0
  0
VERTEX
  5
D43
  8
CLUSTERS
 10
740906.12038107705
 20
4562292.3796207923
 30
0.0
  0
VERTEX
  5
D44
  8
CLUSTERS
 10
740832.01609807683
 20
4562217.9753507935
 30
0.0
  0
VERTEX
  5
D45
  8
CLUSTERS
 10
740756.17866807687
 20
4562292.3796207923
 30
0.0
  0
SEQEND
  5
D46
  8
CLUSTERS
  0
POLYLINE
  5
CE
  8
CLUSTERS
 66
     1
 10
0.0
 20
0.0
 30
0.0
 70
   129
  0
VERTEX
  5
D47
  8
CLUSTERS
 10
737621.7585444533
 20
4562237.451153717
 30
0.0
  0
VERTEX
  5
D48
  8
CLUSTERS
 10
737702.21426945343
 20
4562317.8616837179
 30
0.0
  0
VERTEX
  5
D49
  8
CLUSTERS
 10
737782.63605645299
 20
4562237.451153717
 30
0.0
  0
VERTEX
  5
D4A
  8
CLUSTERS
 10
737702.21426945343
 20
4562157.1388337184
 30
0.0
  0
VERTEX
  5
D4B
  8
CLUSTERS
 10
737621.7585444533
 20
4562237.451153717
 30
0.0
  0
SEQEND
  5
D4C
  8
CLUSTERS
  0
POLYLINE
  5
CF
  8
CLUSTERS
 66
     1
 10
0.0
 20
0.0
 30
0.0
 70
   129
  0
VERTEX
  5
D4D
  8
CLUSTERS
 10
731646.52994199994
 20
4562260.2230500001
 30
0.0
  0
VERTEX
  5
D4E
  8
CLUSTERS
 10
731730.15873000014
 20
4562343.8003200004
 30
0.0
  0
VERTEX
  5
D4F
  8
CLUSTERS
 10
731814.11540999985
 20
4562260.2230500001
 30
0.0
  0
VERTEX
  5
D50
  8
CLUSTERS
 10
731730.15873000014
 20
4562176.5708100013
 30
0.0
  0
VERTEX
  5
D51
  8
CLUSTERS
 10
731646.52994199994
 20
4562260.2230500001
 30
0.0
  0
SEQEND
  5
D52
  8
CLUSTERS
  0
POLYLINE
  5
D0
  8
CLUSTERS
 66
     1
 10
0.0
 20
0.0
 30
0.0
 70
   129
  0
VERTEX
  5
D53
  8
CLUSTERS
 10
736279.11033299996
 20
4562159.8513000002
 30
0.0
  0
VERTEX
  5
D54
  8
CLUSTERS
 10
736354.49735399976
 20
4562235.11742
 30
0.0
  0
VERTEX
  5
D55
  8
CLUSTERS
 10
736429.88301899994
 20
4562159.8513000002
 30
0.0
  0
VERTEX
  5
D56
  8
CLUSTERS
 10
736354.49735399976
 20
4562084.5795700001
 30
0.0
  0
VERTEX
  5
D57
  8
CLUSTERS
 10
736279.11033299996
 20
4562159.8513000002
 30
0.0
  0
SEQEND
  5
D58
  8
CLUSTERS
  0
POLYLINE
  5
D1
  8
CLUSTERS
 66
     1
 10
0.0
 20
0.0
 30
0.0
 70
   129
  0
VERTEX
  5
D59
  8
CLUSTERS
 10
736877.20182099985
 20
4561858.73606
 30
0.0
  0
VERTEX
  5
D5A
  8
CLUSTERS
 10
736890.5590949998
 20
4561959.107809999
 30
0.0
  0
VERTEX
  5
D5B
  8
CLUSTERS
 10
736957.67195800005
 20
4562026.2372300001
 30
0.0
  0
VERTEX
  5
D5C
  8
CLUSTERS
 10
736966.73050100007
 20
4562059.4795500003
 30
0.0
  0
VERTEX
  5
D5D
  8
CLUSTERS
 10
737058.20105799998
 20
4562150.8606799999
 30
0.0
  0
VERTEX
  5
D5E
  8
CLUSTERS
 10
737090.88133100013
 20
4562159.8513000002
 30
0.0
  0
VERTEX
  5
D5F
  8
CLUSTERS
 10
737078.06411299983
 20
4562260.2230500001
 30
0.0
  0
VERTEX
  5
D60
  8
CLUSTERS
 10
737067.18920300005
 20
4562360.5947999991
 30
0.0
  0
VERTEX
  5
D61
  8
CLUSTERS
 10
737158.73015900003
 20
4562452.7441100003
 30
0.0
  0
VERTEX
  5
D62
  8
CLUSTERS
 10
737159.32927700004
 20
4562460.9665400004
 30
0.0
  0
VERTEX
  5
D63
  8
CLUSTERS
 10
737174.81617200025
 20
4562561.3382900003
 30
0.0
  0
VERTEX
  5
D64
  8
CLUSTERS
 10
737259.25925899995
 20
4562645.5768400002
 30
0.0
  0
VERTEX
  5
D65
  8
CLUSTERS
 10
737359.78836000001
 20
4562660.7836599993
 30
0.0
  0
VERTEX
  5
D66
  8
CLUSTERS
 10
737459.40031599998
 20
4562561.3382900003
 30
0.0
  0
VERTEX
  5
D67
  8
CLUSTERS
 10
737459.60937399999
 20
4562460.9665400004
 30
0.0
  0
VERTEX
  5
D68
  8
CLUSTERS
 10
737444.27578899974
 20
4562360.5947999991
 30
0.0
  0
VERTEX
  5
D69
  8
CLUSTERS
 10
737359.78836000001
 20
4562276.1805800004
 30
0.0
  0
VERTEX
  5
D6A
  8
CLUSTERS
 10
737349.00534199981
 20
4562260.2230500001
 30
0.0
  0
VERTEX
  5
D6B
  8
CLUSTERS
 10
737357.56024100014
 20
4562159.8513000002
 30
0.0
  0
VERTEX
  5
D6C
  8
CLUSTERS
 10
737359.78836000001
 20
4562135.4599700002
 30
0.0
  0
VERTEX
  5
D6D
  8
CLUSTERS
 10
737460.31746000005
 20
4562154.3185099997
 30
0.0
  0
VERTEX
  5
D6E
  8
CLUSTERS
 10
737555.29151100002
 20
4562059.4795500003
 30
0.0
  0
VERTEX
  5
D6F
  8
CLUSTERS
 10
737628.57189341786
 20
4562076.0316384183
 30
0.0
  0
VERTEX
  5
D70
  8
CLUSTERS
 10
737661.37566100003
 20
4562046.9448800003
 30
0.0
  0
VERTEX
  5
D71
  8
CLUSTERS
 10
737749.33981499984
 20
4561959.107809999
 30
0.0
  0
VERTEX
  5
D72
  8
CLUSTERS
 10
737661.37566100003
 20
4561871.2553399997
 30
0.0
  0
VERTEX
  5
D73
  8
CLUSTERS
 10
737557.17998600181
 20
4561910.34210198
 30
0.0
  0
VERTEX
  5
D74
  8
CLUSTERS
 10
737515.55179023673
 20
4561953.7555039506
 30
0.0
  0
VERTEX
  5
D75
  8
CLUSTERS
 10
737460.31746000005
 20
4561964.6272900002
 30
0.0
  0
VERTEX
  5
D76
  8
CLUSTERS
 10
737359.78836000001
 20
4561983.7108199988
 30
0.0
  0
VERTEX
  5
D77
  8
CLUSTERS
 10
737259.25925899995
 20
4561959.9993399987
 30
0.0
  0
VERTEX
  5
D78
  8
CLUSTERS
 10
737256.89350699983
 20
4561959.107809999
 30
0.0
  0
VERTEX
  5
D79
  8
CLUSTERS
 10
737158.73015900003
 20
4561861.1930600032
 30
0.0
  0
VERTEX
  5
D7A
  8
CLUSTERS
 10
737154.78935300012
 20
4561858.73606
 30
0.0
  0
VERTEX
  5
D7B
  8
CLUSTERS
 10
737058.20105799998
 20
4561762.3500100002
 30
0.0
  0
VERTEX
  5
D7C
  8
CLUSTERS
 10
736957.67195800005
 20
4561778.36895
 30
0.0
  0
VERTEX
  5
D7D
  8
CLUSTERS
 10
736877.20182099985
 20
4561858.73606
 30
0.0
  0
SEQEND
  5
D7E
  8
CLUSTERS
  0
POLYLINE
  5
D2
  8
CLUSTERS
 66
     1
 10
0.0
 20
0.0
 30
0.0
 70
   129
  0
VERTEX
  5
D7F
  8
CLUSTERS
 10
732344.49961499998
 20
4561758.364310001
 30
0.0
  0
VERTEX
  5
D80
  8
CLUSTERS
 10
732366.89635600022
 20
4561858.73606
 30
0.0
  0
VERTEX
  5
D81
  8
CLUSTERS
 10
732433.86243400013
 20
4561925.5813199989
 30
0.0
  0
VERTEX
  5
D82
  8
CLUSTERS
 10
732534.39153399982
 20
4561859.5437399987
 30
0.0
  0
VERTEX
  5
D83
  8
CLUSTERS
 10
732535.20222800004
 20
4561858.73606
 30
0.0
  0
VERTEX
  5
D84
  8
CLUSTERS
 10
732623.86485100025
 20
4561758.364310001
 30
0.0
  0
VERTEX
  5
D85
  8
CLUSTERS
 10
732534.39153399982
 20
4561669.0428600004
 30
0.0
  0
VERTEX
  5
D86
  8
CLUSTERS
 10
732433.86243400013
 20
4561669.0656099999
 30
0.0
  0
VERTEX
  5
D87
  8
CLUSTERS
 10
732344.49961499998
 20
4561758.364310001
 30
0.0
  0
SEQEND
  5
D88
  8
CLUSTERS
  0
POLYLINE
  5
D3
  8
CLUSTERS
 66
     1
 10
0.0
 20
0.0
 30
0.0
 70
   129
  0
VERTEX
  5
D89
  8
CLUSTERS
 10
737058.49538899993
 20
4561457.2490699999
 30
0.0
  0
VERTEX
  5
D8A
  8
CLUSTERS
 10
737158.73015900003
 20
4561557.32027
 30
0.0
  0
VERTEX
  5
D8B
  8
CLUSTERS
 10
737258.95834600006
 20
4561457.2490699999
 30
0.0
  0
VERTEX
  5
D8C
  8
CLUSTERS
 10
737158.73015900003
 20
4561357.1710999999
 30
0.0
  0
VERTEX
  5
D8D
  8
CLUSTERS
 10
737058.49538899993
 20
4561457.2490699999
 30
0.0
  0
SEQEND
  5
D8E
  8
CLUSTERS
  0
POLYLINE
  5
D4
  8
CLUSTERS
 66
     1
 10
0.0
 20
0.0
 30
0.0
 70
   129
  0
VERTEX
  5
D8F
  8
CLUSTERS
 10
732835.90350200003
 20
4561457.2490699999
 30
0.0
  0
VERTEX
  5
D90
  8
CLUSTERS
 10
732835.97883599997
 20
4561483.5535700005
 30
0.0
  0
VERTEX
  5
D91
  8
CLUSTERS
 10
732891.37649700011
 20
4561557.6208199998
 30
0.0
  0
VERTEX
  5
D92
  8
CLUSTERS
 10
732936.50793700013
 20
4561557.7931599999
 30
0.0
  0
VERTEX
  5
D93
  8
CLUSTERS
 10
732936.68078800011
 20
4561557.6208199998
 30
0.0
  0
VERTEX
  5
D94
  8
CLUSTERS
 10
733027.02966700005
 20
4561457.2490699999
 30
0.0
  0
VERTEX
  5
D95
  8
CLUSTERS
 10
732936.50793700013
 20
4561366.8820500001
 30
0.0
  0
VERTEX
  5
D96
  8
CLUSTERS
 10
732835.97883599997
 20
4561457.1737700002
 30
0.0
  0
VERTEX
  5
D97
  8
CLUSTERS
 10
732835.90350200003
 20
4561457.2490699999
 30
0.0
  0
SEQEND
  5
D98
  8
CLUSTERS
  0
POLYLINE
  5
D5
  8
CLUSTERS
 66
     1
 10
0.0
 20
0.0
 30
0.0
 70
   129
  0
VERTEX
  5
D99
  8
CLUSTERS
 10
732456.78355596261
 20
4561328.7043844834
 30
0.0
  0
VERTEX
  5
D9A
  8
CLUSTERS
 10
732506.92338996276
 20
4561378.6852144832
 30
0.0
  0
VERTEX
  5
D9B
  8
CLUSTERS
 10
732557.01864796225
 20
4561328.7043844834
 30
0.0
  0
VERTEX
  5
D9C
  8
CLUSTERS
 10
732506.92338996276
 20
4561278.6838144818
 30
0.0
  0
VERTEX
  5
D9D
  8
CLUSTERS
 10
732456.78355596261
 20
4561328.7043844834
 30
0.0
  0
SEQEND
  5
D9E
  8
CLUSTERS
  0
POLYLINE
  5
D6
  8
CLUSTERS
 66
     1
 10
0.0
 20
0.0
 30
0.0
 70
   129
  0
VERTEX
  5
D9F
  8
CLUSTERS
 10
741068.72387496824
 20
4561229.6266419487
 30
0.0
  0
VERTEX
  5
DA0
  8
CLUSTERS
 10
741179.89417999994
 20
4561325.0032900004
 30
0.0
  0
VERTEX
  5
DA1
  8
CLUSTERS
 10
741184.32875899994
 20
4561356.87732
 30
0.0
  0
VERTEX
  5
DA2
  8
CLUSTERS
 10
741280.42328000022
 20
4561449.9619199997
 30
0.0
  0
VERTEX
  5
DA3
  8
CLUSTERS
 10
741380.95238100016
 20
4561445.9578999998
 30
0.0
  0
VERTEX
  5
DA4
  8
CLUSTERS
 10
741469.80495899997
 20
4561356.87732
 30
0.0
  0
VERTEX
  5
DA5
  8
CLUSTERS
 10
741380.95238100016
 20
4561267.0849099988
 30
0.0
  0
VERTEX
  5
DA6
  8
CLUSTERS
 10
741365.43373800011
 20
4561256.5055799987
 30
0.0
  0
VERTEX
  5
DA7
  8
CLUSTERS
 10
741280.42328000022
 20
4561172.5408800002
 30
0.0
  0
VERTEX
  5
DA8
  8
CLUSTERS
 10
741147.62633693975
 20
4561129.7403090252
 30
0.0
  0
VERTEX
  5
DA9
  8
CLUSTERS
 10
741068.72387496824
 20
4561229.6266419487
 30
0.0
  0
SEQEND
  5
DAA
  8
CLUSTERS
  0
POLYLINE
  5
D7
  8
CLUSTERS
 66
     1
 10
0.0
 20
0.0
 30
0.0
 70
   129
  0
VERTEX
  5
DAB
  8
CLUSTERS
 10
733254.85591000004
 20
4561256.5055799987
 30
0.0
  0
VERTEX
  5
DAC
  8
CLUSTERS
 10
733338.62433899986
 20
4561340.1467700005
 30
0.0
  0
VERTEX
  5
DAD
  8
CLUSTERS
 10
733439.1534389999
 20
4561340.1578999991
 30
0.0
  0
VERTEX
  5
DAE
  8
CLUSTERS
 10
733539.68253999983
 20
4561336.8054200001
 30
0.0
  0
VERTEX
  5
DAF
  8
CLUSTERS
 10
733620.11146799999
 20
4561256.5055799987
 30
0.0
  0
VERTEX
  5
DB0
  8
CLUSTERS
 10
733539.68253999983
 20
4561176.1973599996
 30
0.0
  0
VERTEX
  5
DB1
  8
CLUSTERS
 10
733439.1534389999
 20
4561172.84265
 30
0.0
  0
VERTEX
  5
DB2
  8
CLUSTERS
 10
733338.62433899986
 20
4561172.8533600001
 30
0.0
  0
VERTEX
  5
DB3
  8
CLUSTERS
 10
733254.85591000004
 20
4561256.5055799987
 30
0.0
  0
SEQEND
  5
DB4
  8
CLUSTERS
  0
POLYLINE
  5
D8
  8
CLUSTERS
 66
     1
 10
0.0
 20
0.0
 30
0.0
 70
   129
  0
VERTEX
  5
DB5
  8
CLUSTERS
 10
736455.93408699986
 20
4561156.1338299988
 30
0.0
  0
VERTEX
  5
DB6
  8
CLUSTERS
 10
736455.73826400004
 20
4561256.5055799987
 30
0.0
  0
VERTEX
  5
DB7
  8
CLUSTERS
 10
736555.55555600033
 20
4561356.1651500007
 30
0.0
  0
VERTEX
  5
DB8
  8
CLUSTERS
 10
736655.37250000006
 20
4561256.5055799987
 30
0.0
  0
VERTEX
  5
DB9
  8
CLUSTERS
 10
736655.17727700016
 20
4561156.1338299988
 30
0.0
  0
VERTEX
  5
DBA
  8
CLUSTERS
 10
736555.55555600033
 20
4561056.6689400002
 30
0.0
  0
VERTEX
  5
DBB
  8
CLUSTERS
 10
736455.93408699986
 20
4561156.1338299988
 30
0.0
  0
SEQEND
  5
DBC
  8
CLUSTERS
  0
POLYLINE
  5
D9
  8
CLUSTERS
 66
     1
 10
0.0
 20
0.0
 30
0.0
 70
   129
  0
VERTEX
  5
DBD
  8
CLUSTERS
 10
732856.10745399969
 20
4561156.1338299988
 30
0.0
  0
VERTEX
  5
DBE
  8
CLUSTERS
 10
732936.50793700013
 20
4561236.417679999
 30
0.0
  0
VERTEX
  5
DBF
  8
CLUSTERS
 10
733037.03703699994
 20
4561223.0464300001
 30
0.0
  0
VERTEX
  5
DC0
  8
CLUSTERS
 10
733104.06045300001
 20
4561156.1338299988
 30
0.0
  0
VERTEX
  5
DC1
  8
CLUSTERS
 10
733037.03703699994
 20
4561089.2080800002
 30
0.0
  0
VERTEX
  5
DC2
  8
CLUSTERS
 10
732936.50793700013
 20
4561075.8362499997
 30
0.0
  0
VERTEX
  5
DC3
  8
CLUSTERS
 10
732856.10745399969
 20
4561156.1338299988
 30
0.0
  0
SEQEND
  5
DC4
  8
CLUSTERS
  0
POLYLINE
  5
DA
  8
CLUSTERS
 66
     1
 10
0.0
 20
0.0
 30
0.0
 70
   129
  0
VERTEX
  5
DC5
  8
CLUSTERS
 10
737208.58252800012
 20
4560855.0185900005
 30
0.0
  0
VERTEX
  5
DC6
  8
CLUSTERS
 10
737162.05648800032
 20
4560955.3903299998
 30
0.0
  0
VERTEX
  5
DC7
  8
CLUSTERS
 10
737259.25925899995
 20
4561052.4558999985
 30
0.0
  0
VERTEX
  5
DC8
  8
CLUSTERS
 10
737302.75556823902
 20
4560930.1198034789
 30
0.0
  0
VERTEX
  5
DC9
  8
CLUSTERS
 10
737311.2082560003
 20
4560855.0185900005
 30
0.0
  0
VERTEX
  5
DCA
  8
CLUSTERS
 10
737259.25925899995
 20
4560804.3029899998
 30
0.0
  0
VERTEX
  5
DCB
  8
CLUSTERS
 10
737208.58252800012
 20
4560855.0185900005
 30
0.0
  0
SEQEND
  5
DCC
  8
CLUSTERS
  0
POLYLINE
  5
DB
  8
CLUSTERS
 66
     1
 10
0.0
 20
0.0
 30
0.0
 70
   129
  0
VERTEX
  5
DCD
  8
CLUSTERS
 10
736667.22545300005
 20
4560855.0185900005
 30
0.0
  0
VERTEX
  5
DCE
  8
CLUSTERS
 10
736689.01460000023
 20
4560955.3903299998
 30
0.0
  0
VERTEX
  5
DCF
  8
CLUSTERS
 10
736756.61375699996
 20
4561023.0659999987
 30
0.0
  0
VERTEX
  5
DD0
  8
CLUSTERS
 10
736857.142857
 20
4561055.6213999987
 30
0.0
  0
VERTEX
  5
DD1
  8
CLUSTERS
 10
736957.53119400016
 20
4560955.3903299998
 30
0.0
  0
VERTEX
  5
DD2
  8
CLUSTERS
 10
736949.421003
 20
4560855.0185900005
 30
0.0
  0
VERTEX
  5
DD3
  8
CLUSTERS
 10
736857.142857
 20
4560762.9533200003
 30
0.0
  0
VERTEX
  5
DD4
  8
CLUSTERS
 10
736756.61375699996
 20
4560765.7681299988
 30
0.0
  0
VERTEX
  5
DD5
  8
CLUSTERS
 10
736667.22545300005
 20
4560855.0185900005
 30
0.0
  0
SEQEND
  5
DD6
  8
CLUSTERS
  0
POLYLINE
  5
DC
  8
CLUSTERS
 66
     1
 10
0.0
 20
0.0
 30
0.0
 70
   129
  0
VERTEX
  5
DD7
  8
CLUSTERS
 10
733325.30433417636
 20
4560780.6482730322
 30
0.0
  0
VERTEX
  5
DD8
  8
CLUSTERS
 10
733337.97384172515
 20
4560847.5772164119
 30
0.0
  0
VERTEX
  5
DD9
  8
CLUSTERS
 10
733338.62433899986
 20
4560905.1822699988
 30
0.0
  0
VERTEX
  5
DDA
  8
CLUSTERS
 10
733372.14723200002
 20
4560955.3903299998
 30
0.0
  0
VERTEX
  5
DDB
  8
CLUSTERS
 10
733439.1534389999
 20
4561022.2852600003
 30
0.0
  0
VERTEX
  5
DDC
  8
CLUSTERS
 10
733549.73449367145
 20
4560916.314967799
 30
0.0
  0
VERTEX
  5
DDD
  8
CLUSTERS
 10
733439.20450200001
 20
4560855.0185900005
 30
0.0
  0
VERTEX
  5
DDE
  8
CLUSTERS
 10
733439.1534389999
 20
4560770.5146599989
 30
0.0
  0
VERTEX
  5
DDF
  8
CLUSTERS
 10
733439.14383700013
 20
4560754.6468399996
 30
0.0
  0
VERTEX
  5
DE0
  8
CLUSTERS
 10
733361.50275961065
 20
4560742.6616192441
 30
0.0
  0
VERTEX
  5
DE1
  8
CLUSTERS
 10
733325.30433417636
 20
4560780.6482730322
 30
0.0
  0
SEQEND
  5
DE2
  8
CLUSTERS
  0
POLYLINE
  5
DD
  8
CLUSTERS
 66
     1
 10
0.0
 20
0.0
 30
0.0
 70
   129
  0
VERTEX
  5
DE3
  8
CLUSTERS
 10
732865.5846048505
 20
4560755.3238587826
 30
0.0
  0
VERTEX
  5
DE4
  8
CLUSTERS
 10
732975.98971771193
 20
4560871.0927578202
 30
0.0
  0
VERTEX
  5
DE5
  8
CLUSTERS
 10
733066.5985784122
 20
4560924.7106247218
 30
0.0
  0
VERTEX
  5
DE6
  8
CLUSTERS
 10
733084.58499401365
 20
4560890.9905535504
 30
0.0
  0
VERTEX
  5
DE7
  8
CLUSTERS
 10
733129.8329932245
 20
4560845.7683435734
 30
0.0
  0
VERTEX
  5
DE8
  8
CLUSTERS
 10
733193.18013998913
 20
4560802.3549416019
 30
0.0
  0
VERTEX
  5
DE9
  8
CLUSTERS
 10
733221.37594099995
 20
4560754.6468399996
 30
0.0
  0
VERTEX
  5
DEA
  8
CLUSTERS
 10
733135.26276355574
 20
4560693.8215987561
 30
0.0
  0
VERTEX
  5
DEB
  8
CLUSTERS
 10
733042.95679824834
 20
4560690.2038530773
 30
0.0
  0
VERTEX
  5
DEC
  8
CLUSTERS
 10
732948.84086605511
 20
4560688.3949154057
 30
0.0
  0
VERTEX
  5
DED
  8
CLUSTERS
 10
732865.5846048505
 20
4560755.3238587826
 30
0.0
  0
SEQEND
  5
DEE
  8
CLUSTERS
  0
POLYLINE
  5
DE
  8
CLUSTERS
 66
     1
 10
0.0
 20
0.0
 30
0.0
 70
   129
  0
VERTEX
  5
DEF
  8
CLUSTERS
 10
737429.44999209465
 20
4560676.875336837
 30
0.0
  0
VERTEX
  5
DF0
  8
CLUSTERS
 10
737476.50795819121
 20
4560761.8931382736
 30
0.0
  0
VERTEX
  5
DF1
  8
CLUSTERS
 10
737472.88815474545
 20
4560850.5286853928
 30
0.0
  0
VERTEX
  5
DF2
  8
CLUSTERS
 10
737422.21038520313
 20
4560980.7687616386
 30
0.0
  0
VERTEX
  5
DF3
  8
CLUSTERS
 10
737407.73104109499
 20
4561078.4487377852
 30
0.0
  0
VERTEX
  5
DF4
  8
CLUSTERS
 10
737460.31746000005
 20
4561155.9355699997
 30
0.0
  0
VERTEX
  5
DF5
  8
CLUSTERS
 10
737560.8465610001
 20
4561150.7818700001
 30
0.0
  0
VERTEX
  5
DF6
  8
CLUSTERS
 10
737656.05386600015
 20
4561055.7620799998
 30
0.0
  0
VERTEX
  5
DF7
  8
CLUSTERS
 10
737661.13330199965
 20
4560955.3903299998
 30
0.0
  0
VERTEX
  5
DF8
  8
CLUSTERS
 10
737661.37566100003
 20
4560927.5010000002
 30
0.0
  0
VERTEX
  5
DF9
  8
CLUSTERS
 10
737655.69011847477
 20
4560874.0442916322
 30
0.0
  0
VERTEX
  5
DFA
  8
CLUSTERS
 10
737630.35123370378
 20
4560816.1597772818
 30
0.0
  0
VERTEX
  5
DFB
  8
CLUSTERS
 10
737606.82231581875
 20
4560740.1864697067
 30
0.0
  0
VERTEX
  5
DFC
  8
CLUSTERS
 10
737574.24369383033
 20
4560656.9775411058
 30
0.0
  0
VERTEX
  5
DFD
  8
CLUSTERS
 10
737490.98730229971
 20
4560597.2841539178
 30
0.0
  0
VERTEX
  5
DFE
  8
CLUSTERS
 10
737433.06992586597
 20
4560611.7552662985
 30
0.0
  0
VERTEX
  5
DFF
  8
CLUSTERS
 10
737429.44999209465
 20
4560676.875336837
 30
0.0
  0
SEQEND
  5
E00
  8
CLUSTERS
  0
POLYLINE
  5
DF
  8
CLUSTERS
 66
     1
 10
0.0
 20
0.0
 30
0.0
 70
   129
  0
VERTEX
  5
E01
  8
CLUSTERS
 10
732414.91431897494
 20
4560632.319403559
 30
0.0
  0
VERTEX
  5
E02
  8
CLUSTERS
 10
732452.92271129484
 20
4560699.2482821038
 30
0.0
  0
VERTEX
  5
E03
  8
CLUSTERS
 10
732450.43487999996
 20
4560754.6468399996
 30
0.0
  0
VERTEX
  5
E04
  8
CLUSTERS
 10
732433.86243400013
 20
4560853.7101499988
 30
0.0
  0
VERTEX
  5
E05
  8
CLUSTERS
 10
732432.54519600014
 20
4560855.0185900005
 30
0.0
  0
VERTEX
  5
E06
  8
CLUSTERS
 10
732417.72597116383
 20
4560951.6037747189
 30
0.0
  0
VERTEX
  5
E07
  8
CLUSTERS
 10
732433.86243400013
 20
4561030.7395000001
 30
0.0
  0
VERTEX
  5
E08
  8
CLUSTERS
 10
732534.39153399982
 20
4561043.2799500003
 30
0.0
  0
VERTEX
  5
E09
  8
CLUSTERS
 10
732634.92063499987
 20
4561030.7813200001
 30
0.0
  0
VERTEX
  5
E0A
  8
CLUSTERS
 10
732710.46746299998
 20
4560955.3903299998
 30
0.0
  0
VERTEX
  5
E0B
  8
CLUSTERS
 10
732721.22909600032
 20
4560855.0185900005
 30
0.0
  0
VERTEX
  5
E0C
  8
CLUSTERS
 10
732634.92063499987
 20
4560768.7276300006
 30
0.0
  0
VERTEX
  5
E0D
  8
CLUSTERS
 10
732618.4376660001
 20
4560754.6468399996
 30
0.0
  0
VERTEX
  5
E0E
  8
CLUSTERS
 10
732534.39153399982
 20
4560670.74101
 30
0.0
  0
VERTEX
  5
E0F
  8
CLUSTERS
 10
732490.93097328872
 20
4560616.0393535094
 30
0.0
  0
VERTEX
  5
E10
  8
CLUSTERS
 10
732433.86243400013
 20
4560586.5851500006
 30
0.0
  0
VERTEX
  5
E11
  8
CLUSTERS
 10
732414.91431897494
 20
4560632.319403559
 30
0.0
  0
SEQEND
  5
E12
  8
CLUSTERS
  0
POLYLINE
  5
E0
  8
CLUSTERS
 66
     1
 10
0.0
 20
0.0
 30
0.0
 70
   129
  0
VERTEX
  5
E13
  8
CLUSTERS
 10
732136.25123499986
 20
4560654.2750899997
 30
0.0
  0
VERTEX
  5
E14
  8
CLUSTERS
 10
732165.25298300013
 20
4560754.6468399996
 30
0.0
  0
VERTEX
  5
E15
  8
CLUSTERS
 10
732132.27513199998
 20
4560771.1921800002
 30
0.0
  0
VERTEX
  5
E16
  8
CLUSTERS
 10
732048.31106800004
 20
4560855.0185900005
 30
0.0
  0
VERTEX
  5
E17
  8
CLUSTERS
 10
732031.74603200005
 20
4560871.5179999992
 30
0.0
  0
VERTEX
  5
E18
  8
CLUSTERS
 10
731947.83190500003
 20
4560955.3903299998
 30
0.0
  0
VERTEX
  5
E19
  8
CLUSTERS
 10
731935.74123399984
 20
4561055.7620799998
 30
0.0
  0
VERTEX
  5
E1A
  8
CLUSTERS
 10
732031.74603200005
 20
4561151.6449399991
 30
0.0
  0
VERTEX
  5
E1B
  8
CLUSTERS
 10
732132.27513199998
 20
4561131.6912099989
 30
0.0
  0
VERTEX
  5
E1C
  8
CLUSTERS
 10
732181.81795500033
 20
4561156.1338299988
 30
0.0
  0
VERTEX
  5
E1D
  8
CLUSTERS
 10
732165.69123899995
 20
4561256.5055799987
 30
0.0
  0
VERTEX
  5
E1E
  8
CLUSTERS
 10
732152.430758
 20
4561356.87732
 30
0.0
  0
VERTEX
  5
E1F
  8
CLUSTERS
 10
732232.80423300026
 20
4561437.1268600002
 30
0.0
  0
VERTEX
  5
E20
  8
CLUSTERS
 10
732313.43113000016
 20
4561356.87732
 30
0.0
  0
VERTEX
  5
E21
  8
CLUSTERS
 10
732333.33333299984
 20
4561347.8740100004
 30
0.0
  0
VERTEX
  5
E22
  8
CLUSTERS
 10
732424.85284099996
 20
4561256.5055799987
 30
0.0
  0
VERTEX
  5
E23
  8
CLUSTERS
 10
732333.33333299984
 20
4561165.1017100001
 30
0.0
  0
VERTEX
  5
E24
  8
CLUSTERS
 10
732283.94065
 20
4561156.1338299988
 30
0.0
  0
VERTEX
  5
E25
  8
CLUSTERS
 10
732327.24106899987
 20
4561055.7620799998
 30
0.0
  0
VERTEX
  5
E26
  8
CLUSTERS
 10
732316.94087499985
 20
4560955.3903299998
 30
0.0
  0
VERTEX
  5
E27
  8
CLUSTERS
 10
732313.5226899999
 20
4560855.0185900005
 30
0.0
  0
VERTEX
  5
E28
  8
CLUSTERS
 10
732300.38612399995
 20
4560754.6468399996
 30
0.0
  0
VERTEX
  5
E29
  8
CLUSTERS
 10
732288.21989511943
 20
4560668.4971845057
 30
0.0
  0
VERTEX
  5
E2A
  8
CLUSTERS
 10
732232.80423300026
 20
4560557.8152900012
 30
0.0
  0
VERTEX
  5
E2B
  8
CLUSTERS
 10
732136.25123499986
 20
4560654.2750899997
 30
0.0
  0
SEQEND
  5
E2C
  8
CLUSTERS
  0
POLYLINE
  5
E1
  8
CLUSTERS
 66
     1
 10
0.0
 20
0.0
 30
0.0
 70
   129
  0
VERTEX
  5
E2D
  8
CLUSTERS
 10
740880.14239600033
 20
4560553.9033500003
 30
0.0
  0
VERTEX
  5
E2E
  8
CLUSTERS
 10
740978.83597899985
 20
4560651.0440100003
 30
0.0
  0
VERTEX
  5
E2F
  8
CLUSTERS
 10
741079.36507900013
 20
4560652.9343900001
 30
0.0
  0
VERTEX
  5
E30
  8
CLUSTERS
 10
741179.89417999994
 20
4560623.6255699992
 30
0.0
  0
VERTEX
  5
E31
  8
CLUSTERS
 10
741280.42328000022
 20
4560653.5273399996
 30
0.0
  0
VERTEX
  5
E32
  8
CLUSTERS
 10
741379.87244399986
 20
4560553.9033500003
 30
0.0
  0
VERTEX
  5
E33
  8
CLUSTERS
 10
741280.42328000022
 20
4560454.0767700002
 30
0.0
  0
VERTEX
  5
E34
  8
CLUSTERS
 10
741179.89417999994
 20
4560482.36821
 30
0.0
  0
VERTEX
  5
E35
  8
CLUSTERS
 10
741079.36507900013
 20
4560454.6857899986
 30
0.0
  0
VERTEX
  5
E36
  8
CLUSTERS
 10
740978.83597899985
 20
4560456.4782199999
 30
0.0
  0
VERTEX
  5
E37
  8
CLUSTERS
 10
740880.14239600033
 20
4560553.9033500003
 30
0.0
  0
SEQEND
  5
E38
  8
CLUSTERS
  0
POLYLINE
  5
E2
  8
CLUSTERS
 66
     1
 10
0.0
 20
0.0
 30
0.0
 70
   129
  0
VERTEX
  5
E39
  8
CLUSTERS
 10
732939.71565799986
 20
4560453.5316000022
 30
0.0
  0
VERTEX
  5
E3A
  8
CLUSTERS
 10
732936.50793700013
 20
4560473.4237799998
 30
0.0
  0
VERTEX
  5
E3B
  8
CLUSTERS
 10
732903.59286684426
 20
4560523.7859958811
 30
0.0
  0
VERTEX
  5
E3C
  8
CLUSTERS
 10
732947.03102949494
 20
4560567.1993330196
 30
0.0
  0
VERTEX
  5
E3D
  8
CLUSTERS
 10
733017.12676599994
 20
4560553.9033500003
 30
0.0
  0
VERTEX
  5
E3E
  8
CLUSTERS
 10
733037.03703699994
 20
4560550.7031899989
 30
0.0
  0
VERTEX
  5
E3F
  8
CLUSTERS
 10
733137.56613799999
 20
4560548.035910001
 30
0.0
  0
VERTEX
  5
E40
  8
CLUSTERS
 10
733232.21870300011
 20
4560453.5316000022
 30
0.0
  0
VERTEX
  5
E41
  8
CLUSTERS
 10
733137.56613799999
 20
4560359.0214600004
 30
0.0
  0
VERTEX
  5
E42
  8
CLUSTERS
 10
733037.03703699994
 20
4560356.3603600003
 30
0.0
  0
VERTEX
  5
E43
  8
CLUSTERS
 10
732939.71565799986
 20
4560453.5316000022
 30
0.0
  0
SEQEND
  5
E44
  8
CLUSTERS
  0
POLYLINE
  5
E3
  8
CLUSTERS
 66
     1
 10
0.0
 20
0.0
 30
0.0
 70
   129
  0
VERTEX
  5
E45
  8
CLUSTERS
 10
737359.13841500005
 20
4560353.1598500004
 30
0.0
  0
VERTEX
  5
E46
  8
CLUSTERS
 10
737268.36305199983
 20
4560453.5316000022
 30
0.0
  0
VERTEX
  5
E47
  8
CLUSTERS
 10
737335.33419022686
 20
4560474.2796986923
 30
0.0
  0
VERTEX
  5
E48
  8
CLUSTERS
 10
737452.97904030595
 20
4560474.2796986923
 30
0.0
  0
VERTEX
  5
E49
  8
CLUSTERS
 10
737509.0865801794
 20
4560479.7063820437
 30
0.0
  0
VERTEX
  5
E4A
  8
CLUSTERS
 10
737563.38415316725
 20
4560443.5286010951
 30
0.0
  0
VERTEX
  5
E4B
  8
CLUSTERS
 10
737560.8465610001
 20
4560378.037849999
 30
0.0
  0
VERTEX
  5
E4C
  8
CLUSTERS
 10
737554.18828900007
 20
4560353.1598500004
 30
0.0
  0
VERTEX
  5
E4D
  8
CLUSTERS
 10
737460.31746000005
 20
4560259.4580699988
 30
0.0
  0
VERTEX
  5
E4E
  8
CLUSTERS
 10
737359.78836000001
 20
4560352.5108999992
 30
0.0
  0
VERTEX
  5
E4F
  8
CLUSTERS
 10
737359.13841500005
 20
4560353.1598500004
 30
0.0
  0
SEQEND
  5
E50
  8
CLUSTERS
  0
POLYLINE
  5
E4
  8
CLUSTERS
 66
     1
 10
0.0
 20
0.0
 30
0.0
 70
   129
  0
VERTEX
  5
E51
  8
CLUSTERS
 10
739355.6882902995
 20
4560178.1918963473
 30
0.0
  0
VERTEX
  5
E52
  8
CLUSTERS
 10
739436.19164629944
 20
4560258.3462863481
 30
0.0
  0
VERTEX
  5
E53
  8
CLUSTERS
 10
739516.42013729946
 20
4560178.1918963473
 30
0.0
  0
VERTEX
  5
E54
  8
CLUSTERS
 10
739436.19164629944
 20
4560098.0135663478
 30
0.0
  0
VERTEX
  5
E55
  8
CLUSTERS
 10
739355.6882902995
 20
4560178.1918963473
 30
0.0
  0
SEQEND
  5
E56
  8
CLUSTERS
  0
POLYLINE
  5
E5
  8
CLUSTERS
 66
     1
 10
0.0
 20
0.0
 30
0.0
 70
   129
  0
VERTEX
  5
E57
  8
CLUSTERS
 10
732442.46514600015
 20
4560152.4163600001
 30
0.0
  0
VERTEX
  5
E58
  8
CLUSTERS
 10
732433.86243400013
 20
4560153.68353
 30
0.0
  0
VERTEX
  5
E59
  8
CLUSTERS
 10
732334.69451900001
 20
4560252.7880999986
 30
0.0
  0
VERTEX
  5
E5A
  8
CLUSTERS
 10
732339.17937200004
 20
4560353.1598500004
 30
0.0
  0
VERTEX
  5
E5B
  8
CLUSTERS
 10
732402.24494175264
 20
4560368.2215702171
 30
0.0
  0
VERTEX
  5
E5C
  8
CLUSTERS
 10
732469.21202228905
 20
4560453.2393068234
 30
0.0
  0
VERTEX
  5
E5D
  8
CLUSTERS
 10
732585.04690548196
 20
4560476.7549130637
 30
0.0
  0
VERTEX
  5
E5E
  8
CLUSTERS
 10
732675.54290390376
 20
4560482.1815964123
 30
0.0
  0
VERTEX
  5
E5F
  8
CLUSTERS
 10
732742.50998444029
 20
4560480.3726587426
 30
0.0
  0
VERTEX
  5
E60
  8
CLUSTERS
 10
732811.61281100032
 20
4560453.5316000022
 30
0.0
  0
VERTEX
  5
E61
  8
CLUSTERS
 10
732763.81185900012
 20
4560353.1598500004
 30
0.0
  0
VERTEX
  5
E62
  8
CLUSTERS
 10
732812.22770400008
 20
4560252.7880999986
 30
0.0
  0
VERTEX
  5
E63
  8
CLUSTERS
 10
732816.19387299998
 20
4560152.4163600001
 30
0.0
  0
VERTEX
  5
E64
  8
CLUSTERS
 10
732728.03064033214
 20
4560147.5370740136
 30
0.0
  0
VERTEX
  5
E65
  8
CLUSTERS
 10
732652.11756399996
 20
4560152.4163600001
 30
0.0
  0
VERTEX
  5
E66
  8
CLUSTERS
 10
732634.92063499987
 20
4560153.4171699993
 30
0.0
  0
VERTEX
  5
E67
  8
CLUSTERS
 10
732626.66408699995
 20
4560152.4163600001
 30
0.0
  0
VERTEX
  5
E68
  8
CLUSTERS
 10
732539.79890627123
 20
4560131.2570239631
 30
0.0
  0
VERTEX
  5
E69
  8
CLUSTERS
 10
732442.46514600015
 20
4560152.4163600001
 30
0.0
  0
SEQEND
  5
E6A
  8
CLUSTERS
  0
POLYLINE
  5
E6
  8
CLUSTERS
 66
     1
 10
0.0
 20
0.0
 30
0.0
 70
   129
  0
VERTEX
  5
E6B
  8
CLUSTERS
 10
733610.58772292989
 20
4560045.2448319439
 30
0.0
  0
VERTEX
  5
E6C
  8
CLUSTERS
 10
733685.97615392983
 20
4560120.5155919446
 30
0.0
  0
VERTEX
  5
E6D
  8
CLUSTERS
 10
733761.3667279298
 20
4560045.2448319439
 30
0.0
  0
VERTEX
  5
E6E
  8
CLUSTERS
 10
733685.97615392983
 20
4559969.9734219434
 30
0.0
  0
VERTEX
  5
E6F
  8
CLUSTERS
 10
733610.58772292989
 20
4560045.2448319439
 30
0.0
  0
SEQEND
  5
E70
  8
CLUSTERS
  0
POLYLINE
  5
E7
  8
CLUSTERS
 66
     1
 10
0.0
 20
0.0
 30
0.0
 70
   129
  0
VERTEX
  5
E71
  8
CLUSTERS
 10
733181.82757623261
 20
4560037.5005403971
 30
0.0
  0
VERTEX
  5
E72
  8
CLUSTERS
 10
733269.79216523306
 20
4560125.3293803968
 30
0.0
  0
VERTEX
  5
E73
  8
CLUSTERS
 10
733357.76517923281
 20
4560037.5005403971
 30
0.0
  0
VERTEX
  5
E74
  8
CLUSTERS
 10
733269.79216523306
 20
4559949.6712003984
 30
0.0
  0
VERTEX
  5
E75
  8
CLUSTERS
 10
733181.82757623261
 20
4560037.5005403971
 30
0.0
  0
SEQEND
  5
E76
  8
CLUSTERS
  0
POLYLINE
  5
E8
  8
CLUSTERS
 66
     1
 10
0.0
 20
0.0
 30
0.0
 70
   129
  0
VERTEX
  5
E77
  8
CLUSTERS
 10
731895.46711600374
 20
4560080.6081306329
 30
0.0
  0
VERTEX
  5
E78
  8
CLUSTERS
 10
731966.0539999858
 20
4560147.5370740136
 30
0.0
  0
VERTEX
  5
E79
  8
CLUSTERS
 10
732022.77814499999
 20
4560052.0446100002
 30
0.0
  0
VERTEX
  5
E7A
  8
CLUSTERS
 10
731946.14488554595
 20
4560017.2969977679
 30
0.0
  0
VERTEX
  5
E7B
  8
CLUSTERS
 10
731895.46711600374
 20
4560080.6081306329
 30
0.0
  0
SEQEND
  5
E7C
  8
CLUSTERS
  0
POLYLINE
  5
E9
  8
CLUSTERS
 66
     1
 10
0.0
 20
0.0
 30
0.0
 70
   129
  0
VERTEX
  5
E7D
  8
CLUSTERS
 10
732668.34203900013
 20
4559951.6728600003
 30
0.0
  0
VERTEX
  5
E7E
  8
CLUSTERS
 10
732749.74959133146
 20
4559991.9725835184
 30
0.0
  0
VERTEX
  5
E7F
  8
CLUSTERS
 10
732802.5006439999
 20
4559951.6728600003
 30
0.0
  0
VERTEX
  5
E80
  8
CLUSTERS
 10
732735.44973500003
 20
4559884.7515500002
 30
0.0
  0
VERTEX
  5
E81
  8
CLUSTERS
 10
732668.34203900013
 20
4559951.6728600003
 30
0.0
  0
SEQEND
  5
E82
  8
CLUSTERS
  0
POLYLINE
  5
EA
  8
CLUSTERS
 66
     1
 10
0.0
 20
0.0
 30
0.0
 70
   129
  0
VERTEX
  5
E83
  8
CLUSTERS
 10
730908.16295573825
 20
4559787.3839629563
 30
0.0
  0
VERTEX
  5
E84
  8
CLUSTERS
 10
730957.26997273858
 20
4559836.4755829563
 30
0.0
  0
VERTEX
  5
E85
  8
CLUSTERS
 10
731006.74390273856
 20
4559787.3839629563
 30
0.0
  0
VERTEX
  5
E86
  8
CLUSTERS
 10
730957.26997273858
 20
4559738.2812329559
 30
0.0
  0
VERTEX
  5
E87
  8
CLUSTERS
 10
730908.16295573825
 20
4559787.3839629563
 30
0.0
  0
SEQEND
  5
E88
  8
CLUSTERS
  0
POLYLINE
  5
EB
  8
CLUSTERS
 66
     1
 10
0.0
 20
0.0
 30
0.0
 70
   129
  0
VERTEX
  5
E89
  8
CLUSTERS
 10
731964.72721899999
 20
4559650.5576200001
 30
0.0
  0
VERTEX
  5
E8A
  8
CLUSTERS
 10
731908.76648890111
 20
4559680.8017211659
 30
0.0
  0
VERTEX
  5
E8B
  8
CLUSTERS
 10
731830.68783099996
 20
4559675.6824899986
 30
0.0
  0
VERTEX
  5
E8C
  8
CLUSTERS
 10
731730.15873000014
 20
4559701.0533100003
 30
0.0
  0
VERTEX
  5
E8D
  8
CLUSTERS
 10
731680.27313700016
 20
4559750.9293699991
 30
0.0
  0
VERTEX
  5
E8E
  8
CLUSTERS
 10
731730.15873000014
 20
4559800.7898599999
 30
0.0
  0
VERTEX
  5
E8F
  8
CLUSTERS
 10
731830.68783099996
 20
4559826.1656999998
 30
0.0
  0
VERTEX
  5
E90
  8
CLUSTERS
 10
731930.48557022621
 20
4559800.1884307116
 30
0.0
  0
VERTEX
  5
E91
  8
CLUSTERS
 10
732031.74603200005
 20
4559851.2795200003
 30
0.0
  0
VERTEX
  5
E92
  8
CLUSTERS
 10
732107.41127699998
 20
4559750.9293699991
 30
0.0
  0
VERTEX
  5
E93
  8
CLUSTERS
 10
732132.27513199998
 20
4559717.8500399999
 30
0.0
  0
VERTEX
  5
E94
  8
CLUSTERS
 10
732139.35528300016
 20
4559750.9293699991
 30
0.0
  0
VERTEX
  5
E95
  8
CLUSTERS
 10
732232.80423300026
 20
4559844.1804299988
 30
0.0
  0
VERTEX
  5
E96
  8
CLUSTERS
 10
732290.0298620055
 20
4559751.3902915856
 30
0.0
  0
VERTEX
  5
E97
  8
CLUSTERS
 10
732232.80423300026
 20
4559657.6397299999
 30
0.0
  0
VERTEX
  5
E98
  8
CLUSTERS
 10
732199.62900300021
 20
4559650.5576200001
 30
0.0
  0
VERTEX
  5
E99
  8
CLUSTERS
 10
732132.27513199998
 20
4559583.6166099999
 30
0.0
  0
VERTEX
  5
E9A
  8
CLUSTERS
 10
732031.74603200005
 20
4559583.6774299992
 30
0.0
  0
VERTEX
  5
E9B
  8
CLUSTERS
 10
731964.72721899999
 20
4559650.5576200001
 30
0.0
  0
SEQEND
  5
E9C
  8
CLUSTERS
  0
POLYLINE
  5
EC
  8
CLUSTERS
 66
     1
 10
0.0
 20
0.0
 30
0.0
 70
   129
  0
VERTEX
  5
E9D
  8
CLUSTERS
 10
730375.36157982191
 20
4559601.7786205811
 30
0.0
  0
VERTEX
  5
E9E
  8
CLUSTERS
 10
730468.07403082214
 20
4559694.5318705803
 30
0.0
  0
VERTEX
  5
E9F
  8
CLUSTERS
 10
730562.06758882175
 20
4559601.7786205811
 30
0.0
  0
VERTEX
  5
EA0
  8
CLUSTERS
 10
730468.07403082214
 20
4559508.9987105802
 30
0.0
  0
VERTEX
  5
EA1
  8
CLUSTERS
 10
730375.36157982191
 20
4559601.7786205811
 30
0.0
  0
SEQEND
  5
EA2
  8
CLUSTERS
  0
POLYLINE
  5
ED
  8
CLUSTERS
 66
     1
 10
0.0
 20
0.0
 30
0.0
 70
   129
  0
VERTEX
  5
EA3
  8
CLUSTERS
 10
732366.79599499982
 20
4559550.1858700002
 30
0.0
  0
VERTEX
  5
EA4
  8
CLUSTERS
 10
732404.05477831233
 20
4559639.2391382279
 30
0.0
  0
VERTEX
  5
EA5
  8
CLUSTERS
 10
732447.4929409636
 20
4559720.6391939865
 30
0.0
  0
VERTEX
  5
EA6
  8
CLUSTERS
 10
732490.93097328872
 20
4559774.9058329938
 30
0.0
  0
VERTEX
  5
EA7
  8
CLUSTERS
 10
732534.39153399982
 20
4559801.3219900001
 30
0.0
  0
VERTEX
  5
EA8
  8
CLUSTERS
 10
732584.87386600033
 20
4559750.9293699991
 30
0.0
  0
VERTEX
  5
EA9
  8
CLUSTERS
 10
732624.94838199986
 20
4559650.5576200001
 30
0.0
  0
VERTEX
  5
EAA
  8
CLUSTERS
 10
732534.39153399982
 20
4559560.1377999997
 30
0.0
  0
VERTEX
  5
EAB
  8
CLUSTERS
 10
732501.10317000002
 20
4559550.1858700002
 30
0.0
  0
VERTEX
  5
EAC
  8
CLUSTERS
 10
732433.86243400013
 20
4559483.2491999986
 30
0.0
  0
VERTEX
  5
EAD
  8
CLUSTERS
 10
732366.79599499982
 20
4559550.1858700002
 30
0.0
  0
SEQEND
  5
EAE
  8
CLUSTERS
  0
POLYLINE
  5
EE
  8
CLUSTERS
 66
     1
 10
0.0
 20
0.0
 30
0.0
 70
   129
  0
VERTEX
  5
EAF
  8
CLUSTERS
 10
734496.19183358795
 20
4559313.3545440538
 30
0.0
  0
VERTEX
  5
EB0
  8
CLUSTERS
 10
734546.45520058763
 20
4559363.5391840553
 30
0.0
  0
VERTEX
  5
EB1
  8
CLUSTERS
 10
734646.9843015878
 20
4559363.5397140561
 30
0.0
  0
VERTEX
  5
EB2
  8
CLUSTERS
 10
734697.24804358755
 20
4559313.3545440538
 30
0.0
  0
VERTEX
  5
EB3
  8
CLUSTERS
 10
734646.9843015878
 20
4559263.1693340549
 30
0.0
  0
VERTEX
  5
EB4
  8
CLUSTERS
 10
734546.45520058763
 20
4559263.1698640538
 30
0.0
  0
VERTEX
  5
EB5
  8
CLUSTERS
 10
734496.19183358795
 20
4559313.3545440538
 30
0.0
  0
SEQEND
  5
EB6
  8
CLUSTERS
  0
POLYLINE
  5
EF
  8
CLUSTERS
 66
     1
 10
0.0
 20
0.0
 30
0.0
 70
   129
  0
VERTEX
  5
EB7
  8
CLUSTERS
 10
731839.76681099995
 20
4559349.4423799999
 30
0.0
  0
VERTEX
  5
EB8
  8
CLUSTERS
 10
731830.68783099996
 20
4559374.3636899991
 30
0.0
  0
VERTEX
  5
EB9
  8
CLUSTERS
 10
731730.15873000014
 20
4559374.47903
 30
0.0
  0
VERTEX
  5
EBA
  8
CLUSTERS
 10
731654.8954739999
 20
4559449.8141299989
 30
0.0
  0
VERTEX
  5
EBB
  8
CLUSTERS
 10
731730.15873000014
 20
4559525.0064899996
 30
0.0
  0
VERTEX
  5
EBC
  8
CLUSTERS
 10
731830.68783099996
 20
4559525.1271900004
 30
0.0
  0
VERTEX
  5
EBD
  8
CLUSTERS
 10
731906.43567200005
 20
4559449.8141299989
 30
0.0
  0
VERTEX
  5
EBE
  8
CLUSTERS
 10
731931.21693100012
 20
4559440.8279600004
 30
0.0
  0
VERTEX
  5
EBF
  8
CLUSTERS
 10
732022.77286300005
 20
4559349.4423799999
 30
0.0
  0
VERTEX
  5
EC0
  8
CLUSTERS
 10
731931.21693100012
 20
4559258.1513400003
 30
0.0
  0
VERTEX
  5
EC1
  8
CLUSTERS
 10
731839.76681099995
 20
4559349.4423799999
 30
0.0
  0
SEQEND
  5
EC2
  8
CLUSTERS
  0
POLYLINE
  5
F0
  8
CLUSTERS
 66
     1
 10
0.0
 20
0.0
 30
0.0
 70
   129
  0
VERTEX
  5
EC3
  8
CLUSTERS
 10
731228.72502286325
 20
4559377.0221398529
 30
0.0
  0
VERTEX
  5
EC4
  8
CLUSTERS
 10
731278.14042786311
 20
4559426.4160198523
 30
0.0
  0
VERTEX
  5
EC5
  8
CLUSTERS
 10
731327.81337686314
 20
4559377.0221398529
 30
0.0
  0
VERTEX
  5
EC6
  8
CLUSTERS
 10
731278.14042786311
 20
4559327.6323598521
 30
0.0
  0
VERTEX
  5
EC7
  8
CLUSTERS
 10
731228.72502286325
 20
4559377.0221398529
 30
0.0
  0
SEQEND
  5
EC8
  8
CLUSTERS
  0
POLYLINE
  5
F1
  8
CLUSTERS
 66
     1
 10
0.0
 20
0.0
 30
0.0
 70
   129
  0
VERTEX
  5
EC9
  8
CLUSTERS
 10
729854.76749100012
 20
4559249.07063
 30
0.0
  0
VERTEX
  5
ECA
  8
CLUSTERS
 10
729820.10820999998
 20
4559349.4423799999
 30
0.0
  0
VERTEX
  5
ECB
  8
CLUSTERS
 10
729852.95204600005
 20
4559449.8141299989
 30
0.0
  0
VERTEX
  5
ECC
  8
CLUSTERS
 10
729920.63492100022
 20
4559509.8405200001
 30
0.0
  0
VERTEX
  5
ECD
  8
CLUSTERS
 10
730021.16402100015
 20
4559459.3896699985
 30
0.0
  0
VERTEX
  5
ECE
  8
CLUSTERS
 10
730031.02898099995
 20
4559449.8141299989
 30
0.0
  0
VERTEX
  5
ECF
  8
CLUSTERS
 10
730113.80094400013
 20
4559349.4423799999
 30
0.0
  0
VERTEX
  5
ED0
  8
CLUSTERS
 10
730028.05562699994
 20
4559249.07063
 30
0.0
  0
VERTEX
  5
ED1
  8
CLUSTERS
 10
730021.16402100015
 20
4559242.3908399986
 30
0.0
  0
VERTEX
  5
ED2
  8
CLUSTERS
 10
729920.63492100022
 20
4559190.8638300002
 30
0.0
  0
VERTEX
  5
ED3
  8
CLUSTERS
 10
729854.76749100012
 20
4559249.07063
 30
0.0
  0
SEQEND
  5
ED4
  8
CLUSTERS
  0
POLYLINE
  5
F2
  8
CLUSTERS
 66
     1
 10
0.0
 20
0.0
 30
0.0
 70
   129
  0
VERTEX
  5
ED5
  8
CLUSTERS
 10
728772.36847612599
 20
4557716.4085722733
 30
0.0
  0
VERTEX
  5
ED6
  8
CLUSTERS
 10
728846.37926259718
 20
4557792.062732283
 30
0.0
  0
VERTEX
  5
ED7
  8
CLUSTERS
 10
728898.03708333371
 20
4557706.875849437
 30
0.0
  0
VERTEX
  5
ED8
  8
CLUSTERS
 10
728822.57726312615
 20
4557666.2766422741
 30
0.0
  0
VERTEX
  5
ED9
  8
CLUSTERS
 10
728772.36847612599
 20
4557716.4085722733
 30
0.0
  0
SEQEND
  5
EDA
  8
CLUSTERS
  0
POLYLINE
  5
F3
  8
CLUSTERS
 66
     1
 10
0.0
 20
0.0
 30
0.0
 70
   129
  0
VERTEX
  5
EDB
  8
CLUSTERS
 10
732282.47586300003
 20
4559148.69888
 30
0.0
  0
VERTEX
  5
EDC
  8
CLUSTERS
 10
732283.1024150002
 20
4559249.07063
 30
0.0
  0
VERTEX
  5
EDD
  8
CLUSTERS
 10
732333.33333299984
 20
4559299.1248799991
 30
0.0
  0
VERTEX
  5
EDE
  8
CLUSTERS
 10
732456.41870508192
 20
4559247.6721409764
 30
0.0
  0
VERTEX
  5
EDF
  8
CLUSTERS
 10
732456.41870508192
 20
4559132.0142988637
 30
0.0
  0
VERTEX
  5
EE0
  8
CLUSTERS
 10
732333.33333299984
 20
4559098.5937700002
 30
0.0
  0
VERTEX
  5
EE1
  8
CLUSTERS
 10
732282.47586300003
 20
4559148.69888
 30
0.0
  0
SEQEND
  5
EE2
  8
CLUSTERS
  0
POLYLINE
  5
F4
  8
CLUSTERS
 66
     1
 10
0.0
 20
0.0
 30
0.0
 70
   129
  0
VERTEX
  5
EE3
  8
CLUSTERS
 10
731562.62816600013
 20
4559148.69888
 30
0.0
  0
VERTEX
  5
EE4
  8
CLUSTERS
 10
731536.82967199991
 20
4559249.07063
 30
0.0
  0
VERTEX
  5
EE5
  8
CLUSTERS
 10
731629.62962999998
 20
4559341.7980800001
 30
0.0
  0
VERTEX
  5
EE6
  8
CLUSTERS
 10
731722.71105900011
 20
4559249.07063
 30
0.0
  0
VERTEX
  5
EE7
  8
CLUSTERS
 10
731696.91395300021
 20
4559148.69888
 30
0.0
  0
VERTEX
  5
EE8
  8
CLUSTERS
 10
731629.62962999998
 20
4559081.8172500003
 30
0.0
  0
VERTEX
  5
EE9
  8
CLUSTERS
 10
731562.62816600013
 20
4559148.69888
 30
0.0
  0
SEQEND
  5
EEA
  8
CLUSTERS
  0
POLYLINE
  5
F5
  8
CLUSTERS
 66
     1
 10
0.0
 20
0.0
 30
0.0
 70
   129
  0
VERTEX
  5
EEB
  8
CLUSTERS
 10
736507.32568840939
 20
4559053.1566880802
 30
0.0
  0
VERTEX
  5
EEC
  8
CLUSTERS
 10
736507.32568840939
 20
4559121.4999377923
 30
0.0
  0
VERTEX
  5
EED
  8
CLUSTERS
 10
736555.55555600033
 20
4559239.0400900003
 30
0.0
  0
VERTEX
  5
EEE
  8
CLUSTERS
 10
736656.08465600002
 20
4559248.0882399986
 30
0.0
  0
VERTEX
  5
EEF
  8
CLUSTERS
 10
736756.61375699996
 20
4559240.7135300003
 30
0.0
  0
VERTEX
  5
EF0
  8
CLUSTERS
 10
736848.77088800003
 20
4559148.69888
 30
0.0
  0
VERTEX
  5
EF1
  8
CLUSTERS
 10
736848.77110599994
 20
4559048.3271399997
 30
0.0
  0
VERTEX
  5
EF2
  8
CLUSTERS
 10
736756.61375699996
 20
4558956.3117199996
 30
0.0
  0
VERTEX
  5
EF3
  8
CLUSTERS
 10
736656.08465600002
 20
4558948.9571200013
 30
0.0
  0
VERTEX
  5
EF4
  8
CLUSTERS
 10
736555.55555600033
 20
4558949.2743699988
 30
0.0
  0
VERTEX
  5
EF5
  8
CLUSTERS
 10
736507.32568840939
 20
4559053.1566880802
 30
0.0
  0
SEQEND
  5
EF6
  8
CLUSTERS
  0
POLYLINE
  5
F6
  8
CLUSTERS
 66
     1
 10
0.0
 20
0.0
 30
0.0
 70
   129
  0
VERTEX
  5
EF7
  8
CLUSTERS
 10
736191.71531922079
 20
4559021.6136048669
 30
0.0
  0
VERTEX
  5
EF8
  8
CLUSTERS
 10
736244.3170908608
 20
4559084.6997064613
 30
0.0
  0
VERTEX
  5
EF9
  8
CLUSTERS
 10
736302.17894843651
 20
4559089.9569194121
 30
0.0
  0
VERTEX
  5
EFA
  8
CLUSTERS
 10
736360.04080601258
 20
4559042.6423270097
 30
0.0
  0
VERTEX
  5
EFB
  8
CLUSTERS
 10
736354.49735399976
 20
4558950.0454000002
 30
0.0
  0
VERTEX
  5
EFC
  8
CLUSTERS
 10
736253.96825399995
 20
4558948.5524500003
 30
0.0
  0
VERTEX
  5
EFD
  8
CLUSTERS
 10
736191.71531922079
 20
4559021.6136048669
 30
0.0
  0
SEQEND
  5
EFE
  8
CLUSTERS
  0
POLYLINE
  5
F7
  8
CLUSTERS
 66
     1
 10
0.0
 20
0.0
 30
0.0
 70
   129
  0
VERTEX
  5
EFF
  8
CLUSTERS
 10
735659.93264199991
 20
4559048.3271399997
 30
0.0
  0
VERTEX
  5
F00
  8
CLUSTERS
 10
735751.32275100006
 20
4559139.5741900001
 30
0.0
  0
VERTEX
  5
F01
  8
CLUSTERS
 10
735851.85185199999
 20
4559123.6060100002
 30
0.0
  0
VERTEX
  5
F02
  8
CLUSTERS
 10
735927.24887500005
 20
4559048.3271399997
 30
0.0
  0
VERTEX
  5
F03
  8
CLUSTERS
 10
735851.85185199999
 20
4558973.0475500003
 30
0.0
  0
VERTEX
  5
F04
  8
CLUSTERS
 10
735751.32275100006
 20
4558957.0795099987
 30
0.0
  0
VERTEX
  5
F05
  8
CLUSTERS
 10
735659.93264199991
 20
4559048.3271399997
 30
0.0
  0
SEQEND
  5
F06
  8
CLUSTERS
  0
POLYLINE
  5
F8
  8
CLUSTERS
 66
     1
 10
0.0
 20
0.0
 30
0.0
 70
   129
  0
VERTEX
  5
F07
  8
CLUSTERS
 10
734808.1599939405
 20
4558883.0341150938
 30
0.0
  0
VERTEX
  5
F08
  8
CLUSTERS
 10
734908.68898794055
 20
4558958.3128450923
 30
0.0
  0
VERTEX
  5
F09
  8
CLUSTERS
 10
734984.08571294055
 20
4558883.0341150938
 30
0.0
  0
VERTEX
  5
F0A
  8
CLUSTERS
 10
734908.68898794055
 20
4558807.7552850917
 30
0.0
  0
VERTEX
  5
F0B
  8
CLUSTERS
 10
734808.1599939405
 20
4558883.0341150938
 30
0.0
  0
SEQEND
  5
F0C
  8
CLUSTERS
  0
POLYLINE
  5
F9
  8
CLUSTERS
 66
     1
 10
0.0
 20
0.0
 30
0.0
 70
   129
  0
VERTEX
  5
F0D
  8
CLUSTERS
 10
732038.41637999995
 20
4558847.5836399999
 30
0.0
  0
VERTEX
  5
F0E
  8
CLUSTERS
 10
732031.74603200005
 20
4558947.4454199998
 30
0.0
  0
VERTEX
  5
F0F
  8
CLUSTERS
 10
732031.23803000012
 20
4558947.9553899989
 30
0.0
  0
VERTEX
  5
F10
  8
CLUSTERS
 10
731956.2874439999
 20
4559048.3271399997
 30
0.0
  0
VERTEX
  5
F11
  8
CLUSTERS
 10
732031.74603200005
 20
4559123.8161399998
 30
0.0
  0
VERTEX
  5
F12
  8
CLUSTERS
 10
732040.04123399989
 20
4559148.69888
 30
0.0
  0
VERTEX
  5
F13
  8
CLUSTERS
 10
732132.27513199998
 20
4559240.7721699988
 30
0.0
  0
VERTEX
  5
F14
  8
CLUSTERS
 10
732224.61785500031
 20
4559148.69888
 30
0.0
  0
VERTEX
  5
F15
  8
CLUSTERS
 10
732227.39984900004
 20
4559048.3271399997
 30
0.0
  0
VERTEX
  5
F16
  8
CLUSTERS
 10
732183.47698299971
 20
4558947.9553899989
 30
0.0
  0
VERTEX
  5
F17
  8
CLUSTERS
 10
732226.25146900001
 20
4558847.5836399999
 30
0.0
  0
VERTEX
  5
F18
  8
CLUSTERS
 10
732132.27513199998
 20
4558753.8594899997
 30
0.0
  0
VERTEX
  5
F19
  8
CLUSTERS
 10
732038.41637999995
 20
4558847.5836399999
 30
0.0
  0
SEQEND
  5
F1A
  8
CLUSTERS
  0
POLYLINE
  5
FA
  8
CLUSTERS
 66
     1
 10
0.0
 20
0.0
 30
0.0
 70
   129
  0
VERTEX
  5
F1B
  8
CLUSTERS
 10
731747.00361599994
 20
4558847.5836399999
 30
0.0
  0
VERTEX
  5
F1C
  8
CLUSTERS
 10
731830.68783099996
 20
4558931.2170299999
 30
0.0
  0
VERTEX
  5
F1D
  8
CLUSTERS
 10
731914.57495500031
 20
4558847.5836399999
 30
0.0
  0
VERTEX
  5
F1E
  8
CLUSTERS
 10
731830.68783099996
 20
4558763.9937300002
 30
0.0
  0
VERTEX
  5
F1F
  8
CLUSTERS
 10
731747.00361599994
 20
4558847.5836399999
 30
0.0
  0
SEQEND
  5
F20
  8
CLUSTERS
  0
POLYLINE
  5
FB
  8
CLUSTERS
 66
     1
 10
0.0
 20
0.0
 30
0.0
 70
   129
  0
VERTEX
  5
F21
  8
CLUSTERS
 10
735552.09221999999
 20
4558747.2119000005
 30
0.0
  0
VERTEX
  5
F22
  8
CLUSTERS
 10
735650.79365100001
 20
4558845.7589999987
 30
0.0
  0
VERTEX
  5
F23
  8
CLUSTERS
 10
735651.55511200009
 20
4558847.5836399999
 30
0.0
  0
VERTEX
  5
F24
  8
CLUSTERS
 10
735751.32275100006
 20
4558947.1950500002
 30
0.0
  0
VERTEX
  5
F25
  8
CLUSTERS
 10
735851.09046600026
 20
4558847.5836399999
 30
0.0
  0
VERTEX
  5
F26
  8
CLUSTERS
 10
735851.70917800011
 20
4558747.2119000005
 30
0.0
  0
VERTEX
  5
F27
  8
CLUSTERS
 10
735751.32275100006
 20
4558646.9825999998
 30
0.0
  0
VERTEX
  5
F28
  8
CLUSTERS
 10
735650.79365100001
 20
4558648.6646100003
 30
0.0
  0
VERTEX
  5
F29
  8
CLUSTERS
 10
735552.09221999999
 20
4558747.2119000005
 30
0.0
  0
SEQEND
  5
F2A
  8
CLUSTERS
  0
POLYLINE
  5
FC
  8
CLUSTERS
 66
     1
 10
0.0
 20
0.0
 30
0.0
 70
   129
  0
VERTEX
  5
F2B
  8
CLUSTERS
 10
730225.49141100002
 20
4558646.8401499987
 30
0.0
  0
VERTEX
  5
F2C
  8
CLUSTERS
 10
730222.22222200001
 20
4558650.1889899988
 30
0.0
  0
VERTEX
  5
F2D
  8
CLUSTERS
 10
730173.91309499985
 20
4558747.2119000005
 30
0.0
  0
VERTEX
  5
F2E
  8
CLUSTERS
 10
730222.22222200001
 20
4558795.6224800004
 30
0.0
  0
VERTEX
  5
F2F
  8
CLUSTERS
 10
730322.7513230003
 20
4558748.1723499987
 30
0.0
  0
VERTEX
  5
F30
  8
CLUSTERS
 10
730323.72453699994
 20
4558747.2119000005
 30
0.0
  0
VERTEX
  5
F31
  8
CLUSTERS
 10
730372.51611700002
 20
4558646.8401499987
 30
0.0
  0
VERTEX
  5
F32
  8
CLUSTERS
 10
730322.7513230003
 20
4558597.8384999987
 30
0.0
  0
VERTEX
  5
F33
  8
CLUSTERS
 10
730225.49141100002
 20
4558646.8401499987
 30
0.0
  0
SEQEND
  5
F34
  8
CLUSTERS
  0
POLYLINE
  5
FD
  8
CLUSTERS
 66
     1
 10
0.0
 20
0.0
 30
0.0
 70
   129
  0
VERTEX
  5
F35
  8
CLUSTERS
 10
734144.0368169999
 20
4558546.4683999978
 30
0.0
  0
VERTEX
  5
F36
  8
CLUSTERS
 10
734243.38624300004
 20
4558645.6626700005
 30
0.0
  0
VERTEX
  5
F37
  8
CLUSTERS
 10
734343.91534400021
 20
4558644.1312800013
 30
0.0
  0
VERTEX
  5
F38
  8
CLUSTERS
 10
734441.73019899998
 20
4558546.4683999978
 30
0.0
  0
VERTEX
  5
F39
  8
CLUSTERS
 10
734343.91534400021
 20
4558448.8048599986
 30
0.0
  0
VERTEX
  5
F3A
  8
CLUSTERS
 10
734243.38624300004
 20
4558447.2741799988
 30
0.0
  0
VERTEX
  5
F3B
  8
CLUSTERS
 10
734144.0368169999
 20
4558546.4683999978
 30
0.0
  0
SEQEND
  5
F3C
  8
CLUSTERS
  0
POLYLINE
  5
FE
  8
CLUSTERS
 66
     1
 10
0.0
 20
0.0
 30
0.0
 70
   129
  0
VERTEX
  5
F3D
  8
CLUSTERS
 10
732236.78825600003
 20
4558446.0966499997
 30
0.0
  0
VERTEX
  5
F3E
  8
CLUSTERS
 10
732282.42232000001
 20
4558546.4683999978
 30
0.0
  0
VERTEX
  5
F3F
  8
CLUSTERS
 10
732333.33333299984
 20
4558646.777759999
 30
0.0
  0
VERTEX
  5
F40
  8
CLUSTERS
 10
732439.49301244121
 20
4558632.5828287378
 30
0.0
  0
VERTEX
  5
F41
  8
CLUSTERS
 10
732485.12357600022
 20
4558546.4683999978
 30
0.0
  0
VERTEX
  5
F42
  8
CLUSTERS
 10
732531.55781300005
 20
4558446.0966499997
 30
0.0
  0
VERTEX
  5
F43
  8
CLUSTERS
 10
732433.86243400013
 20
4558348.6091799997
 30
0.0
  0
VERTEX
  5
F44
  8
CLUSTERS
 10
732333.33333299984
 20
4558349.6716499999
 30
0.0
  0
VERTEX
  5
F45
  8
CLUSTERS
 10
732236.78825600003
 20
4558446.0966499997
 30
0.0
  0
SEQEND
  5
F46
  8
CLUSTERS
  0
POLYLINE
  5
FF
  8
CLUSTERS
 66
     1
 10
0.0
 20
0.0
 30
0.0
 70
   129
  0
VERTEX
  5
F47
  8
CLUSTERS
 10
730976.9221239998
 20
4558345.7249100003
 30
0.0
  0
VERTEX
  5
F48
  8
CLUSTERS
 10
730959.99328900024
 20
4558446.0966499997
 30
0.0
  0
VERTEX
  5
F49
  8
CLUSTERS
 10
731026.45502600016
 20
4558512.5556000005
 30
0.0
  0
VERTEX
  5
F4A
  8
CLUSTERS
 10
731093.61767099996
 20
4558446.0966499997
 30
0.0
  0
VERTEX
  5
F4B
  8
CLUSTERS
 10
731126.98412699986
 20
4558413.0137200002
 30
0.0
  0
VERTEX
  5
F4C
  8
CLUSTERS
 10
731234.10367809318
 20
4558338.0312165618
 30
0.0
  0
VERTEX
  5
F4D
  8
CLUSTERS
 10
731191.13338562672
 20
4558265.8324828567
 30
0.0
  0
VERTEX
  5
F4E
  8
CLUSTERS
 10
731026.45502600016
 20
4558296.1383300005
 30
0.0
  0
VERTEX
  5
F4F
  8
CLUSTERS
 10
730976.9221239998
 20
4558345.7249100003
 30
0.0
  0
SEQEND
  5
F50
  8
CLUSTERS
  0
POLYLINE
  5
100
  8
CLUSTERS
 66
     1
 10
0.0
 20
0.0
 30
0.0
 70
   129
  0
VERTEX
  5
F51
  8
CLUSTERS
 10
731763.93276500015
 20
4558144.9814099986
 30
0.0
  0
VERTEX
  5
F52
  8
CLUSTERS
 10
731780.75546499982
 20
4558245.3531600004
 30
0.0
  0
VERTEX
  5
F53
  8
CLUSTERS
 10
731830.68783099996
 20
4558295.2355199996
 30
0.0
  0
VERTEX
  5
F54
  8
CLUSTERS
 10
731880.76005899999
 20
4558245.3531600004
 30
0.0
  0
VERTEX
  5
F55
  8
CLUSTERS
 10
731897.61409699998
 20
4558144.9814099986
 30
0.0
  0
VERTEX
  5
F56
  8
CLUSTERS
 10
731830.68783099996
 20
4558078.3138000006
 30
0.0
  0
VERTEX
  5
F57
  8
CLUSTERS
 10
731763.93276500015
 20
4558144.9814099986
 30
0.0
  0
SEQEND
  5
F58
  8
CLUSTERS
  0
POLYLINE
  5
101
  8
CLUSTERS
 66
     1
 10
0.0
 20
0.0
 30
0.0
 70
   129
  0
VERTEX
  5
F59
  8
CLUSTERS
 10
730675.73877900001
 20
4558044.6096700002
 30
0.0
  0
VERTEX
  5
F5A
  8
CLUSTERS
 10
730724.86772500002
 20
4558093.9128299998
 30
0.0
  0
VERTEX
  5
F5B
  8
CLUSTERS
 10
730825.39682499983
 20
4558132.5749300001
 30
0.0
  0
VERTEX
  5
F5C
  8
CLUSTERS
 10
730945.76675217575
 20
4558137.6174287656
 30
0.0
  0
VERTEX
  5
F5D
  8
CLUSTERS
 10
730965.07219678455
 20
4558116.4556717109
 30
0.0
  0
VERTEX
  5
F5E
  8
CLUSTERS
 10
730975.03639812546
 20
4558091.5595365223
 30
0.0
  0
VERTEX
  5
F5F
  8
CLUSTERS
 10
731002.03203799995
 20
4558044.6096700002
 30
0.0
  0
VERTEX
  5
F60
  8
CLUSTERS
 10
730925.92592600011
 20
4557969.0328000002
 30
0.0
  0
VERTEX
  5
F61
  8
CLUSTERS
 10
730825.39682499983
 20
4557956.7956699999
 30
0.0
  0
VERTEX
  5
F62
  8
CLUSTERS
 10
730724.86772500002
 20
4557995.4032699987
 30
0.0
  0
VERTEX
  5
F63
  8
CLUSTERS
 10
730675.73877900001
 20
4558044.6096700002
 30
0.0
  0
SEQEND
  5
F64
  8
CLUSTERS
  0
POLYLINE
  5
102
  8
CLUSTERS
 66
     1
 10
0.0
 20
0.0
 30
0.0
 70
   129
  0
VERTEX
  5
F65
  8
CLUSTERS
 10
735953.63558600005
 20
4557944.2379200002
 30
0.0
  0
VERTEX
  5
F66
  8
CLUSTERS
 10
736052.91005299985
 20
4558043.3603499997
 30
0.0
  0
VERTEX
  5
F67
  8
CLUSTERS
 10
736053.86336700001
 20
4558044.6096700002
 30
0.0
  0
VERTEX
  5
F68
  8
CLUSTERS
 10
736053.55678400001
 20
4558144.9814099986
 30
0.0
  0
VERTEX
  5
F69
  8
CLUSTERS
 10
736055.77886700002
 20
4558245.3531600004
 30
0.0
  0
VERTEX
  5
F6A
  8
CLUSTERS
 10
736103.12745799986
 20
4558345.7249100003
 30
0.0
  0
VERTEX
  5
F6B
  8
CLUSTERS
 10
736153.43915300001
 20
4558395.9610399986
 30
0.0
  0
VERTEX
  5
F6C
  8
CLUSTERS
 10
736167.78971499985
 20
4558446.0966499997
 30
0.0
  0
VERTEX
  5
F6D
  8
CLUSTERS
 10
736253.96825399995
 20
4558532.1457900004
 30
0.0
  0
VERTEX
  5
F6E
  8
CLUSTERS
 10
736260.66236399987
 20
4558546.4683999978
 30
0.0
  0
VERTEX
  5
F6F
  8
CLUSTERS
 10
736354.49735399976
 20
4558640.16022
 30
0.0
  0
VERTEX
  5
F70
  8
CLUSTERS
 10
736357.13889199984
 20
4558646.8401499987
 30
0.0
  0
VERTEX
  5
F71
  8
CLUSTERS
 10
736361.67517399986
 20
4558747.2119000005
 30
0.0
  0
VERTEX
  5
F72
  8
CLUSTERS
 10
736455.02645500004
 20
4558840.4169300003
 30
0.0
  0
VERTEX
  5
F73
  8
CLUSTERS
 10
736555.55555600033
 20
4558842.0103500001
 30
0.0
  0
VERTEX
  5
F74
  8
CLUSTERS
 10
736650.50321499992
 20
4558747.2119000005
 30
0.0
  0
VERTEX
  5
F75
  8
CLUSTERS
 10
736652.94673700002
 20
4558646.8401499987
 30
0.0
  0
VERTEX
  5
F76
  8
CLUSTERS
 10
736652.36701800011
 20
4558546.4683999978
 30
0.0
  0
VERTEX
  5
F77
  8
CLUSTERS
 10
736643.54170499998
 20
4558446.0966499997
 30
0.0
  0
VERTEX
  5
F78
  8
CLUSTERS
 10
736555.55555600033
 20
4558358.2040100023
 30
0.0
  0
VERTEX
  5
F79
  8
CLUSTERS
 10
736554.44447699981
 20
4558345.7249100003
 30
0.0
  0
VERTEX
  5
F7A
  8
CLUSTERS
 10
736555.1640039999
 20
4558245.3531600004
 30
0.0
  0
VERTEX
  5
F7B
  8
CLUSTERS
 10
736455.02645500004
 20
4558145.3721099999
 30
0.0
  0
VERTEX
  5
F7C
  8
CLUSTERS
 10
736452.80911899998
 20
4558144.9814099986
 30
0.0
  0
VERTEX
  5
F7D
  8
CLUSTERS
 10
736354.49735399976
 20
4558046.8327799998
 30
0.0
  0
VERTEX
  5
F7E
  8
CLUSTERS
 10
736344.48109200003
 20
4558044.6096700002
 30
0.0
  0
VERTEX
  5
F7F
  8
CLUSTERS
 10
736253.96825399995
 20
4557954.2328400007
 30
0.0
  0
VERTEX
  5
F80
  8
CLUSTERS
 10
736253.14061500016
 20
4557944.2379200002
 30
0.0
  0
VERTEX
  5
F81
  8
CLUSTERS
 10
736153.43915300001
 20
4557844.6932399999
 30
0.0
  0
VERTEX
  5
F82
  8
CLUSTERS
 10
736052.91005299985
 20
4557845.1182199987
 30
0.0
  0
VERTEX
  5
F83
  8
CLUSTERS
 10
735953.63558600005
 20
4557944.2379200002
 30
0.0
  0
SEQEND
  5
F84
  8
CLUSTERS
  0
POLYLINE
  5
103
  8
CLUSTERS
 66
     1
 10
0.0
 20
0.0
 30
0.0
 70
   129
  0
VERTEX
  5
F85
  8
CLUSTERS
 10
739015.69997500023
 20
4557743.4944200013
 30
0.0
  0
VERTEX
  5
F86
  8
CLUSTERS
 10
738968.25396799983
 20
4557748.6304100007
 30
0.0
  0
VERTEX
  5
F87
  8
CLUSTERS
 10
738872.77948500018
 20
4557843.8661700003
 30
0.0
  0
VERTEX
  5
F88
  8
CLUSTERS
 10
738968.25396799983
 20
4557939.3411399992
 30
0.0
  0
VERTEX
  5
F89
  8
CLUSTERS
 10
738974.48294899985
 20
4557944.2379200002
 30
0.0
  0
VERTEX
  5
F8A
  8
CLUSTERS
 10
739068.783069
 20
4558038.0413700007
 30
0.0
  0
VERTEX
  5
F8B
  8
CLUSTERS
 10
739162.6844289999
 20
4557944.2379200002
 30
0.0
  0
VERTEX
  5
F8C
  8
CLUSTERS
 10
739162.95209399995
 20
4557843.8661700003
 30
0.0
  0
VERTEX
  5
F8D
  8
CLUSTERS
 10
739169.31216900016
 20
4557839.5232000006
 30
0.0
  0
VERTEX
  5
F8E
  8
CLUSTERS
 10
739265.31390600011
 20
4557743.4944200013
 30
0.0
  0
VERTEX
  5
F8F
  8
CLUSTERS
 10
739169.31216900016
 20
4557647.6072399989
 30
0.0
  0
VERTEX
  5
F90
  8
CLUSTERS
 10
739068.783069
 20
4557691.0154400002
 30
0.0
  0
VERTEX
  5
F91
  8
CLUSTERS
 10
739015.69997500023
 20
4557743.4944200013
 30
0.0
  0
SEQEND
  5
F92
  8
CLUSTERS
  0
POLYLINE
  5
104
  8
CLUSTERS
 66
     1
 10
0.0
 20
0.0
 30
0.0
 70
   129
  0
VERTEX
  5
F93
  8
CLUSTERS
 10
732940.33136300021
 20
4557743.4944200013
 30
0.0
  0
VERTEX
  5
F94
  8
CLUSTERS
 10
732938.69759100024
 20
4557843.8661700003
 30
0.0
  0
VERTEX
  5
F95
  8
CLUSTERS
 10
732938.26380500011
 20
4557944.2379200002
 30
0.0
  0
VERTEX
  5
F96
  8
CLUSTERS
 10
732936.50793700013
 20
4557977.1103299987
 30
0.0
  0
VERTEX
  5
F97
  8
CLUSTERS
 10
732869.38010399998
 20
4558044.6096700002
 30
0.0
  0
VERTEX
  5
F98
  8
CLUSTERS
 10
732936.50793700013
 20
4558111.6726599988
 30
0.0
  0
VERTEX
  5
F99
  8
CLUSTERS
 10
733037.03703699994
 20
4558140.2508299993
 30
0.0
  0
VERTEX
  5
F9A
  8
CLUSTERS
 10
733132.89686500002
 20
4558044.6096700002
 30
0.0
  0
VERTEX
  5
F9B
  8
CLUSTERS
 10
733137.56613799999
 20
4558038.0973399999
 30
0.0
  0
VERTEX
  5
F9C
  8
CLUSTERS
 10
733231.50402500015
 20
4557944.2379200002
 30
0.0
  0
VERTEX
  5
F9D
  8
CLUSTERS
 10
733238.09523800015
 20
4557911.3591000009
 30
0.0
  0
VERTEX
  5
F9E
  8
CLUSTERS
 10
733305.40728800022
 20
4557843.8661700003
 30
0.0
  0
VERTEX
  5
F9F
  8
CLUSTERS
 10
733238.09523800015
 20
4557776.4944399986
 30
0.0
  0
VERTEX
  5
FA0
  8
CLUSTERS
 10
733223.89915499988
 20
4557743.4944200013
 30
0.0
  0
VERTEX
  5
FA1
  8
CLUSTERS
 10
733137.56613799999
 20
4557657.3383600004
 30
0.0
  0
VERTEX
  5
FA2
  8
CLUSTERS
 10
733037.03703699994
 20
4557646.94735
 30
0.0
  0
VERTEX
  5
FA3
  8
CLUSTERS
 10
732940.33136300021
 20
4557743.4944200013
 30
0.0
  0
SEQEND
  5
FA4
  8
CLUSTERS
  0
POLYLINE
  5
105
  8
CLUSTERS
 66
     1
 10
0.0
 20
0.0
 30
0.0
 70
   129
  0
VERTEX
  5
FA5
  8
CLUSTERS
 10
734186.25678510696
 20
4557670.9837490572
 30
0.0
  0
VERTEX
  5
FA6
  8
CLUSTERS
 10
734270.03250210686
 20
4557754.6347490568
 30
0.0
  0
VERTEX
  5
FA7
  8
CLUSTERS
 10
734353.81075910688
 20
4557670.9837490572
 30
0.0
  0
VERTEX
  5
FA8
  8
CLUSTERS
 10
734270.03250210686
 20
4557587.3402290577
 30
0.0
  0
VERTEX
  5
FA9
  8
CLUSTERS
 10
734186.25678510696
 20
4557670.9837490572
 30
0.0
  0
SEQEND
  5
FAA
  8
CLUSTERS
  0
POLYLINE
  5
106
  8
CLUSTERS
 66
     1
 10
0.0
 20
0.0
 30
0.0
 70
   129
  0
VERTEX
  5
FAB
  8
CLUSTERS
 10
738281.127278
 20
4557342.0074300002
 30
0.0
  0
VERTEX
  5
FAC
  8
CLUSTERS
 10
738267.47578199999
 20
4557442.3791800002
 30
0.0
  0
VERTEX
  5
FAD
  8
CLUSTERS
 10
738365.07936500001
 20
4557539.7927200003
 30
0.0
  0
VERTEX
  5
FAE
  8
CLUSTERS
 10
738462.59919600002
 20
4557442.3791800002
 30
0.0
  0
VERTEX
  5
FAF
  8
CLUSTERS
 10
738448.92992000014
 20
4557342.0074300002
 30
0.0
  0
VERTEX
  5
FB0
  8
CLUSTERS
 10
738365.07936500001
 20
4557258.3276500003
 30
0.0
  0
VERTEX
  5
FB1
  8
CLUSTERS
 10
738281.127278
 20
4557342.0074300002
 30
0.0
  0
SEQEND
  5
FB2
  8
CLUSTERS
  0
POLYLINE
  5
107
  8
CLUSTERS
 66
     1
 10
0.0
 20
0.0
 30
0.0
 70
   129
  0
VERTEX
  5
FB3
  8
CLUSTERS
 10
735249.95452499995
 20
4557241.6356899999
 30
0.0
  0
VERTEX
  5
FB4
  8
CLUSTERS
 10
735249.46830800001
 20
4557342.0074300002
 30
0.0
  0
VERTEX
  5
FB5
  8
CLUSTERS
 10
735248.67724899994
 20
4557353.0730699999
 30
0.0
  0
VERTEX
  5
FB6
  8
CLUSTERS
 10
735190.56252836424
 20
4557376.1182043338
 30
0.0
  0
VERTEX
  5
FB7
  8
CLUSTERS
 10
735153.74127518374
 20
4557444.461518879
 30
0.0
  0
VERTEX
  5
FB8
  8
CLUSTERS
 10
735047.61904800008
 20
4557475.8230699981
 30
0.0
  0
VERTEX
  5
FB9
  8
CLUSTERS
 10
734980.58450999996
 20
4557542.7509300001
 30
0.0
  0
VERTEX
  5
FBA
  8
CLUSTERS
 10
734947.08994700003
 20
4557567.8328400003
 30
0.0
  0
VERTEX
  5
FBB
  8
CLUSTERS
 10
734871.68591100024
 20
4557643.12268
 30
0.0
  0
VERTEX
  5
FBC
  8
CLUSTERS
 10
734947.08994700003
 20
4557718.4169599991
 30
0.0
  0
VERTEX
  5
FBD
  8
CLUSTERS
 10
734972.20064900012
 20
4557743.4944200013
 30
0.0
  0
VERTEX
  5
FBE
  8
CLUSTERS
 10
734950.32975800033
 20
4557843.8661700003
 30
0.0
  0
VERTEX
  5
FBF
  8
CLUSTERS
 10
735047.61904800008
 20
4557941.00715
 30
0.0
  0
VERTEX
  5
FC0
  8
CLUSTERS
 10
735050.96236100013
 20
4557944.2379200002
 30
0.0
  0
VERTEX
  5
FC1
  8
CLUSTERS
 10
735047.61904800008
 20
4557948.4105799999
 30
0.0
  0
VERTEX
  5
FC2
  8
CLUSTERS
 10
734947.08994700003
 20
4557945.50624
 30
0.0
  0
VERTEX
  5
FC3
  8
CLUSTERS
 10
734847.82984799985
 20
4558044.6096700002
 30
0.0
  0
VERTEX
  5
FC4
  8
CLUSTERS
 10
734846.56084699999
 20
4558055.7288800003
 30
0.0
  0
VERTEX
  5
FC5
  8
CLUSTERS
 10
734839.87744800001
 20
4558044.6096700002
 30
0.0
  0
VERTEX
  5
FC6
  8
CLUSTERS
 10
734746.03174600005
 20
4557950.92203
 30
0.0
  0
VERTEX
  5
FC7
  8
CLUSTERS
 10
734645.50264600024
 20
4557969.2563899988
 30
0.0
  0
VERTEX
  5
FC8
  8
CLUSTERS
 10
734545.70097999985
 20
4557944.2379200002
 30
0.0
  0
VERTEX
  5
FC9
  8
CLUSTERS
 10
734595.27984399989
 20
4557843.8661700003
 30
0.0
  0
VERTEX
  5
FCA
  8
CLUSTERS
 10
734544.97354499996
 20
4557793.6440500002
 30
0.0
  0
VERTEX
  5
FCB
  8
CLUSTERS
 10
734494.63046000001
 20
4557843.8661700003
 30
0.0
  0
VERTEX
  5
FCC
  8
CLUSTERS
 10
734444.44444399967
 20
4557942.5422499999
 30
0.0
  0
VERTEX
  5
FCD
  8
CLUSTERS
 10
734442.71884900006
 20
4557944.2379200002
 30
0.0
  0
VERTEX
  5
FCE
  8
CLUSTERS
 10
734343.91534400021
 20
4557944.5244400008
 30
0.0
  0
VERTEX
  5
FCF
  8
CLUSTERS
 10
734243.67373299995
 20
4558044.6096700002
 30
0.0
  0
VERTEX
  5
FD0
  8
CLUSTERS
 10
734247.37510099995
 20
4558144.9814099986
 30
0.0
  0
VERTEX
  5
FD1
  8
CLUSTERS
 10
734343.91534400021
 20
4558241.3712600004
 30
0.0
  0
VERTEX
  5
FD2
  8
CLUSTERS
 10
734444.44444399967
 20
4558245.1782199992
 30
0.0
  0
VERTEX
  5
FD3
  8
CLUSTERS
 10
734544.97354499996
 20
4558242.5063899998
 30
0.0
  0
VERTEX
  5
FD4
  8
CLUSTERS
 10
734550.52146099985
 20
4558245.3531600004
 30
0.0
  0
VERTEX
  5
FD5
  8
CLUSTERS
 10
734544.97354499996
 20
4558247.5686400002
 30
0.0
  0
VERTEX
  5
FD6
  8
CLUSTERS
 10
734446.67365899985
 20
4558345.7249100003
 30
0.0
  0
VERTEX
  5
FD7
  8
CLUSTERS
 10
734544.97354499996
 20
4558443.8686699998
 30
0.0
  0
VERTEX
  5
FD8
  8
CLUSTERS
 10
734645.50264600024
 20
4558442.7532900013
 30
0.0
  0
VERTEX
  5
FD9
  8
CLUSTERS
 10
734742.68383400002
 20
4558345.7249100003
 30
0.0
  0
VERTEX
  5
FDA
  8
CLUSTERS
 10
734746.03174600005
 20
4558329.01908
 30
0.0
  0
VERTEX
  5
FDB
  8
CLUSTERS
 10
734846.56084699999
 20
4558343.33665
 30
0.0
  0
VERTEX
  5
FDC
  8
CLUSTERS
 10
734944.70098199998
 20
4558245.3531600004
 30
0.0
  0
VERTEX
  5
FDD
  8
CLUSTERS
 10
734947.08994700003
 20
4558244.4744100012
 30
0.0
  0
VERTEX
  5
FDE
  8
CLUSTERS
 10
735047.61904800008
 20
4558211.9373599999
 30
0.0
  0
VERTEX
  5
FDF
  8
CLUSTERS
 10
735148.14814800001
 20
4558211.97958
 30
0.0
  0
VERTEX
  5
FE0
  8
CLUSTERS
 10
735148.68172200012
 20
4558245.3531600004
 30
0.0
  0
VERTEX
  5
FE1
  8
CLUSTERS
 10
735154.05733300024
 20
4558345.7249100003
 30
0.0
  0
VERTEX
  5
FE2
  8
CLUSTERS
 10
735248.64815100015
 20
4558446.0966499997
 30
0.0
  0
VERTEX
  5
FE3
  8
CLUSTERS
 10
735248.67724899994
 20
4558446.1256999988
 30
0.0
  0
VERTEX
  5
FE4
  8
CLUSTERS
 10
735248.70635300002
 20
4558446.0966499997
 30
0.0
  0
VERTEX
  5
FE5
  8
CLUSTERS
 10
735343.31928999978
 20
4558345.7249100003
 30
0.0
  0
VERTEX
  5
FE6
  8
CLUSTERS
 10
735349.20634899999
 20
4558345.5338799981
 30
0.0
  0
VERTEX
  5
FE7
  8
CLUSTERS
 10
735449.73545000015
 20
4558345.6698700003
 30
0.0
  0
VERTEX
  5
FE8
  8
CLUSTERS
 10
735550.26454999985
 20
4558342.6903099986
 30
0.0
  0
VERTEX
  5
FE9
  8
CLUSTERS
 10
735647.75133499969
 20
4558245.3531600004
 30
0.0
  0
VERTEX
  5
FEA
  8
CLUSTERS
 10
735648.93480399984
 20
4558144.9814099986
 30
0.0
  0
VERTEX
  5
FEB
  8
CLUSTERS
 10
735550.26454999985
 20
4558046.4606100004
 30
0.0
  0
VERTEX
  5
FEC
  8
CLUSTERS
 10
735549.34612100013
 20
4558044.6096700002
 30
0.0
  0
VERTEX
  5
FED
  8
CLUSTERS
 10
735449.73545000015
 20
4557945.1550599989
 30
0.0
  0
VERTEX
  5
FEE
  8
CLUSTERS
 10
735443.47876999981
 20
4557944.2379200002
 30
0.0
  0
VERTEX
  5
FEF
  8
CLUSTERS
 10
735438.580617
 20
4557843.8661700003
 30
0.0
  0
VERTEX
  5
FF0
  8
CLUSTERS
 10
735445.36881300004
 20
4557743.4944200013
 30
0.0
  0
VERTEX
  5
FF1
  8
CLUSTERS
 10
735442.008837
 20
4557643.12268
 30
0.0
  0
VERTEX
  5
FF2
  8
CLUSTERS
 10
735437.79047712765
 20
4557565.3765091123
 30
0.0
  0
VERTEX
  5
FF3
  8
CLUSTERS
 10
735516.69306942448
 20
4557539.0906388517
 30
0.0
  0
VERTEX
  5
FF4
  8
CLUSTERS
 10
735550.26454999985
 20
4557442.6682099998
 30
0.0
  0
VERTEX
  5
FF5
  8
CLUSTERS
 10
735550.55409500003
 20
4557442.3791800002
 30
0.0
  0
VERTEX
  5
FF6
  8
CLUSTERS
 10
735550.26454999985
 20
4557442.0852300003
 30
0.0
  0
VERTEX
  5
FF7
  8
CLUSTERS
 10
735549.3749119998
 20
4557342.0074300002
 30
0.0
  0
VERTEX
  5
FF8
  8
CLUSTERS
 10
735550.17356499995
 20
4557241.6356899999
 30
0.0
  0
VERTEX
  5
FF9
  8
CLUSTERS
 10
735449.73545000015
 20
4557141.3553999988
 30
0.0
  0
VERTEX
  5
FFA
  8
CLUSTERS
 10
735349.20634899999
 20
4557142.5288699996
 30
0.0
  0
VERTEX
  5
FFB
  8
CLUSTERS
 10
735249.95452499995
 20
4557241.6356899999
 30
0.0
  0
SEQEND
  5
FFC
  8
CLUSTERS
  0
POLYLINE
  5
108
  8
CLUSTERS
 66
     1
 10
0.0
 20
0.0
 30
0.0
 70
   129
  0
VERTEX
  5
FFD
  8
CLUSTERS
 10
734092.595523
 20
4556940.5204499988
 30
0.0
  0
VERTEX
  5
FFE
  8
CLUSTERS
 10
734062.42015100003
 20
4557040.89219
 30
0.0
  0
VERTEX
  5
FFF
  8
CLUSTERS
 10
734042.32804199995
 20
4557065.9764099987
 30
0.0
  0
VERTEX
  5
1000
  8
CLUSTERS
 10
733941.81111300003
 20
4557141.26394
 30
0.0
  0
VERTEX
  5
1001
  8
CLUSTERS
 10
734002.59299899999
 20
4557241.6356899999
 30
0.0
  0
VERTEX
  5
1002
  8
CLUSTERS
 10
734042.32804199995
 20
4557241.6677099997
 30
0.0
  0
VERTEX
  5
1003
  8
CLUSTERS
 10
734042.36011799995
 20
4557241.6356899999
 30
0.0
  0
VERTEX
  5
1004
  8
CLUSTERS
 10
734117.750168
 20
4557141.26394
 30
0.0
  0
VERTEX
  5
1005
  8
CLUSTERS
 10
734142.857143
 20
4557121.217389999
 30
0.0
  0
VERTEX
  5
1006
  8
CLUSTERS
 10
734243.38624300004
 20
4557131.2401100006
 30
0.0
  0
VERTEX
  5
1007
  8
CLUSTERS
 10
734333.87147799996
 20
4557040.89219
 30
0.0
  0
VERTEX
  5
1008
  8
CLUSTERS
 10
734243.38624300004
 20
4556950.5474699987
 30
0.0
  0
VERTEX
  5
1009
  8
CLUSTERS
 10
734193.14608000021
 20
4556940.5204499988
 30
0.0
  0
VERTEX
  5
100A
  8
CLUSTERS
 10
734142.857143
 20
4556890.3216700004
 30
0.0
  0
VERTEX
  5
100B
  8
CLUSTERS
 10
734092.595523
 20
4556940.5204499988
 30
0.0
  0
SEQEND
  5
100C
  8
CLUSTERS
  0
POLYLINE
  5
109
  8
CLUSTERS
 66
     1
 10
0.0
 20
0.0
 30
0.0
 70
   129
  0
VERTEX
  5
100D
  8
CLUSTERS
 10
733479.76050056983
 20
4556925.6704055518
 30
0.0
  0
VERTEX
  5
100E
  8
CLUSTERS
 10
733555.1189105697
 20
4557000.928245551
 30
0.0
  0
VERTEX
  5
100F
  8
CLUSTERS
 10
733630.49513756984
 20
4556925.6704055518
 30
0.0
  0
VERTEX
  5
1010
  8
CLUSTERS
 10
733555.1189105697
 20
4556850.4295155499
 30
0.0
  0
VERTEX
  5
1011
  8
CLUSTERS
 10
733479.76050056983
 20
4556925.6704055518
 30
0.0
  0
SEQEND
  5
1012
  8
CLUSTERS
  0
POLYLINE
  5
10A
  8
CLUSTERS
 66
     1
 10
0.0
 20
0.0
 30
0.0
 70
   129
  0
VERTEX
  5
1013
  8
CLUSTERS
 10
737964.28756199998
 20
4556840.1486999998
 30
0.0
  0
VERTEX
  5
1014
  8
CLUSTERS
 10
738063.49206299998
 20
4556939.1837899992
 30
0.0
  0
VERTEX
  5
1015
  8
CLUSTERS
 10
738162.62766999984
 20
4556840.1486999998
 30
0.0
  0
VERTEX
  5
1016
  8
CLUSTERS
 10
738063.49206299998
 20
4556741.1641299985
 30
0.0
  0
VERTEX
  5
1017
  8
CLUSTERS
 10
737964.28756199998
 20
4556840.1486999998
 30
0.0
  0
SEQEND
  5
1018
  8
CLUSTERS
  0
POLYLINE
  5
10B
  8
CLUSTERS
 66
     1
 10
0.0
 20
0.0
 30
0.0
 70
   129
  0
VERTEX
  5
1019
  8
CLUSTERS
 10
737663.68334300013
 20
4556539.0334599987
 30
0.0
  0
VERTEX
  5
101A
  8
CLUSTERS
 10
737761.90476199985
 20
4556637.1011700006
 30
0.0
  0
VERTEX
  5
101B
  8
CLUSTERS
 10
737860.07635399979
 20
4556539.0334599987
 30
0.0
  0
VERTEX
  5
101C
  8
CLUSTERS
 10
737761.90476199985
 20
4556441.016379999
 30
0.0
  0
VERTEX
  5
101D
  8
CLUSTERS
 10
737663.68334300013
 20
4556539.0334599987
 30
0.0
  0
SEQEND
  5
101E
  8
CLUSTERS
  0
POLYLINE
  5
10C
  8
CLUSTERS
 66
     1
 10
0.0
 20
0.0
 30
0.0
 70
   129
  0
VERTEX
  5
101F
  8
CLUSTERS
 10
734142.23172299995
 20
4556539.0334599987
 30
0.0
  0
VERTEX
  5
1020
  8
CLUSTERS
 10
734042.32804199995
 20
4556540.1289799996
 30
0.0
  0
VERTEX
  5
1021
  8
CLUSTERS
 10
733942.89476599998
 20
4556639.4052000009
 30
0.0
  0
VERTEX
  5
1022
  8
CLUSTERS
 10
734042.32804199995
 20
4556738.70077
 30
0.0
  0
VERTEX
  5
1023
  8
CLUSTERS
 10
734142.857143
 20
4556729.8597400002
 30
0.0
  0
VERTEX
  5
1024
  8
CLUSTERS
 10
734233.39203699981
 20
4556639.4052000009
 30
0.0
  0
VERTEX
  5
1025
  8
CLUSTERS
 10
734143.47154000006
 20
4556539.0334599987
 30
0.0
  0
VERTEX
  5
1026
  8
CLUSTERS
 10
734142.857143
 20
4556538.4203500003
 30
0.0
  0
VERTEX
  5
1027
  8
CLUSTERS
 10
734142.23172299995
 20
4556539.0334599987
 30
0.0
  0
SEQEND
  5
1028
  8
CLUSTERS
  0
POLYLINE
  5
10D
  8
CLUSTERS
 66
     1
 10
0.0
 20
0.0
 30
0.0
 70
   129
  0
VERTEX
  5
1029
  8
CLUSTERS
 10
734017.45662771293
 20
4555632.7752373815
 30
0.0
  0
VERTEX
  5
102A
  8
CLUSTERS
 10
734085.92662718124
 20
4555730.6228038017
 30
0.0
  0
VERTEX
  5
102B
  8
CLUSTERS
 10
734152.88490018109
 20
4555663.7411338054
 30
0.0
  0
VERTEX
  5
102C
  8
CLUSTERS
 10
734085.92662718124
 20
4555596.892613804
 30
0.0
  0
VERTEX
  5
102D
  8
CLUSTERS
 10
734017.45662771293
 20
4555632.7752373815
 30
0.0
  0
SEQEND
  5
102E
  8
CLUSTERS
  0
POLYLINE
  5
10E
  8
CLUSTERS
 66
     1
 10
0.0
 20
0.0
 30
0.0
 70
   129
  0
VERTEX
  5
102F
  8
CLUSTERS
 10
734445.72128699999
 20
4555535.31599
 30
0.0
  0
VERTEX
  5
1030
  8
CLUSTERS
 10
734449.36563699984
 20
4555635.6877300004
 30
0.0
  0
VERTEX
  5
1031
  8
CLUSTERS
 10
734544.97354499996
 20
4555731.1435000002
 30
0.0
  0
VERTEX
  5
1032
  8
CLUSTERS
 10
734640.69137499994
 20
4555635.6877300004
 30
0.0
  0
VERTEX
  5
1033
  8
CLUSTERS
 10
734645.50264600024
 20
4555630.8767499998
 30
0.0
  0
VERTEX
  5
1034
  8
CLUSTERS
 10
734741.07271199988
 20
4555535.31599
 30
0.0
  0
VERTEX
  5
1035
  8
CLUSTERS
 10
734645.50264600024
 20
4555439.8883400001
 30
0.0
  0
VERTEX
  5
1036
  8
CLUSTERS
 10
734544.97354499996
 20
4555436.2300100001
 30
0.0
  0
VERTEX
  5
1037
  8
CLUSTERS
 10
734445.72128699999
 20
4555535.31599
 30
0.0
  0
SEQEND
  5
1038
  8
CLUSTERS
  0
POLYLINE
  5
10F
  8
CLUSTERS
 66
     1
 10
0.0
 20
0.0
 30
0.0
 70
   129
  0
VERTEX
  5
1039
  8
CLUSTERS
 10
733749.84743400011
 20
4555535.31599
 30
0.0
  0
VERTEX
  5
103A
  8
CLUSTERS
 10
733765.75622100022
 20
4555635.6877300004
 30
0.0
  0
VERTEX
  5
103B
  8
CLUSTERS
 10
733757.48675599985
 20
4555736.0594800003
 30
0.0
  0
VERTEX
  5
103C
  8
CLUSTERS
 10
733841.26984099986
 20
4555819.7511099987
 30
0.0
  0
VERTEX
  5
103D
  8
CLUSTERS
 10
733880.5632854685
 20
4555746.3577478416
 30
0.0
  0
VERTEX
  5
103E
  8
CLUSTERS
 10
733885.72914573795
 20
4555645.6823467361
 30
0.0
  0
VERTEX
  5
103F
  8
CLUSTERS
 10
733908.97512597125
 20
4555563.0768727958
 30
0.0
  0
VERTEX
  5
1040
  8
CLUSTERS
 10
733839.23705494485
 20
4555529.5183625398
 30
0.0
  0
VERTEX
  5
1041
  8
CLUSTERS
 10
733749.84743400011
 20
4555535.31599
 30
0.0
  0
SEQEND
  5
1042
  8
CLUSTERS
  0
POLYLINE
  5
110
  8
CLUSTERS
 66
     1
 10
0.0
 20
0.0
 30
0.0
 70
   129
  0
VERTEX
  5
1043
  8
CLUSTERS
 10
736517.40874702274
 20
4555221.1475868477
 30
0.0
  0
VERTEX
  5
1044
  8
CLUSTERS
 10
736617.70567902282
 20
4555321.3404968483
 30
0.0
  0
VERTEX
  5
1045
  8
CLUSTERS
 10
736717.97267402266
 20
4555221.1475868477
 30
0.0
  0
VERTEX
  5
1046
  8
CLUSTERS
 10
736617.70567902282
 20
4555121.0526868477
 30
0.0
  0
VERTEX
  5
1047
  8
CLUSTERS
 10
736517.40874702274
 20
4555221.1475868477
 30
0.0
  0
SEQEND
  5
1048
  8
CLUSTERS
  0
POLYLINE
  5
111
  8
CLUSTERS
 66
     1
 10
0.0
 20
0.0
 30
0.0
 70
   129
  0
VERTEX
  5
1049
  8
CLUSTERS
 10
733846.46657900023
 20
4555234.2007400012
 30
0.0
  0
VERTEX
  5
104A
  8
CLUSTERS
 10
733841.26984099986
 20
4555241.7822700003
 30
0.0
  0
VERTEX
  5
104B
  8
CLUSTERS
 10
733740.74074100005
 20
4555259.1921899999
 30
0.0
  0
VERTEX
  5
104C
  8
CLUSTERS
 10
733665.2935439999
 20
4555334.5724900002
 30
0.0
  0
VERTEX
  5
104D
  8
CLUSTERS
 10
733745.29862670426
 20
4555373.605595462
 30
0.0
  0
VERTEX
  5
104E
  8
CLUSTERS
 10
733824.20121900155
 20
4555389.3771046521
 30
0.0
  0
VERTEX
  5
104F
  8
CLUSTERS
 10
733934.39747100009
 20
4555334.5724900002
 30
0.0
  0
VERTEX
  5
1050
  8
CLUSTERS
 10
733941.79894200026
 20
4555329.51834
 30
0.0
  0
VERTEX
  5
1051
  8
CLUSTERS
 10
734037.13204699999
 20
4555234.2007400012
 30
0.0
  0
VERTEX
  5
1052
  8
CLUSTERS
 10
733941.79894200026
 20
4555139.0705599999
 30
0.0
  0
VERTEX
  5
1053
  8
CLUSTERS
 10
733846.46657900023
 20
4555234.2007400012
 30
0.0
  0
SEQEND
  5
1054
  8
CLUSTERS
  0
POLYLINE
  5
112
  8
CLUSTERS
 66
     1
 10
0.0
 20
0.0
 30
0.0
 70
   129
  0
VERTEX
  5
1055
  8
CLUSTERS
 10
732882.27712600003
 20
4554832.7137500001
 30
0.0
  0
VERTEX
  5
1056
  8
CLUSTERS
 10
732835.97883599997
 20
4554879.86864
 30
0.0
  0
VERTEX
  5
1057
  8
CLUSTERS
 10
732735.44973500003
 20
4554842.4139299998
 30
0.0
  0
VERTEX
  5
1058
  8
CLUSTERS
 10
732644.84145299986
 20
4554933.0855
 30
0.0
  0
VERTEX
  5
1059
  8
CLUSTERS
 10
732735.44973500003
 20
4555023.8327000001
 30
0.0
  0
VERTEX
  5
105A
  8
CLUSTERS
 10
732835.97883599997
 20
4554985.3186900001
 30
0.0
  0
VERTEX
  5
105B
  8
CLUSTERS
 10
732889.08239100012
 20
4554933.0855
 30
0.0
  0
VERTEX
  5
105C
  8
CLUSTERS
 10
732939.22346208512
 20
4554921.7975117359
 30
0.0
  0
VERTEX
  5
105D
  8
CLUSTERS
 10
732975.38396266545
 20
4554875.3318921262
 30
0.0
  0
VERTEX
  5
105E
  8
CLUSTERS
 10
732928.89187187271
 20
4554834.0291551566
 30
0.0
  0
VERTEX
  5
105F
  8
CLUSTERS
 10
732882.27712600003
 20
4554832.7137500001
 30
0.0
  0
SEQEND
  5
1060
  8
CLUSTERS
  0
POLYLINE
  5
113
  8
CLUSTERS
 66
     1
 10
0.0
 20
0.0
 30
0.0
 70
   129
  0
VERTEX
  5
1061
  8
CLUSTERS
 10
727037.07621800003
 20
4554732.3420099998
 30
0.0
  0
VERTEX
  5
1062
  8
CLUSTERS
 10
727030.63410100003
 20
4554832.7137500001
 30
0.0
  0
VERTEX
  5
1063
  8
CLUSTERS
 10
727105.82010600006
 20
4554911.61895
 30
0.0
  0
VERTEX
  5
1064
  8
CLUSTERS
 10
727206.34920599998
 20
4554876.5106999986
 30
0.0
  0
VERTEX
  5
1065
  8
CLUSTERS
 10
727246.2770110002
 20
4554832.7137500001
 30
0.0
  0
VERTEX
  5
1066
  8
CLUSTERS
 10
727230.1001749998
 20
4554732.3420099998
 30
0.0
  0
VERTEX
  5
1067
  8
CLUSTERS
 10
727206.34920599998
 20
4554708.18585
 30
0.0
  0
VERTEX
  5
1068
  8
CLUSTERS
 10
727105.82010600006
 20
4554663.2713700002
 30
0.0
  0
VERTEX
  5
1069
  8
CLUSTERS
 10
727037.07621800003
 20
4554732.3420099998
 30
0.0
  0
SEQEND
  5
106A
  8
CLUSTERS
  0
POLYLINE
  5
114
  8
CLUSTERS
 66
     1
 10
0.0
 20
0.0
 30
0.0
 70
   129
  0
VERTEX
  5
106B
  8
CLUSTERS
 10
732968.91639499995
 20
4554230.4832699997
 30
0.0
  0
VERTEX
  5
106C
  8
CLUSTERS
 10
732936.50793700013
 20
4554253.9732999988
 30
0.0
  0
VERTEX
  5
106D
  8
CLUSTERS
 10
732869.8824319999
 20
4554330.8550199987
 30
0.0
  0
VERTEX
  5
106E
  8
CLUSTERS
 10
732836.65182600007
 20
4554431.2267699987
 30
0.0
  0
VERTEX
  5
106F
  8
CLUSTERS
 10
732836.80373599986
 20
4554531.5985099999
 30
0.0
  0
VERTEX
  5
1070
  8
CLUSTERS
 10
732838.15527600015
 20
4554631.9702599989
 30
0.0
  0
VERTEX
  5
1071
  8
CLUSTERS
 10
732939.22346208512
 20
4554671.3996810094
 30
0.0
  0
VERTEX
  5
1072
  8
CLUSTERS
 10
733037.03703699994
 20
4554731.9536199998
 30
0.0
  0
VERTEX
  5
1073
  8
CLUSTERS
 10
733037.74866499985
 20
4554732.3420099998
 30
0.0
  0
VERTEX
  5
1074
  8
CLUSTERS
 10
733137.56613799999
 20
4554830.6622200003
 30
0.0
  0
VERTEX
  5
1075
  8
CLUSTERS
 10
733214.18623399979
 20
4554832.7137500001
 30
0.0
  0
VERTEX
  5
1076
  8
CLUSTERS
 10
733238.09523800015
 20
4554855.6067299992
 30
0.0
  0
VERTEX
  5
1077
  8
CLUSTERS
 10
733274.62890400016
 20
4554933.0855
 30
0.0
  0
VERTEX
  5
1078
  8
CLUSTERS
 10
733238.09523800015
 20
4554969.6631800001
 30
0.0
  0
VERTEX
  5
1079
  8
CLUSTERS
 10
733184.52086600021
 20
4555033.45725
 30
0.0
  0
VERTEX
  5
107A
  8
CLUSTERS
 10
733120.02583466156
 20
4555231.5679417681
 30
0.0
  0
VERTEX
  5
107B
  8
CLUSTERS
 10
733166.51792545465
 20
4555247.0564600267
 30
0.0
  0
VERTEX
  5
107C
  8
CLUSTERS
 10
733210.42708611302
 20
4555262.544978288
 30
0.0
  0
VERTEX
  5
107D
  8
CLUSTERS
 10
733242.59960700001
 20
4555234.2007400012
 30
0.0
  0
VERTEX
  5
107E
  8
CLUSTERS
 10
733332.28785800026
 20
4555133.828999998
 30
0.0
  0
VERTEX
  5
107F
  8
CLUSTERS
 10
733293.73225999984
 20
4555033.45725
 30
0.0
  0
VERTEX
  5
1080
  8
CLUSTERS
 10
733338.62433899986
 20
4554988.7434599996
 30
0.0
  0
VERTEX
  5
1081
  8
CLUSTERS
 10
733429.92001300026
 20
4555033.45725
 30
0.0
  0
VERTEX
  5
1082
  8
CLUSTERS
 10
733453.21899996453
 20
4555105.0783219514
 30
0.0
  0
VERTEX
  5
1083
  8
CLUSTERS
 10
733566.86623164895
 20
4555092.1712125978
 30
0.0
  0
VERTEX
  5
1084
  8
CLUSTERS
 10
733608.19259249896
 20
4555035.380022198
 30
0.0
  0
VERTEX
  5
1085
  8
CLUSTERS
 10
733714.09116410592
 20
4554978.5887669669
 30
0.0
  0
VERTEX
  5
1086
  8
CLUSTERS
 10
733760.5832548989
 20
4554908.8904023841
 30
0.0
  0
VERTEX
  5
1087
  8
CLUSTERS
 10
733640.21164000011
 20
4554879.4020999996
 30
0.0
  0
VERTEX
  5
1088
  8
CLUSTERS
 10
733585.34925600013
 20
4554933.0855
 30
0.0
  0
VERTEX
  5
1089
  8
CLUSTERS
 10
733535.87159133784
 20
4554973.4258843279
 30
0.0
  0
VERTEX
  5
108A
  8
CLUSTERS
 10
733514.76309799985
 20
4554933.0855
 30
0.0
  0
VERTEX
  5
108B
  8
CLUSTERS
 10
733538.02588999993
 20
4554832.7137500001
 30
0.0
  0
VERTEX
  5
108C
  8
CLUSTERS
 10
733539.68253999983
 20
4554737.3509499989
 30
0.0
  0
VERTEX
  5
108D
  8
CLUSTERS
 10
733640.21164000011
 20
4554756.53718
 30
0.0
  0
VERTEX
  5
108E
  8
CLUSTERS
 10
733740.74074100005
 20
4554827.0259299986
 30
0.0
  0
VERTEX
  5
108F
  8
CLUSTERS
 10
733835.59233799984
 20
4554732.3420099998
 30
0.0
  0
VERTEX
  5
1090
  8
CLUSTERS
 10
733839.56018999999
 20
4554631.9702599989
 30
0.0
  0
VERTEX
  5
1091
  8
CLUSTERS
 10
733840.31259999995
 20
4554531.5985099999
 30
0.0
  0
VERTEX
  5
1092
  8
CLUSTERS
 10
733740.74074100005
 20
4554431.93664
 30
0.0
  0
VERTEX
  5
1093
  8
CLUSTERS
 10
733739.96264100005
 20
4554431.2267699987
 30
0.0
  0
VERTEX
  5
1094
  8
CLUSTERS
 10
733640.21164000011
 20
4554331.5003599999
 30
0.0
  0
VERTEX
  5
1095
  8
CLUSTERS
 10
733613.11001099995
 20
4554330.8550199987
 30
0.0
  0
VERTEX
  5
1096
  8
CLUSTERS
 10
733539.68253999983
 20
4554259.0488099996
 30
0.0
  0
VERTEX
  5
1097
  8
CLUSTERS
 10
733483.46108100004
 20
4554230.4832699997
 30
0.0
  0
VERTEX
  5
1098
  8
CLUSTERS
 10
733439.1534389999
 20
4554193.6705799997
 30
0.0
  0
VERTEX
  5
1099
  8
CLUSTERS
 10
733338.62433899986
 20
4554149.5913299993
 30
0.0
  0
VERTEX
  5
109A
  8
CLUSTERS
 10
733238.09523800015
 20
4554141.6170899989
 30
0.0
  0
VERTEX
  5
109B
  8
CLUSTERS
 10
733137.56613799999
 20
4554153.5297199991
 30
0.0
  0
VERTEX
  5
109C
  8
CLUSTERS
 10
733037.03703699994
 20
4554175.7625500001
 30
0.0
  0
VERTEX
  5
109D
  8
CLUSTERS
 10
732968.91639499995
 20
4554230.4832699997
 30
0.0
  0
SEQEND
  5
109E
  8
CLUSTERS
  0
POLYLINE
  5
115
  8
CLUSTERS
 66
     1
 10
0.0
 20
0.0
 30
0.0
 70
   129
  0
VERTEX
  5
109F
  8
CLUSTERS
 10
733548.82403800008
 20
4553226.7658000002
 30
0.0
  0
VERTEX
  5
10A0
  8
CLUSTERS
 10
733640.21164000011
 20
4553318.7541200006
 30
0.0
  0
VERTEX
  5
10A1
  8
CLUSTERS
 10
733747.89823856135
 20
4553321.81431395
 30
0.0
  0
VERTEX
  5
10A2
  8
CLUSTERS
 10
733841.26984099986
 20
4553302.2759300023
 30
0.0
  0
VERTEX
  5
10A3
  8
CLUSTERS
 10
733916.42446899996
 20
4553226.7658000002
 30
0.0
  0
VERTEX
  5
10A4
  8
CLUSTERS
 10
733841.26984099986
 20
4553151.9209599989
 30
0.0
  0
VERTEX
  5
10A5
  8
CLUSTERS
 10
733740.74074100005
 20
4553223.0015100008
 30
0.0
  0
VERTEX
  5
10A6
  8
CLUSTERS
 10
733640.21164000011
 20
4553135.5945499986
 30
0.0
  0
VERTEX
  5
10A7
  8
CLUSTERS
 10
733548.82403800008
 20
4553226.7658000002
 30
0.0
  0
SEQEND
  5
10A8
  8
CLUSTERS
  0
POLYLINE
  5
116
  8
CLUSTERS
 66
     1
 10
0.0
 20
0.0
 30
0.0
 70
   129
  0
VERTEX
  5
10A9
  8
CLUSTERS
 10
727913.09062499995
 20
4552825.27881
 30
0.0
  0
VERTEX
  5
10AA
  8
CLUSTERS
 10
727918.519355
 20
4552925.650559999
 30
0.0
  0
VERTEX
  5
10AB
  8
CLUSTERS
 10
728010.58201100014
 20
4553024.6984900003
 30
0.0
  0
VERTEX
  5
10AC
  8
CLUSTERS
 10
728015.28448100004
 20
4553026.0223000003
 30
0.0
  0
VERTEX
  5
10AD
  8
CLUSTERS
 10
728111.11111099995
 20
4553099.6155000003
 30
0.0
  0
VERTEX
  5
10AE
  8
CLUSTERS
 10
728211.640212
 20
4553114.8629599996
 30
0.0
  0
VERTEX
  5
10AF
  8
CLUSTERS
 10
728312.16931199993
 20
4553095.7836999986
 30
0.0
  0
VERTEX
  5
10B0
  8
CLUSTERS
 10
728382.76853300002
 20
4553026.0223000003
 30
0.0
  0
VERTEX
  5
10B1
  8
CLUSTERS
 10
728408.1090889998
 20
4552925.650559999
 30
0.0
  0
VERTEX
  5
10B2
  8
CLUSTERS
 10
728395.43210400012
 20
4552825.27881
 30
0.0
  0
VERTEX
  5
10B3
  8
CLUSTERS
 10
728312.16931199993
 20
4552740.1363399988
 30
0.0
  0
VERTEX
  5
10B4
  8
CLUSTERS
 10
728211.640212
 20
4552725.9724000003
 30
0.0
  0
VERTEX
  5
10B5
  8
CLUSTERS
 10
728111.11111099995
 20
4552725.46679
 30
0.0
  0
VERTEX
  5
10B6
  8
CLUSTERS
 10
728010.58201100014
 20
4552727.2191199986
 30
0.0
  0
VERTEX
  5
10B7
  8
CLUSTERS
 10
727913.09062499995
 20
4552825.27881
 30
0.0
  0
SEQEND
  5
10B8
  8
CLUSTERS
  0
POLYLINE
  5
117
  8
CLUSTERS
 66
     1
 10
0.0
 20
0.0
 30
0.0
 70
   129
  0
VERTEX
  5
10B9
  8
CLUSTERS
 10
732837.46377200005
 20
4552724.9070600001
 30
0.0
  0
VERTEX
  5
10BA
  8
CLUSTERS
 10
732935.5581449999
 20
4552825.27881
 30
0.0
  0
VERTEX
  5
10BB
  8
CLUSTERS
 10
732936.50793700013
 20
4552826.1616599998
 30
0.0
  0
VERTEX
  5
10BC
  8
CLUSTERS
 10
732937.65296600014
 20
4552825.27881
 30
0.0
  0
VERTEX
  5
10BD
  8
CLUSTERS
 10
733037.03703699994
 20
4552806.9868900012
 30
0.0
  0
VERTEX
  5
10BE
  8
CLUSTERS
 10
733269.1070831588
 20
4552643.0529422723
 30
0.0
  0
VERTEX
  5
10BF
  8
CLUSTERS
 10
733163.19182267284
 20
4552591.9848639024
 30
0.0
  0
VERTEX
  5
10C0
  8
CLUSTERS
 10
732936.50793700013
 20
4552626.1088199997
 30
0.0
  0
VERTEX
  5
10C1
  8
CLUSTERS
 10
732837.46377200005
 20
4552724.9070600001
 30
0.0
  0
SEQEND
  5
10C2
  8
CLUSTERS
  0
POLYLINE
  5
118
  8
CLUSTERS
 66
     1
 10
0.0
 20
0.0
 30
0.0
 70
   129
  0
VERTEX
  5
10C3
  8
CLUSTERS
 10
732846.25807600014
 20
4552223.0483299997
 30
0.0
  0
VERTEX
  5
10C4
  8
CLUSTERS
 10
732936.50793700013
 20
4552315.0944600003
 30
0.0
  0
VERTEX
  5
10C5
  8
CLUSTERS
 10
733027.39686900005
 20
4552223.0483299997
 30
0.0
  0
VERTEX
  5
10C6
  8
CLUSTERS
 10
732936.50793700013
 20
4552133.0513599999
 30
0.0
  0
VERTEX
  5
10C7
  8
CLUSTERS
 10
732846.25807600014
 20
4552223.0483299997
 30
0.0
  0
SEQEND
  5
10C8
  8
CLUSTERS
  0
POLYLINE
  5
119
  8
CLUSTERS
 66
     1
 10
0.0
 20
0.0
 30
0.0
 70
   129
  0
VERTEX
  5
10C9
  8
CLUSTERS
 10
732623.46582456504
 20
4551778.2147088572
 30
0.0
  0
VERTEX
  5
10CA
  8
CLUSTERS
 10
732644.38292999985
 20
4551921.9330899986
 30
0.0
  0
VERTEX
  5
10CB
  8
CLUSTERS
 10
732735.44973500003
 20
4552014.8504400002
 30
0.0
  0
VERTEX
  5
10CC
  8
CLUSTERS
 10
732827.32420599984
 20
4551921.9330899986
 30
0.0
  0
VERTEX
  5
10CD
  8
CLUSTERS
 10
732826.66316200001
 20
4551821.5613399986
 30
0.0
  0
VERTEX
  5
10CE
  8
CLUSTERS
 10
732735.44973500003
 20
4551731.6310400004
 30
0.0
  0
VERTEX
  5
10CF
  8
CLUSTERS
 10
732623.46582456504
 20
4551778.2147088572
 30
0.0
  0
SEQEND
  5
10D0
  8
CLUSTERS
  0
POLYLINE
  5
11A
  8
CLUSTERS
 66
     1
 10
0.0
 20
0.0
 30
0.0
 70
   129
  0
VERTEX
  5
10D1
  8
CLUSTERS
 10
729559.94804299995
 20
4551721.1895899996
 30
0.0
  0
VERTEX
  5
10D2
  8
CLUSTERS
 10
729518.51851899992
 20
4551783.4554499993
 30
0.0
  0
VERTEX
  5
10D3
  8
CLUSTERS
 10
729481.02105600003
 20
4551821.5613399986
 30
0.0
  0
VERTEX
  5
10D4
  8
CLUSTERS
 10
729512.41207609698
 20
4551912.9874098841
 30
0.0
  0
VERTEX
  5
10D5
  8
CLUSTERS
 10
729619.04761899984
 20
4551899.9077199996
 30
0.0
  0
VERTEX
  5
10D6
  8
CLUSTERS
 10
729699.12195499998
 20
4551821.5613399986
 30
0.0
  0
VERTEX
  5
10D7
  8
CLUSTERS
 10
729683.71693699982
 20
4551721.1895899996
 30
0.0
  0
VERTEX
  5
10D8
  8
CLUSTERS
 10
729619.04761899984
 20
4551662.6677999999
 30
0.0
  0
VERTEX
  5
10D9
  8
CLUSTERS
 10
729559.94804299995
 20
4551721.1895899996
 30
0.0
  0
SEQEND
  5
10DA
  8
CLUSTERS
  0
POLYLINE
  5
11B
  8
CLUSTERS
 66
     1
 10
0.0
 20
0.0
 30
0.0
 70
   129
  0
VERTEX
  5
10DB
  8
CLUSTERS
 10
732013.40102905442
 20
4550864.184799335
 30
0.0
  0
VERTEX
  5
10DC
  8
CLUSTERS
 10
732141.01425090432
 20
4550976.7205350958
 30
0.0
  0
VERTEX
  5
10DD
  8
CLUSTERS
 10
732215.85918899998
 20
4550817.8438699991
 30
0.0
  0
VERTEX
  5
10DE
  8
CLUSTERS
 10
732109.47028668574
 20
4550792.1120987041
 30
0.0
  0
VERTEX
  5
10DF
  8
CLUSTERS
 10
732013.40102905442
 20
4550864.184799335
 30
0.0
  0
SEQEND
  5
10E0
  8
CLUSTERS
  0
POLYLINE
  5
11C
  8
CLUSTERS
 66
     1
 10
0.0
 20
0.0
 30
0.0
 70
   129
  0
VERTEX
  5
10E1
  8
CLUSTERS
 10
732043.92591200001
 20
4550516.7286200002
 30
0.0
  0
VERTEX
  5
10E2
  8
CLUSTERS
 10
732055.03688399994
 20
4550617.1003700001
 30
0.0
  0
VERTEX
  5
10E3
  8
CLUSTERS
 10
732143.04785713169
 20
4550637.2268512724
 30
0.0
  0
VERTEX
  5
10E4
  8
CLUSTERS
 10
732212.28330399981
 20
4550617.1003700001
 30
0.0
  0
VERTEX
  5
10E5
  8
CLUSTERS
 10
732222.56421800004
 20
4550516.7286200002
 30
0.0
  0
VERTEX
  5
10E6
  8
CLUSTERS
 10
732132.27513199998
 20
4550428.8836399987
 30
0.0
  0
VERTEX
  5
10E7
  8
CLUSTERS
 10
732043.92591200001
 20
4550516.7286200002
 30
0.0
  0
SEQEND
  5
10E8
  8
CLUSTERS
  0
POLYLINE
  5
11D
  8
CLUSTERS
 66
     1
 10
0.0
 20
0.0
 30
0.0
 70
   129
  0
VERTEX
  5
10E9
  8
CLUSTERS
 10
731562.46485999995
 20
4550215.61338
 30
0.0
  0
VERTEX
  5
10EA
  8
CLUSTERS
 10
731629.62962999998
 20
4550314.5297999987
 30
0.0
  0
VERTEX
  5
10EB
  8
CLUSTERS
 10
731629.68198999995
 20
4550315.9851299999
 30
0.0
  0
VERTEX
  5
10EC
  8
CLUSTERS
 10
731642.61059099995
 20
4550416.3568800008
 30
0.0
  0
VERTEX
  5
10ED
  8
CLUSTERS
 10
731730.15873000014
 20
4550499.8494700007
 30
0.0
  0
VERTEX
  5
10EE
  8
CLUSTERS
 10
731830.68783099996
 20
4550418.5265800003
 30
0.0
  0
VERTEX
  5
10EF
  8
CLUSTERS
 10
731832.85072999995
 20
4550416.3568800008
 30
0.0
  0
VERTEX
  5
10F0
  8
CLUSTERS
 10
731896.34238399984
 20
4550315.9851299999
 30
0.0
  0
VERTEX
  5
10F1
  8
CLUSTERS
 10
731863.61282699998
 20
4550215.61338
 30
0.0
  0
VERTEX
  5
10F2
  8
CLUSTERS
 10
731830.68783099996
 20
4550181.4798299987
 30
0.0
  0
VERTEX
  5
10F3
  8
CLUSTERS
 10
731730.15873000014
 20
4550117.6658799993
 30
0.0
  0
VERTEX
  5
10F4
  8
CLUSTERS
 10
731629.62962999998
 20
4550147.7458000006
 30
0.0
  0
VERTEX
  5
10F5
  8
CLUSTERS
 10
731562.46485999995
 20
4550215.61338
 30
0.0
  0
SEQEND
  5
10F6
  8
CLUSTERS
  0
POLYLINE
  5
11E
  8
CLUSTERS
 66
     1
 10
0.0
 20
0.0
 30
0.0
 70
   129
  0
VERTEX
  5
10F7
  8
CLUSTERS
 10
726362.92383800005
 20
4550115.2416399987
 30
0.0
  0
VERTEX
  5
10F8
  8
CLUSTERS
 10
726350.12794699986
 20
4550215.61338
 30
0.0
  0
VERTEX
  5
10F9
  8
CLUSTERS
 10
726390.91405646305
 20
4550361.5252876496
 30
0.0
  0
VERTEX
  5
10FA
  8
CLUSTERS
 10
726578.58056684991
 20
4550354.0228836546
 30
0.0
  0
VERTEX
  5
10FB
  8
CLUSTERS
 10
726676.16707926861
 20
4550226.4824047359
 30
0.0
  0
VERTEX
  5
10FC
  8
CLUSTERS
 10
726623.62043550832
 20
4550053.9276315123
 30
0.0
  0
VERTEX
  5
10FD
  8
CLUSTERS
 10
726502.64550300001
 20
4550062.5746799996
 30
0.0
  0
VERTEX
  5
10FE
  8
CLUSTERS
 10
726402.11640199996
 20
4550075.9234200008
 30
0.0
  0
VERTEX
  5
10FF
  8
CLUSTERS
 10
726362.92383800005
 20
4550115.2416399987
 30
0.0
  0
SEQEND
  5
1100
  8
CLUSTERS
  0
POLYLINE
  5
11F
  8
CLUSTERS
 66
     1
 10
0.0
 20
0.0
 30
0.0
 70
   129
  0
VERTEX
  5
1101
  8
CLUSTERS
 10
727717.72303400002
 20
4549613.3828999987
 30
0.0
  0
VERTEX
  5
1102
  8
CLUSTERS
 10
727744.25292200001
 20
4549713.7546499986
 30
0.0
  0
VERTEX
  5
1103
  8
CLUSTERS
 10
727809.52380999969
 20
4549777.7149200002
 30
0.0
  0
VERTEX
  5
1104
  8
CLUSTERS
 10
727910.05290999985
 20
4549744.8424899988
 30
0.0
  0
VERTEX
  5
1105
  8
CLUSTERS
 10
727941.28067399981
 20
4549713.7546499986
 30
0.0
  0
VERTEX
  5
1106
  8
CLUSTERS
 10
727983.57502900006
 20
4549613.3828999987
 30
0.0
  0
VERTEX
  5
1107
  8
CLUSTERS
 10
727910.05290999985
 20
4549538.7084600003
 30
0.0
  0
VERTEX
  5
1108
  8
CLUSTERS
 10
727809.52380999969
 20
4549521.5777900014
 30
0.0
  0
VERTEX
  5
1109
  8
CLUSTERS
 10
727717.72303400002
 20
4549613.3828999987
 30
0.0
  0
SEQEND
  5
110A
  8
CLUSTERS
  0
ENDSEC
  0
EOF
