  0
SECTION
  2
HEADER
  9
$ACADVER
  1
AC1009
  9
$INSBASE
 10
0.0
 20
0.0
 30
0.0
  9
$EXTMIN
 10
704384.23177766486
 20
4539709.0272246916
 30
-0.0015258207003583
  9
$EXTMAX
 10
758925.72039491637
 20
4595808.4876168463
 30
0.0000000349246037
  9
$LIMMIN
 10
0.0
 20
0.0
  9
$LIMMAX
 10
12.0
 20
9.0
  9
$ORTHOMODE
 70
     0
  9
$REGENMODE
 70
     1
  9
$FILLMODE
 70
     1
  9
$QTEXTMODE
 70
     0
  9
$MIRRTEXT
 70
     1
  9
$DRAGMODE
 70
     2
  9
$LTSCALE
 40
1.0
  9
$OSMODE
 70
   613
  9
$ATTMODE
 70
     1
  9
$TEXTSIZE
 40
100.0
  9
$TRACEWID
 40
0.05
  9
$TEXTSTYLE
  7
STANDARD
  9
$CLAYER
  8
STREAMS
  9
$CELTYPE
  6
BYLAYER
  9
$CECOLOR
 62
   256
  9
$DIMSCALE
 40
1.0
  9
$DIMASZ
 40
0.18
  9
$DIMEXO
 40
0.0625
  9
$DIMDLI
 40
0.38
  9
$DIMRND
 40
0.0
  9
$DIMDLE
 40
0.0
  9
$DIMEXE
 40
0.18
  9
$DIMTP
 40
0.0
  9
$DIMTM
 40
0.0
  9
$DIMTXT
 40
0.18
  9
$DIMCEN
 40
0.09
  9
$DIMTSZ
 40
0.0
  9
$DIMTOL
 70
     0
  9
$DIMLIM
 70
     0
  9
$DIMTIH
 70
     1
  9
$DIMTOH
 70
     1
  9
$DIMSE1
 70
     0
  9
$DIMSE2
 70
     0
  9
$DIMTAD
 70
     0
  9
$DIMZIN
 70
     0
  9
$DIMBLK
  1

  9
$DIMASO
 70
     1
  9
$DIMSHO
 70
     1
  9
$DIMPOST
  1

  9
$DIMAPOST
  1

  9
$DIMALT
 70
     0
  9
$DIMALTD
 70
     2
  9
$DIMALTF
 40
25.399999999999999
  9
$DIMLFAC
 40
1.0
  9
$DIMTOFL
 70
     0
  9
$DIMTVP
 40
0.0
  9
$DIMTIX
 70
     0
  9
$DIMSOXD
 70
     0
  9
$DIMSAH
 70
     0
  9
$DIMBLK1
  1

  9
$DIMBLK2
  1

  9
$DIMSTYLE
  2
STANDARD
  9
$DIMCLRD
 70
     0
  9
$DIMCLRE
 70
     0
  9
$DIMCLRT
 70
     0
  9
$DIMTFAC
 40
1.0
  9
$DIMGAP
 40
0.09
  9
$LUNITS
 70
     2
  9
$LUPREC
 70
     4
  9
$SKETCHINC
 40
0.1
  9
$FILLETRAD
 40
0.5
  9
$AUNITS
 70
     0
  9
$AUPREC
 70
     0
  9
$MENU
  1
.
  9
$ELEVATION
 40
0.0
  9
$PELEVATION
 40
0.0
  9
$THICKNESS
 40
0.0
  9
$LIMCHECK
 70
     0
  9
$BLIPMODE
 70
     0
  9
$CHAMFERA
 40
0.5
  9
$CHAMFERB
 40
0.5
  9
$SKPOLY
 70
     0
  9
$TDCREATE
 40
2454940.7198583912
  9
$TDUPDATE
 40
2456117.0975886108
  9
$TDINDWG
 40
0.133035787
  9
$TDUSRTIMER
 40
0.1330345255
  9
$USRTIMER
 70
     1
  9
$ANGBASE
 50
0.0
  9
$ANGDIR
 70
     1
  9
$PDMODE
 70
    66
  9
$PDSIZE
 40
0.0
  9
$PLINEWID
 40
0.0
  9
$COORDS
 70
     1
  9
$SPLFRAME
 70
     0
  9
$SPLINETYPE
 70
     6
  9
$SPLINESEGS
 70
     8
  9
$ATTDIA
 70
     0
  9
$ATTREQ
 70
     1
  9
$HANDLING
 70
     1
  9
$HANDSEED
  5
EF7
  9
$SURFTAB1
 70
     6
  9
$SURFTAB2
 70
     6
  9
$SURFTYPE
 70
     6
  9
$SURFU
 70
     6
  9
$SURFV
 70
     6
  9
$UCSNAME
  2

  9
$UCSORG
 10
0.0
 20
0.0
 30
0.0
  9
$UCSXDIR
 10
1.0
 20
0.0
 30
0.0
  9
$UCSYDIR
 10
0.0
 20
1.0
 30
0.0
  9
$PUCSNAME
  2

  9
$PUCSORG
 10
0.0
 20
0.0
 30
0.0
  9
$PUCSXDIR
 10
1.0
 20
0.0
 30
0.0
  9
$PUCSYDIR
 10
0.0
 20
1.0
 30
0.0
  9
$USERI1
 70
     0
  9
$USERI2
 70
     0
  9
$USERI3
 70
     0
  9
$USERI4
 70
     0
  9
$USERI5
 70
     0
  9
$USERR1
 40
0.0
  9
$USERR2
 40
0.0
  9
$USERR3
 40
0.0
  9
$USERR4
 40
0.0
  9
$USERR5
 40
0.0
  9
$WORLDVIEW
 70
     1
  9
$SHADEDGE
 70
     3
  9
$SHADEDIF
 70
    70
  9
$TILEMODE
 70
     1
  9
$MAXACTVP
 70
    64
  9
$PLIMCHECK
 70
     0
  9
$PEXTMIN
 10
0.0
 20
0.0
 30
0.0
  9
$PEXTMAX
 10
0.0
 20
0.0
 30
0.0
  9
$PLIMMIN
 10
0.0
 20
0.0
  9
$PLIMMAX
 10
12.0
 20
9.0
  9
$UNITMODE
 70
     0
  9
$VISRETAIN
 70
     1
  9
$PLINEGEN
 70
     0
  9
$PSLTSCALE
 70
     1
  0
ENDSEC
  0
SECTION
  2
TABLES
  0
TABLE
  2
VPORT
 70
     1
  0
VPORT
  2
*ACTIVE
 70
     0
 10
0.0
 20
0.0
 11
1.0
 21
1.0
 12
731654.97608629055
 22
4567758.757420769
 13
0.0
 23
0.0
 14
0.5
 24
0.5
 15
0.5
 25
0.5
 16
0.0
 26
0.0
 36
1.0
 17
0.0
 27
0.0
 37
0.0
 40
57503.122377826861
 41
0.9559748427672955
 42
50.0
 43
0.0
 44
0.0
 50
0.0
 51
0.0
 71
     0
 72
   100
 73
     1
 74
     2
 75
     0
 76
     0
 77
     0
 78
     0
  0
ENDTAB
  0
TABLE
  2
LTYPE
 70
     1
  0
LTYPE
  2
CONTINUOUS
 70
     0
  3
Solid line
 72
    65
 73
     0
 40
0.0
  0
ENDTAB
  0
TABLE
  2
LAYER
 70
     2
  0
LAYER
  2
0
 70
     0
 62
     7
  6
CONTINUOUS
  0
LAYER
  2
STREAMS
 70
     0
 62
     5
  6
CONTINUOUS
  0
ENDTAB
  0
TABLE
  2
STYLE
 70
     1
  0
STYLE
  2
STANDARD
 70
     0
 40
0.0
 41
1.0
 50
0.0
 71
     0
 42
100.0
  3
txt
  4

  0
ENDTAB
  0
TABLE
  2
VIEW
 70
     0
  0
ENDTAB
  0
TABLE
  2
UCS
 70
     0
  0
ENDTAB
  0
TABLE
  2
APPID
 70
     2
  0
APPID
  2
ACAD
 70
     0
  0
APPID
  2
ADE
 70
     0
  0
ENDTAB
  0
TABLE
  2
DIMSTYLE
 70
     1
  0
DIMSTYLE
  2
STANDARD
 70
     0
  3

  4

  5

  6

  7

 40
1.0
 41
0.18
 42
0.0625
 43
0.38
 44
0.18
 45
0.0
 46
0.0
 47
0.0
 48
0.0
140
0.18
141
0.09
142
0.0
143
25.399999999999999
144
1.0
145
0.0
146
1.0
147
0.09
 71
     0
 72
     0
 73
     1
 74
     1
 75
     0
 76
     0
 77
     0
 78
     0
170
     0
171
     2
172
     0
173
     0
174
     0
175
     0
176
     0
177
     0
178
     0
  0
ENDTAB
  0
ENDSEC
  0
SECTION
  2
BLOCKS
  0
BLOCK
  8
0
  2
$MODEL_SPACE
 70
     0
 10
0.0
 20
0.0
 30
0.0
  3
$MODEL_SPACE
  1

  0
ENDBLK
  5
17
  8
0
  0
BLOCK
 67
     1
  8
0
  2
$PAPER_SPACE
 70
     0
 10
0.0
 20
0.0
 30
0.0
  3
$PAPER_SPACE
  1

  0
ENDBLK
  5
1E
 67
     1
  8
0
  0
ENDSEC
  0
SECTION
  2
ENTITIES
  0
POLYLINE
  5
73
  8
STREAMS
 66
     1
 10
0.0
 20
0.0
 30
0.0
  0
VERTEX
  5
AB
  8
STREAMS
 10
750567.78844143427
 20
4580420.2038454879
 30
0.0
  0
VERTEX
  5
AC
  8
STREAMS
 10
751000.8551780245
 20
4580007.6482448587
 30
0.0
  0
VERTEX
  5
AD
  8
STREAMS
 10
751451.09697930119
 20
4579843.9957666239
 30
0.0
  0
VERTEX
  5
AE
  8
STREAMS
 10
751492.02789409261
 20
4579496.2343967753
 30
0.0
  0
VERTEX
  5
AF
  8
STREAMS
 10
751410.16577474773
 20
4579189.3861883143
 30
0.0
  0
VERTEX
  5
B0
  8
STREAMS
 10
751410.16577474773
 20
4578841.624651148
 30
0.0
  0
VERTEX
  5
B1
  8
STREAMS
 10
751921.80409309245
 20
4578043.8191752983
 30
0.0
  0
VERTEX
  5
B2
  8
STREAMS
 10
752290.18377502437
 20
4577450.5791717526
 30
0.0
  0
VERTEX
  5
B3
  8
STREAMS
 10
752331.11497957783
 20
4576755.0562647376
 30
0.0
  0
VERTEX
  5
B4
  8
STREAMS
 10
752208.32165567973
 20
4576223.1860032771
 30
0.0
  0
VERTEX
  5
B5
  8
STREAMS
 10
752208.32165567973
 20
4575773.1418972751
 30
0.0
  0
VERTEX
  5
B6
  8
STREAMS
 10
752351.58029209252
 20
4575200.3583071074
 30
0.0
  0
VERTEX
  5
B7
  8
STREAMS
 10
752801.82209336897
 20
4574709.4010397168
 30
0.0
  0
VERTEX
  5
B8
  8
STREAMS
 10
752924.61541726685
 20
4573747.9430856304
 30
0.0
  0
VERTEX
  5
B9
  8
STREAMS
 10
753211.13269009232
 20
4572827.3982929308
 30
0.0
  0
VERTEX
  5
BA
  8
STREAMS
 10
753702.30569592223
 20
4572459.1803423883
 30
0.0
  0
VERTEX
  5
BB
  8
STREAMS
 10
753722.77100843692
 20
4571825.0271774558
 30
0.0
  0
VERTEX
  5
BC
  8
STREAMS
 10
754009.28857102431
 20
4571109.0478570629
 30
0.0
  0
VERTEX
  5
BD
  8
STREAMS
 10
754275.34053133475
 20
4570618.0905896742
 30
0.0
  0
VERTEX
  5
BE
  8
STREAMS
 10
754623.25461099017
 20
4570024.8504188107
 30
0.0
  0
VERTEX
  5
BF
  8
STREAMS
 10
754930.23748609214
 20
4569718.0022103507
 30
0.0
  0
SEQEND
  5
C0
  8
STREAMS
  0
POLYLINE
  5
74
  8
STREAMS
 66
     1
 10
0.0
 20
0.0
 30
0.0
  0
VERTEX
  5
C1
  8
STREAMS
 10
735454.754087482
 20
4582644.910119311
 30
0.0
  0
VERTEX
  5
C2
  8
STREAMS
 10
735369.07898961066
 20
4583277.6241858276
 30
0.0
  0
VERTEX
  5
C3
  8
STREAMS
 10
735200.99701978208
 20
4583844.6518842829
 30
0.0
  0
VERTEX
  5
C4
  8
STREAMS
 10
735179.9869546548
 20
4584432.6804474862
 30
0.0
  0
VERTEX
  5
C5
  8
STREAMS
 10
735243.01743979868
 20
4585125.7143383361
 30
0.0
  0
VERTEX
  5
C6
  8
STREAMS
 10
735116.95617974875
 20
4586112.76234347
 30
0.0
  0
VERTEX
  5
C7
  8
STREAMS
 10
735137.96624487627
 20
4587141.8125800528
 30
0.0
  0
VERTEX
  5
C8
  8
STREAMS
 10
735137.96624487627
 20
4587897.8493997827
 30
0.0
  0
VERTEX
  5
C9
  8
STREAMS
 10
735137.96624487627
 20
4588653.8862195108
 30
0.0
  0
VERTEX
  5
CA
  8
STREAMS
 10
735074.93575973215
 20
4589325.9190782961
 30
0.0
  0
VERTEX
  5
CB
  8
STREAMS
 10
735032.91504995339
 20
4590165.9600262865
 30
0.0
  0
VERTEX
  5
CC
  8
STREAMS
 10
734864.83308012481
 20
4591237.0121596837
 30
0.0
  0
VERTEX
  5
CD
  8
STREAMS
 10
735348.06892448338
 20
4592182.0582680041
 30
0.0
  0
VERTEX
  5
CE
  8
STREAMS
 10
735852.31454420742
 20
4592602.0787420003
 30
0.0
  0
VERTEX
  5
CF
  8
STREAMS
 10
736188.47848386469
 20
4593127.1043763245
 30
0.0
  0
VERTEX
  5
D0
  8
STREAMS
 10
736104.43764383125
 20
4593799.1370677911
 30
0.0
  0
VERTEX
  5
D1
  8
STREAMS
 10
735621.20179947268
 20
4594744.1831761114
 30
0.0
  0
VERTEX
  5
D2
  8
STREAMS
 10
735432.10976451682
 20
4595311.2108745668
 30
0.0
  0
SEQEND
  5
D3
  8
STREAMS
  0
POLYLINE
  5
75
  8
STREAMS
 66
     1
 10
0.0
 20
0.0
 30
0.0
  0
VERTEX
  5
D4
  8
STREAMS
 10
731693.92055587028
 20
4583327.1322834482
 30
0.0
  0
VERTEX
  5
D5
  8
STREAMS
 10
731566.22503798234
 20
4584180.6682300158
 30
0.0
  0
VERTEX
  5
D6
  8
STREAMS
 10
731167.03032341891
 20
4584915.7040176792
 30
0.0
  0
VERTEX
  5
D7
  8
STREAMS
 10
730641.77434880554
 20
4585503.7327482002
 30
0.0
  0
VERTEX
  5
D8
  8
STREAMS
 10
730221.56956911518
 20
4586364.7747282581
 30
0.0
  0
VERTEX
  5
D9
  8
STREAMS
 10
730011.46717926976
 20
4587834.846303585
 30
0.0
  0
VERTEX
  5
DA
  8
STREAMS
 10
729969.44646949123
 20
4588926.8996363645
 30
0.0
  0
VERTEX
  5
DB
  8
STREAMS
 10
729654.2928847234
 20
4589850.9447126212
 30
0.0
  0
VERTEX
  5
DC
  8
STREAMS
 10
729801.36449966254
 20
4590879.9947818853
 30
0.0
  0
VERTEX
  5
DD
  8
STREAMS
 10
729927.42604947451
 20
4592182.0582680041
 30
0.0
  0
VERTEX
  5
DE
  8
STREAMS
 10
730074.49766441388
 20
4593253.110568719
 30
0.0
  0
VERTEX
  5
DF
  8
STREAMS
 10
730011.46717926976
 20
4593673.1310427142
 30
0.0
  0
VERTEX
  5
E0
  8
STREAMS
 10
730515.7127989938
 20
4594492.170958641
 30
0.0
  0
VERTEX
  5
E1
  8
STREAMS
 10
730452.68231384957
 20
4594891.1904005697
 30
0.0
  0
VERTEX
  5
E2
  8
STREAMS
 10
730221.56956911518
 20
4595395.2148355125
 30
0.0
  0
SEQEND
  5
E3
  8
STREAMS
  0
POLYLINE
  5
76
  8
STREAMS
 66
     1
 10
0.0
 20
0.0
 30
0.0
  0
VERTEX
  5
E4
  8
STREAMS
 10
747810.73635726701
 20
4576117.0967924139
 30
0.0
  0
VERTEX
  5
E5
  8
STREAMS
 10
747405.84723932913
 20
4576421.3733298304
 30
0.0
  0
VERTEX
  5
E6
  8
STREAMS
 10
747057.62195525574
 20
4576630.2169450736
 30
0.0
  0
VERTEX
  5
E7
  8
STREAMS
 10
746723.32553186896
 20
4576797.2917368794
 30
0.0
  0
VERTEX
  5
E8
  8
STREAMS
 10
746361.17138710897
 20
4576783.3689072765
 30
0.0
  0
VERTEX
  5
E9
  8
STREAMS
 10
746068.66183554428
 20
4576727.6772542372
 30
0.0
  0
VERTEX
  5
EA
  8
STREAMS
 10
745469.71445125237
 20
4576644.1397746773
 30
0.0
  0
VERTEX
  5
EB
  8
STREAMS
 10
744842.90876606305
 20
4576602.371118553
 30
0.0
  0
VERTEX
  5
EC
  8
STREAMS
 10
744466.8254708543
 20
4576755.5230807569
 30
0.0
  0
VERTEX
  5
ED
  8
STREAMS
 10
744104.67103633215
 20
4577103.5954939676
 30
0.0
  0
VERTEX
  5
EE
  8
STREAMS
 10
743881.8069472491
 20
4577033.9810113264
 30
0.0
  0
VERTEX
  5
EF
  8
STREAMS
 10
743477.86564090475
 20
4576992.2123552039
 30
0.0
  0
VERTEX
  5
F0
  8
STREAMS
 10
743338.57529546588
 20
4577214.97880005
 30
0.0
  0
VERTEX
  5
F1
  8
STREAMS
 10
743143.5692175182
 20
4577298.5161122931
 30
0.0
  0
VERTEX
  5
F2
  8
STREAMS
 10
742823.20194457995
 20
4577409.8994183736
 30
0.0
  0
VERTEX
  5
F3
  8
STREAMS
 10
742767.48592230934
 20
4577730.1261723824
 30
0.0
  0
VERTEX
  5
F4
  8
STREAMS
 10
742683.91188890336
 20
4577925.046790706
 30
0.0
  0
VERTEX
  5
F5
  8
STREAMS
 10
742266.04143211036
 20
4577911.1237937883
 30
0.0
  0
VERTEX
  5
F6
  8
STREAMS
 10
742043.17705326516
 20
4578203.5047212746
 30
0.0
  0
VERTEX
  5
F7
  8
STREAMS
 10
741876.02898645285
 20
4578551.577301803
 30
0.0
  0
VERTEX
  5
F8
  8
STREAMS
 10
741416.37165783788
 20
4578955.341368055
 30
0.0
  0
VERTEX
  5
F9
  8
STREAMS
 10
741221.36529012816
 20
4578969.2643649746
 30
0.0
  0
VERTEX
  5
FA
  8
STREAMS
 10
741040.2883626289
 20
4578913.5727119334
 30
0.0
  0
VERTEX
  5
FB
  8
STREAMS
 10
740859.21114536806
 20
4578969.2643649746
 30
0.0
  0
VERTEX
  5
FC
  8
STREAMS
 10
740789.56597264856
 20
4579303.4139485843
 30
0.0
  0
VERTEX
  5
FD
  8
STREAMS
 10
740441.34068857494
 20
4579679.3321883138
 30
0.0
  0
VERTEX
  5
FE
  8
STREAMS
 10
739953.82534882484
 20
4579762.8696678756
 30
0.0
  0
VERTEX
  5
FF
  8
STREAMS
 10
739591.6709143027
 20
4579804.6383239971
 30
0.0
  0
VERTEX
  5
100
  8
STREAMS
 10
739452.38085862575
 20
4579985.6361127207
 30
0.0
  0
VERTEX
  5
101
  8
STREAMS
 10
739090.2264241036
 20
4580166.6337341256
 30
0.0
  0
VERTEX
  5
102
  8
STREAMS
 10
738672.35596731072
 20
4580250.1712136883
 30
0.0
  0
VERTEX
  5
103
  8
STREAMS
 10
738212.69863869576
 20
4580431.1688350951
 30
0.0
  0
VERTEX
  5
104
  8
STREAMS
 10
738073.40829325677
 20
4580612.1666238178
 30
0.0
  0
VERTEX
  5
105
  8
STREAMS
 10
737585.89295350644
 20
4580904.547551305
 30
0.0
  0
VERTEX
  5
106
  8
STREAMS
 10
737321.24170283915
 20
4581196.9284787923
 30
0.0
  0
VERTEX
  5
107
  8
STREAMS
 10
736945.15840763052
 20
4581531.0780624021
 30
0.0
  0
VERTEX
  5
108
  8
STREAMS
 10
736583.00397310837
 20
4581837.3818194903
 30
0.0
  0
VERTEX
  5
109
  8
STREAMS
 10
735914.41141609708
 20
4582241.14605306
 30
0.0
  0
VERTEX
  5
10A
  8
STREAMS
 10
735454.754087482
 20
4582644.910119311
 30
0.0
  0
VERTEX
  5
10B
  8
STREAMS
 10
735078.6705025112
 20
4582644.910119311
 30
0.0
  0
VERTEX
  5
10C
  8
STREAMS
 10
734396.14908481319
 20
4582589.2184662698
 30
0.0
  0
VERTEX
  5
10D
  8
STREAMS
 10
733894.7045946141
 20
4582714.5246019531
 30
0.0
  0
VERTEX
  5
10E
  8
STREAMS
 10
733435.04697623709
 20
4582798.0620815139
 30
0.0
  0
VERTEX
  5
10F
  8
STREAMS
 10
732766.45441922557
 20
4582853.7537345542
 30
0.0
  0
VERTEX
  5
110
  8
STREAMS
 10
732111.79072290112
 20
4583020.8285263581
 30
0.0
  0
VERTEX
  5
111
  8
STREAMS
 10
731693.92055587028
 20
4583327.1322834482
 30
0.0
  0
VERTEX
  5
112
  8
STREAMS
 10
731317.83697089925
 20
4583647.3590374552
 30
0.0
  0
VERTEX
  5
113
  8
STREAMS
 10
730941.75367569074
 20
4583577.744554814
 30
0.0
  0
VERTEX
  5
114
  8
STREAMS
 10
730468.16719662677
 20
4583563.8215578953
 30
0.0
  0
VERTEX
  5
115
  8
STREAMS
 10
730106.01305186679
 20
4583786.5880027404
 30
0.0
  0
VERTEX
  5
116
  8
STREAMS
 10
729799.57463961549
 20
4584162.5064097876
 30
0.0
  0
VERTEX
  5
117
  8
STREAMS
 10
729646.35543348989
 20
4584538.4246495198
 30
0.0
  0
VERTEX
  5
118
  8
STREAMS
 10
729618.49742235441
 20
4585192.8009871366
 30
0.0
  0
VERTEX
  5
119
  8
STREAMS
 10
729507.22126978403
 20
4585692.7418694748
 30
0.0
  0
VERTEX
  5
11A
  8
STREAMS
 10
729171.05733012664
 20
4586175.7654396668
 30
0.0
  0
VERTEX
  5
11B
  8
STREAMS
 10
728561.76022571814
 20
4586553.7838495318
 30
0.0
  0
VERTEX
  5
11C
  8
STREAMS
 10
727805.39150637016
 20
4586658.7890098598
 30
0.0
  0
VERTEX
  5
11D
  8
STREAMS
 10
727406.19708156912
 20
4586511.7819527183
 30
0.0
  0
VERTEX
  5
11E
  8
STREAMS
 10
726859.93075206655
 20
4586637.7879777942
 30
0.0
  0
VERTEX
  5
11F
  8
STREAMS
 10
726649.48862432328
 20
4586814.2103972286
 30
0.0
  0
VERTEX
  5
120
  8
STREAMS
 10
726271.64371278544
 20
4587855.8473356524
 30
0.0
  0
VERTEX
  5
121
  8
STREAMS
 10
725893.45935311145
 20
4588380.8729699757
 30
0.0
  0
VERTEX
  5
122
  8
STREAMS
 10
725704.36731815548
 20
4589199.9128859006
 30
0.0
  0
VERTEX
  5
123
  8
STREAMS
 10
725998.51054803387
 20
4590165.9600262865
 30
0.0
  0
VERTEX
  5
124
  8
STREAMS
 10
726250.63364765805
 20
4591153.0080314213
 30
0.0
  0
VERTEX
  5
125
  8
STREAMS
 10
726292.65406767477
 20
4592287.063428333
 30
0.0
  0
VERTEX
  5
126
  8
STREAMS
 10
726313.66442256409
 20
4593064.1012801267
 30
0.0
  0
VERTEX
  5
127
  8
STREAMS
 10
726229.62329276861
 20
4594891.1904005697
 30
0.0
  0
VERTEX
  5
128
  8
STREAMS
 10
726313.66442256409
 20
4595668.2282523662
 30
0.0
  0
SEQEND
  5
129
  8
STREAMS
  0
POLYLINE
  5
77
  8
STREAMS
 66
     1
 10
0.0
 20
0.0
 30
0.0
  0
VERTEX
  5
12A
  8
STREAMS
 10
743623.44063496951
 20
4567204.2816058593
 30
0.0
  0
VERTEX
  5
12B
  8
STREAMS
 10
743984.67913172103
 20
4567450.2027945258
 30
0.0
  0
VERTEX
  5
12C
  8
STREAMS
 10
744460.91113810043
 20
4567616.8109376291
 30
0.0
  0
VERTEX
  5
12D
  8
STREAMS
 10
744770.46217405668
 20
4567521.6064039394
 30
0.0
  0
VERTEX
  5
12E
  8
STREAMS
 10
745187.1654694007
 20
4567521.6064039394
 30
0.0
  0
VERTEX
  5
12F
  8
STREAMS
 10
745532.43373197829
 20
4567295.4952808786
 30
0.0
  0
VERTEX
  5
130
  8
STREAMS
 10
745734.83250854677
 20
4567343.0976313818
 30
0.0
  0
VERTEX
  5
131
  8
STREAMS
 10
746092.00651333143
 20
4566974.1796241282
 30
0.0
  0
VERTEX
  5
132
  8
STREAMS
 10
746353.93429069722
 20
4566379.1506611286
 30
0.0
  0
VERTEX
  5
133
  8
STREAMS
 10
746806.35481266247
 20
4565700.8176265797
 30
0.0
  0
VERTEX
  5
134
  8
STREAMS
 10
747246.86959242076
 20
4565605.6129255733
 30
0.0
  0
VERTEX
  5
135
  8
STREAMS
 10
747425.45659481292
 20
4565653.2152760774
 30
0.0
  0
VERTEX
  5
136
  8
STREAMS
 10
747663.57259800262
 20
4565629.4140171651
 30
0.0
  0
VERTEX
  5
137
  8
STREAMS
 10
747818.34811598086
 20
4565784.1216981309
 30
0.0
  0
VERTEX
  5
138
  8
STREAMS
 10
747973.12363395875
 20
4565748.4199770819
 30
0.0
  0
VERTEX
  5
139
  8
STREAMS
 10
748024.67374755314
 20
4565677.4025366204
 30
0.0
  0
VERTEX
  5
13A
  8
STREAMS
 10
748047.57393038913
 20
4565555.3211124558
 30
0.0
  0
VERTEX
  5
13B
  8
STREAMS
 10
748253.67702472361
 20
4565402.7192904213
 30
0.0
  0
VERTEX
  5
13C
  8
STREAMS
 10
748299.47768015787
 20
4565303.5280810017
 30
0.0
  0
VERTEX
  5
13D
  8
STREAMS
 10
748551.38114016445
 20
4565372.1988925505
 30
0.0
  0
VERTEX
  5
13E
  8
STREAMS
 10
748696.41659733292
 20
4565303.5280810017
 30
0.0
  0
VERTEX
  5
13F
  8
STREAMS
 10
748795.65139906714
 20
4565128.0358769055
 30
0.0
  0
VERTEX
  5
140
  8
STREAMS
 10
748963.58703907172
 20
4565059.3650653558
 30
0.0
  0
VERTEX
  5
141
  8
STREAMS
 10
749238.39097167645
 20
4564815.2020497108
 30
0.0
  0
VERTEX
  5
142
  8
STREAMS
 10
749368.15944711282
 20
4564777.05163603
 30
0.0
  0
VERTEX
  5
143
  8
STREAMS
 10
749620.06319688167
 20
4564639.7100129323
 30
0.0
  0
VERTEX
  5
144
  8
STREAMS
 10
749803.26581861835
 20
4564578.6692171907
 30
0.0
  0
VERTEX
  5
145
  8
STREAMS
 10
749879.6001477543
 20
4564426.0673951572
 30
0.0
  0
VERTEX
  5
146
  8
STREAMS
 10
749994.10193122074
 20
4564372.6567825424
 30
0.0
  0
VERTEX
  5
147
  8
STREAMS
 10
750070.43626035703
 20
4564273.4655731227
 30
0.0
  0
VERTEX
  5
148
  8
STREAMS
 10
750085.70324208902
 20
4564097.9733690256
 30
0.0
  0
VERTEX
  5
149
  8
STREAMS
 10
750215.47171752551
 20
4564014.0423585419
 30
0.0
  0
VERTEX
  5
14A
  8
STREAMS
 10
750360.50688493194
 20
4563891.9609343782
 30
0.0
  0
VERTEX
  5
14B
  8
STREAMS
 10
750566.60997926642
 20
4563861.4405365074
 30
0.0
  0
VERTEX
  5
14C
  8
STREAMS
 10
750673.47827186657
 20
4563975.891944862
 30
0.0
  0
VERTEX
  5
14D
  8
STREAMS
 10
750994.08285990579
 20
4564029.3025574768
 30
0.0
  0
VERTEX
  5
14E
  8
STREAMS
 10
751177.28548164223
 20
4564113.2335679624
 30
0.0
  0
VERTEX
  5
14F
  8
STREAMS
 10
751360.48781361675
 20
4564159.0141647672
 30
0.0
  0
VERTEX
  5
150
  8
STREAMS
 10
751520.79025251733
 20
4564204.794761573
 30
0.0
  0
VERTEX
  5
151
  8
STREAMS
 10
751650.55872795358
 20
4564113.2335679624
 30
0.0
  0
VERTEX
  5
152
  8
STREAMS
 10
751833.76134969015
 20
4563953.0015628012
 30
0.0
  0
SEQEND
  5
153
  8
STREAMS
  0
POLYLINE
  5
78
  8
STREAMS
 66
     1
 10
0.0
 20
0.0
 30
0.0
  0
VERTEX
  5
154
  8
STREAMS
 10
739385.92596583464
 20
4547020.91259983
 30
0.0
  0
VERTEX
  5
155
  8
STREAMS
 10
739542.66375226656
 20
4547225.6517477743
 30
0.0
  0
VERTEX
  5
156
  8
STREAMS
 10
739867.45945827884
 20
4547431.2652973384
 30
0.0
  0
VERTEX
  5
157
  8
STREAMS
 10
740192.25487452885
 20
4547485.3741261698
 30
0.0
  0
VERTEX
  5
158
  8
STREAMS
 10
740636.141904769
 20
4547442.0870631039
 30
0.0
  0
VERTEX
  5
159
  8
STREAMS
 10
741177.4677916941
 20
4547690.987675732
 30
0.0
  0
VERTEX
  5
15A
  8
STREAMS
 10
741610.52844328154
 20
4547939.888288361
 30
0.0
  0
VERTEX
  5
15B
  8
STREAMS
 10
741783.75281982124
 20
4548102.2147748582
 30
0.0
  0
VERTEX
  5
15C
  8
STREAMS
 10
742097.72156765661
 20
4548307.8283244213
 30
0.0
  0
VERTEX
  5
15D
  8
STREAMS
 10
742584.91498179385
 20
4548459.3330451511
 30
0.0
  0
VERTEX
  5
15E
  8
STREAMS
 10
743050.45505910157
 20
4548621.6595316483
 30
0.0
  0
VERTEX
  5
15F
  8
STREAMS
 10
743429.38323790126
 20
4548708.2336577801
 30
0.0
  0
VERTEX
  5
160
  8
STREAMS
 10
743959.88245641161
 20
4548729.8771893121
 30
0.0
  0
VERTEX
  5
161
  8
STREAMS
 10
744338.81063521141
 20
4548729.8771893121
 30
0.0
  0
VERTEX
  5
162
  8
STREAMS
 10
744652.77938304679
 20
4548805.6295496784
 30
0.0
  0
VERTEX
  5
163
  8
STREAMS
 10
744858.48318530701
 20
4548535.0854055164
 30
0.0
  0
VERTEX
  5
164
  8
STREAMS
 10
745204.93193838664
 20
4548253.7194955889
 30
0.0
  0
VERTEX
  5
165
  8
STREAMS
 10
745388.98269357916
 20
4548177.9671352236
 30
0.0
  0
VERTEX
  5
166
  8
STREAMS
 10
745702.95144141442
 20
4548307.8283244213
 30
0.0
  0
VERTEX
  5
167
  8
STREAMS
 10
745865.34943930164
 20
4548372.7589190202
 30
0.0
  0
VERTEX
  5
168
  8
STREAMS
 10
746320.06284819439
 20
4548253.7194955889
 30
0.0
  0
VERTEX
  5
169
  8
STREAMS
 10
746612.37883872434
 20
4547929.0665225945
 30
0.0
  0
VERTEX
  5
16A
  8
STREAMS
 10
746818.08264098433
 20
4547604.4135496011
 30
0.0
  0
VERTEX
  5
16B
  8
STREAMS
 10
747261.96996098664
 20
4547225.6517477743
 30
0.0
  0
VERTEX
  5
16C
  8
STREAMS
 10
747575.93899858394
 20
4546836.068180182
 30
0.0
  0
VERTEX
  5
16D
  8
STREAMS
 10
747673.37756550661
 20
4546511.4152071876
 30
0.0
  0
VERTEX
  5
16E
  8
STREAMS
 10
747814.12222656433
 20
4546175.9404684268
 30
0.0
  0
VERTEX
  5
16F
  8
STREAMS
 10
747954.86688762181
 20
4545916.2180900322
 30
0.0
  0
VERTEX
  5
170
  8
STREAMS
 10
748268.83592521923
 20
4545624.0304143373
 30
0.0
  0
VERTEX
  5
171
  8
STREAMS
 10
748636.93743560428
 20
4545591.5651170379
 30
0.0
  0
VERTEX
  5
172
  8
STREAMS
 10
749015.86561440432
 20
4545407.5950990077
 30
0.0
  0
VERTEX
  5
173
  8
STREAMS
 10
749297.35493651929
 20
4545018.0115314154
 30
0.0
  0
VERTEX
  5
174
  8
STREAMS
 10
749351.48740930704
 20
4544650.0714953551
 30
0.0
  0
SEQEND
  5
175
  8
STREAMS
  0
POLYLINE
  5
79
  8
STREAMS
 66
     1
 10
0.0
 20
0.0
 30
0.0
  0
VERTEX
  5
176
  8
STREAMS
 10
744766.98560924456
 20
4557818.6928907419
 30
0.0
  0
VERTEX
  5
177
  8
STREAMS
 10
744858.86480189778
 20
4557919.7155582784
 30
0.0
  0
VERTEX
  5
178
  8
STREAMS
 10
745074.78068731097
 20
4558052.8817714294
 30
0.0
  0
VERTEX
  5
179
  8
STREAMS
 10
745212.59933140967
 20
4558098.801241816
 30
0.0
  0
VERTEX
  5
17A
  8
STREAMS
 10
745364.19992684689
 20
4558195.231878656
 30
0.0
  0
VERTEX
  5
17B
  8
STREAMS
 10
745488.23661960708
 20
4558273.2948946571
 30
0.0
  0
VERTEX
  5
17C
  8
STREAMS
 10
745612.27360212943
 20
4558300.84657689
 30
0.0
  0
VERTEX
  5
17D
  8
STREAMS
 10
745763.87419756665
 20
4558397.277213729
 30
0.0
  0
VERTEX
  5
17E
  8
STREAMS
 10
745814.40753620421
 20
4558484.5241238093
 30
0.0
  0
VERTEX
  5
17F
  8
STREAMS
 10
745855.75310045772
 20
4558535.0354575766
 30
0.0
  0
VERTEX
  5
180
  8
STREAMS
 10
745906.28672885743
 20
4558562.5871398086
 30
0.0
  0
VERTEX
  5
181
  8
STREAMS
 10
745943.03840591863
 20
4558525.8515635002
 30
0.0
  0
VERTEX
  5
182
  8
STREAMS
 10
745993.57174455642
 20
4558493.7080178857
 30
0.0
  0
VERTEX
  5
183
  8
STREAMS
 10
746025.72953442554
 20
4558576.3628972676
 30
0.0
  0
VERTEX
  5
184
  8
STREAMS
 10
746090.04482440173
 20
4558622.282367656
 30
0.0
  0
VERTEX
  5
185
  8
STREAMS
 10
746149.76622718573
 20
4558617.6903369576
 30
0.0
  0
VERTEX
  5
186
  8
STREAMS
 10
746214.08180692384
 20
4558700.3452163395
 30
0.0
  0
VERTEX
  5
187
  8
STREAMS
 10
746241.64541983895
 20
4558677.3855648041
 30
0.0
  0
VERTEX
  5
188
  8
STREAMS
 10
746342.71238687634
 20
4558700.3452163395
 30
0.0
  0
VERTEX
  5
189
  8
STREAMS
 10
746485.12520792917
 20
4558672.7937014252
 30
0.0
  0
VERTEX
  5
18A
  8
STREAMS
 10
746535.65854656673
 20
4558613.0984735768
 30
0.0
  0
VERTEX
  5
18B
  8
STREAMS
 10
746586.19217496645
 20
4558507.4837753428
 30
0.0
  0
VERTEX
  5
18C
  8
STREAMS
 10
746733.19859344955
 20
4558489.1159871882
 30
0.0
  0
VERTEX
  5
18D
  8
STREAMS
 10
746820.48389891046
 20
4558512.0758060412
 30
0.0
  0
VERTEX
  5
18E
  8
STREAMS
 10
746907.76891460945
 20
4558594.7306854231
 30
0.0
  0
VERTEX
  5
18F
  8
STREAMS
 10
747123.68508978502
 20
4558750.8567174254
 30
0.0
  0
VERTEX
  5
190
  8
STREAMS
 10
747307.44318532909
 20
4558870.2470057998
 30
0.0
  0
VERTEX
  5
191
  8
STREAMS
 10
747468.23155515059
 20
4558975.8617040338
 30
0.0
  0
VERTEX
  5
192
  8
STREAMS
 10
747624.42603778001
 20
4559017.1891437247
 30
0.0
  0
VERTEX
  5
193
  8
STREAMS
 10
747831.15414880891
 20
4559040.1487952601
 30
0.0
  0
VERTEX
  5
194
  8
STREAMS
 10
747936.8150030385
 20
4559113.6199478824
 30
0.0
  0
VERTEX
  5
195
  8
STREAMS
 10
747996.53640582249
 20
4559210.0505847214
 30
0.0
  0
VERTEX
  5
196
  8
STREAMS
 10
748120.57338834496
 20
4559320.2571463361
 30
0.0
  0
VERTEX
  5
197
  8
STREAMS
 10
748184.88867832103
 20
4559375.360510801
 30
0.0
  0
VERTEX
  5
198
  8
STREAMS
 10
748295.14370950474
 20
4559412.0959197953
 30
0.0
  0
VERTEX
  5
199
  8
STREAMS
 10
748419.18040226505
 20
4559398.3201623373
 30
0.0
  0
VERTEX
  5
19A
  8
STREAMS
 10
748566.18711050996
 20
4559412.0959197953
 30
0.0
  0
SEQEND
  5
19B
  8
STREAMS
  0
POLYLINE
  5
7A
  8
STREAMS
 66
     1
 10
0.0
 20
0.0
 30
0.0
  0
VERTEX
  5
19C
  8
STREAMS
 10
737174.65531222662
 20
4557438.931770782
 30
0.0
  0
VERTEX
  5
19D
  8
STREAMS
 10
737206.57433283736
 20
4557572.9171580626
 30
0.0
  0
VERTEX
  5
19E
  8
STREAMS
 10
737207.84884773474
 20
4557634.0421665916
 30
0.0
  0
VERTEX
  5
19F
  8
STREAMS
 10
737218.04508844775
 20
4557663.3312530881
 30
0.0
  0
VERTEX
  5
1A0
  8
STREAMS
 10
737230.79023742327
 20
4557725.7296793833
 30
0.0
  0
VERTEX
  5
1A1
  8
STREAMS
 10
737275.39850190282
 20
4557687.5265092319
 30
0.0
  0
VERTEX
  5
1A2
  8
STREAMS
 10
737302.16355781676
 20
4557670.971839333
 30
0.0
  0
VERTEX
  5
1A3
  8
STREAMS
 10
737359.5169712716
 20
4557664.6046708552
 30
0.0
  0
VERTEX
  5
1A4
  8
STREAMS
 10
737325.10494750529
 20
4557723.1827642052
 30
0.0
  0
VERTEX
  5
1A5
  8
STREAMS
 10
737367.16418218974
 20
4557748.6515177591
 30
0.0
  0
VERTEX
  5
1A6
  8
STREAMS
 10
737385.00739075535
 20
4557756.2921836469
 30
0.0
  0
VERTEX
  5
1A7
  8
STREAMS
 10
737434.71383635781
 20
4557781.7609372009
 30
0.0
  0
VERTEX
  5
1A8
  8
STREAMS
 10
737478.04758593976
 20
4557795.7686919225
 30
0.0
  0
VERTEX
  5
1A9
  8
STREAMS
 10
737493.34176471026
 20
4557814.8702769978
 30
0.0
  0
VERTEX
  5
1AA
  8
STREAMS
 10
737527.75391000928
 20
4557826.1766880574
 30
0.0
  0
VERTEX
  5
1AB
  8
STREAMS
 10
737535.40099939448
 20
4557852.9188593784
 30
0.0
  0
VERTEX
  5
1AC
  8
STREAMS
 10
737762.74531354022
 20
4557922.6933762999
 30
0.0
  0
VERTEX
  5
1AD
  8
STREAMS
 10
737897.63266860251
 20
4557980.4530544309
 30
0.0
  0
VERTEX
  5
1AE
  8
STREAMS
 10
737997.19237147865
 20
4558022.1683377028
 30
0.0
  0
VERTEX
  5
1AF
  8
STREAMS
 10
738011.64457073074
 20
4557990.0796276303
 30
0.0
  0
VERTEX
  5
1B0
  8
STREAMS
 10
738071.05918115925
 20
4558006.1240224876
 30
0.0
  0
VERTEX
  5
1B1
  8
STREAMS
 10
738152.95505794219
 20
4558020.5639221091
 30
0.0
  0
VERTEX
  5
1B2
  8
STREAMS
 10
738230.03349446377
 20
4557994.8929540524
 30
0.0
  0
VERTEX
  5
1B3
  8
STREAMS
 10
738356.8919039563
 20
4557932.3200291442
 30
0.0
  0
VERTEX
  5
1B4
  8
STREAMS
 10
738397.03687487124
 20
4557836.0538989268
 30
0.0
  0
VERTEX
  5
1B5
  8
STREAMS
 10
738431.51355410845
 20
4557746.1240355633
 30
0.0
  0
VERTEX
  5
1B6
  8
STREAMS
 10
738516.37677672354
 20
4557683.3159237979
 30
0.0
  0
VERTEX
  5
1B7
  8
STREAMS
 10
738623.24157557206
 20
4557582.8228016151
 30
0.0
  0
VERTEX
  5
1B8
  8
STREAMS
 10
738789.82506001578
 20
4557469.7681685798
 30
0.0
  0
VERTEX
  5
1B9
  8
STREAMS
 10
738865.25903567346
 20
4557485.4701766102
 30
0.0
  0
VERTEX
  5
1BA
  8
STREAMS
 10
738931.26376437396
 20
4557469.7681685798
 30
0.0
  0
VERTEX
  5
1BB
  8
STREAMS
 10
738972.12383452198
 20
4557460.3469159743
 30
0.0
  0
VERTEX
  5
1BC
  8
STREAMS
 10
739078.98863337038
 20
4557482.3297590753
 30
0.0
  0
VERTEX
  5
1BD
  8
STREAMS
 10
739173.28122447559
 20
4557457.2064984394
 30
0.0
  0
VERTEX
  5
1BE
  8
STREAMS
 10
739217.28437694244
 20
4557406.9599771705
 30
0.0
  0
VERTEX
  5
1BF
  8
STREAMS
 10
739295.46511632681
 20
4557291.5612806091
 30
0.0
  0
VERTEX
  5
1C0
  8
STREAMS
 10
739366.83904438443
 20
4557192.232305496
 30
0.0
  0
VERTEX
  5
1C1
  8
STREAMS
 10
739405.07497744181
 20
4557133.6537342854
 30
0.0
  0
VERTEX
  5
1C2
  8
STREAMS
 10
739486.64502467983
 20
4557085.262664495
 30
0.0
  0
VERTEX
  5
1C3
  8
STREAMS
 10
739629.39275926235
 20
4557049.606170591
 30
0.0
  0
VERTEX
  5
1C4
  8
STREAMS
 10
739698.21753599192
 20
4557013.9495970421
 30
0.0
  0
VERTEX
  5
1C5
  8
STREAMS
 10
739779.78758322995
 20
4556993.5744349128
 30
0.0
  0
VERTEX
  5
1C6
  8
STREAMS
 10
739856.25957087777
 20
4556934.9957840582
 30
0.0
  0
VERTEX
  5
1C7
  8
STREAMS
 10
739894.49562546797
 20
4556856.0420507183
 30
0.0
  0
VERTEX
  5
1C8
  8
STREAMS
 10
739932.7315585257
 20
4556789.8227339759
 30
0.0
  0
VERTEX
  5
1C9
  8
STREAMS
 10
739988.81106474728
 20
4556754.166160428
 30
0.0
  0
VERTEX
  5
1CA
  8
STREAMS
 10
740049.98863055883
 20
4556736.337913475
 30
0.0
  0
VERTEX
  5
1CB
  8
STREAMS
 10
740080.57735269819
 20
4556754.166160428
 30
0.0
  0
VERTEX
  5
1CC
  8
STREAMS
 10
740146.85309963289
 20
4556759.2599907815
 30
0.0
  0
VERTEX
  5
1CD
  8
STREAMS
 10
740218.2269061578
 20
4556736.337913475
 30
0.0
  0
VERTEX
  5
1CE
  8
STREAMS
 10
740316.28981057124
 20
4556695.9314892674
 30
0.0
  0
VERTEX
  5
1CF
  8
STREAMS
 10
740349.10659427417
 20
4556610.6805939674
 30
0.0
  0
VERTEX
  5
1D0
  8
STREAMS
 10
740267.06475654966
 20
4556535.2663710648
 30
0.0
  0
VERTEX
  5
1D1
  8
STREAMS
 10
740293.31815920561
 20
4556410.6689454634
 30
0.0
  0
VERTEX
  5
1D2
  8
STREAMS
 10
740326.13482137572
 20
4556351.6490703644
 30
0.0
  0
VERTEX
  5
1D3
  8
STREAMS
 10
740332.6982024227
 20
4556299.1870299596
 30
0.0
  0
VERTEX
  5
1D4
  8
STREAMS
 10
740437.7118130459
 20
4556233.6093998123
 30
0.0
  0
VERTEX
  5
1D5
  8
STREAMS
 10
740559.13369398774
 20
4556151.6374218594
 30
0.0
  0
VERTEX
  5
1D6
  8
STREAMS
 10
740634.61215066502
 20
4556069.6653642626
 30
0.0
  0
VERTEX
  5
1D7
  8
STREAMS
 10
740713.37223709945
 20
4555971.2989588613
 30
0.0
  0
VERTEX
  5
1D8
  8
STREAMS
 10
740795.41407482384
 20
4555812.3437040672
 30
0.0
  0
VERTEX
  5
1D9
  8
STREAMS
 10
740804.91119012819
 20
4555670.7586105531
 30
0.0
  0
VERTEX
  5
1DA
  8
STREAMS
 10
740742.64364840405
 20
4555539.7267003208
 30
0.0
  0
VERTEX
  5
1DB
  8
STREAMS
 10
740654.15814862296
 20
4555454.5558666447
 30
0.0
  0
VERTEX
  5
1DC
  8
STREAMS
 10
740585.33618982509
 20
4555415.2462768443
 30
0.0
  0
VERTEX
  5
1DD
  8
STREAMS
 10
740578.78177275136
 20
4555316.9723023409
 30
0.0
  0
VERTEX
  5
1DE
  8
STREAMS
 10
740644.32652301225
 20
4555258.0079176389
 30
0.0
  0
VERTEX
  5
1DF
  8
STREAMS
 10
740680.37610667967
 20
4555169.5613405854
 30
0.0
  0
VERTEX
  5
1E0
  8
STREAMS
 10
740739.36643986707
 20
4555110.5969558833
 30
0.0
  0
VERTEX
  5
1E1
  8
STREAMS
 10
740775.41602353449
 20
4555012.322981379
 30
0.0
  0
VERTEX
  5
1E2
  8
STREAMS
 10
740847.51519086922
 20
4555002.4955839291
 30
0.0
  0
VERTEX
  5
1E3
  8
STREAMS
 10
740903.22831551975
 20
4554900.9458660483
 30
0.0
  0
VERTEX
  5
1E4
  8
STREAMS
 10
740962.2183589451
 20
4554851.8088787971
 30
0.0
  0
VERTEX
  5
1E5
  8
STREAMS
 10
741001.54544091143
 20
4554753.5349042937
 30
0.0
  0
VERTEX
  5
1E6
  8
STREAMS
 10
741070.36739970918
 20
4554733.880109393
 30
0.0
  0
VERTEX
  5
1E7
  8
STREAMS
 10
741132.63494143344
 20
4554678.1914680684
 30
0.0
  0
VERTEX
  5
1E8
  8
STREAMS
 10
741221.12015145225
 20
4554648.7092757169
 30
0.0
  0
VERTEX
  5
1E9
  8
STREAMS
 10
741306.32844269648
 20
4554599.5722884657
 30
0.0
  0
VERTEX
  5
1EA
  8
STREAMS
 10
741342.37802636391
 20
4554514.4014547886
 30
0.0
  0
VERTEX
  5
1EB
  8
STREAMS
 10
741427.58602784609
 20
4554422.6791343596
 30
0.0
  0
VERTEX
  5
1EC
  8
STREAMS
 10
741545.56669422064
 20
4554425.954877737
 30
0.0
  0
VERTEX
  5
1ED
  8
STREAMS
 10
741768.41890306084
 20
4554409.5759935314
 30
0.0
  0
VERTEX
  5
1EE
  8
STREAMS
 10
741889.67648821021
 20
4554406.3000828363
 30
0.0
  0
VERTEX
  5
1EF
  8
STREAMS
 10
741955.22123847145
 20
4554461.9887241609
 30
0.0
  0
VERTEX
  5
1F0
  8
STREAMS
 10
742027.32069556811
 20
4554452.1613267101
 30
0.0
  0
VERTEX
  5
1F1
  8
STREAMS
 10
742092.86544582923
 20
4554478.3677756833
 30
0.0
  0
VERTEX
  5
1F2
  8
STREAMS
 10
742223.95494635124
 20
4554393.1969420081
 30
0.0
  0
VERTEX
  5
1F3
  8
STREAMS
 10
742289.49969661247
 20
4554304.7503649564
 30
0.0
  0
VERTEX
  5
1F4
  8
STREAMS
 10
742292.77690514922
 20
4554275.2681726031
 30
0.0
  0
VERTEX
  5
1F5
  8
STREAMS
 10
742368.15328102058
 20
4554262.1650317758
 30
0.0
  0
VERTEX
  5
1F6
  8
STREAMS
 10
742377.98490663129
 20
4554183.5458521731
 30
0.0
  0
VERTEX
  5
1F7
  8
STREAMS
 10
742440.25244835555
 20
4554137.6846082993
 30
0.0
  0
VERTEX
  5
1F8
  8
STREAMS
 10
742509.07440715353
 20
4554127.8572108475
 30
0.0
  0
VERTEX
  5
1F9
  8
STREAMS
 10
742548.40119935758
 20
4554026.3074929677
 30
0.0
  0
VERTEX
  5
1FA
  8
STREAMS
 10
742604.11432400811
 20
4553937.8609159151
 30
0.0
  0
VERTEX
  5
1FB
  8
STREAMS
 10
742715.54028354702
 20
4553941.1366592916
 30
0.0
  0
VERTEX
  5
1FC
  8
STREAMS
 10
742813.8574089387
 20
4553960.7914541932
 30
0.0
  0
VERTEX
  5
1FD
  8
STREAMS
 10
742892.5112831092
 20
4553911.654466941
 30
0.0
  0
VERTEX
  5
1FE
  8
STREAMS
 10
743017.04607679555
 20
4553957.5157108149
 30
0.0
  0
VERTEX
  5
1FF
  8
STREAMS
 10
743144.8583687807
 20
4553993.5493899221
 30
0.0
  0
VERTEX
  5
200
  8
STREAMS
 10
743236.62107709865
 20
4554019.7558388952
 30
0.0
  0
VERTEX
  5
201
  8
STREAMS
 10
743341.49261956394
 20
4554081.9959669737
 30
0.0
  0
VERTEX
  5
202
  8
STREAMS
 10
743518.46361912612
 20
4554078.7202235973
 30
0.0
  0
VERTEX
  5
203
  8
STREAMS
 10
743662.66195379547
 20
4554078.7202235973
 30
0.0
  0
VERTEX
  5
204
  8
STREAMS
 10
743849.46457896801
 20
4554216.303787902
 30
0.0
  0
VERTEX
  5
205
  8
STREAMS
 10
743921.56374630285
 20
4554383.3695445592
 30
0.0
  0
VERTEX
  5
206
  8
STREAMS
 10
744029.71249730489
 20
4554573.3658394916
 30
0.0
  0
VERTEX
  5
207
  8
STREAMS
 10
744088.70283049217
 20
4554678.1914680684
 30
0.0
  0
VERTEX
  5
208
  8
STREAMS
 10
744177.18833027338
 20
4554799.3959808489
 30
0.0
  0
SEQEND
  5
209
  8
STREAMS
  0
POLYLINE
  5
7B
  8
STREAMS
 66
     1
 10
0.0
 20
0.0
 30
0.0
  0
VERTEX
  5
20A
  8
STREAMS
 10
735038.57514979283
 20
4555427.7126023956
 30
0.0
  0
VERTEX
  5
20B
  8
STREAMS
 10
735046.0620588942
 20
4555397.6853015469
 30
0.0
  0
VERTEX
  5
20C
  8
STREAMS
 10
735053.90894826909
 20
4555351.7642910862
 30
0.0
  0
VERTEX
  5
20D
  8
STREAMS
 10
735058.39290241664
 20
4555329.3637981778
 30
0.0
  0
VERTEX
  5
20E
  8
STREAMS
 10
735071.84464332624
 20
4555314.8034777893
 30
0.0
  0
VERTEX
  5
20F
  8
STREAMS
 10
735094.26417099813
 20
4555296.8830834627
 30
0.0
  0
VERTEX
  5
210
  8
STREAMS
 10
735107.71591190761
 20
4555264.4022891037
 30
0.0
  0
VERTEX
  5
211
  8
STREAMS
 10
735106.59501452046
 20
4555236.4016729696
 30
0.0
  0
VERTEX
  5
212
  8
STREAMS
 10
735103.23207929288
 20
4555188.2406132184
 30
0.0
  0
VERTEX
  5
213
  8
STREAMS
 10
735123.40969065728
 20
4555126.6392577235
 30
0.0
  0
VERTEX
  5
214
  8
STREAMS
 10
735166.00682969345
 20
4555058.3177543553
 30
0.0
  0
VERTEX
  5
215
  8
STREAMS
 10
735243.35446145665
 20
4554989.996250988
 30
0.0
  0
VERTEX
  5
216
  8
STREAMS
 10
735297.16142509505
 20
4554942.9551362386
 30
0.0
  0
VERTEX
  5
217
  8
STREAMS
 10
735359.9361754955
 20
4554884.7138546798
 30
0.0
  0
VERTEX
  5
218
  8
STREAMS
 10
735417.31559697818
 20
4554877.6478953157
 30
0.0
  0
VERTEX
  5
219
  8
STREAMS
 10
735457.22139126319
 20
4554825.5076937508
 30
0.0
  0
VERTEX
  5
21A
  8
STREAMS
 10
735521.68471894856
 20
4554773.367492185
 30
0.0
  0
VERTEX
  5
21B
  8
STREAMS
 10
735564.66031124978
 20
4554761.0992282033
 30
0.0
  0
VERTEX
  5
21C
  8
STREAMS
 10
735586.14816816675
 20
4554745.7638185835
 30
0.0
  0
VERTEX
  5
21D
  8
STREAMS
 10
735596.47615047905
 20
4554718.795300819
 30
0.0
  0
VERTEX
  5
21E
  8
STREAMS
 10
735603.61936470785
 20
4554714.7170030139
 30
0.0
  0
VERTEX
  5
21F
  8
STREAMS
 10
735612.80347992585
 20
4554706.5602481207
 30
0.0
  0
VERTEX
  5
220
  8
STREAMS
 10
735610.76257893664
 20
4554695.3447897844
 30
0.0
  0
VERTEX
  5
221
  8
STREAMS
 10
735617.90579316556
 20
4554684.1293314481
 30
0.0
  0
VERTEX
  5
222
  8
STREAMS
 10
735651.58084178739
 20
4554672.9137934679
 30
0.0
  0
VERTEX
  5
223
  8
STREAMS
 10
735671.98997321306
 20
4554663.7375238547
 30
0.0
  0
VERTEX
  5
224
  8
STREAMS
 10
735692.3992261712
 20
4554648.4436880723
 30
0.0
  0
VERTEX
  5
225
  8
STREAMS
 10
735709.74694534636
 20
4554615.8168277806
 30
0.0
  0
VERTEX
  5
226
  8
STREAMS
 10
735713.82874732465
 20
4554595.4250998311
 30
0.0
  0
VERTEX
  5
227
  8
STREAMS
 10
735712.80835759663
 20
4554568.9157260684
 30
0.0
  0
VERTEX
  5
228
  8
STREAMS
 10
735730.05471838289
 20
4554546.2730376851
 30
0.0
  0
VERTEX
  5
229
  8
STREAMS
 10
735760.29342594184
 20
4554503.5582301803
 30
0.0
  0
VERTEX
  5
22A
  8
STREAMS
 10
735783.23311417049
 20
4554463.9688672572
 30
0.0
  0
VERTEX
  5
22B
  8
STREAMS
 10
735808.25818440807
 20
4554443.1323311124
 30
0.0
  0
VERTEX
  5
22C
  8
STREAMS
 10
735834.32600641658
 20
4554431.6722880024
 30
0.0
  0
VERTEX
  5
22D
  8
STREAMS
 10
735842.66765598475
 20
4554405.6266775541
 30
0.0
  0
VERTEX
  5
22E
  8
STREAMS
 10
735853.09480909479
 20
4554383.7483265493
 30
0.0
  0
VERTEX
  5
22F
  8
STREAMS
 10
735855.18031263666
 20
4554370.2045740718
 30
0.0
  0
VERTEX
  5
230
  8
STREAMS
 10
735842.66765598475
 20
4554332.6989205144
 30
0.0
  0
VERTEX
  5
231
  8
STREAMS
 10
735823.89885330666
 20
4554278.5239902539
 30
0.0
  0
VERTEX
  5
232
  8
STREAMS
 10
735816.59995550918
 20
4554246.2274109982
 30
0.0
  0
VERTEX
  5
233
  8
STREAMS
 10
735812.42906995874
 20
4554208.721677796
 30
0.0
  0
VERTEX
  5
234
  8
STREAMS
 10
735812.94291080814
 20
4554161.8689196063
 30
0.0
  0
VERTEX
  5
235
  8
STREAMS
 10
735795.43732047314
 20
4554096.2787058046
 30
0.0
  0
VERTEX
  5
236
  8
STREAMS
 10
735786.68440377293
 20
4554032.1459655911
 30
0.0
  0
VERTEX
  5
237
  8
STREAMS
 10
735773.55521102168
 20
4554005.9099278552
 30
0.0
  0
VERTEX
  5
238
  8
STREAMS
 10
735760.42601827066
 20
4553963.6406453354
 30
0.0
  0
VERTEX
  5
239
  8
STREAMS
 10
735751.67322310328
 20
4553918.4562563598
 30
0.0
  0
VERTEX
  5
23A
  8
STREAMS
 10
735756.04962068715
 20
4553870.3567609303
 30
0.0
  0
VERTEX
  5
23B
  8
STREAMS
 10
735772.09645233816
 20
4553848.4933032347
 30
0.0
  0
VERTEX
  5
23C
  8
STREAMS
 10
735773.55521102168
 20
4553813.5755015425
 30
0.0
  0
VERTEX
  5
23D
  8
STREAMS
 10
735763.34365717066
 20
4553785.8818309382
 30
0.0
  0
VERTEX
  5
23E
  8
STREAMS
 10
735763.34365717066
 20
4553769.8486657944
 30
0.0
  0
VERTEX
  5
23F
  8
STREAMS
 10
735754.59074047045
 20
4553743.6125484174
 30
0.0
  0
VERTEX
  5
240
  8
STREAMS
 10
735760.42601827066
 20
4553724.6642768197
 30
0.0
  0
VERTEX
  5
241
  8
STREAMS
 10
735758.9671380542
 20
4553698.4281594409
 30
0.0
  0
VERTEX
  5
242
  8
STREAMS
 10
735766.26117453806
 20
4553664.9042759286
 30
0.0
  0
VERTEX
  5
243
  8
STREAMS
 10
735779.39048882201
 20
4553660.5315366033
 30
0.0
  0
VERTEX
  5
244
  8
STREAMS
 10
735791.06080135657
 20
4553643.040818233
 30
0.0
  0
VERTEX
  5
245
  8
STREAMS
 10
735802.73123542406
 20
4553602.2291685818
 30
0.0
  0
VERTEX
  5
246
  8
STREAMS
 10
735826.07210355904
 20
4553555.5871467358
 30
0.0
  0
VERTEX
  5
247
  8
STREAMS
 10
735849.41297169426
 20
4553524.9783696784
 30
0.0
  0
VERTEX
  5
248
  8
STREAMS
 10
735871.29495961266
 20
4553506.0300980797
 30
0.0
  0
VERTEX
  5
249
  8
STREAMS
 10
735890.25943016389
 20
4553504.5725448532
 30
0.0
  0
VERTEX
  5
24A
  8
STREAMS
 10
735906.30626181525
 20
4553488.5393797094
 30
0.0
  0
VERTEX
  5
24B
  8
STREAMS
 10
735916.51793719898
 20
4553425.8642723644
 30
0.0
  0
VERTEX
  5
24C
  8
STREAMS
 10
735931.10588863376
 20
4553387.967649525
 30
0.0
  0
VERTEX
  5
24D
  8
STREAMS
 10
735954.44675676874
 20
4553341.325707322
 30
0.0
  0
VERTEX
  5
24E
  8
STREAMS
 10
735953.00416195276
 20
4553326.1831142902
 30
0.0
  0
VERTEX
  5
24F
  8
STREAMS
 10
735947.10568707576
 20
4553298.1891085543
 30
0.0
  0
VERTEX
  5
250
  8
STREAMS
 10
735951.52960400016
 20
4553276.0885525607
 30
0.0
  0
VERTEX
  5
251
  8
STREAMS
 10
735960.37731631577
 20
4553243.6744196983
 30
0.0
  0
VERTEX
  5
252
  8
STREAMS
 10
735961.85199580155
 20
4553224.5205885749
 30
0.0
  0
VERTEX
  5
253
  8
STREAMS
 10
735978.07286248018
 20
4553187.6864082282
 30
0.0
  0
VERTEX
  5
254
  8
STREAMS
 10
735992.81904967315
 20
4553128.751592244
 30
0.0
  0
VERTEX
  5
255
  8
STREAMS
 10
736041.4816497094
 20
4553049.1897021672
 30
0.0
  0
VERTEX
  5
256
  8
STREAMS
 10
736084.24577486806
 20
4552957.8407533206
 30
0.0
  0
VERTEX
  5
257
  8
STREAMS
 10
736132.90837490419
 20
4552888.5924401106
 30
0.0
  0
VERTEX
  5
258
  8
STREAMS
 10
736172.72326262447
 20
4552826.7108992571
 30
0.0
  0
VERTEX
  5
259
  8
STREAMS
 10
736197.79184161895
 20
4552791.3500415236
 30
0.0
  0
VERTEX
  5
25A
  8
STREAMS
 10
736211.06347085908
 20
4552758.9359086622
 30
0.0
  0
VERTEX
  5
25B
  8
STREAMS
 10
736205.16499598185
 20
4552744.2022046661
 30
0.0
  0
VERTEX
  5
25C
  8
STREAMS
 10
736200.74107905757
 20
4552717.6815215442
 30
0.0
  0
VERTEX
  5
25D
  8
STREAMS
 10
736203.69031649618
 20
4552705.8946220633
 30
0.0
  0
VERTEX
  5
25E
  8
STREAMS
 10
736215.48738778336
 20
4552705.8946220633
 30
0.0
  0
VERTEX
  5
25F
  8
STREAMS
 10
736212.53815034474
 20
4552683.7940660678
 30
0.0
  0
VERTEX
  5
260
  8
STREAMS
 10
736222.86054214626
 20
4552661.6935100732
 30
0.0
  0
VERTEX
  5
261
  8
STREAMS
 10
736250.87835857936
 20
4552636.6462292103
 30
0.0
  0
VERTEX
  5
262
  8
STREAMS
 10
736277.42161705962
 20
4552595.0987545084
 30
0.0
  0
VERTEX
  5
263
  8
STREAMS
 10
736287.74400886102
 20
4552555.3178492906
 30
0.0
  0
VERTEX
  5
264
  8
STREAMS
 10
736303.96487553976
 20
4552503.7498853058
 30
0.0
  0
VERTEX
  5
265
  8
STREAMS
 10
736305.43943349272
 20
4552459.5487733176
 30
0.0
  0
VERTEX
  5
266
  8
STREAMS
 10
736339.35584633565
 20
4552427.1347200992
 30
0.0
  0
VERTEX
  5
267
  8
STREAMS
 10
736376.22149661754
 20
4552400.6140369773
 30
0.0
  0
VERTEX
  5
268
  8
STREAMS
 10
736401.29007561202
 20
4552368.1999041149
 30
0.0
  0
VERTEX
  5
269
  8
STREAMS
 10
736417.51094229054
 20
4552303.3716383902
 30
0.0
  0
VERTEX
  5
26A
  8
STREAMS
 10
736436.68104640802
 20
4552268.0117363771
 30
0.0
  0
VERTEX
  5
26B
  8
STREAMS
 10
736448.47799616226
 20
4552242.9644555142
 30
0.0
  0
VERTEX
  5
26C
  8
STREAMS
 10
736458.80038796377
 20
4552220.8639791626
 30
0.0
  0
VERTEX
  5
26D
  8
STREAMS
 10
736449.95267564815
 20
4552200.2367457822
 30
0.0
  0
VERTEX
  5
26E
  8
STREAMS
 10
736454.37659257243
 20
4552186.9764440432
 30
0.0
  0
VERTEX
  5
26F
  8
STREAMS
 10
736458.80038796377
 20
4552163.4025654346
 30
0.0
  0
VERTEX
  5
270
  8
STREAMS
 10
736470.59745925094
 20
4552148.6688614395
 30
0.0
  0
VERTEX
  5
271
  8
STREAMS
 10
736460.27506744943
 20
4552128.041707702
 30
0.0
  0
VERTEX
  5
272
  8
STREAMS
 10
736458.80038796377
 20
4552107.4144743225
 30
0.0
  0
VERTEX
  5
273
  8
STREAMS
 10
736472.07201720367
 20
4552055.8465899797
 30
0.0
  0
VERTEX
  5
274
  8
STREAMS
 10
736494.19135875965
 20
4552024.9057797296
 30
0.0
  0
VERTEX
  5
275
  8
STREAMS
 10
736512.05547097395
 20
4552001.174047973
 30
0.0
  0
VERTEX
  5
276
  8
STREAMS
 10
736528.45219567255
 20
4551968.4083692972
 30
0.0
  0
VERTEX
  5
277
  8
STREAMS
 10
736555.28336545173
 20
4551960.9616350029
 30
0.0
  0
VERTEX
  5
278
  8
STREAMS
 10
736577.64261283481
 20
4551949.0468282755
 30
0.0
  0
VERTEX
  5
279
  8
STREAMS
 10
736582.11441369809
 20
4551937.1320215501
 30
0.0
  0
VERTEX
  5
27A
  8
STREAMS
 10
736591.05813695793
 20
4551937.1320215501
 30
0.0
  0
VERTEX
  5
27B
  8
STREAMS
 10
736605.96438290155
 20
4551931.1746181864
 30
0.0
  0
VERTEX
  5
27C
  8
STREAMS
 10
736613.41738434066
 20
4551917.7704805303
 30
0.0
  0
VERTEX
  5
27D
  8
STREAMS
 10
736635.77663172362
 20
4551901.3876810139
 30
0.0
  0
VERTEX
  5
27E
  8
STREAMS
 10
736640.24855411984
 20
4551886.4942124272
 30
0.0
  0
VERTEX
  5
27F
  8
STREAMS
 10
736655.15467853076
 20
4551868.6220023371
 30
0.0
  0
VERTEX
  5
280
  8
STREAMS
 10
736680.49524802214
 20
4551846.2817994561
 30
0.0
  0
VERTEX
  5
281
  8
STREAMS
 10
736702.85449540499
 20
4551844.7923888834
 30
0.0
  0
VERTEX
  5
282
  8
STREAMS
 10
736714.77941924054
 20
4551825.4308478637
 30
0.0
  0
VERTEX
  5
283
  8
STREAMS
 10
736729.68554365134
 20
4551804.5799759142
 30
0.0
  0
VERTEX
  5
284
  8
STREAMS
 10
736713.28881895274
 20
4551788.1971763968
 30
0.0
  0
VERTEX
  5
285
  8
STREAMS
 10
736704.3450956929
 20
4551785.2184348926
 30
0.0
  0
VERTEX
  5
286
  8
STREAMS
 10
736680.49524802214
 20
4551767.3463044474
 30
0.0
  0
VERTEX
  5
287
  8
STREAMS
 10
736664.09840179048
 20
4551733.09129484
 30
0.0
  0
VERTEX
  5
288
  8
STREAMS
 10
736664.09840179048
 20
4551689.9001403674
 30
0.0
  0
VERTEX
  5
289
  8
STREAMS
 10
736667.0796023662
 20
4551655.645130761
 30
0.0
  0
VERTEX
  5
28A
  8
STREAMS
 10
736693.91077214526
 20
4551619.9007902239
 30
0.0
  0
VERTEX
  5
28B
  8
STREAMS
 10
736737.13866662316
 20
4551602.0285801329
 30
0.0
  0
VERTEX
  5
28C
  8
STREAMS
 10
736771.42283784156
 20
4551605.0072419941
 30
0.0
  0
VERTEX
  5
28D
  8
STREAMS
 10
736793.78208522452
 20
4551603.5179110644
 30
0.0
  0
VERTEX
  5
28E
  8
STREAMS
 10
736796.76340733282
 20
4551615.4327177908
 30
0.0
  0
VERTEX
  5
28F
  8
STREAMS
 10
736801.23520819633
 20
4551622.8794520842
 30
0.0
  0
VERTEX
  5
290
  8
STREAMS
 10
736813.16013203165
 20
4551622.8794520842
 30
0.0
  0
VERTEX
  5
291
  8
STREAMS
 10
736816.14145414007
 20
4551630.3261863766
 30
0.0
  0
VERTEX
  5
292
  8
STREAMS
 10
736820.61325500347
 20
4551639.2623312427
 30
0.0
  0
VERTEX
  5
293
  8
STREAMS
 10
736856.38802650955
 20
4551640.7516621752
 30
0.0
  0
VERTEX
  5
294
  8
STREAMS
 10
736865.33174976928
 20
4551652.6664689006
 30
0.0
  0
VERTEX
  5
295
  8
STREAMS
 10
736880.23799571313
 20
4551649.6877273973
 30
0.0
  0
VERTEX
  5
296
  8
STREAMS
 10
736899.61592098745
 20
4551657.1344616907
 30
0.0
  0
VERTEX
  5
297
  8
STREAMS
 10
736917.5033675069
 20
4551654.1557998303
 30
0.0
  0
VERTEX
  5
298
  8
STREAMS
 10
736992.0342326276
 20
4551633.3049278809
 30
0.0
  0
VERTEX
  5
299
  8
STREAMS
 10
737048.6656194774
 20
4551604.7894173888
 30
0.0
  0
VERTEX
  5
29A
  8
STREAMS
 10
737090.85550196527
 20
4551580.7013612157
 30
0.0
  0
VERTEX
  5
29B
  8
STREAMS
 10
737117.97762136441
 20
4551565.6463758852
 30
0.0
  0
VERTEX
  5
29C
  8
STREAMS
 10
737143.59297660796
 20
4551567.1518744193
 30
0.0
  0
VERTEX
  5
29D
  8
STREAMS
 10
737184.27609494026
 20
4551562.635378819
 30
0.0
  0
VERTEX
  5
29E
  8
STREAMS
 10
737218.93215665012
 20
4551547.5803138437
 30
0.0
  0
VERTEX
  5
29F
  8
STREAMS
 10
737247.56104020495
 20
4551515.9647650039
 30
0.0
  0
VERTEX
  5
2A0
  8
STREAMS
 10
737274.68315960409
 20
4551494.8877855409
 30
0.0
  0
VERTEX
  5
2A1
  8
STREAMS
 10
737295.77810084797
 20
4551481.3382987417
 30
0.0
  0
VERTEX
  5
2A2
  8
STREAMS
 10
737298.79175069218
 20
4551461.7667381689
 30
0.0
  0
VERTEX
  5
2A3
  8
STREAMS
 10
737300.29851484764
 20
4551446.7117528366
 30
0.0
  0
VERTEX
  5
2A4
  8
STREAMS
 10
737310.84598546952
 20
4551431.6566878641
 30
0.0
  0
VERTEX
  5
2A5
  8
STREAMS
 10
737313.85951378092
 20
4551421.1181981312
 30
0.0
  0
VERTEX
  5
2A6
  8
STREAMS
 10
737336.46134071297
 20
4551421.1181981312
 30
0.0
  0
VERTEX
  5
2A7
  8
STREAMS
 10
737371.11728089035
 20
4551391.0081478236
 30
0.0
  0
VERTEX
  5
2A8
  8
STREAMS
 10
737425.36151968839
 20
4551336.8101209886
 30
0.0
  0
VERTEX
  5
2A9
  8
STREAMS
 10
737453.99040324334
 20
4551302.1835750826
 30
0.0
  0
VERTEX
  5
2AA
  8
STREAMS
 10
737464.53799539804
 20
4551263.040533578
 30
0.0
  0
VERTEX
  5
2AB
  8
STREAMS
 10
737475.08546602004
 20
4551208.8425067421
 30
0.0
  0
VERTEX
  5
2AC
  8
STREAMS
 10
737470.56505202036
 20
4551186.2599491021
 30
0.0
  0
VERTEX
  5
2AD
  8
STREAMS
 10
737449.47011077637
 20
4551160.6663943948
 30
0.0
  0
VERTEX
  5
2AE
  8
STREAMS
 10
737426.86840537703
 20
4551141.094913464
 30
0.0
  0
VERTEX
  5
2AF
  8
STREAMS
 10
737387.69192966737
 20
4551138.0839163978
 30
0.0
  0
VERTEX
  5
2B0
  8
STREAMS
 10
737345.50204717938
 20
4551136.5784178646
 30
0.0
  0
VERTEX
  5
2B1
  8
STREAMS
 10
737327.42063424655
 20
4551129.050925198
 30
0.0
  0
VERTEX
  5
2B2
  8
STREAMS
 10
737307.83245715837
 20
4551068.8308245866
 30
0.0
  0
VERTEX
  5
2B3
  8
STREAMS
 10
737322.9002202471
 20
4551032.6987801483
 30
0.0
  0
VERTEX
  5
2B4
  8
STREAMS
 10
737337.96810486855
 20
4550990.5447415765
 30
0.0
  0
VERTEX
  5
2B5
  8
STREAMS
 10
737379.04365274275
 20
4550907.3398046866
 30
0.0
  0
VERTEX
  5
2B6
  8
STREAMS
 10
737429.30684028717
 20
4550867.7721844008
 30
0.0
  0
VERTEX
  5
2B7
  8
STREAMS
 10
737470.43112283025
 20
4550851.0321047492
 30
0.0
  0
VERTEX
  5
2B8
  8
STREAMS
 10
737491.75491041271
 20
4550837.3355962979
 30
0.0
  0
VERTEX
  5
2B9
  8
STREAMS
 10
737493.27808150172
 20
4550812.9863895308
 30
0.0
  0
VERTEX
  5
2BA
  8
STREAMS
 10
737548.11053924775
 20
4550791.6807539649
 30
0.0
  0
VERTEX
  5
2BB
  8
STREAMS
 10
737581.61933094391
 20
4550752.1132133231
 30
0.0
  0
VERTEX
  5
2BC
  8
STREAMS
 10
737612.08190199488
 20
4550750.5913879015
 30
0.0
  0
VERTEX
  5
2BD
  8
STREAMS
 10
737627.31312675425
 20
4550749.0695624771
 30
0.0
  0
VERTEX
  5
2BE
  8
STREAMS
 10
737660.82191845065
 20
4550723.1984506426
 30
0.0
  0
VERTEX
  5
2BF
  8
STREAMS
 10
737698.8999803483
 20
4550695.8055133848
 30
0.0
  0
VERTEX
  5
2C0
  8
STREAMS
 10
737723.26998857595
 20
4550659.2816235889
 30
0.0
  0
VERTEX
  5
2C1
  8
STREAMS
 10
737736.97816377878
 20
4550624.2794795744
 30
0.0
  0
VERTEX
  5
2C2
  8
STREAMS
 10
737755.25573071605
 20
4550592.3210660471
 30
0.0
  0
VERTEX
  5
2C3
  8
STREAMS
 10
737759.82500091754
 20
4550557.3190016747
 30
0.0
  0
VERTEX
  5
2C4
  8
STREAMS
 10
737746.11694724741
 20
4550537.5352711761
 30
0.0
  0
VERTEX
  5
2C5
  8
STREAMS
 10
737709.56193490594
 20
4550511.6641593408
 30
0.0
  0
VERTEX
  5
2C6
  8
STREAMS
 10
737691.28436796868
 20
4550490.3585237749
 30
0.0
  0
VERTEX
  5
2C7
  8
STREAMS
 10
737688.2381473236
 20
4550459.921935671
 30
0.0
  0
VERTEX
  5
2C8
  8
STREAMS
 10
737695.85375970311
 20
4550440.1381255286
 30
0.0
  0
VERTEX
  5
2C9
  8
STREAMS
 10
737697.376930792
 20
4550424.9198712986
 30
0.0
  0
VERTEX
  5
2CA
  8
STREAMS
 10
737715.65437619644
 20
4550402.0924103111
 30
0.0
  0
VERTEX
  5
2CB
  8
STREAMS
 10
737727.83938031015
 20
4550383.8305052351
 30
0.0
  0
VERTEX
  5
2CC
  8
STREAMS
 10
737733.93194313347
 20
4550357.9593934007
 30
0.0
  0
VERTEX
  5
2CD
  8
STREAMS
 10
737729.36255139916
 20
4550326.0009798743
 30
0.0
  0
VERTEX
  5
2CE
  8
STREAMS
 10
737718.70071837457
 20
4550287.9552646559
 30
0.0
  0
VERTEX
  5
2CF
  8
STREAMS
 10
737703.46937208262
 20
4550248.3876443701
 30
0.0
  0
VERTEX
  5
2D0
  8
STREAMS
 10
737686.71497623436
 20
4550228.6039138706
 30
0.0
  0
VERTEX
  5
2D1
  8
STREAMS
 10
737645.59057215857
 20
4550190.5581190092
 30
0.0
  0
VERTEX
  5
2D2
  8
STREAMS
 10
737625.78995566524
 20
4550178.3835156253
 30
0.0
  0
VERTEX
  5
2D3
  8
STREAMS
 10
737605.98933917156
 20
4550175.3398647793
 30
0.0
  0
VERTEX
  5
2D4
  8
STREAMS
 10
737581.61933094391
 20
4550170.7743885107
 30
0.0
  0
VERTEX
  5
2D5
  8
STREAMS
 10
737546.58748969145
 20
4550134.2504987149
 30
0.0
  0
VERTEX
  5
2D6
  8
STREAMS
 10
737481.62198830931
 20
4550133.9616322294
 30
0.0
  0
VERTEX
  5
2D7
  8
STREAMS
 10
737416.03423878434
 20
4550133.9616322294
 30
0.0
  0
VERTEX
  5
2D8
  8
STREAMS
 10
737368.33405731164
 20
4550130.9828907261
 30
0.0
  0
VERTEX
  5
2D9
  8
STREAMS
 10
737353.42781136779
 20
4550119.0680043558
 30
0.0
  0
VERTEX
  5
2DA
  8
STREAMS
 10
737314.67147468764
 20
4550095.2382316161
 30
0.0
  0
VERTEX
  5
2DB
  8
STREAMS
 10
737275.91501647455
 20
4550086.3020867491
 30
0.0
  0
VERTEX
  5
2DC
  8
STREAMS
 10
737252.06492573826
 20
4550083.3233452458
 30
0.0
  0
VERTEX
  5
2DD
  8
STREAMS
 10
737234.17735768599
 20
4550080.3446037434
 30
0.0
  0
VERTEX
  5
2DE
  8
STREAMS
 10
737225.23363442637
 20
4550065.4509758689
 30
0.0
  0
VERTEX
  5
2DF
  8
STREAMS
 10
737204.36486579827
 20
4550053.5360894985
 30
0.0
  0
VERTEX
  5
2E0
  8
STREAMS
 10
737180.51477506198
 20
4550011.8340270258
 30
0.0
  0
VERTEX
  5
2E1
  8
STREAMS
 10
737153.68336221715
 20
4549976.0893679149
 30
0.0
  0
VERTEX
  5
2E2
  8
STREAMS
 10
737100.02077959315
 20
4549934.3872257983
 30
0.0
  0
VERTEX
  5
2E3
  8
STREAMS
 10
737067.22684406419
 20
4549913.536194562
 30
0.0
  0
VERTEX
  5
2E4
  8
STREAMS
 10
737055.30179869605
 20
4549868.855310942
 30
0.0
  0
VERTEX
  5
2E5
  8
STREAMS
 10
737037.41423064366
 20
4549850.983021209
 30
0.0
  0
VERTEX
  5
2E6
  8
STREAMS
 10
737019.52666259138
 20
4549850.983021209
 30
0.0
  0
VERTEX
  5
2E7
  8
STREAMS
 10
737013.56413990725
 20
4549815.2383620981
 30
0.0
  0
VERTEX
  5
2E8
  8
STREAMS
 10
737040.39555275207
 20
4549779.4937029881
 30
0.0
  0
VERTEX
  5
2E9
  8
STREAMS
 10
737094.05825690902
 20
4549731.8341575079
 30
0.0
  0
VERTEX
  5
2EA
  8
STREAMS
 10
737150.70216164144
 20
4549681.1958705252
 30
0.0
  0
VERTEX
  5
2EB
  8
STREAMS
 10
737189.45849832182
 20
4549633.536325044
 30
0.0
  0
VERTEX
  5
2EC
  8
STREAMS
 10
737225.23363442637
 20
4549588.855441425
 30
0.0
  0
VERTEX
  5
2ED
  8
STREAMS
 10
737234.17735768599
 20
4549505.4512368338
 30
0.0
  0
VERTEX
  5
2EE
  8
STREAMS
 10
737219.27111174213
 20
4549425.0256941039
 30
0.0
  0
VERTEX
  5
2EF
  8
STREAMS
 10
737225.23363442637
 20
4549347.5789725212
 30
0.0
  0
VERTEX
  5
2F0
  8
STREAMS
 10
737195.42102100572
 20
4549317.791716774
 30
0.0
  0
VERTEX
  5
2F1
  8
STREAMS
 10
737159.64588490117
 20
4549273.110912798
 30
0.0
  0
VERTEX
  5
2F2
  8
STREAMS
 10
737153.68336221715
 20
4549231.4087706814
 30
0.0
  0
VERTEX
  5
2F3
  8
STREAMS
 10
737132.81459358917
 20
4549186.7279667053
 30
0.0
  0
VERTEX
  5
2F4
  8
STREAMS
 10
737121.17733798723
 20
4549145.1026007924
 30
0.0
  0
VERTEX
  5
2F5
  8
STREAMS
 10
737119.63763843174
 20
4549106.6441736538
 30
0.0
  0
VERTEX
  5
2F6
  8
STREAMS
 10
737119.63763843174
 20
4549054.3408624772
 30
0.0
  0
VERTEX
  5
2F7
  8
STREAMS
 10
737115.01866129856
 20
4549029.7274786662
 30
0.0
  0
VERTEX
  5
2F8
  8
STREAMS
 10
737119.63763843174
 20
4548994.345754372
 30
0.0
  0
VERTEX
  5
2F9
  8
STREAMS
 10
737128.87547116529
 20
4548975.885776246
 30
0.0
  0
VERTEX
  5
2FA
  8
STREAMS
 10
737168.90632274316
 20
4548945.1190663939
 30
0.0
  0
VERTEX
  5
2FB
  8
STREAMS
 10
737216.63530749909
 20
4548917.4290593844
 30
0.0
  0
VERTEX
  5
2FC
  8
STREAMS
 10
737244.34892723255
 20
4548928.1973998677
 30
0.0
  0
VERTEX
  5
2FD
  8
STREAMS
 10
737261.28501467709
 20
4548957.425718477
 30
0.0
  0
VERTEX
  5
2FE
  8
STREAMS
 10
737285.91935683275
 20
4548983.5774138877
 30
0.0
  0
VERTEX
  5
2FF
  8
STREAMS
 10
737313.63297656632
 20
4548997.4224572144
 30
0.0
  0
VERTEX
  5
300
  8
STREAMS
 10
737349.04472947784
 20
4549029.7274786662
 30
0.0
  0
VERTEX
  5
301
  8
STREAMS
 10
737365.9808169225
 20
4549042.0341307502
 30
0.0
  0
VERTEX
  5
302
  8
STREAMS
 10
737398.31341378915
 20
4549038.9575075498
 30
0.0
  0
VERTEX
  5
303
  8
STREAMS
 10
737430.64588912297
 20
4549029.7274786662
 30
0.0
  0
VERTEX
  5
304
  8
STREAMS
 10
737486.07312859013
 20
4548991.2691311724
 30
0.0
  0
VERTEX
  5
305
  8
STREAMS
 10
737521.48500303447
 20
4548982.039102288
 30
0.0
  0
VERTEX
  5
306
  8
STREAMS
 10
737576.91224250151
 20
4548960.5024213204
 30
0.0
  0
VERTEX
  5
307
  8
STREAMS
 10
737666.77301704756
 20
4548929.22671072
 30
0.0
  0
VERTEX
  5
308
  8
STREAMS
 10
737713.95241998194
 20
4548912.8060938278
 30
0.0
  0
VERTEX
  5
309
  8
STREAMS
 10
737806.52727623738
 20
4548912.1980035119
 30
0.0
  0
VERTEX
  5
30A
  8
STREAMS
 10
737956.50743015367
 20
4548874.7348795086
 30
0.0
  0
VERTEX
  5
30B
  8
STREAMS
 10
738034.90607792092
 20
4548830.4603363397
 30
0.0
  0
VERTEX
  5
30C
  8
STREAMS
 10
738157.61705770087
 20
4548779.3742147144
 30
0.0
  0
VERTEX
  5
30D
  8
STREAMS
 10
738218.97254759085
 20
4548721.4766739169
 30
0.0
  0
VERTEX
  5
30E
  8
STREAMS
 10
738283.73666905647
 20
4548670.3906319356
 30
0.0
  0
VERTEX
  5
30F
  8
STREAMS
 10
738331.45763264503
 20
4548615.8988803681
 30
0.0
  0
VERTEX
  5
310
  8
STREAMS
 10
738355.31805367279
 20
4548520.5382155711
 30
0.0
  0
VERTEX
  5
311
  8
STREAMS
 10
738442.95513663767
 20
4547924.7345034014
 30
0.0
  0
VERTEX
  5
312
  8
STREAMS
 10
738572.12931015459
 20
4547498.6470943308
 30
0.0
  0
VERTEX
  5
313
  8
STREAMS
 10
738998.40373504604
 20
4547175.8535214867
 30
0.0
  0
VERTEX
  5
314
  8
STREAMS
 10
739385.92596583464
 20
4547020.91259983
 30
0.0
  0
VERTEX
  5
315
  8
STREAMS
 10
739579.68722611014
 20
4546788.5013010018
 30
0.0
  0
VERTEX
  5
316
  8
STREAMS
 10
739644.27431286848
 20
4546297.8552442919
 30
0.0
  0
VERTEX
  5
317
  8
STREAMS
 10
739708.86110986501
 20
4545639.3563690772
 30
0.0
  0
VERTEX
  5
318
  8
STREAMS
 10
739799.28308927931
 20
4545200.3572304798
 30
0.0
  0
VERTEX
  5
319
  8
STREAMS
 10
740031.79654365743
 20
4544787.1815509386
 30
0.0
  0
VERTEX
  5
31A
  8
STREAMS
 10
740574.32755085675
 20
4544309.4472237546
 30
0.0
  0
VERTEX
  5
31B
  8
STREAMS
 10
741194.36323602335
 20
4543805.8892701976
 30
0.0
  0
VERTEX
  5
31C
  8
STREAMS
 10
741698.1423388822
 20
4543392.7135906573
 30
0.0
  0
VERTEX
  5
31D
  8
STREAMS
 10
741969.40769760089
 20
4543147.3905623006
 30
0.0
  0
VERTEX
  5
31E
  8
STREAMS
 10
742240.67334608175
 20
4542566.362231575
 30
0.0
  0
VERTEX
  5
31F
  8
STREAMS
 10
742486.10410190653
 20
4542075.7160075456
 30
0.0
  0
VERTEX
  5
320
  8
STREAMS
 10
742938.21341945371
 20
4541494.687676819
 30
0.0
  0
VERTEX
  5
321
  8
STREAMS
 10
743635.75349282601
 20
4540836.188968922
 30
0.0
  0
VERTEX
  5
322
  8
STREAMS
 10
744036.19331482355
 20
4540474.6602074942
 30
0.0
  0
VERTEX
  5
323
  8
STREAMS
 10
744384.96335150965
 20
4539854.8966881828
 30
0.0
  0
SEQEND
  5
324
  8
STREAMS
  0
POLYLINE
  5
7C
  8
STREAMS
 66
     1
 10
0.0
 20
0.0
 30
0.0
  0
VERTEX
  5
325
  8
STREAMS
 10
713136.82312719012
 20
4547707.6325948732
 30
0.0
  0
VERTEX
  5
326
  8
STREAMS
 10
712926.38287482015
 20
4547683.3616755446
 30
0.0
  0
VERTEX
  5
327
  8
STREAMS
 10
712578.34709511313
 20
4547590.3232351122
 30
0.0
  0
VERTEX
  5
328
  8
STREAMS
 10
712359.81292001461
 20
4547537.7363268929
 30
0.0
  0
VERTEX
  5
329
  8
STREAMS
 10
712222.21739267756
 20
4547525.6007835697
 30
0.0
  0
VERTEX
  5
32A
  8
STREAMS
 10
712003.68321757915
 20
4547562.0072462214
 30
0.0
  0
VERTEX
  5
32B
  8
STREAMS
 10
711704.21068448119
 20
4547610.5490848767
 30
0.0
  0
VERTEX
  5
32C
  8
STREAMS
 10
711291.42381270777
 20
4547675.2713691024
 30
0.0
  0
VERTEX
  5
32D
  8
STREAMS
 10
710975.76372391498
 20
4547707.6325948732
 30
0.0
  0
VERTEX
  5
32E
  8
STREAMS
 10
710781.51102723985
 20
4547748.0841270871
 30
0.0
  0
VERTEX
  5
32F
  8
STREAMS
 10
710453.70990947331
 20
4547869.438723729
 30
0.0
  0
VERTEX
  5
330
  8
STREAMS
 10
710243.26965710334
 20
4547962.4771641623
 30
0.0
  0
VERTEX
  5
331
  8
STREAMS
 10
710089.48628430907
 20
4548015.0642396994
 30
0.0
  0
VERTEX
  5
332
  8
STREAMS
 10
709887.13995466777
 20
4548136.4188363422
 30
0.0
  0
VERTEX
  5
333
  8
STREAMS
 10
709684.79362502624
 20
4548184.9605076788
 30
0.0
  0
VERTEX
  5
334
  8
STREAMS
 10
709423.76700756745
 20
4548140.4639059026
 30
0.0
  0
VERTEX
  5
335
  8
STREAMS
 10
709225.46749440941
 20
4547934.1611752706
 30
0.0
  0
VERTEX
  5
336
  8
STREAMS
 10
708970.51110167545
 20
4547796.6259657443
 30
0.0
  0
SEQEND
  5
337
  8
STREAMS
  0
POLYLINE
  5
7D
  8
STREAMS
 66
     1
 10
0.0
 20
0.0
 30
0.0
  0
VERTEX
  5
338
  8
STREAMS
 10
723463.28665369947
 20
4545437.8494619429
 30
0.0
  0
VERTEX
  5
339
  8
STREAMS
 10
723258.39505440393
 20
4545559.6676955689
 30
0.0
  0
VERTEX
  5
33A
  8
STREAMS
 10
722844.91796947981
 20
4545726.953976782
 30
0.0
  0
VERTEX
  5
33B
  8
STREAMS
 10
722559.42181804124
 20
4545904.0807062155
 30
0.0
  0
VERTEX
  5
33C
  8
STREAMS
 10
722244.39167189738
 20
4546002.4843518361
 30
0.0
  0
VERTEX
  5
33D
  8
STREAMS
 10
721899.82753104786
 20
4545982.8036227114
 30
0.0
  0
VERTEX
  5
33E
  8
STREAMS
 10
721584.79738490377
 20
4546002.4843518361
 30
0.0
  0
VERTEX
  5
33F
  8
STREAMS
 10
721318.99085303093
 20
4545933.6018835604
 30
0.0
  0
VERTEX
  5
340
  8
STREAMS
 10
721151.63097017608
 20
4545795.8366123755
 30
0.0
  0
VERTEX
  5
341
  8
STREAMS
 10
720991.90921437985
 20
4545780.1179632992
 30
0.0
  0
VERTEX
  5
342
  8
STREAMS
 10
720963.58062971092
 20
4545917.6531728264
 30
0.0
  0
VERTEX
  5
343
  8
STREAMS
 10
720813.84436316218
 20
4545990.4657634944
 30
0.0
  0
VERTEX
  5
344
  8
STREAMS
 10
720643.87343467271
 20
4546091.5946776876
 30
0.0
  0
VERTEX
  5
345
  8
STREAMS
 10
720558.8879704281
 20
4546103.7300536931
 30
0.0
  0
VERTEX
  5
346
  8
STREAMS
 10
720522.46546303062
 20
4546164.4074356724
 30
0.0
  0
VERTEX
  5
347
  8
STREAMS
 10
720457.71466072625
 20
4546192.7234245632
 30
0.0
  0
VERTEX
  5
348
  8
STREAMS
 10
720417.24533684575
 20
4546168.4525052337
 30
0.0
  0
VERTEX
  5
349
  8
STREAMS
 10
720372.72919648176
 20
4546115.8655970162
 30
0.0
  0
VERTEX
  5
34A
  8
STREAMS
 10
720340.35379532957
 20
4546136.0912794629
 30
0.0
  0
VERTEX
  5
34B
  8
STREAMS
 10
720307.97839417763
 20
4546237.2200263394
 30
0.0
  0
VERTEX
  5
34C
  8
STREAMS
 10
720279.64980950858
 20
4546249.3555696635
 30
0.0
  0
VERTEX
  5
34D
  8
STREAMS
 10
720194.66434526397
 20
4546318.1230907673
 30
0.0
  0
VERTEX
  5
34E
  8
STREAMS
 10
720113.72569750249
 20
4546334.3037036527
 30
0.0
  0
VERTEX
  5
34F
  8
STREAMS
 10
720004.45875483425
 20
4546330.2586340904
 30
0.0
  0
VERTEX
  5
350
  8
STREAMS
 10
719939.70795253024
 20
4546293.8521714387
 30
0.0
  0
VERTEX
  5
351
  8
STREAMS
 10
719866.8632274972
 20
4546285.7618649956
 30
0.0
  0
VERTEX
  5
352
  8
STREAMS
 10
719822.34708713321
 20
4546354.529553418
 30
0.0
  0
VERTEX
  5
353
  8
STREAMS
 10
719761.64310131222
 20
4546419.2520049606
 30
0.0
  0
VERTEX
  5
354
  8
STREAMS
 10
719652.37615864398
 20
4546415.2067680797
 30
0.0
  0
VERTEX
  5
355
  8
STREAMS
 10
719615.95365124673
 20
4546443.5229242891
 30
0.0
  0
VERTEX
  5
356
  8
STREAMS
 10
719563.34358815406
 20
4546504.2001389517
 30
0.0
  0
VERTEX
  5
357
  8
STREAMS
 10
719458.1234619692
 20
4546524.4258213993
 30
0.0
  0
VERTEX
  5
358
  8
STREAMS
 10
719348.85651930096
 20
4546483.9744565031
 30
0.0
  0
VERTEX
  5
359
  8
STREAMS
 10
719276.01179426804
 20
4546471.8389131799
 30
0.0
  0
VERTEX
  5
35A
  8
STREAMS
 10
719191.02633002342
 20
4546540.6064342856
 30
0.0
  0
VERTEX
  5
35B
  8
STREAMS
 10
719106.04086577892
 20
4546585.1032033795
 30
0.0
  0
VERTEX
  5
35C
  8
STREAMS
 10
718923.92919807765
 20
4546532.5161278415
 30
0.0
  0
VERTEX
  5
35D
  8
STREAMS
 10
718802.52122643555
 20
4546512.2904453939
 30
0.0
  0
VERTEX
  5
35E
  8
STREAMS
 10
718668.97251558187
 20
4546451.6132307323
 30
0.0
  0
VERTEX
  5
35F
  8
STREAMS
 10
718583.98705133726
 20
4546399.0261551952
 30
0.0
  0
VERTEX
  5
360
  8
STREAMS
 10
718434.25078478828
 20
4546366.6649294253
 30
0.0
  0
VERTEX
  5
361
  8
STREAMS
 10
718349.26532054367
 20
4546407.1164616384
 30
0.0
  0
VERTEX
  5
362
  8
STREAMS
 10
718235.95127163024
 20
4546496.1098325076
 30
0.0
  0
VERTEX
  5
363
  8
STREAMS
 10
718106.44966702163
 20
4546524.4258213993
 30
0.0
  0
VERTEX
  5
364
  8
STREAMS
 10
718057.88642041222
 20
4546601.2838162649
 30
0.0
  0
VERTEX
  5
365
  8
STREAMS
 10
717985.04169537954
 20
4546637.6901115989
 30
0.0
  0
VERTEX
  5
366
  8
STREAMS
 10
717843.39935155911
 20
4546645.7804180412
 30
0.0
  0
VERTEX
  5
367
  8
STREAMS
 10
717766.50781004294
 20
4546674.0965742487
 30
0.0
  0
VERTEX
  5
368
  8
STREAMS
 10
717624.86517646059
 20
4546730.728719349
 30
0.0
  0
VERTEX
  5
369
  8
STREAMS
 10
717523.6921565209
 20
4546738.8190257922
 30
0.0
  0
VERTEX
  5
36A
  8
STREAMS
 10
717382.04952293844
 20
4546702.4125631396
 30
0.0
  0
VERTEX
  5
36B
  8
STREAMS
 10
717222.19621518126
 20
4546603.3061837293
 30
0.0
  0
VERTEX
  5
36C
  8
STREAMS
 10
717044.13136396371
 20
4546574.9901948366
 30
0.0
  0
VERTEX
  5
36D
  8
STREAMS
 10
716955.09908323572
 20
4546607.3514206083
 30
0.0
  0
VERTEX
  5
36E
  8
STREAMS
 10
716845.83185080555
 20
4546566.8998883944
 30
0.0
  0
VERTEX
  5
36F
  8
STREAMS
 10
716777.03423201793
 20
4546526.4483561814
 30
0.0
  0
VERTEX
  5
370
  8
STREAMS
 10
716582.78153534315
 20
4546611.3964901706
 30
0.0
  0
VERTEX
  5
371
  8
STREAMS
 10
716509.93710007204
 20
4546688.2543177186
 30
0.0
  0
VERTEX
  5
372
  8
STREAMS
 10
716445.18600800599
 20
4546663.9833983909
 30
0.0
  0
VERTEX
  5
373
  8
STREAMS
 10
716344.01298806642
 20
4546663.9833983909
 30
0.0
  0
VERTEX
  5
374
  8
STREAMS
 10
716303.54366418545
 20
4546789.3832319127
 30
0.0
  0
VERTEX
  5
375
  8
STREAMS
 10
716214.51138345757
 20
4546858.1507530166
 30
0.0
  0
VERTEX
  5
376
  8
STREAMS
 10
716105.24415102752
 20
4546854.1056834543
 30
0.0
  0
VERTEX
  5
377
  8
STREAMS
 10
715951.46106799529
 20
4546898.6022852324
 30
0.0
  0
VERTEX
  5
378
  8
STREAMS
 10
715777.44303326064
 20
4546967.3698063372
 30
0.0
  0
VERTEX
  5
379
  8
STREAMS
 10
715728.87978665135
 20
4547028.0471883155
 30
0.0
  0
VERTEX
  5
37A
  8
STREAMS
 10
715611.51892125455
 20
4547076.5890269717
 30
0.0
  0
VERTEX
  5
37B
  8
STREAMS
 10
715356.56252852094
 20
4547153.4468545197
 30
0.0
  0
VERTEX
  5
37C
  8
STREAMS
 10
715210.87307845522
 20
4547189.8531498536
 30
0.0
  0
VERTEX
  5
37D
  8
STREAMS
 10
714972.10453117825
 20
4547222.2143756244
 30
0.0
  0
VERTEX
  5
37E
  8
STREAMS
 10
714870.93122147664
 20
4547210.078999619
 30
0.0
  0
VERTEX
  5
37F
  8
STREAMS
 10
714725.24177141103
 20
4547282.8917576028
 30
0.0
  0
VERTEX
  5
380
  8
STREAMS
 10
714539.0832872265
 20
4547295.0271336092
 30
0.0
  0
VERTEX
  5
381
  8
STREAMS
 10
714470.28537867707
 20
4547347.6142091462
 30
0.0
  0
VERTEX
  5
382
  8
STREAMS
 10
714276.03297176422
 20
4547379.975434918
 30
0.0
  0
VERTEX
  5
383
  8
STREAMS
 10
714130.34352169861
 20
4547363.7948220316
 30
0.0
  0
VERTEX
  5
384
  8
STREAMS
 10
714069.6395358775
 20
4547307.1626769323
 30
0.0
  0
VERTEX
  5
385
  8
STREAMS
 10
714029.17021199677
 20
4547242.4402253907
 30
0.0
  0
VERTEX
  5
386
  8
STREAMS
 10
713968.46622617566
 20
4547230.3046820667
 30
0.0
  0
VERTEX
  5
387
  8
STREAMS
 10
713875.38712896465
 20
4547246.485294953
 30
0.0
  0
VERTEX
  5
388
  8
STREAMS
 10
713814.68314314354
 20
4547286.9368271669
 30
0.0
  0
VERTEX
  5
389
  8
STREAMS
 10
713778.26063574606
 20
4547323.3432898168
 30
0.0
  0
VERTEX
  5
38A
  8
STREAMS
 10
713620.43044646864
 20
4547388.0657413602
 30
0.0
  0
VERTEX
  5
38B
  8
STREAMS
 10
713438.3187787676
 20
4547400.2011173647
 30
0.0
  0
VERTEX
  5
38C
  8
STREAMS
 10
713329.05183609924
 20
4547440.6526495786
 30
0.0
  0
VERTEX
  5
38D
  8
STREAMS
 10
713276.44177300693
 20
4547517.5104771284
 30
0.0
  0
VERTEX
  5
38E
  8
STREAMS
 10
713185.38608403737
 20
4547610.5490848767
 30
0.0
  0
VERTEX
  5
38F
  8
STREAMS
 10
713136.82312719012
 20
4547707.6325948732
 30
0.0
  0
VERTEX
  5
390
  8
STREAMS
 10
713132.77602094482
 20
4547804.7162721856
 30
0.0
  0
VERTEX
  5
391
  8
STREAMS
 10
713124.68209821638
 20
4547966.5224010432
 30
0.0
  0
VERTEX
  5
392
  8
STREAMS
 10
713084.21306409768
 20
4548120.2382234549
 30
0.0
  0
VERTEX
  5
393
  8
STREAMS
 10
713051.83737318357
 20
4548241.5926527791
 30
0.0
  0
VERTEX
  5
394
  8
STREAMS
 10
713011.36833906476
 20
4548391.2634056304
 30
0.0
  0
VERTEX
  5
395
  8
STREAMS
 10
712861.63178275386
 20
4548617.79181871
 30
0.0
  0
VERTEX
  5
396
  8
STREAMS
 10
712780.69342475454
 20
4548731.0561089078
 30
0.0
  0
VERTEX
  5
397
  8
STREAMS
 10
712724.03625541669
 20
4548921.1782266553
 30
0.0
  0
VERTEX
  5
398
  8
STREAMS
 10
712622.86323547713
 20
4549188.1583392667
 30
0.0
  0
VERTEX
  5
399
  8
STREAMS
 10
712554.06532692746
 20
4549305.4676990286
 30
0.0
  0
VERTEX
  5
39A
  8
STREAMS
 10
712469.07986268285
 20
4549436.9349695761
 30
0.0
  0
VERTEX
  5
39B
  8
STREAMS
 10
712367.90684274316
 20
4549525.9283404471
 30
0.0
  0
VERTEX
  5
39C
  8
STREAMS
 10
712242.45205461804
 20
4549655.3730762126
 30
0.0
  0
VERTEX
  5
39D
  8
STREAMS
 10
712149.37266764475
 20
4549707.9601517497
 30
0.0
  0
VERTEX
  5
39E
  8
STREAMS
 10
711979.40173915541
 20
4549833.3598179547
 30
0.0
  0
VERTEX
  5
39F
  8
STREAMS
 10
711821.57154987811
 20
4549938.5338017112
 30
0.0
  0
VERTEX
  5
3A0
  8
STREAMS
 10
711594.94345205079
 20
4550007.3013228159
 30
0.0
  0
VERTEX
  5
3A1
  8
STREAMS
 10
711408.78496786673
 20
4550059.888398353
 30
0.0
  0
VERTEX
  5
3A2
  8
STREAMS
 10
711153.82828537072
 20
4550140.7912954623
 30
0.0
  0
VERTEX
  5
3A3
  8
STREAMS
 10
710951.48195572919
 20
4550189.3331341194
 30
0.0
  0
VERTEX
  5
3A4
  8
STREAMS
 10
710765.32347154489
 20
4550266.1911289841
 30
0.0
  0
VERTEX
  5
3A5
  8
STREAMS
 10
710635.82157717436
 20
4550351.1392629752
 30
0.0
  0
VERTEX
  5
3A6
  8
STREAMS
 10
710364.67762874544
 20
4550419.90678408
 30
0.0
  0
VERTEX
  5
3A7
  8
STREAMS
 10
710158.28419285885
 20
4550448.2229402876
 30
0.0
  0
VERTEX
  5
3A8
  8
STREAMS
 10
709858.81165976077
 20
4550480.5841660593
 30
0.0
  0
VERTEX
  5
3A9
  8
STREAMS
 10
709676.6997022978
 20
4550569.5775369303
 30
0.0
  0
VERTEX
  5
3AA
  8
STREAMS
 10
709310.45324841607
 20
4550650.4806013573
 30
0.0
  0
VERTEX
  5
3AB
  8
STREAMS
 10
709156.66987562168
 20
4550638.3450580351
 30
0.0
  0
VERTEX
  5
3AC
  8
STREAMS
 10
708889.57274367614
 20
4550561.4872304881
 30
0.0
  0
VERTEX
  5
3AD
  8
STREAMS
 10
708695.32004700135
 20
4550452.2680098508
 30
0.0
  0
VERTEX
  5
3AE
  8
STREAMS
 10
708529.39593499526
 20
4550355.1844998552
 30
0.0
  0
SEQEND
  5
3AF
  8
STREAMS
  0
POLYLINE
  5
7E
  8
STREAMS
 66
     1
 10
0.0
 20
0.0
 30
0.0
  0
VERTEX
  5
3B0
  8
STREAMS
 10
758902.55875980528
 20
4586602.1322690779
 30
0.0
  0
VERTEX
  5
3B1
  8
STREAMS
 10
758752.757876324
 20
4586630.6532219918
 30
0.0
  0
VERTEX
  5
3B2
  8
STREAMS
 10
758702.82405532233
 20
4586744.7373682819
 30
0.0
  0
VERTEX
  5
3B3
  8
STREAMS
 10
758624.35678789788
 20
4586944.3843733128
 30
0.0
  0
VERTEX
  5
3B4
  8
STREAMS
 10
758403.22199859796
 20
4587051.3381140567
 30
0.0
  0
VERTEX
  5
3B5
  8
STREAMS
 10
758132.15338829625
 20
4587115.5104254298
 30
0.0
  0
VERTEX
  5
3B6
  8
STREAMS
 10
757975.21914320951
 20
4587058.4683522852
 30
0.0
  0
VERTEX
  5
3B7
  8
STREAMS
 10
757825.41796996642
 20
4586873.0818237122
 30
0.0
  0
VERTEX
  5
3B8
  8
STREAMS
 10
757718.4172561192
 20
4586687.6952951364
 30
0.0
  0
VERTEX
  5
3B9
  8
STREAMS
 10
757697.01717130211
 20
4586459.5271698749
 30
0.0
  0
VERTEX
  5
3BA
  8
STREAMS
 10
757625.68326548336
 20
4586338.312952674
 30
0.0
  0
VERTEX
  5
3BB
  8
STREAMS
 10
757490.1491052137
 20
4586095.8843509536
 30
0.0
  0
VERTEX
  5
3BC
  8
STREAMS
 10
757483.01574360789
 20
4585917.6280606091
 30
0.0
  0
VERTEX
  5
3BD
  8
STREAMS
 10
757297.54776233621
 20
4585739.3717702627
 30
0.0
  0
VERTEX
  5
3BE
  8
STREAMS
 10
757176.28003551578
 20
4585618.1573857451
 30
0.0
  0
VERTEX
  5
3BF
  8
STREAMS
 10
756912.34507658181
 20
4585539.7245979141
 30
0.0
  0
VERTEX
  5
3C0
  8
STREAMS
 10
756734.01045691594
 20
4585361.4683075678
 30
0.0
  0
VERTEX
  5
3C1
  8
STREAMS
 10
756691.21028728189
 20
4585147.5608260809
 30
0.0
  0
VERTEX
  5
3C2
  8
STREAMS
 10
756462.94184661435
 20
4584947.9136537323
 30
0.0
  0
VERTEX
  5
3C3
  8
STREAMS
 10
756141.9397050729
 20
4584798.1783163007
 30
0.0
  0
VERTEX
  5
3C4
  8
STREAMS
 10
755899.4048309559
 20
4584662.7036226429
 30
0.0
  0
VERTEX
  5
3C5
  8
STREAMS
 10
755532.62260708446
 20
4584509.4034170732
 30
0.0
  0
VERTEX
  5
3C6
  8
STREAMS
 10
755168.82000614703
 20
4584452.3613439277
 30
0.0
  0
VERTEX
  5
3C7
  8
STREAMS
 10
754904.88504721306
 20
4584238.4538624398
 30
0.0
  0
VERTEX
  5
3C8
  8
STREAMS
 10
754676.6166065454
 20
4584074.4580485523
 30
0.0
  0
VERTEX
  5
3C9
  8
STREAMS
 10
754469.74854045676
 20
4583760.7268972313
 30
0.0
  0
VERTEX
  5
3CA
  8
STREAMS
 10
754248.61375115684
 20
4583518.2982955119
 30
0.0
  0
VERTEX
  5
3CB
  8
STREAMS
 10
754020.34560025134
 20
4583361.4327198509
 30
0.0
  0
VERTEX
  5
3CC
  8
STREAMS
 10
753998.94551543426
 20
4583083.35292699
 30
0.0
  0
VERTEX
  5
3CD
  8
STREAMS
 10
754134.47967570415
 20
4582905.0966366436
 30
0.0
  0
VERTEX
  5
3CE
  8
STREAMS
 10
754105.94622928137
 20
4582434.4999096626
 30
0.0
  0
VERTEX
  5
3CF
  8
STREAMS
 10
753970.41177924955
 20
4582042.3361378293
 30
0.0
  0
VERTEX
  5
3D0
  8
STREAMS
 10
753777.8104363723
 20
4581942.5124679962
 30
0.0
  0
VERTEX
  5
3D1
  8
STREAMS
 10
753535.27556225529
 20
4581985.2940646848
 30
0.0
  0
VERTEX
  5
3D2
  8
STREAMS
 10
753292.74039837637
 20
4582106.5082818838
 30
0.0
  0
VERTEX
  5
3D3
  8
STREAMS
 10
752957.47153362352
 20
4582020.9452558262
 30
0.0
  0
VERTEX
  5
3D4
  8
STREAMS
 10
752750.60346753511
 20
4581906.8612768538
 30
0.0
  0
VERTEX
  5
3D5
  8
STREAMS
 10
752636.4693920823
 20
4581707.2142718229
 30
0.0
  0
VERTEX
  5
3D6
  8
STREAMS
 10
752472.40149562771
 20
4581621.6510784468
 30
0.0
  0
VERTEX
  5
3D7
  8
STREAMS
 10
752322.60032238462
 20
4581600.2603637613
 30
0.0
  0
VERTEX
  5
3D8
  8
STREAMS
 10
752137.13263087487
 20
4581564.6091726199
 30
0.0
  0
VERTEX
  5
3D9
  8
STREAMS
 10
751858.93065896758
 20
4581471.915908332
 30
0.0
  0
VERTEX
  5
3DA
  8
STREAMS
 10
751701.9961241188
 20
4581372.0924058165
 30
0.0
  0
VERTEX
  5
3DB
  8
STREAMS
 10
751609.26213348308
 20
4581258.0082595274
 30
0.0
  0
VERTEX
  5
3DC
  8
STREAMS
 10
751487.99469642458
 20
4581300.789856215
 30
0.0
  0
VERTEX
  5
3DD
  8
STREAMS
 10
751352.46053615469
 20
4581407.7435969589
 30
0.0
  0
VERTEX
  5
3DE
  8
STREAMS
 10
751288.25999194139
 20
4581514.6973377019
 30
0.0
  0
VERTEX
  5
3DF
  8
STREAMS
 10
751031.45810485107
 20
4581571.7394108484
 30
0.0
  0
VERTEX
  5
3E0
  8
STREAMS
 10
750781.78986912861
 20
4581457.655431876
 30
0.0
  0
VERTEX
  5
3E1
  8
STREAMS
 10
750660.52243207023
 20
4581268.7038678462
 30
0.0
  0
VERTEX
  5
3E2
  8
STREAMS
 10
750582.05516464566
 20
4581033.4055043552
 30
0.0
  0
VERTEX
  5
3E3
  8
STREAMS
 10
750624.85533427994
 20
4580776.7164261788
 30
0.0
  0
VERTEX
  5
3E4
  8
STREAMS
 10
750703.32260170416
 20
4580598.4601358334
 30
0.0
  0
VERTEX
  5
3E5
  8
STREAMS
 10
750567.78844143427
 20
4580420.2038454879
 30
0.0
  0
VERTEX
  5
3E6
  8
STREAMS
 10
750389.45382176852
 20
4580356.0315341139
 30
0.0
  0
VERTEX
  5
3E7
  8
STREAMS
 10
750096.98512664984
 20
4580441.5945601733
 30
0.0
  0
VERTEX
  5
3E8
  8
STREAMS
 10
749954.31731501222
 20
4580306.1198665164
 30
0.0
  0
VERTEX
  5
3E9
  8
STREAMS
 10
750011.3844976197
 20
4580092.21221771
 30
0.0
  0
VERTEX
  5
3EA
  8
STREAMS
 10
750104.11848825542
 20
4579921.086165593
 30
0.0
  0
VERTEX
  5
3EB
  8
STREAMS
 10
750175.45239407441
 20
4579700.0484458758
 30
0.0
  0
VERTEX
  5
3EC
  8
STREAMS
 10
750096.98512664984
 20
4579564.5735849012
 30
0.0
  0
VERTEX
  5
3ED
  8
STREAMS
 10
749997.11777440831
 20
4579336.4054596396
 30
0.0
  0
VERTEX
  5
3EE
  8
STREAMS
 10
749861.58332437649
 20
4579129.6282163812
 30
0.0
  0
VERTEX
  5
3EF
  8
STREAMS
 10
749797.38306992548
 20
4578944.2416878054
 30
0.0
  0
VERTEX
  5
3F0
  8
STREAMS
 10
749697.51571768406
 20
4578708.9433243154
 30
0.0
  0
VERTEX
  5
3F1
  8
STREAMS
 10
749690.38235607836
 20
4578537.8172721984
 30
0.0
  0
VERTEX
  5
3F2
  8
STREAMS
 10
749533.44782122958
 20
4578466.5147225959
 30
0.0
  0
VERTEX
  5
3F3
  8
STREAMS
 10
749390.78029935388
 20
4578316.7793851644
 30
0.0
  0
VERTEX
  5
3F4
  8
STREAMS
 10
749387.21390831296
 20
4578156.3489413653
 30
0.0
  0
VERTEX
  5
3F5
  8
STREAMS
 10
749380.08054670738
 20
4577970.9624127913
 30
0.0
  0
VERTEX
  5
3F6
  8
STREAMS
 10
749258.81310964888
 20
4577650.1010232419
 30
0.0
  0
VERTEX
  5
3F7
  8
STREAMS
 10
749066.21176677174
 20
4577471.8447328974
 30
0.0
  0
VERTEX
  5
3F8
  8
STREAMS
 10
748809.40987968142
 20
4577386.2817068379
 30
0.0
  0
VERTEX
  5
3F9
  8
STREAMS
 10
748688.14244262292
 20
4577307.8489190079
 30
0.0
  0
VERTEX
  5
3FA
  8
STREAMS
 10
748552.60828235315
 20
4577150.983343346
 30
0.0
  0
VERTEX
  5
3FB
  8
STREAMS
 10
748345.7402162645
 20
4577086.8110319739
 30
0.0
  0
VERTEX
  5
3FC
  8
STREAMS
 10
748274.40631044586
 20
4576944.2061000867
 30
0.0
  0
VERTEX
  5
3FD
  8
STREAMS
 10
748238.73921265535
 20
4576637.6051869951
 30
0.0
  0
VERTEX
  5
3FE
  8
STREAMS
 10
748253.00622562866
 20
4576366.6556323618
 30
0.0
  0
VERTEX
  5
3FF
  8
STREAMS
 10
748167.40559659863
 20
4576216.9202949302
 30
0.0
  0
VERTEX
  5
400
  8
STREAMS
 10
747810.73635726701
 20
4576117.0967924139
 30
0.0
  0
VERTEX
  5
401
  8
STREAMS
 10
747596.73492957256
 20
4576088.5756721841
 30
0.0
  0
VERTEX
  5
402
  8
STREAMS
 10
747382.73350187845
 20
4575981.6219314402
 30
0.0
  0
VERTEX
  5
403
  8
STREAMS
 10
747197.26552060689
 20
4575803.3656410929
 30
0.0
  0
VERTEX
  5
404
  8
STREAMS
 10
747004.66417772963
 20
4575732.0630914923
 30
0.0
  0
VERTEX
  5
405
  8
STREAMS
 10
746869.1297276977
 20
4575796.2354028653
 30
0.0
  0
VERTEX
  5
406
  8
STREAMS
 10
746747.8622906392
 20
4575881.7984289238
 30
0.0
  0
VERTEX
  5
407
  8
STREAMS
 10
746569.52767097345
 20
4575824.7563557792
 30
0.0
  0
VERTEX
  5
408
  8
STREAMS
 10
746505.32741652231
 20
4575589.4579922892
 30
0.0
  0
VERTEX
  5
409
  8
STREAMS
 10
746519.59413973358
 20
4575418.3319401713
 30
0.0
  0
VERTEX
  5
40A
  8
STREAMS
 10
746405.46006428078
 20
4575118.861432625
 30
0.0
  0
VERTEX
  5
40B
  8
STREAMS
 10
746198.59199819225
 20
4574719.5672552465
 30
0.0
  0
VERTEX
  5
40C
  8
STREAMS
 10
746219.99208300933
 20
4574594.7881699055
 30
0.0
  0
VERTEX
  5
40D
  8
STREAMS
 10
746262.79225264327
 20
4574466.4435471604
 30
0.0
  0
VERTEX
  5
40E
  8
STREAMS
 10
746262.79225264327
 20
4574281.0570185874
 30
0.0
  0
VERTEX
  5
40F
  8
STREAMS
 10
746170.05826200754
 20
4574017.2377021806
 30
0.0
  0
VERTEX
  5
410
  8
STREAMS
 10
746048.79082494904
 20
4573910.28379412
 30
0.0
  0
VERTEX
  5
411
  8
STREAMS
 10
745898.98994146788
 20
4573803.330053376
 30
0.0
  0
VERTEX
  5
412
  8
STREAMS
 10
745891.8565798623
 20
4573660.724954173
 30
0.0
  0
VERTEX
  5
413
  8
STREAMS
 10
745963.19019591901
 20
4573589.4225718882
 30
0.0
  0
VERTEX
  5
414
  8
STREAMS
 10
745984.59028073598
 20
4573503.8595458288
 30
0.0
  0
VERTEX
  5
415
  8
STREAMS
 10
745856.18948207202
 20
4573375.5149230827
 30
0.0
  0
VERTEX
  5
416
  8
STREAMS
 10
745520.92061731929
 20
4573375.5149230827
 30
0.0
  0
VERTEX
  5
417
  8
STREAMS
 10
745264.11873022886
 20
4573204.3888709657
 30
0.0
  0
VERTEX
  5
418
  8
STREAMS
 10
745071.51738735149
 20
4572990.4812221602
 30
0.0
  0
VERTEX
  5
419
  8
STREAMS
 10
744893.18276768574
 20
4572669.6199999293
 30
0.0
  0
VERTEX
  5
41A
  8
STREAMS
 10
744893.18276768574
 20
4572284.5862990059
 30
0.0
  0
VERTEX
  5
41B
  8
STREAMS
 10
745042.98394092883
 20
4572049.2879355149
 30
0.0
  0
VERTEX
  5
41C
  8
STREAMS
 10
745207.05183738342
 20
4571856.7711687116
 30
0.0
  0
VERTEX
  5
41D
  8
STREAMS
 10
745449.58671150031
 20
4571728.4265459664
 30
0.0
  0
VERTEX
  5
41E
  8
STREAMS
 10
745706.38859859062
 20
4571571.5609703055
 30
0.0
  0
VERTEX
  5
41F
  8
STREAMS
 10
745891.8565798623
 20
4571379.0442035031
 30
0.0
  0
VERTEX
  5
420
  8
STREAMS
 10
746020.25737852638
 20
4571182.9625685615
 30
0.0
  0
VERTEX
  5
421
  8
STREAMS
 10
746005.99065531511
 20
4570733.7565562669
 30
0.0
  0
VERTEX
  5
422
  8
STREAMS
 10
746013.12401692069
 20
4570227.5086381426
 30
0.0
  0
VERTEX
  5
423
  8
STREAMS
 10
745963.19019591901
 20
4569885.2565339077
 30
0.0
  0
VERTEX
  5
424
  8
STREAMS
 10
745649.32141598326
 20
4569728.3909582468
 30
0.0
  0
VERTEX
  5
425
  8
STREAMS
 10
745285.51881504583
 20
4569578.6557881329
 30
0.0
  0
VERTEX
  5
426
  8
STREAMS
 10
744743.38188420446
 20
4569450.3111653868
 30
0.0
  0
VERTEX
  5
427
  8
STREAMS
 10
744293.97865423711
 20
4569257.7943985844
 30
0.0
  0
VERTEX
  5
428
  8
STREAMS
 10
744015.7766823296
 20
4569022.4960350934
 30
0.0
  0
VERTEX
  5
429
  8
STREAMS
 10
743694.77454078826
 20
4568751.546480461
 30
0.0
  0
VERTEX
  5
42A
  8
STREAMS
 10
743459.37302827695
 20
4568452.075805597
 30
0.0
  0
VERTEX
  5
42B
  8
STREAMS
 10
743366.63903764135
 20
4568017.1304370752
 30
0.0
  0
VERTEX
  5
42C
  8
STREAMS
 10
743430.83929209225
 20
4567532.2732336372
 30
0.0
  0
VERTEX
  5
42D
  8
STREAMS
 10
743623.44063496951
 20
4567204.2816058593
 30
0.0
  0
VERTEX
  5
42E
  8
STREAMS
 10
743937.30970466719
 20
4567075.9371504299
 30
0.0
  0
VERTEX
  5
42F
  8
STREAMS
 10
744244.04512299714
 20
4566669.5127348211
 30
0.0
  0
VERTEX
  5
430
  8
STREAMS
 10
744479.44663550844
 20
4566391.4329419611
 30
0.0
  0
VERTEX
  5
431
  8
STREAMS
 10
744593.58071096125
 20
4566042.0504321801
 30
0.0
  0
VERTEX
  5
432
  8
STREAMS
 10
744550.78054132743
 20
4565678.4076132597
 30
0.0
  0
VERTEX
  5
433
  8
STREAMS
 10
744293.97865423711
 20
4565478.7606082298
 30
0.0
  0
VERTEX
  5
434
  8
STREAMS
 10
744044.31041851442
 20
4565400.3278203988
 30
0.0
  0
VERTEX
  5
435
  8
STREAMS
 10
743480.77311309392
 20
4565257.7227211948
 30
0.0
  0
VERTEX
  5
436
  8
STREAMS
 10
742799.88547363156
 20
4565263.4469602834
 30
0.0
  0
VERTEX
  5
437
  8
STREAMS
 10
742594.8788955562
 20
4565246.3728563562
 30
0.0
  0
VERTEX
  5
438
  8
STREAMS
 10
742418.34551746666
 20
4565223.6075171931
 30
0.0
  0
VERTEX
  5
439
  8
STREAMS
 10
742287.36908920924
 20
4565189.4594686246
 30
0.0
  0
VERTEX
  5
43A
  8
STREAMS
 10
742190.56052524189
 20
4565138.2373957764
 30
0.0
  0
VERTEX
  5
43B
  8
STREAMS
 10
742059.58409698447
 20
4565047.1758798342
 30
0.0
  0
VERTEX
  5
43C
  8
STREAMS
 10
741968.47007578798
 20
4565001.645121864
 30
0.0
  0
VERTEX
  5
43D
  8
STREAMS
 10
741843.18831183435
 20
4564956.1143638929
 30
0.0
  0
VERTEX
  5
43E
  8
STREAMS
 10
741814.7151118482
 20
4564927.6576302061
 30
0.0
  0
VERTEX
  5
43F
  8
STREAMS
 10
741797.63124046975
 20
4564887.8182667578
 30
0.0
  0
VERTEX
  5
440
  8
STREAMS
 10
741769.15816201631
 20
4564870.7442424754
 30
0.0
  0
VERTEX
  5
441
  8
STREAMS
 10
741706.51721927302
 20
4564859.3615330718
 30
0.0
  0
VERTEX
  5
442
  8
STREAMS
 10
741598.31932669797
 20
4564870.7442424754
 30
0.0
  0
VERTEX
  5
443
  8
STREAMS
 10
741512.89996980515
 20
4564910.5836059218
 30
0.0
  0
VERTEX
  5
444
  8
STREAMS
 10
741393.31287015544
 20
4564927.6576302061
 30
0.0
  0
VERTEX
  5
445
  8
STREAMS
 10
741347.7557987906
 20
4564916.2750004446
 30
0.0
  0
VERTEX
  5
446
  8
STREAMS
 10
741290.80952035123
 20
4564882.126872235
 30
0.0
  0
VERTEX
  5
447
  8
STREAMS
 10
741228.16869914066
 20
4564836.5961142648
 30
0.0
  0
VERTEX
  5
448
  8
STREAMS
 10
741188.30629207985
 20
4564768.3000171306
 30
0.0
  0
VERTEX
  5
449
  8
STREAMS
 10
741108.58159949095
 20
4564694.3125254726
 30
0.0
  0
VERTEX
  5
44A
  8
STREAMS
 10
741023.16212106543
 20
4564597.5596946506
 30
0.0
  0
VERTEX
  5
44B
  8
STREAMS
 10
740932.04809986893
 20
4564540.6463069199
 30
0.0
  0
VERTEX
  5
44C
  8
STREAMS
 10
740880.79648573336
 20
4564517.8808881128
 30
0.0
  0
VERTEX
  5
44D
  8
STREAMS
 10
740846.62874297623
 20
4564500.8068638304
 30
0.0
  0
VERTEX
  5
44E
  8
STREAMS
 10
740818.15566452278
 20
4564460.967500383
 30
0.0
  0
VERTEX
  5
44F
  8
STREAMS
 10
740801.07179314434
 20
4564421.1280572927
 30
0.0
  0
VERTEX
  5
450
  8
STREAMS
 10
740789.68246453675
 20
4564352.8319601584
 30
0.0
  0
VERTEX
  5
451
  8
STREAMS
 10
740801.07179314434
 20
4564261.7704442171
 30
0.0
  0
VERTEX
  5
452
  8
STREAMS
 10
740812.46100021899
 20
4564210.5483713672
 30
0.0
  0
VERTEX
  5
453
  8
STREAMS
 10
740795.37712884042
 20
4564153.6349039916
 30
0.0
  0
VERTEX
  5
454
  8
STREAMS
 10
740778.29325746186
 20
4564108.1041460223
 30
0.0
  0
VERTEX
  5
455
  8
STREAMS
 10
740778.29325746186
 20
4564073.9560974548
 30
0.0
  0
VERTEX
  5
456
  8
STREAMS
 10
740755.5147217795
 20
4563971.5119517539
 30
0.0
  0
VERTEX
  5
457
  8
STREAMS
 10
740727.04164332617
 20
4563914.5984843802
 30
0.0
  0
VERTEX
  5
458
  8
STREAMS
 10
740687.17923626537
 20
4563857.6850170046
 30
0.0
  0
VERTEX
  5
459
  8
STREAMS
 10
740635.92762212979
 20
4563795.080234752
 30
0.0
  0
VERTEX
  5
45A
  8
STREAMS
 10
740567.59213661554
 20
4563738.1668470213
 30
0.0
  0
VERTEX
  5
45B
  8
STREAMS
 10
740527.72972955473
 20
4563721.092822738
 30
0.0
  0
VERTEX
  5
45C
  8
STREAMS
 10
740362.58555853995
 20
4563715.4014282143
 30
0.0
  0
VERTEX
  5
45D
  8
STREAMS
 10
740260.08233026881
 20
4563715.4014282143
 30
0.0
  0
VERTEX
  5
45E
  8
STREAMS
 10
740106.32736632891
 20
4563709.7101133326
 30
0.0
  0
VERTEX
  5
45F
  8
STREAMS
 10
740020.90800943621
 20
4563704.0187984528
 30
0.0
  0
VERTEX
  5
460
  8
STREAMS
 10
739981.04560237541
 20
4563675.5620647669
 30
0.0
  0
VERTEX
  5
461
  8
STREAMS
 10
739957.49739921454
 20
4563638.5769602433
 30
0.0
  0
VERTEX
  5
462
  8
STREAMS
 10
739902.50804257148
 20
4563561.636212959
 30
0.0
  0
VERTEX
  5
463
  8
STREAMS
 10
739854.85064065875
 20
4563481.0316319438
 30
0.0
  0
VERTEX
  5
464
  8
STREAMS
 10
739788.86329115438
 20
4563382.1078026285
 30
0.0
  0
VERTEX
  5
465
  8
STREAMS
 10
739744.87180584006
 20
4563268.5285587469
 30
0.0
  0
VERTEX
  5
466
  8
STREAMS
 10
739711.87819185434
 20
4563224.562394687
 30
0.0
  0
VERTEX
  5
467
  8
STREAMS
 10
739682.55049446714
 20
4563165.9408957008
 30
0.0
  0
VERTEX
  5
468
  8
STREAMS
 10
739678.88457786862
 20
4563143.9578136718
 30
0.0
  0
VERTEX
  5
469
  8
STREAMS
 10
739695.31508869713
 20
4563123.2290350003
 30
0.0
  0
VERTEX
  5
46A
  8
STREAMS
 10
739718.10407620354
 20
4563100.4532625563
 30
0.0
  0
VERTEX
  5
46B
  8
STREAMS
 10
739721.14251874702
 20
4563076.1591689959
 30
0.0
  0
VERTEX
  5
46C
  8
STREAMS
 10
739699.8729348114
 20
4563023.0156999594
 30
0.0
  0
VERTEX
  5
46D
  8
STREAMS
 10
739584.40907983866
 20
4562934.9493320547
 30
0.0
  0
VERTEX
  5
46E
  8
STREAMS
 10
739546.42763654899
 20
4562915.2103611268
 30
0.0
  0
VERTEX
  5
46F
  8
STREAMS
 10
739449.19492296863
 20
4562890.9161879243
 30
0.0
  0
VERTEX
  5
470
  8
STREAMS
 10
739408.17491560255
 20
4562874.2139388695
 30
0.0
  0
VERTEX
  5
471
  8
STREAMS
 10
739388.42449217208
 20
4562862.0668920903
 30
0.0
  0
VERTEX
  5
472
  8
STREAMS
 10
739353.48149142601
 20
4562866.6220147219
 30
0.0
  0
VERTEX
  5
473
  8
STREAMS
 10
739322.078377723
 20
4562876.5253486158
 30
0.0
  0
VERTEX
  5
474
  8
STREAMS
 10
739297.12331040134
 20
4562895.2308672369
 30
0.0
  0
VERTEX
  5
475
  8
STREAMS
 10
739262.1862647644
 20
4562895.2308672369
 30
0.0
  0
VERTEX
  5
476
  8
STREAMS
 10
739229.74477447267
 20
4562870.2902288381
 30
0.0
  0
VERTEX
  5
477
  8
STREAMS
 10
739211.02847398166
 20
4562845.3495904393
 30
0.0
  0
VERTEX
  5
478
  8
STREAMS
 10
739189.81673967792
 20
4562817.9148404151
 30
0.0
  0
VERTEX
  5
479
  8
STREAMS
 10
739141.15450424049
 20
4562738.1048612548
 30
0.0
  0
VERTEX
  5
47A
  8
STREAMS
 10
739111.20844776125
 20
4562673.2592332764
 30
0.0
  0
VERTEX
  5
47B
  8
STREAMS
 10
739036.96828919486
 20
4562529.4341471503
 30
0.0
  0
VERTEX
  5
47C
  8
STREAMS
 10
738989.32729421544
 20
4562445.1750506777
 30
0.0
  0
VERTEX
  5
47D
  8
STREAMS
 10
738914.27444554539
 20
4562392.6683303462
 30
0.0
  0
VERTEX
  5
47E
  8
STREAMS
 10
738866.74100712955
 20
4562355.1635528645
 30
0.0
  0
VERTEX
  5
47F
  8
STREAMS
 10
738840.19908551069
 20
4562334.6377851311
 30
0.0
  0
VERTEX
  5
480
  8
STREAMS
 10
738830.53600936849
 20
4562310.493819315
 30
0.0
  0
VERTEX
  5
481
  8
STREAMS
 10
738811.20961401844
 20
4562273.4730345644
 30
0.0
  0
VERTEX
  5
482
  8
STREAMS
 10
738788.66223379865
 20
4562238.0618422246
 30
0.0
  0
VERTEX
  5
483
  8
STREAMS
 10
738778.99903612363
 20
4562204.2603219403
 30
0.0
  0
VERTEX
  5
484
  8
STREAMS
 10
738785.44124892878
 20
4562149.5339410193
 30
0.0
  0
VERTEX
  5
485
  8
STREAMS
 10
738796.71487827215
 20
4562101.2460093861
 30
0.0
  0
VERTEX
  5
486
  8
STREAMS
 10
738832.14644103695
 20
4562032.0332171181
 30
0.0
  0
VERTEX
  5
487
  8
STREAMS
 10
738864.35701893177
 20
4561996.6220247783
 30
0.0
  0
VERTEX
  5
488
  8
STREAMS
 10
738906.23079450172
 20
4561937.0668666223
 30
0.0
  0
VERTEX
  5
489
  8
STREAMS
 10
738940.05180406512
 20
4561901.6557539264
 30
0.0
  0
VERTEX
  5
48A
  8
STREAMS
 10
738986.75711770623
 20
4561853.3677426511
 30
0.0
  0
VERTEX
  5
48B
  8
STREAMS
 10
739014.13603599707
 20
4561817.9565503113
 30
0.0
  0
VERTEX
  5
48C
  8
STREAMS
 10
739027.02021854185
 20
4561800.2510337848
 30
0.0
  0
VERTEX
  5
48D
  8
STREAMS
 10
739035.07286301558
 20
4561798.6413617302
 30
0.0
  0
VERTEX
  5
48E
  8
STREAMS
 10
739044.73606069072
 20
4561772.8878035024
 30
0.0
  0
VERTEX
  5
48F
  8
STREAMS
 10
739152.641423719
 20
4561740.6958756279
 30
0.0
  0
VERTEX
  5
490
  8
STREAMS
 10
739189.68353968486
 20
4561727.8190566935
 30
0.0
  0
VERTEX
  5
491
  8
STREAMS
 10
739226.72565565095
 20
4561700.4559060549
 30
0.0
  0
VERTEX
  5
492
  8
STREAMS
 10
739254.20423087105
 20
4561644.4414529884
 30
0.0
  0
VERTEX
  5
493
  8
STREAMS
 10
739303.21733161865
 20
4561615.7711954378
 30
0.0
  0
VERTEX
  5
494
  8
STREAMS
 10
739341.13399790449
 20
4561574.5811601598
 30
0.0
  0
VERTEX
  5
495
  8
STREAMS
 10
739372.45641380164
 20
4561472.429942756
 30
0.0
  0
VERTEX
  5
496
  8
STREAMS
 10
739379.0506641902
 20
4561431.239907478
 30
0.0
  0
VERTEX
  5
497
  8
STREAMS
 10
739377.40207120997
 20
4561371.9263076494
 30
0.0
  0
VERTEX
  5
498
  8
STREAMS
 10
739355.97097012924
 20
4561286.251072499
 30
0.0
  0
VERTEX
  5
499
  8
STREAMS
 10
739314.75723941566
 20
4561246.7086991612
 30
0.0
  0
VERTEX
  5
49A
  8
STREAMS
 10
739247.16662868054
 20
4561212.1090727132
 30
0.0
  0
VERTEX
  5
49B
  8
STREAMS
 10
739205.95289796696
 20
4561192.3378462233
 30
0.0
  0
VERTEX
  5
49C
  8
STREAMS
 10
739161.44198129256
 20
4561137.9670729274
 30
0.0
  0
VERTEX
  5
49D
  8
STREAMS
 10
739123.52531500685
 20
4561063.8249934968
 30
0.0
  0
VERTEX
  5
49E
  8
STREAMS
 10
739095.49996353767
 20
4561011.1018024981
 30
0.0
  0
VERTEX
  5
49F
  8
STREAMS
 10
739074.06874092447
 20
4560941.9026292451
 30
0.0
  0
VERTEX
  5
4A0
  8
STREAMS
 10
739060.88036168006
 20
4560879.29378518
 30
0.0
  0
VERTEX
  5
4A1
  8
STREAMS
 10
739054.2862328242
 20
4560780.4377323687
 30
0.0
  0
VERTEX
  5
4A2
  8
STREAMS
 10
739041.85755536519
 20
4560687.4169100001
 30
0.0
  0
VERTEX
  5
4A3
  8
STREAMS
 10
739006.94493782916
 20
4560646.7091152985
 30
0.0
  0
VERTEX
  5
4A4
  8
STREAMS
 10
738957.48556849116
 20
4560588.5551228672
 30
0.0
  0
VERTEX
  5
4A5
  8
STREAMS
 10
738893.47932581871
 20
4560536.2165296804
 30
0.0
  0
VERTEX
  5
4A6
  8
STREAMS
 10
738846.92920961475
 20
4560515.8626323277
 30
0.0
  0
VERTEX
  5
4A7
  8
STREAMS
 10
738812.01671361167
 20
4560463.5240391409
 30
0.0
  0
VERTEX
  5
4A8
  8
STREAMS
 10
738753.82922027295
 20
4560405.3699670667
 30
0.0
  0
VERTEX
  5
4A9
  8
STREAMS
 10
738730.55410140473
 20
4560390.8314689584
 30
0.0
  0
VERTEX
  5
4AA
  8
STREAMS
 10
738713.09785340307
 20
4560364.6621723631
 30
0.0
  0
VERTEX
  5
4AB
  8
STREAMS
 10
738704.36972940224
 20
4560326.8620772837
 30
0.0
  0
VERTEX
  5
4AC
  8
STREAMS
 10
738704.36972940224
 20
4560286.1542825829
 30
0.0
  0
VERTEX
  5
4AD
  8
STREAMS
 10
738701.46035473526
 20
4560245.4464878812
 30
0.0
  0
VERTEX
  5
4AE
  8
STREAMS
 10
738692.73223073455
 20
4560219.277191286
 30
0.0
  0
VERTEX
  5
4AF
  8
STREAMS
 10
738652.00098539738
 20
4560184.3847958278
 30
0.0
  0
VERTEX
  5
4B0
  8
STREAMS
 10
738605.45086919365
 20
4560181.4770962074
 30
0.0
  0
VERTEX
  5
4B1
  8
STREAMS
 10
738558.90087452275
 20
4560181.4770962074
 30
0.0
  0
VERTEX
  5
4B2
  8
STREAMS
 10
738544.35400118795
 20
4560198.923293937
 30
0.0
  0
VERTEX
  5
4B3
  8
STREAMS
 10
738489.07588251622
 20
4560233.8156893943
 30
0.0
  0
VERTEX
  5
4B4
  8
STREAMS
 10
738483.25713318225
 20
4560242.538788259
 30
0.0
  0
VERTEX
  5
4B5
  8
STREAMS
 10
738454.16326498007
 20
4560239.6310886377
 30
0.0
  0
VERTEX
  5
4B6
  8
STREAMS
 10
738408.56341405574
 20
4560250.121712707
 30
0.0
  0
VERTEX
  5
4B7
  8
STREAMS
 10
738351.45938598923
 20
4560280.1592079066
 30
0.0
  0
VERTEX
  5
4B8
  8
STREAMS
 10
738330.01965607714
 20
4560300.588288595
 30
0.0
  0
VERTEX
  5
4B9
  8
STREAMS
 10
738317.10265966528
 20
4560326.4073136691
 30
0.0
  0
VERTEX
  5
4BA
  8
STREAMS
 10
738289.11595563928
 20
4560332.8620898491
 30
0.0
  0
VERTEX
  5
4BB
  8
STREAMS
 10
738235.29513725708
 20
4560337.1653005164
 30
0.0
  0
VERTEX
  5
4BC
  8
STREAMS
 10
738190.08577134891
 20
4560335.0136553589
 30
0.0
  0
VERTEX
  5
4BD
  8
STREAMS
 10
738144.87628390768
 20
4560322.1041826438
 30
0.0
  0
VERTEX
  5
4BE
  8
STREAMS
 10
738101.81975073495
 20
4560283.3755255686
 30
0.0
  0
VERTEX
  5
4BF
  8
STREAMS
 10
738067.37442697026
 20
4560246.7985932929
 30
0.0
  0
VERTEX
  5
4C0
  8
STREAMS
 10
738026.47072653275
 20
4560197.3120290143
 30
0.0
  0
VERTEX
  5
4C1
  8
STREAMS
 10
737972.64990815031
 20
4560143.5223337114
 30
0.0
  0
VERTEX
  5
4C2
  8
STREAMS
 10
737923.13487677148
 20
4560111.2484528152
 30
0.0
  0
VERTEX
  5
4C3
  8
STREAMS
 10
737873.61984539265
 20
4560072.519875383
 30
0.0
  0
VERTEX
  5
4C4
  8
STREAMS
 10
737798.27082119044
 20
4560023.0333111044
 30
0.0
  0
VERTEX
  5
4C5
  8
STREAMS
 10
737737.99150460237
 20
4559984.3047336722
 30
0.0
  0
VERTEX
  5
4C6
  8
STREAMS
 10
737671.25381134124
 20
4559956.3340634443
 30
0.0
  0
VERTEX
  5
4C7
  8
STREAMS
 10
737596.0384732635
 20
4559916.8896514438
 30
0.0
  0
VERTEX
  5
4C8
  8
STREAMS
 10
737535.07103773265
 20
4559871.1902884692
 30
0.0
  0
VERTEX
  5
4C9
  8
STREAMS
 10
737477.15188890579
 20
4559846.8173479782
 30
0.0
  0
VERTEX
  5
4CA
  8
STREAMS
 10
737428.37784325494
 20
4559795.0248693451
 30
0.0
  0
VERTEX
  5
4CB
  8
STREAMS
 10
737379.60379760421
 20
4559740.1857134197
 30
0.0
  0
VERTEX
  5
4CC
  8
STREAMS
 10
737355.21677477891
 20
4559724.9525658796
 30
0.0
  0
VERTEX
  5
4CD
  8
STREAMS
 10
737333.87816018995
 20
4559718.859370579
 30
0.0
  0
VERTEX
  5
4CE
  8
STREAMS
 10
737318.63624054089
 20
4559712.7660956345
 30
0.0
  0
VERTEX
  5
4CF
  8
STREAMS
 10
737312.53954560088
 20
4559685.3465574933
 30
0.0
  0
VERTEX
  5
4D0
  8
STREAMS
 10
737306.44272912806
 20
4559667.0668123029
 30
0.0
  0
VERTEX
  5
4D1
  8
STREAMS
 10
737254.6203967738
 20
4559612.2276563756
 30
0.0
  0
VERTEX
  5
4D2
  8
STREAMS
 10
737239.37847712473
 20
4559578.7148432909
 30
0.0
  0
VERTEX
  5
4D3
  8
STREAMS
 10
737214.99145429942
 20
4559548.2486278554
 30
0.0
  0
VERTEX
  5
4D4
  8
STREAMS
 10
737169.26581688505
 20
4559514.7358147698
 30
0.0
  0
VERTEX
  5
4D5
  8
STREAMS
 10
737150.97548899963
 20
4559481.2230016841
 30
0.0
  0
VERTEX
  5
4D6
  8
STREAMS
 10
737150.97548899963
 20
4559444.6635909472
 30
0.0
  0
VERTEX
  5
4D7
  8
STREAMS
 10
737164.16240985005
 20
4559439.2294444926
 30
0.0
  0
VERTEX
  5
4D8
  8
STREAMS
 10
737165.7369893305
 20
4559420.3459229507
 30
0.0
  0
VERTEX
  5
4D9
  8
STREAMS
 10
737165.7369893305
 20
4559396.741540934
 30
0.0
  0
VERTEX
  5
4DA
  8
STREAMS
 10
737161.01337242173
 20
4559362.1217647148
 30
0.0
  0
VERTEX
  5
4DB
  8
STREAMS
 10
737134.24625044945
 20
4559330.6491757166
 30
0.0
  0
VERTEX
  5
4DC
  8
STREAMS
 10
737112.20274538593
 20
4559296.0293994984
 30
0.0
  0
VERTEX
  5
4DD
  8
STREAMS
 10
737083.86116546614
 20
4559222.0689069415
 30
0.0
  0
VERTEX
  5
4DE
  8
STREAMS
 10
737058.66862297442
 20
4559119.7831718931
 30
0.0
  0
VERTEX
  5
4DF
  8
STREAMS
 10
737016.15619232785
 20
4558982.8776606256
 30
0.0
  0
VERTEX
  5
4E0
  8
STREAMS
 10
737000.01347126556
 20
4558937.0656022904
 30
0.0
  0
VERTEX
  5
4E1
  8
STREAMS
 10
736981.77236418065
 20
4558880.3637473369
 30
0.0
  0
VERTEX
  5
4E2
  8
STREAMS
 10
736960.82885285595
 20
4558831.0871229693
 30
0.0
  0
VERTEX
  5
4E3
  8
STREAMS
 10
736941.23654365086
 20
4558789.2358088288
 30
0.0
  0
VERTEX
  5
4E4
  8
STREAMS
 10
736927.71066770866
 20
4558760.3729736228
 30
0.0
  0
VERTEX
  5
4E5
  8
STREAMS
 10
736930.29895261105
 20
4558721.5813982878
 30
0.0
  0
VERTEX
  5
4E6
  8
STREAMS
 10
736945.82878355915
 20
4558677.6177031724
 30
0.0
  0
VERTEX
  5
4E7
  8
STREAMS
 10
736974.30016055261
 20
4558643.9983272636
 30
0.0
  0
VERTEX
  5
4E8
  8
STREAMS
 10
736979.47685189056
 20
4558592.2762533659
 30
0.0
  0
VERTEX
  5
4E9
  8
STREAMS
 10
736995.00668283855
 20
4558550.8986579617
 30
0.0
  0
VERTEX
  5
4EA
  8
STREAMS
 10
737005.35982244893
 20
4558483.6599061461
 30
0.0
  0
VERTEX
  5
4EB
  8
STREAMS
 10
737015.71308359166
 20
4558442.282310742
 30
0.0
  0
VERTEX
  5
4EC
  8
STREAMS
 10
737014.96529202454
 20
4558422.3916988466
 30
0.0
  0
VERTEX
  5
4ED
  8
STREAMS
 10
736998.30447646359
 20
4558410.7390780794
 30
0.0
  0
VERTEX
  5
4EE
  8
STREAMS
 10
736998.30447646359
 20
4558385.769130921
 30
0.0
  0
VERTEX
  5
4EF
  8
STREAMS
 10
736986.64194203075
 20
4558354.1405205699
 30
0.0
  0
VERTEX
  5
4F0
  8
STREAMS
 10
736969.98112646956
 20
4558299.2066686833
 30
0.0
  0
VERTEX
  5
4F1
  8
STREAMS
 10
736948.32202978048
 20
4558259.2547691613
 30
0.0
  0
VERTEX
  5
4F2
  8
STREAMS
 10
736934.14668233902
 20
4558111.7828133404
 30
0.0
  0
VERTEX
  5
4F3
  8
STREAMS
 10
736948.94719471154
 20
4558004.5702600749
 30
0.0
  0
VERTEX
  5
4F4
  8
STREAMS
 10
736956.34745089791
 20
4557963.903481707
 30
0.0
  0
VERTEX
  5
4F5
  8
STREAMS
 10
736971.14796327055
 20
4557934.3275994519
 30
0.0
  0
VERTEX
  5
4F6
  8
STREAMS
 10
736997.04892068915
 20
4557889.9637760688
 30
0.0
  0
VERTEX
  5
4F7
  8
STREAMS
 10
737052.55090285314
 20
4557823.418080816
 30
0.0
  0
VERTEX
  5
4F8
  8
STREAMS
 10
737052.55090285314
 20
4557782.7513024472
 30
0.0
  0
VERTEX
  5
4F9
  8
STREAMS
 10
737071.05160408514
 20
4557756.8723855624
 30
0.0
  0
VERTEX
  5
4FA
  8
STREAMS
 10
737096.95243997092
 20
4557753.1754201921
 30
0.0
  0
VERTEX
  5
4FB
  8
STREAMS
 10
737126.55358624901
 20
4557742.0844444353
 30
0.0
  0
VERTEX
  5
4FC
  8
STREAMS
 10
737163.55486718065
 20
4557694.0236556809
 30
0.0
  0
VERTEX
  5
4FD
  8
STREAMS
 10
737174.65531222662
 20
4557631.1749257986
 30
0.0
  0
VERTEX
  5
4FE
  8
STREAMS
 10
737178.3553795534
 20
4557564.6292305458
 30
0.0
  0
VERTEX
  5
4FF
  8
STREAMS
 10
737174.65531222662
 20
4557505.4774660347
 30
0.0
  0
VERTEX
  5
500
  8
STREAMS
 10
737174.65531222662
 20
4557438.931770782
 30
0.0
  0
VERTEX
  5
501
  8
STREAMS
 10
737156.15461099427
 20
4557357.5981344022
 30
0.0
  0
VERTEX
  5
502
  8
STREAMS
 10
737089.55218378454
 20
4557291.0524391485
 30
0.0
  0
VERTEX
  5
503
  8
STREAMS
 10
737041.45045780705
 20
4557242.991650396
 30
0.0
  0
VERTEX
  5
504
  8
STREAMS
 10
736989.64866450278
 20
4557180.1429205127
 30
0.0
  0
VERTEX
  5
505
  8
STREAMS
 10
736937.84674966556
 20
4557128.385166388
 30
0.0
  0
VERTEX
  5
506
  8
STREAMS
 10
736908.24572492053
 20
4557091.4153533904
 30
0.0
  0
VERTEX
  5
507
  8
STREAMS
 10
736841.64329771081
 20
4557084.0213430049
 30
0.0
  0
VERTEX
  5
508
  8
STREAMS
 10
736712.13863215095
 20
4556984.2028001249
 30
0.0
  0
VERTEX
  5
509
  8
STREAMS
 10
736664.03690617334
 20
4556950.9299524976
 30
0.0
  0
VERTEX
  5
50A
  8
STREAMS
 10
736608.53492400935
 20
4556910.2631741296
 30
0.0
  0
VERTEX
  5
50B
  8
STREAMS
 10
736571.53364307794
 20
4556865.8993507465
 30
0.0
  0
VERTEX
  5
50C
  8
STREAMS
 10
736553.03294184559
 20
4556825.2324927356
 30
0.0
  0
VERTEX
  5
50D
  8
STREAMS
 10
736541.93261833244
 20
4556806.7475862363
 30
0.0
  0
VERTEX
  5
50E
  8
STREAMS
 10
736480.24668064935
 20
4556784.0437317509
 30
0.0
  0
VERTEX
  5
50F
  8
STREAMS
 10
736426.74148305366
 20
4556785.9530221457
 30
0.0
  0
VERTEX
  5
510
  8
STREAMS
 10
736382.79071124096
 20
4556785.9530221457
 30
0.0
  0
VERTEX
  5
511
  8
STREAMS
 10
736348.39448674384
 20
4556787.8622328974
 30
0.0
  0
VERTEX
  5
512
  8
STREAMS
 10
736315.90924462955
 20
4556782.1344413552
 30
0.0
  0
VERTEX
  5
513
  8
STREAMS
 10
736287.24572421529
 20
4556793.5901040807
 30
0.0
  0
VERTEX
  5
514
  8
STREAMS
 10
736271.95847281686
 20
4556814.5921391388
 30
0.0
  0
VERTEX
  5
515
  8
STREAMS
 10
736256.67122141819
 20
4556841.3219657373
 30
0.0
  0
VERTEX
  5
516
  8
STREAMS
 10
736237.56224831962
 20
4556850.868338068
 30
0.0
  0
VERTEX
  5
517
  8
STREAMS
 10
736208.89872790547
 20
4556858.5054200049
 30
0.0
  0
VERTEX
  5
518
  8
STREAMS
 10
736180.23520749121
 20
4556852.7775488207
 30
0.0
  0
VERTEX
  5
519
  8
STREAMS
 10
736142.01726129407
 20
4556845.1404668828
 30
0.0
  0
VERTEX
  5
51A
  8
STREAMS
 10
736077.04665553267
 20
4556829.8663030118
 30
0.0
  0
VERTEX
  5
51B
  8
STREAMS
 10
736027.36317963712
 20
4556805.0457668081
 30
0.0
  0
VERTEX
  5
51C
  8
STREAMS
 10
735998.69965922297
 20
4556782.1344413552
 30
0.0
  0
VERTEX
  5
51D
  8
STREAMS
 10
735977.67982527427
 20
4556761.132406299
 30
0.0
  0
VERTEX
  5
51E
  8
STREAMS
 10
735954.74900894286
 20
4556740.1303712418
 30
0.0
  0
VERTEX
  5
51F
  8
STREAMS
 10
735950.92716571002
 20
4556717.2191254329
 30
0.0
  0
VERTEX
  5
520
  8
STREAMS
 10
735949.01630486012
 20
4556659.9408914456
 30
0.0
  0
VERTEX
  5
521
  8
STREAMS
 10
735962.39257387584
 20
4556638.9388563884
 30
0.0
  0
VERTEX
  5
522
  8
STREAMS
 10
735979.59068612428
 20
4556629.3924840568
 30
0.0
  0
VERTEX
  5
523
  8
STREAMS
 10
735989.1452334401
 20
4556608.3904489996
 30
0.0
  0
VERTEX
  5
524
  8
STREAMS
 10
735993.25024819095
 20
4556576.6446832586
 30
0.0
  0
VERTEX
  5
525
  8
STREAMS
 10
735988.60088784772
 20
4556551.86970306
 30
0.0
  0
VERTEX
  5
526
  8
STREAMS
 10
735959.15554667101
 20
4556499.2228900502
 30
0.0
  0
VERTEX
  5
527
  8
STREAMS
 10
735912.6629155007
 20
4556471.3509775931
 30
0.0
  0
VERTEX
  5
528
  8
STREAMS
 10
735883.21757432399
 20
4556445.0275710858
 30
0.0
  0
VERTEX
  5
529
  8
STREAMS
 10
735872.3693099221
 20
4556429.5432283729
 30
0.0
  0
VERTEX
  5
52A
  8
STREAMS
 10
735839.82439518324
 20
4556417.1557382736
 30
0.0
  0
VERTEX
  5
52B
  8
STREAMS
 10
735794.88142926106
 20
4556409.4135270957
 30
0.0
  0
VERTEX
  5
52C
  8
STREAMS
 10
735751.48837165302
 20
4556410.9619534034
 30
0.0
  0
VERTEX
  5
52D
  8
STREAMS
 10
735718.94345691404
 20
4556420.2525908882
 30
0.0
  0
VERTEX
  5
52E
  8
STREAMS
 10
735687.94832895638
 20
4556426.4462961163
 30
0.0
  0
VERTEX
  5
52F
  8
STREAMS
 10
735675.55027777317
 20
4556424.8978698105
 30
0.0
  0
VERTEX
  5
530
  8
STREAMS
 10
735650.75417540688
 20
4556429.5432283729
 30
0.0
  0
VERTEX
  5
531
  8
STREAMS
 10
735643.00536303443
 20
4556437.2853599088
 30
0.0
  0
VERTEX
  5
532
  8
STREAMS
 10
735624.40840779245
 20
4556457.4150611861
 30
0.0
  0
VERTEX
  5
533
  8
STREAMS
 10
735619.7590474491
 20
4556477.5447624642
 30
0.0
  0
VERTEX
  5
534
  8
STREAMS
 10
735612.01035660924
 20
4556493.0291051771
 30
0.0
  0
VERTEX
  5
535
  8
STREAMS
 10
735594.96294508292
 20
4556519.3525116825
 30
0.0
  0
VERTEX
  5
536
  8
STREAMS
 10
735576.36586830812
 20
4556542.5790655762
 30
0.0
  0
VERTEX
  5
537
  8
STREAMS
 10
735548.47031391261
 20
4556553.4181293668
 30
0.0
  0
VERTEX
  5
538
  8
STREAMS
 10
735509.72637358215
 20
4556564.2571931593
 30
0.0
  0
VERTEX
  5
539
  8
STREAMS
 10
735477.18158037611
 20
4556562.7087668516
 30
0.0
  0
VERTEX
  5
53A
  8
STREAMS
 10
735436.88785326446
 20
4556554.9665556736
 30
0.0
  0
VERTEX
  5
53B
  8
STREAMS
 10
735401.24348649615
 20
4556536.3853603471
 30
0.0
  0
VERTEX
  5
53C
  8
STREAMS
 10
735384.19619650266
 20
4556525.5462965537
 30
0.0
  0
VERTEX
  5
53D
  8
STREAMS
 10
735348.55182973435
 20
4556503.8681689687
 30
0.0
  0
VERTEX
  5
53E
  8
STREAMS
 10
735340.80301736179
 20
4556491.4806788703
 30
0.0
  0
VERTEX
  5
53F
  8
STREAMS
 10
735312.90746296616
 20
4556469.8025512854
 30
0.0
  0
VERTEX
  5
540
  8
STREAMS
 10
735276.58202616009
 20
4556445.0275710858
 30
0.0
  0
VERTEX
  5
541
  8
STREAMS
 10
735265.73376175796
 20
4556431.0916546807
 30
0.0
  0
VERTEX
  5
542
  8
STREAMS
 10
735242.48744617286
 20
4556398.5744633041
 30
0.0
  0
VERTEX
  5
543
  8
STREAMS
 10
735209.942531434
 20
4556370.7026304901
 30
0.0
  0
VERTEX
  5
544
  8
STREAMS
 10
735164.99968704488
 20
4556341.2822917281
 30
0.0
  0
VERTEX
  5
545
  8
STREAMS
 10
735127.8055334955
 20
4556325.7979490142
 30
0.0
  0
VERTEX
  5
546
  8
STREAMS
 10
735107.65866993985
 20
4556310.3136063013
 30
0.0
  0
VERTEX
  5
547
  8
STREAMS
 10
735078.21332876303
 20
4556276.247988617
 30
0.0
  0
VERTEX
  5
548
  8
STREAMS
 10
735062.71582555049
 20
4556235.9885860607
 30
0.0
  0
VERTEX
  5
549
  8
STREAMS
 10
735058.06646520714
 20
4556222.0526696565
 30
0.0
  0
VERTEX
  5
54A
  8
STREAMS
 10
735037.91972318443
 20
4556197.2776894569
 30
0.0
  0
VERTEX
  5
54B
  8
STREAMS
 10
735017.77285962855
 20
4556169.4058566429
 30
0.0
  0
VERTEX
  5
54C
  8
STREAMS
 10
735022.42209843895
 20
4556146.179302752
 30
0.0
  0
VERTEX
  5
54D
  8
STREAMS
 10
735044.11874877592
 20
4556139.9855178799
 30
0.0
  0
VERTEX
  5
54E
  8
STREAMS
 10
735072.01430317154
 20
4556132.2433863459
 30
0.0
  0
VERTEX
  5
54F
  8
STREAMS
 10
735115.40748231241
 20
4556102.823047583
 30
0.0
  0
VERTEX
  5
550
  8
STREAMS
 10
735126.25574671442
 20
4556081.144919998
 30
0.0
  0
VERTEX
  5
551
  8
STREAMS
 10
735135.55434586818
 20
4556064.1121509774
 30
0.0
  0
VERTEX
  5
552
  8
STREAMS
 10
735157.2508746722
 20
4556020.7558958083
 30
0.0
  0
VERTEX
  5
553
  8
STREAMS
 10
735169.64892585541
 20
4555977.3997202832
 30
0.0
  0
VERTEX
  5
554
  8
STREAMS
 10
735182.0469770385
 20
4555937.1403177269
 30
0.0
  0
VERTEX
  5
555
  8
STREAMS
 10
735188.24600262998
 20
4555890.6872895872
 30
0.0
  0
VERTEX
  5
556
  8
STREAMS
 10
735184.26568057318
 20
4555837.8029004168
 30
0.0
  0
VERTEX
  5
557
  8
STREAMS
 10
735182.01805602678
 20
4555833.3115760377
 30
0.0
  0
VERTEX
  5
558
  8
STREAMS
 10
735179.5658841012
 20
4555828.4115140745
 30
0.0
  0
VERTEX
  5
559
  8
STREAMS
 10
735162.33374265733
 20
4555819.0201277323
 30
0.0
  0
VERTEX
  5
55A
  8
STREAMS
 10
735146.66803799348
 20
4555808.0635899762
 30
0.0
  0
VERTEX
  5
55B
  8
STREAMS
 10
735146.66803799348
 20
4555792.4112794045
 30
0.0
  0
VERTEX
  5
55C
  8
STREAMS
 10
735141.96836305445
 20
4555759.5414272072
 30
0.0
  0
VERTEX
  5
55D
  8
STREAMS
 10
735129.43589654984
 20
4555742.3238855796
 30
0.0
  0
VERTEX
  5
55E
  8
STREAMS
 10
735118.46998835821
 20
4555714.149726552
 30
0.0
  0
VERTEX
  5
55F
  8
STREAMS
 10
735115.33687173214
 20
4555687.5407985821
 30
0.0
  0
VERTEX
  5
560
  8
STREAMS
 10
735109.07051694696
 20
4555654.6709463838
 30
0.0
  0
VERTEX
  5
561
  8
STREAMS
 10
735109.07051694696
 20
4555639.0186358131
 30
0.0
  0
VERTEX
  5
562
  8
STREAMS
 10
735087.13870056381
 20
4555601.4531700872
 30
0.0
  0
VERTEX
  5
563
  8
STREAMS
 10
735076.17267083947
 20
4555551.3657762622
 30
0.0
  0
VERTEX
  5
564
  8
STREAMS
 10
735049.54117951705
 20
4555480.9303786932
 30
0.0
  0
VERTEX
  5
565
  8
STREAMS
 10
735038.57514979283
 20
4555427.7126023956
 30
0.0
  0
VERTEX
  5
566
  8
STREAMS
 10
735010.37710015744
 20
4555376.0599775128
 30
0.0
  0
VERTEX
  5
567
  8
STREAMS
 10
734985.31204561517
 20
4555325.9725836869
 30
0.0
  0
VERTEX
  5
568
  8
STREAMS
 10
734970.22410807479
 20
4555283.4884233661
 30
0.0
  0
VERTEX
  5
569
  8
STREAMS
 10
734961.45733663091
 20
4555281.2985493951
 30
0.0
  0
VERTEX
  5
56A
  8
STREAMS
 10
734941.73207049852
 20
4555250.6409509555
 30
0.0
  0
VERTEX
  5
56B
  8
STREAMS
 10
734924.19852761051
 20
4555215.6036842139
 30
0.0
  0
VERTEX
  5
56C
  8
STREAMS
 10
734926.39025085454
 20
4555171.8070808779
 30
0.0
  0
VERTEX
  5
56D
  8
STREAMS
 10
734948.30711869837
 20
4555141.1494824355
 30
0.0
  0
VERTEX
  5
56E
  8
STREAMS
 10
734974.60755456332
 20
4555103.9224213688
 30
0.0
  0
VERTEX
  5
56F
  8
STREAMS
 10
735009.67464033957
 20
4555046.9868131392
 30
0.0
  0
VERTEX
  5
570
  8
STREAMS
 10
735029.39990647195
 20
4554996.6207471788
 30
0.0
  0
VERTEX
  5
571
  8
STREAMS
 10
735027.20818322792
 20
4554970.3428170346
 30
0.0
  0
VERTEX
  5
572
  8
STREAMS
 10
735022.82473673928
 20
4554930.9258819968
 30
0.0
  0
VERTEX
  5
573
  8
STREAMS
 10
735016.24968853954
 20
4554893.6987412861
 30
0.0
  0
VERTEX
  5
574
  8
STREAMS
 10
735009.841140331
 20
4554857.4692133684
 30
0.0
  0
VERTEX
  5
575
  8
STREAMS
 10
735001.94612395135
 20
4554831.8323326707
 30
0.0
  0
VERTEX
  5
576
  8
STREAMS
 10
734986.15609119204
 20
4554806.19537233
 30
0.0
  0
VERTEX
  5
577
  8
STREAMS
 10
734956.54984053457
 20
4554794.362916843
 30
0.0
  0
VERTEX
  5
578
  8
STREAMS
 10
734936.8122995852
 20
4554794.362916843
 30
0.0
  0
VERTEX
  5
579
  8
STREAMS
 10
734909.17986378924
 20
4554794.362916843
 30
0.0
  0
VERTEX
  5
57A
  8
STREAMS
 10
734885.49481465016
 20
4554796.3349662088
 30
0.0
  0
VERTEX
  5
57B
  8
STREAMS
 10
734873.65229008056
 20
4554794.362916843
 30
0.0
  0
VERTEX
  5
57C
  8
STREAMS
 10
734853.91474913131
 20
4554780.5584119894
 30
0.0
  0
VERTEX
  5
57D
  8
STREAMS
 10
734853.91474913131
 20
4554754.9214516487
 30
0.0
  0
VERTEX
  5
57E
  8
STREAMS
 10
734851.94105580286
 20
4554711.535887721
 30
0.0
  0
VERTEX
  5
57F
  8
STREAMS
 10
734853.91474913131
 20
4554689.8431057567
 30
0.0
  0
VERTEX
  5
580
  8
STREAMS
 10
734849.96724094136
 20
4554668.1503237933
 30
0.0
  0
VERTEX
  5
581
  8
STREAMS
 10
734844.04603942332
 20
4554634.625086342
 30
0.0
  0
VERTEX
  5
582
  8
STREAMS
 10
734834.17720818217
 20
4554610.9601753671
 30
0.0
  0
VERTEX
  5
583
  8
STREAMS
 10
734806.54465085315
 20
4554593.211571781
 30
0.0
  0
VERTEX
  5
584
  8
STREAMS
 10
734790.75473962666
 20
4554575.4628885509
 30
0.0
  0
VERTEX
  5
585
  8
STREAMS
 10
734747.33214953833
 20
4554567.5746114403
 30
0.0
  0
VERTEX
  5
586
  8
STREAMS
 10
734715.75208401959
 20
4554553.7701065857
 30
0.0
  0
VERTEX
  5
587
  8
STREAMS
 10
734696.01454307046
 20
4554549.8260078533
 30
0.0
  0
VERTEX
  5
588
  8
STREAMS
 10
734664.43459908455
 20
4554539.965601732
 30
0.0
  0
VERTEX
  5
589
  8
STREAMS
 10
734648.64456632489
 20
4554536.0215029987
 30
0.0
  0
VERTEX
  5
58A
  8
STREAMS
 10
734613.11699261644
 20
4554541.9376510996
 30
0.0
  0
VERTEX
  5
58B
  8
STREAMS
 10
734567.72070919955
 20
4554555.7421559533
 30
0.0
  0
VERTEX
  5
58C
  8
STREAMS
 10
734538.11445854232
 20
4554567.5746114403
 30
0.0
  0
VERTEX
  5
58D
  8
STREAMS
 10
734504.56069969491
 20
4554577.4350175597
 30
0.0
  0
VERTEX
  5
58E
  8
STREAMS
 10
734459.16429474531
 20
4554589.2673934046
 30
0.0
  0
VERTEX
  5
58F
  8
STREAMS
 10
734427.58435075928
 20
4554607.0160766337
 30
0.0
  0
VERTEX
  5
590
  8
STREAMS
 10
734413.76801132842
 20
4554620.8205814883
 30
0.0
  0
VERTEX
  5
591
  8
STREAMS
 10
734405.87299494864
 20
4554634.625086342
 30
0.0
  0
VERTEX
  5
592
  8
STREAMS
 10
734396.00428524055
 20
4554648.4295911947
 30
0.0
  0
VERTEX
  5
593
  8
STREAMS
 10
734386.13557553245
 20
4554660.2620466826
 30
0.0
  0
VERTEX
  5
594
  8
STREAMS
 10
734378.24055915268
 20
4554664.206145416
 30
0.0
  0
VERTEX
  5
595
  8
STREAMS
 10
734350.60800182377
 20
4554662.2340960493
 30
0.0
  0
VERTEX
  5
596
  8
STREAMS
 10
734328.89676754596
 20
4554662.2340960493
 30
0.0
  0
VERTEX
  5
597
  8
STREAMS
 10
734291.39537897601
 20
4554660.2620466826
 30
0.0
  0
VERTEX
  5
598
  8
STREAMS
 10
734265.73663650849
 20
4554658.2899176721
 30
0.0
  0
VERTEX
  5
599
  8
STREAMS
 10
734230.20906279993
 20
4554652.373689929
 30
0.0
  0
VERTEX
  5
59A
  8
STREAMS
 10
734208.49782852212
 20
4554646.457541829
 30
0.0
  0
VERTEX
  5
59B
  8
STREAMS
 10
734192.70779576269
 20
4554636.5971357087
 30
0.0
  0
VERTEX
  5
59C
  8
STREAMS
 10
734169.02274662373
 20
4554601.0998488907
 30
0.0
  0
VERTEX
  5
59D
  8
STREAMS
 10
734151.25902053586
 20
4554579.4070669273
 30
0.0
  0
VERTEX
  5
59E
  8
STREAMS
 10
734115.73144682718
 20
4554553.7701065857
 30
0.0
  0
VERTEX
  5
59F
  8
STREAMS
 10
734090.07270435966
 20
4554547.8538788417
 30
0.0
  0
VERTEX
  5
5A0
  8
STREAMS
 10
734054.54513065098
 20
4554537.9935523663
 30
0.0
  0
VERTEX
  5
5A1
  8
STREAMS
 10
734023.74579209904
 20
4554509.5379336858
 30
0.0
  0
VERTEX
  5
5A2
  8
STREAMS
 10
733970.95715213055
 20
4554459.3057482224
 30
0.0
  0
VERTEX
  5
5A3
  8
STREAMS
 10
733940.7920934729
 20
4554409.073562758
 30
0.0
  0
VERTEX
  5
5A4
  8
STREAMS
 10
733910.62715634797
 20
4554368.8877506722
 30
0.0
  0
VERTEX
  5
5A5
  8
STREAMS
 10
733888.0033319717
 20
4554328.7020182293
 30
0.0
  0
VERTEX
  5
5A6
  8
STREAMS
 10
733865.37962912791
 20
4554270.9350129114
 30
0.0
  0
VERTEX
  5
5A7
  8
STREAMS
 10
733872.92086340906
 20
4554240.7956538461
 30
0.0
  0
VERTEX
  5
5A8
  8
STREAMS
 10
733882.97588296165
 20
4554205.6331080915
 30
0.0
  0
VERTEX
  5
5A9
  8
STREAMS
 10
733890.51711724291
 20
4554172.982195504
 30
0.0
  0
VERTEX
  5
5AA
  8
STREAMS
 10
733860.35218011797
 20
4554107.6802906869
 30
0.0
  0
VERTEX
  5
5AB
  8
STREAMS
 10
733842.75592628436
 20
4554057.4481052216
 30
0.0
  0
VERTEX
  5
5AC
  8
STREAMS
 10
733825.15967245051
 20
4554009.7275529262
 30
0.0
  0
VERTEX
  5
5AD
  8
STREAMS
 10
733820.13210190774
 20
4553974.5650071707
 30
0.0
  0
VERTEX
  5
5AE
  8
STREAMS
 10
733802.53584807413
 20
4553931.8676415617
 30
0.0
  0
VERTEX
  5
5AF
  8
STREAMS
 10
733774.88457468757
 20
4553901.7282824982
 30
0.0
  0
VERTEX
  5
5B0
  8
STREAMS
 10
733737.17840328172
 20
4553881.6354560992
 30
0.0
  0
VERTEX
  5
5B1
  8
STREAMS
 10
733707.01334462385
 20
4553874.100556599
 30
0.0
  0
VERTEX
  5
5B2
  8
STREAMS
 10
733689.41709079011
 20
4553874.100556599
 30
0.0
  0
VERTEX
  5
5B3
  8
STREAMS
 10
733659.25215366506
 20
4553874.100556599
 30
0.0
  0
VERTEX
  5
5B4
  8
STREAMS
 10
733619.03219698765
 20
4553846.4729103446
 30
0.0
  0
VERTEX
  5
5B5
  8
STREAMS
 10
733581.32590404886
 20
4553813.8219181141
 30
0.0
  0
VERTEX
  5
5B6
  8
STREAMS
 10
733531.05092781887
 20
4553753.5432796292
 30
0.0
  0
VERTEX
  5
5B7
  8
STREAMS
 10
733493.34463487996
 20
4553700.7994609978
 30
0.0
  0
VERTEX
  5
5B8
  8
STREAMS
 10
733465.69348302647
 20
4553658.1020953897
 30
0.0
  0
VERTEX
  5
5B9
  8
STREAMS
 10
733427.98719008744
 20
4553640.520822512
 30
0.0
  0
VERTEX
  5
5BA
  8
STREAMS
 10
733395.3084676913
 20
4553615.4047297798
 30
0.0
  0
VERTEX
  5
5BB
  8
STREAMS
 10
733337.49213564722
 20
4553587.7770038825
 30
0.0
  0
VERTEX
  5
5BC
  8
STREAMS
 10
733297.27217896981
 20
4553577.7306305049
 30
0.0
  0
VERTEX
  5
5BD
  8
STREAMS
 10
733279.67592513619
 20
4553570.1957310066
 30
0.0
  0
VERTEX
  5
5BE
  8
STREAMS
 10
733239.45596845867
 20
4553535.0331852529
 30
0.0
  0
VERTEX
  5
5BF
  8
STREAMS
 10
733174.09852366615
 20
4553472.242993244
 30
0.0
  0
VERTEX
  5
5C0
  8
STREAMS
 10
733131.36478171742
 20
4553457.1732738903
 30
0.0
  0
VERTEX
  5
5C1
  8
STREAMS
 10
733068.52100066352
 20
4553424.5223613027
 30
0.0
  0
VERTEX
  5
5C2
  8
STREAMS
 10
732983.05351676606
 20
4553391.8714487161
 30
0.0
  0
VERTEX
  5
5C3
  8
STREAMS
 10
732877.47599376331
 20
4553359.2205361286
 30
0.0
  0
VERTEX
  5
5C4
  8
STREAMS
 10
732786.98106085602
 20
4553334.1044433964
 30
0.0
  0
VERTEX
  5
5C5
  8
STREAMS
 10
732696.48600641557
 20
4553311.4999041874
 30
0.0
  0
VERTEX
  5
5C6
  8
STREAMS
 10
732643.69724491425
 20
4553303.965084332
 30
0.0
  0
VERTEX
  5
5C7
  8
STREAMS
 10
732623.58732734201
 20
4553286.3838114552
 30
0.0
  0
VERTEX
  5
5C8
  8
STREAMS
 10
732583.36724913167
 20
4553286.3838114552
 30
0.0
  0
VERTEX
  5
5C9
  8
STREAMS
 10
732555.71609727817
 20
4553288.8954446213
 30
0.0
  0
VERTEX
  5
5CA
  8
STREAMS
 10
732528.06482389185
 20
4553261.267718723
 30
0.0
  0
VERTEX
  5
5CB
  8
STREAMS
 10
732475.27606239065
 20
4553226.1051729694
 30
0.0
  0
VERTEX
  5
5CC
  8
STREAMS
 10
732452.65235954686
 20
4553178.3846206721
 30
0.0
  0
VERTEX
  5
5CD
  8
STREAMS
 10
732417.04554642644
 20
4553120.2359643467
 30
0.0
  0
VERTEX
  5
5CE
  8
STREAMS
 10
732390.79967880668
 20
4553088.767676089
 30
0.0
  0
VERTEX
  5
5CF
  8
STREAMS
 10
732365.4902217224
 20
4553036.6446774909
 30
0.0
  0
VERTEX
  5
5D0
  8
STREAMS
 10
732340.14867996832
 20
4553014.700700352
 30
0.0
  0
VERTEX
  5
5D1
  8
STREAMS
 10
732311.42816065205
 20
4553004.5726925246
 30
0.0
  0
VERTEX
  5
5D2
  8
STREAMS
 10
732279.3289068389
 20
4553001.1966899168
 30
0.0
  0
VERTEX
  5
5D3
  8
STREAMS
 10
732232.0246793601
 20
4553002.8847310431
 30
0.0
  0
VERTEX
  5
5D4
  8
STREAMS
 10
732164.4471941716
 20
4552992.7567232158
 30
0.0
  0
VERTEX
  5
5D5
  8
STREAMS
 10
732105.3168490571
 20
4552962.3726997329
 30
0.0
  0
VERTEX
  5
5D6
  8
STREAMS
 10
732037.7393638686
 20
4552931.9887558939
 30
0.0
  0
VERTEX
  5
5D7
  8
STREAMS
 10
731975.23028425721
 20
4552910.0447787559
 30
0.0
  0
VERTEX
  5
5D8
  8
STREAMS
 10
731921.16822318675
 20
4552883.0367578827
 30
0.0
  0
VERTEX
  5
5D9
  8
STREAMS
 10
731880.62182929995
 20
4552866.1568244798
 30
0.0
  0
VERTEX
  5
5DA
  8
STREAMS
 10
731807.97593853436
 20
4552856.0288166534
 30
0.0
  0
VERTEX
  5
5DB
  8
STREAMS
 10
731711.67805556243
 20
4552852.6528140437
 30
0.0
  0
VERTEX
  5
5DC
  8
STREAMS
 10
731649.16885441809
 20
4552854.3407755252
 30
0.0
  0
VERTEX
  5
5DD
  8
STREAMS
 10
731571.45480114117
 20
4552845.9008088252
 30
0.0
  0
VERTEX
  5
5DE
  8
STREAMS
 10
731510.63502801175
 20
4552823.9568316862
 30
0.0
  0
VERTEX
  5
5DF
  8
STREAMS
 10
731449.81537641515
 20
4552786.8208029857
 30
0.0
  0
VERTEX
  5
5E0
  8
STREAMS
 10
731393.695885889
 20
4552745.1878709542
 30
0.0
  0
VERTEX
  5
5E1
  8
STREAMS
 10
731312.60224738566
 20
4552687.7954283813
 30
0.0
  0
VERTEX
  5
5E2
  8
STREAMS
 10
731265.29753377545
 20
4552643.9070758875
 30
0.0
  0
VERTEX
  5
5E3
  8
STREAMS
 10
731238.26632094115
 20
4552589.8906359253
 30
0.0
  0
VERTEX
  5
5E4
  8
STREAMS
 10
731207.85625207704
 20
4552549.3783656852
 30
0.0
  0
VERTEX
  5
5E5
  8
STREAMS
 10
731160.55153846706
 20
4552505.4900131924
 30
0.0
  0
VERTEX
  5
5E6
  8
STREAMS
 10
731084.64540772419
 20
4552435.3998696133
 30
0.0
  0
VERTEX
  5
5E7
  8
STREAMS
 10
731032.29537977686
 20
4552397.0425099069
 30
0.0
  0
VERTEX
  5
5E8
  8
STREAMS
 10
731004.37527574738
 20
4552390.0683793426
 30
0.0
  0
VERTEX
  5
5E9
  8
STREAMS
 10
730981.69019881939
 20
4552356.941518005
 30
0.0
  0
VERTEX
  5
5EA
  8
STREAMS
 10
730952.02512626722
 20
4552200.0248147873
 30
0.0
  0
VERTEX
  5
5EB
  8
STREAMS
 10
730950.2801577443
 20
4552125.0534886383
 30
0.0
  0
VERTEX
  5
5EC
  8
STREAMS
 10
730959.00512189127
 20
4552025.6729046237
 30
0.0
  0
VERTEX
  5
5ED
  8
STREAMS
 10
730973.29604706401
 20
4551925.8650339572
 30
0.0
  0
VERTEX
  5
5EE
  8
STREAMS
 10
730975.30000206979
 20
4551887.0422384227
 30
0.0
  0
VERTEX
  5
5EF
  8
STREAMS
 10
730980.06554780854
 20
4551858.4731279481
 30
0.0
  0
VERTEX
  5
5F0
  8
STREAMS
 10
730972.12289055553
 20
4551818.7938476643
 30
0.0
  0
VERTEX
  5
5F1
  8
STREAMS
 10
730961.00324332074
 20
4551802.9221196231
 30
0.0
  0
VERTEX
  5
5F2
  8
STREAMS
 10
730961.00324332074
 20
4551785.463178955
 30
0.0
  0
VERTEX
  5
5F3
  8
STREAMS
 10
730965.76878905948
 20
4551777.5273547554
 30
0.0
  0
VERTEX
  5
5F4
  8
STREAMS
 10
730956.23769758199
 20
4551766.417105305
 30
0.0
  0
VERTEX
  5
5F5
  8
STREAMS
 10
730957.82613180648
 20
4551755.3069354966
 30
0.0
  0
VERTEX
  5
5F6
  8
STREAMS
 10
730962.59179907781
 20
4551733.0865162387
 30
0.0
  0
VERTEX
  5
5F7
  8
STREAMS
 10
730981.65410356573
 20
4551728.3249580041
 30
0.0
  0
VERTEX
  5
5F8
  8
STREAMS
 10
731046.78355274955
 20
4551731.4993036119
 30
0.0
  0
VERTEX
  5
5F9
  8
STREAMS
 10
731057.90332151705
 20
4551744.1966860462
 30
0.0
  0
VERTEX
  5
5FA
  8
STREAMS
 10
731062.66886725579
 20
4551766.417105305
 30
0.0
  0
VERTEX
  5
5FB
  8
STREAMS
 10
731057.90332151705
 20
4551782.2888333462
 30
0.0
  0
VERTEX
  5
5FC
  8
STREAMS
 10
731057.90332151705
 20
4551809.2708108388
 30
0.0
  0
VERTEX
  5
5FD
  8
STREAMS
 10
731065.84585723735
 20
4551825.1425388819
 30
0.0
  0
VERTEX
  5
5FE
  8
STREAMS
 10
731076.96550447203
 20
4551820.3809806481
 30
0.0
  0
VERTEX
  5
5FF
  8
STREAMS
 10
731111.91312346607
 20
4551807.6835982129
 30
0.0
  0
VERTEX
  5
600
  8
STREAMS
 10
731150.03773244179
 20
4551772.7657965207
 30
0.0
  0
VERTEX
  5
601
  8
STREAMS
 10
731180.21968416427
 20
4551744.1966860462
 30
0.0
  0
VERTEX
  5
602
  8
STREAMS
 10
731197.693432895
 20
4551718.8019211786
 30
0.0
  0
VERTEX
  5
603
  8
STREAMS
 10
731215.16718162561
 20
4551690.232810704
 30
0.0
  0
VERTEX
  5
604
  8
STREAMS
 10
731229.46394037467
 20
4551648.9663177952
 30
0.0
  0
VERTEX
  5
605
  8
STREAMS
 10
731235.81804187072
 20
4551629.9202441452
 30
0.0
  0
VERTEX
  5
606
  8
STREAMS
 10
731250.11480061966
 20
4551621.9843403008
 30
0.0
  0
VERTEX
  5
607
  8
STREAMS
 10
731264.41155936883
 20
4551621.9843403008
 30
0.0
  0
VERTEX
  5
608
  8
STREAMS
 10
731273.94265084632
 20
4551607.6998248864
 30
0.0
  0
VERTEX
  5
609
  8
STREAMS
 10
731278.70819658507
 20
4551598.17678806
 30
0.0
  0
VERTEX
  5
60A
  8
STREAMS
 10
731291.41639957693
 20
4551587.0665386086
 30
0.0
  0
VERTEX
  5
60B
  8
STREAMS
 10
731291.41639957693
 20
4551579.1307144109
 30
0.0
  0
VERTEX
  5
60C
  8
STREAMS
 10
731291.41639957693
 20
4551560.08464076
 30
0.0
  0
VERTEX
  5
60D
  8
STREAMS
 10
731280.29675234226
 20
4551553.7359495442
 30
0.0
  0
VERTEX
  5
60E
  8
STREAMS
 10
731273.94265084632
 20
4551548.9743913095
 30
0.0
  0
VERTEX
  5
60F
  8
STREAMS
 10
731256.46890211571
 20
4551539.4513544841
 30
0.0
  0
VERTEX
  5
610
  8
STREAMS
 10
731251.70335637685
 20
4551523.5796264419
 30
0.0
  0
VERTEX
  5
611
  8
STREAMS
 10
731242.17214336654
 20
4551502.9464198099
 30
0.0
  0
VERTEX
  5
612
  8
STREAMS
 10
731237.40659762779
 20
4551495.0105159674
 30
0.0
  0
VERTEX
  5
613
  8
STREAMS
 10
731235.81804187072
 20
4551450.5696774498
 30
0.0
  0
VERTEX
  5
614
  8
STREAMS
 10
731240.58358760935
 20
4551441.0466406252
 30
0.0
  0
VERTEX
  5
615
  8
STREAMS
 10
731240.58358760935
 20
4551428.34925819
 30
0.0
  0
VERTEX
  5
616
  8
STREAMS
 10
731240.58358760935
 20
4551415.6518757576
 30
0.0
  0
VERTEX
  5
617
  8
STREAMS
 10
731235.81804187072
 20
4551391.8443235168
 30
0.0
  0
VERTEX
  5
618
  8
STREAMS
 10
731234.22948611353
 20
4551379.1469410826
 30
0.0
  0
VERTEX
  5
619
  8
STREAMS
 10
731232.64105188905
 20
4551350.577830608
 30
0.0
  0
VERTEX
  5
61A
  8
STREAMS
 10
731237.40659762779
 20
4551333.11888994
 30
0.0
  0
VERTEX
  5
61B
  8
STREAMS
 10
731238.9951533851
 20
4551299.7883008728
 30
0.0
  0
VERTEX
  5
61C
  8
STREAMS
 10
731238.9951533851
 20
4551271.2191903982
 30
0.0
  0
VERTEX
  5
61D
  8
STREAMS
 10
731240.58358760935
 20
4551245.8244255316
 30
0.0
  0
VERTEX
  5
61E
  8
STREAMS
 10
731240.58358760935
 20
4551226.7782722376
 30
0.0
  0
VERTEX
  5
61F
  8
STREAMS
 10
731240.58358760935
 20
4551218.8424480371
 30
0.0
  0
VERTEX
  5
620
  8
STREAMS
 10
731235.81804187072
 20
4551188.6861249367
 30
0.0
  0
VERTEX
  5
621
  8
STREAMS
 10
731242.17214336654
 20
4551179.1630881121
 30
0.0
  0
VERTEX
  5
622
  8
STREAMS
 10
731246.93768910528
 20
4551177.5759551292
 30
0.0
  0
VERTEX
  5
623
  8
STREAMS
 10
731250.11480061966
 20
4551152.1811902616
 30
0.0
  0
VERTEX
  5
624
  8
STREAMS
 10
731259.64589209715
 20
4551150.5939776357
 30
0.0
  0
VERTEX
  5
625
  8
STREAMS
 10
731277.1197623607
 20
4551126.7864253949
 30
0.0
  0
VERTEX
  5
626
  8
STREAMS
 10
731300.94761258725
 20
4551107.7403517449
 30
0.0
  0
VERTEX
  5
627
  8
STREAMS
 10
731316.83280556067
 20
4551085.5199324861
 30
0.0
  0
VERTEX
  5
628
  8
STREAMS
 10
731332.71812006691
 20
4551063.2995132282
 30
0.0
  0
VERTEX
  5
629
  8
STREAMS
 10
731335.89511004859
 20
4551049.0149181671
 30
0.0
  0
VERTEX
  5
62A
  8
STREAMS
 10
731342.2492115444
 20
4551004.5740796523
 30
0.0
  0
VERTEX
  5
62B
  8
STREAMS
 10
731346.95156020625
 20
4550935.2286015367
 30
0.0
  0
VERTEX
  5
62C
  8
STREAMS
 10
731337.96542198514
 20
4550870.1348844748
 30
0.0
  0
VERTEX
  5
62D
  8
STREAMS
 10
731313.2536634102
 20
4550782.5950388582
 30
0.0
  0
VERTEX
  5
62E
  8
STREAMS
 10
731299.77457761148
 20
4550717.5012421543
 30
0.0
  0
VERTEX
  5
62F
  8
STREAMS
 10
731299.77457761148
 20
4550699.5443711663
 30
0.0
  0
VERTEX
  5
630
  8
STREAMS
 10
731281.80230116926
 20
4550645.673678562
 30
0.0
  0
VERTEX
  5
631
  8
STREAMS
 10
731252.5975950167
 20
4550567.1123480806
 30
0.0
  0
VERTEX
  5
632
  8
STREAMS
 10
731232.37878401938
 20
4550495.2847844893
 30
0.0
  0
VERTEX
  5
633
  8
STREAMS
 10
731214.40662911034
 20
4550457.1263739076
 30
0.0
  0
VERTEX
  5
634
  8
STREAMS
 10
731191.9414050905
 20
4550418.9679633277
 30
0.0
  0
VERTEX
  5
635
  8
STREAMS
 10
731178.46231929166
 20
4550392.0326568466
 30
0.0
  0
VERTEX
  5
636
  8
STREAMS
 10
731162.73657740501
 20
4550365.0972707244
 30
0.0
  0
VERTEX
  5
637
  8
STREAMS
 10
731155.99709527194
 20
4550347.1403997364
 30
0.0
  0
VERTEX
  5
638
  8
STREAMS
 10
731158.24350829457
 20
4550333.6727066729
 30
0.0
  0
VERTEX
  5
639
  8
STREAMS
 10
731155.99709527194
 20
4550320.2050932553
 30
0.0
  0
VERTEX
  5
63A
  8
STREAMS
 10
731138.02481882984
 20
4550313.471246724
 30
0.0
  0
VERTEX
  5
63B
  8
STREAMS
 10
731093.09437079064
 20
4550297.7589646988
 30
0.0
  0
VERTEX
  5
63C
  8
STREAMS
 10
731057.1500609722
 20
4550295.5143757369
 30
0.0
  0
VERTEX
  5
63D
  8
STREAMS
 10
731009.97295684461
 20
4550270.8235785756
 30
0.0
  0
VERTEX
  5
63E
  8
STREAMS
 10
730960.54943969462
 20
4550266.3344006501
 30
0.0
  0
VERTEX
  5
63F
  8
STREAMS
 10
730944.82381934067
 20
4550268.5789896119
 30
0.0
  0
VERTEX
  5
640
  8
STREAMS
 10
730845.97678504069
 20
4550234.9098366024
 30
0.0
  0
VERTEX
  5
641
  8
STREAMS
 10
730767.34844020521
 20
4550198.9960149834
 30
0.0
  0
VERTEX
  5
642
  8
STREAMS
 10
730688.72021690255
 20
4550165.3268619711
 30
0.0
  0
VERTEX
  5
643
  8
STREAMS
 10
730677.48754412623
 20
4550169.8161195386
 30
0.0
  0
VERTEX
  5
644
  8
STREAMS
 10
730659.51538921706
 20
4550178.7945550336
 30
0.0
  0
VERTEX
  5
645
  8
STREAMS
 10
730637.05016519735
 20
4550176.5499660708
 30
0.0
  0
VERTEX
  5
646
  8
STREAMS
 10
730605.59880295664
 20
4550172.0607085023
 30
0.0
  0
VERTEX
  5
647
  8
STREAMS
 10
730565.16142402776
 20
4550156.348426478
 30
0.0
  0
VERTEX
  5
648
  8
STREAMS
 10
730502.25869954622
 20
4550127.1684513912
 30
0.0
  0
VERTEX
  5
649
  8
STREAMS
 10
730419.13728559995
 20
4550086.7654518466
 30
0.0
  0
VERTEX
  5
64A
  8
STREAMS
 10
730365.22082087235
 20
4550053.0962988362
 30
0.0
  0
VERTEX
  5
64B
  8
STREAMS
 10
730311.30423461192
 20
4550001.4702748358
 30
0.0
  0
VERTEX
  5
64C
  8
STREAMS
 10
730270.86685568315
 20
4549961.0672752941
 30
0.0
  0
VERTEX
  5
64D
  8
STREAMS
 10
730248.40151013026
 20
4549925.153453676
 30
0.0
  0
VERTEX
  5
64E
  8
STREAMS
 10
730225.93628611066
 20
4549891.4843006646
 30
0.0
  0
VERTEX
  5
64F
  8
STREAMS
 10
730205.7175966464
 20
4549880.2611965649
 30
0.0
  0
VERTEX
  5
650
  8
STREAMS
 10
730198.97799298051
 20
4549880.2611965649
 30
0.0
  0
VERTEX
  5
651
  8
STREAMS
 10
730176.51276896091
 20
4549844.3474545889
 30
0.0
  0
VERTEX
  5
652
  8
STREAMS
 10
730176.51276896091
 20
4549821.9013260333
 30
0.0
  0
VERTEX
  5
653
  8
STREAMS
 10
730181.00583807135
 20
4549810.6783015793
 30
0.0
  0
VERTEX
  5
654
  8
STREAMS
 10
730185.49890718167
 20
4549801.6998660844
 30
0.0
  0
VERTEX
  5
655
  8
STREAMS
 10
730172.10234218172
 20
4549735.2870159652
 30
0.0
  0
VERTEX
  5
656
  8
STREAMS
 10
730191.16476820235
 20
4549709.8920918107
 30
0.0
  0
VERTEX
  5
657
  8
STREAMS
 10
730261.06049232197
 20
4549643.2301968876
 30
0.0
  0
VERTEX
  5
658
  8
STREAMS
 10
730296.00835438166
 20
4549595.6146145463
 30
0.0
  0
VERTEX
  5
659
  8
STREAMS
 10
730384.96650452202
 20
4549592.4402689366
 30
0.0
  0
VERTEX
  5
65A
  8
STREAMS
 10
730467.57055316633
 20
4549582.9170728261
 30
0.0
  0
VERTEX
  5
65B
  8
STREAMS
 10
730534.28916577145
 20
4549557.5221486716
 30
0.0
  0
VERTEX
  5
65C
  8
STREAMS
 10
730585.12246387044
 20
4549513.0809119381
 30
0.0
  0
VERTEX
  5
65D
  8
STREAMS
 10
730658.19529950432
 20
4549468.6396752037
 30
0.0
  0
VERTEX
  5
65E
  8
STREAMS
 10
730734.44512511999
 20
4549465.4653295949
 30
0.0
  0
VERTEX
  5
65F
  8
STREAMS
 10
730836.11159978493
 20
4549433.7215549378
 30
0.0
  0
VERTEX
  5
660
  8
STREAMS
 10
730883.76778636919
 20
4549427.3727840781
 30
0.0
  0
VERTEX
  5
661
  8
STREAMS
 10
730956.84050047048
 20
4549433.7215549378
 30
0.0
  0
VERTEX
  5
662
  8
STREAMS
 10
730991.78836253029
 20
4549430.5472093299
 30
0.0
  0
VERTEX
  5
663
  8
STREAMS
 10
731036.26743760053
 20
4549386.1059725964
 30
0.0
  0
VERTEX
  5
664
  8
STREAMS
 10
731026.7362245901
 20
4549290.8747282671
 30
0.0
  0
VERTEX
  5
665
  8
STREAMS
 10
731004.4966870551
 20
4549224.2129129879
 30
0.0
  0
VERTEX
  5
666
  8
STREAMS
 10
730998.14258555905
 20
4549157.5510977078
 30
0.0
  0
VERTEX
  5
667
  8
STREAMS
 10
730956.84050047048
 20
4549100.4123192541
 30
0.0
  0
VERTEX
  5
668
  8
STREAMS
 10
730953.66351048904
 20
4549030.5761583662
 30
0.0
  0
VERTEX
  5
669
  8
STREAMS
 10
730918.71564842912
 20
4548922.6488058977
 30
0.0
  0
VERTEX
  5
66A
  8
STREAMS
 10
730890.12188786524
 20
4548855.9869906195
 30
0.0
  0
VERTEX
  5
66B
  8
STREAMS
 10
730864.70523881586
 20
4548782.9763248358
 30
0.0
  0
VERTEX
  5
66C
  8
STREAMS
 10
730763.03876415081
 20
4548668.6989272144
 30
0.0
  0
VERTEX
  5
66D
  8
STREAMS
 10
730721.73680059519
 20
4548633.7808069484
 30
0.0
  0
VERTEX
  5
66E
  8
STREAMS
 10
730651.84107647557
 20
4548592.5139158219
 30
0.0
  0
VERTEX
  5
66F
  8
STREAMS
 10
730613.71610290126
 20
4548522.6777549349
 30
0.0
  0
VERTEX
  5
670
  8
STREAMS
 10
730520.03170202137
 20
4548297.9239608878
 30
0.0
  0
VERTEX
  5
671
  8
STREAMS
 10
730463.94014816219
 20
4548154.6415601633
 30
0.0
  0
VERTEX
  5
672
  8
STREAMS
 10
730301.89768828347
 20
4548061.1967053534
 30
0.0
  0
VERTEX
  5
673
  8
STREAMS
 10
730027.67212068662
 20
4547949.0626453366
 30
0.0
  0
VERTEX
  5
674
  8
STREAMS
 10
729878.09464372904
 20
4547836.9287526384
 30
0.0
  0
VERTEX
  5
675
  8
STREAMS
 10
729684.89001630945
 20
4547755.9430333311
 30
0.0
  0
VERTEX
  5
676
  8
STREAMS
 10
729464.16437099315
 20
4547703.7816136917
 30
0.0
  0
VERTEX
  5
677
  8
STREAMS
 10
729185.79781425395
 20
4547630.222786664
 30
0.0
  0
VERTEX
  5
678
  8
STREAMS
 10
728981.02240953152
 20
4547543.8711928986
 30
0.0
  0
VERTEX
  5
679
  8
STREAMS
 10
728853.03770913964
 20
4547543.8711928986
 30
0.0
  0
VERTEX
  5
67A
  8
STREAMS
 10
728702.65585279244
 20
4547393.5552635016
 30
0.0
  0
VERTEX
  5
67B
  8
STREAMS
 10
728533.07639280288
 20
4547172.878615099
 30
0.0
  0
VERTEX
  5
67C
  8
STREAMS
 10
728389.09364108229
 20
4547064.1394285709
 30
0.0
  0
VERTEX
  5
67D
  8
STREAMS
 10
728232.31239034631
 20
4547044.9502784666
 30
0.0
  0
VERTEX
  5
67E
  8
STREAMS
 10
728053.13398365467
 20
4547064.1394285709
 30
0.0
  0
VERTEX
  5
67F
  8
STREAMS
 10
727893.15318060527
 20
4547083.3287459919
 30
0.0
  0
VERTEX
  5
680
  8
STREAMS
 10
727697.97672258515
 20
4547054.5447698599
 30
0.0
  0
VERTEX
  5
681
  8
STREAMS
 10
727477.20326653426
 20
4547041.7520031231
 30
0.0
  0
VERTEX
  5
682
  8
STREAMS
 10
727272.42786181183
 20
4547019.3645776771
 30
0.0
  0
VERTEX
  5
683
  8
STREAMS
 10
727109.24750644923
 20
4547035.3556197556
 30
0.0
  0
VERTEX
  5
684
  8
STREAMS
 10
726997.26114714798
 20
4547099.3197880723
 30
0.0
  0
VERTEX
  5
685
  8
STREAMS
 10
726920.47015305562
 20
4547121.7072135201
 30
0.0
  0
VERTEX
  5
686
  8
STREAMS
 10
726699.69698676665
 20
4547108.9144467833
 30
0.0
  0
VERTEX
  5
687
  8
STREAMS
 10
726555.71423504595
 20
4547064.1394285709
 30
0.0
  0
VERTEX
  5
688
  8
STREAMS
 10
726379.73538066796
 20
4547060.941320546
 30
0.0
  0
VERTEX
  5
689
  8
STREAMS
 10
726206.95607860328
 20
4547073.7340872809
 30
0.0
  0
VERTEX
  5
68A
  8
STREAMS
 10
726066.17316895782
 20
4547150.4911896531
 30
0.0
  0
VERTEX
  5
68B
  8
STREAMS
 10
725918.99086492392
 20
4547214.4553579697
 30
0.0
  0
VERTEX
  5
68C
  8
STREAMS
 10
725720.61456482823
 20
4547323.1945444988
 30
0.0
  0
VERTEX
  5
68D
  8
STREAMS
 10
725557.43420946551
 20
4547470.3123658719
 30
0.0
  0
VERTEX
  5
68E
  8
STREAMS
 10
725421.45120781416
 20
4547591.8443191368
 30
0.0
  0
VERTEX
  5
68F
  8
STREAMS
 10
725325.46261007991
 20
4547681.3941882439
 30
0.0
  0
VERTEX
  5
690
  8
STREAMS
 10
725203.8773040768
 20
4547735.7638651673
 30
0.0
  0
VERTEX
  5
691
  8
STREAMS
 10
725059.89455235598
 20
4547777.3406080361
 30
0.0
  0
VERTEX
  5
692
  8
STREAMS
 10
724960.70640230819
 20
4547783.7369914046
 30
0.0
  0
VERTEX
  5
693
  8
STREAMS
 10
724867.91764664918
 20
4547764.5476739844
 30
0.0
  0
VERTEX
  5
694
  8
STREAMS
 10
724807.12499364745
 20
4547697.3852303233
 30
0.0
  0
VERTEX
  5
695
  8
STREAMS
 10
724743.13278833264
 20
4547607.8353612162
 30
0.0
  0
VERTEX
  5
696
  8
STREAMS
 10
724653.54358498682
 20
4547463.9158151848
 30
0.0
  0
VERTEX
  5
697
  8
STREAMS
 10
724503.16143887746
 20
4547268.8250348931
 30
0.0
  0
VERTEX
  5
698
  8
STREAMS
 10
724432.77012893592
 20
4547166.4822317325
 30
0.0
  0
VERTEX
  5
699
  8
STREAMS
 10
724311.18453317066
 20
4547060.941320546
 30
0.0
  0
VERTEX
  5
69A
  8
STREAMS
 10
724103.20957613515
 20
4546907.4271158036
 30
0.0
  0
VERTEX
  5
69B
  8
STREAMS
 10
723946.42861516098
 20
4546779.4987791711
 30
0.0
  0
VERTEX
  5
69C
  8
STREAMS
 10
723834.44196609792
 20
4546657.9666585876
 30
0.0
  0
VERTEX
  5
69D
  8
STREAMS
 10
723783.24825979827
 20
4546565.2185141379
 30
0.0
  0
VERTEX
  5
69E
  8
STREAMS
 10
723754.45170945418
 20
4546450.0829442404
 30
0.0
  0
VERTEX
  5
69F
  8
STREAMS
 10
723792.8469167382
 20
4546373.3258418702
 30
0.0
  0
VERTEX
  5
6A0
  8
STREAMS
 10
723866.4380687552
 20
4546219.8118044464
 30
0.0
  0
VERTEX
  5
6A1
  8
STREAMS
 10
723892.03506678599
 20
4546120.6672766283
 30
0.0
  0
VERTEX
  5
6A2
  8
STREAMS
 10
723888.8355144728
 20
4545970.3513472294
 30
0.0
  0
VERTEX
  5
6A3
  8
STREAMS
 10
723888.8355144728
 20
4545855.215777332
 30
0.0
  0
VERTEX
  5
6A4
  8
STREAMS
 10
723901.63401348831
 20
4545768.8640162507
 30
0.0
  0
VERTEX
  5
6A5
  8
STREAMS
 10
723885.63596215937
 20
4545740.0800401168
 30
0.0
  0
VERTEX
  5
6A6
  8
STREAMS
 10
723812.04481014225
 20
4545692.1069138804
 30
0.0
  0
VERTEX
  5
6A7
  8
STREAMS
 10
723802.44586344052
 20
4545672.9175964585
 30
0.0
  0
VERTEX
  5
6A8
  8
STREAMS
 10
723792.8469167382
 20
4545644.1337876422
 30
0.0
  0
VERTEX
  5
6A9
  8
STREAMS
 10
723712.85666009446
 20
4545567.376685272
 30
0.0
  0
VERTEX
  5
6AA
  8
STREAMS
 10
723620.06790443556
 20
4545535.3946011132
 30
0.0
  0
VERTEX
  5
6AB
  8
STREAMS
 10
723543.27691034321
 20
4545469.8315461008
 30
0.0
  0
VERTEX
  5
6AC
  8
STREAMS
 10
723463.28665369947
 20
4545437.8494619429
 30
0.0
  0
VERTEX
  5
6AD
  8
STREAMS
 10
723408.89310532459
 20
4545341.9030421497
 30
0.0
  0
VERTEX
  5
6AE
  8
STREAMS
 10
723351.3000046364
 20
4545226.7674722532
 30
0.0
  0
VERTEX
  5
6AF
  8
STREAMS
 10
723303.30585065007
 20
4545159.605028593
 30
0.0
  0
VERTEX
  5
6B0
  8
STREAMS
 10
723284.10824700794
 20
4545162.8033039356
 30
0.0
  0
VERTEX
  5
6B1
  8
STREAMS
 10
723236.11409302172
 20
4545134.0193278017
 30
0.0
  0
VERTEX
  5
6B2
  8
STREAMS
 10
723210.51709499105
 20
4545063.6587761184
 30
0.0
  0
VERTEX
  5
6B3
  8
STREAMS
 10
723210.51709499105
 20
4545002.8927158257
 30
0.0
  0
VERTEX
  5
6B4
  8
STREAMS
 10
723258.51124897716
 20
4544935.7302721664
 30
0.0
  0
VERTEX
  5
6B5
  8
STREAMS
 10
723306.50540296338
 20
4544868.5678285072
 30
0.0
  0
VERTEX
  5
6B6
  8
STREAMS
 10
723312.90479735215
 20
4544756.6305339532
 30
0.0
  0
VERTEX
  5
6B7
  8
STREAMS
 10
723306.50540296338
 20
4544670.278772871
 30
0.0
  0
VERTEX
  5
6B8
  8
STREAMS
 10
723261.71080129058
 20
4544622.3056466328
 30
0.0
  0
VERTEX
  5
6B9
  8
STREAMS
 10
723226.51514631987
 20
4544593.5216705007
 30
0.0
  0
VERTEX
  5
6BA
  8
STREAMS
 10
723191.31949134904
 20
4544503.9718013927
 30
0.0
  0
VERTEX
  5
6BB
  8
STREAMS
 10
723156.12354661606
 20
4544424.0164236799
 30
0.0
  0
VERTEX
  5
6BC
  8
STREAMS
 10
723136.92594297393
 20
4544363.2505307058
 30
0.0
  0
VERTEX
  5
6BD
  8
STREAMS
 10
723140.12549528736
 20
4544315.2774044694
 30
0.0
  0
VERTEX
  5
6BE
  8
STREAMS
 10
723168.92204563157
 20
4544276.8987696236
 30
0.0
  0
VERTEX
  5
6BF
  8
STREAMS
 10
723248.91230227519
 20
4544280.0970449671
 30
0.0
  0
VERTEX
  5
6C0
  8
STREAMS
 10
723312.90479735215
 20
4544276.8987696236
 30
0.0
  0
VERTEX
  5
6C1
  8
STREAMS
 10
723360.89895133837
 20
4544225.7273680428
 30
0.0
  0
VERTEX
  5
6C2
  8
STREAMS
 10
723402.49400069786
 20
4544104.1954147769
 30
0.0
  0
VERTEX
  5
6C3
  8
STREAMS
 10
723418.49205202668
 20
4544005.0508869588
 30
0.0
  0
VERTEX
  5
6C4
  8
STREAMS
 10
723428.09099872864
 20
4543837.1450287867
 30
0.0
  0
VERTEX
  5
6C5
  8
STREAMS
 10
723450.48815468419
 20
4543769.9825851275
 30
0.0
  0
VERTEX
  5
6C6
  8
STREAMS
 10
723533.67825340305
 20
4543645.252356519
 30
0.0
  0
VERTEX
  5
6C7
  8
STREAMS
 10
723520.87975438777
 20
4543558.9005954377
 30
0.0
  0
VERTEX
  5
6C8
  8
STREAMS
 10
723456.88754907274
 20
4543456.5579595938
 30
0.0
  0
VERTEX
  5
6C9
  8
STREAMS
 10
723367.29805596499
 20
4543405.386558013
 30
0.0
  0
VERTEX
  5
6CA
  8
STREAMS
 10
723264.91064336593
 20
4543389.3955159346
 30
0.0
  0
VERTEX
  5
6CB
  8
STREAMS
 10
723207.31754267775
 20
4543328.6294556418
 30
0.0
  0
VERTEX
  5
6CC
  8
STREAMS
 10
723168.92204563157
 20
4543235.8813111931
 30
0.0
  0
VERTEX
  5
6CD
  8
STREAMS
 10
723197.71859597554
 20
4543184.7099096123
 30
0.0
  0
VERTEX
  5
6CE
  8
STREAMS
 10
723236.11409302172
 20
4543079.1689984268
 30
0.0
  0
VERTEX
  5
6CF
  8
STREAMS
 10
723264.91064336593
 20
4542948.0423864489
 30
0.0
  0
VERTEX
  5
6D0
  8
STREAMS
 10
723255.31169666385
 20
4542848.8978586318
 30
0.0
  0
VERTEX
  5
6D1
  8
STREAMS
 10
723216.91619961767
 20
4542650.6088029947
 30
0.0
  0
VERTEX
  5
6D2
  8
STREAMS
 10
723194.51904366235
 20
4542484.3018315183
 30
0.0
  0
VERTEX
  5
6D3
  8
STREAMS
 10
723146.52488967613
 20
4542357.9727162151
 30
0.0
  0
VERTEX
  5
6D4
  8
STREAMS
 10
723143.32504760067
 20
4542252.43163771
 30
0.0
  0
VERTEX
  5
6D5
  8
STREAMS
 10
723191.31949134904
 20
4542185.2691940507
 30
0.0
  0
VERTEX
  5
6D6
  8
STREAMS
 10
723223.31559400645
 20
4541990.1784137581
 30
0.0
  0
VERTEX
  5
6D7
  8
STREAMS
 10
723207.31754267775
 20
4541859.0518017821
 30
0.0
  0
VERTEX
  5
6D8
  8
STREAMS
 10
723178.52099233365
 20
4541737.5196811976
 30
0.0
  0
VERTEX
  5
6D9
  8
STREAMS
 10
723120.92789164535
 20
4541628.7804946695
 30
0.0
  0
VERTEX
  5
6DA
  8
STREAMS
 10
723069.73389558378
 20
4541548.8252842734
 30
0.0
  0
VERTEX
  5
6DB
  8
STREAMS
 10
723024.93929391075
 20
4541472.0681819031
 30
0.0
  0
VERTEX
  5
6DC
  8
STREAMS
 10
723012.14079489536
 20
4541427.2931636907
 30
0.0
  0
VERTEX
  5
6DD
  8
STREAMS
 10
722996.14274356677
 20
4541404.9057382429
 30
0.0
  0
VERTEX
  5
6DE
  8
STREAMS
 10
723008.94124258216
 20
4541289.7701683464
 30
0.0
  0
VERTEX
  5
6DF
  8
STREAMS
 10
723021.73974159756
 20
4541174.6345984489
 30
0.0
  0
VERTEX
  5
6E0
  8
STREAMS
 10
723018.54018928425
 20
4541014.724010339
 30
0.0
  0
VERTEX
  5
6E1
  8
STREAMS
 10
723000.94265156065
 20
4540981.1430394864
 30
0.0
  0
VERTEX
  5
6E2
  8
STREAMS
 10
722959.34760220116
 20
4540929.9716379056
 30
0.0
  0
VERTEX
  5
6E3
  8
STREAMS
 10
722933.75089393253
 20
4540818.0343433507
 30
0.0
  0
VERTEX
  5
6E4
  8
STREAMS
 10
722968.94654890336
 20
4540738.0789656369
 30
0.0
  0
VERTEX
  5
6E5
  8
STREAMS
 10
723068.13469895115
 20
4540661.3220305843
 30
0.0
  0
VERTEX
  5
6E6
  8
STREAMS
 10
723180.12105825217
 20
4540581.3666528706
 30
0.0
  0
VERTEX
  5
6E7
  8
STREAMS
 10
723208.91760859627
 20
4540517.4024845539
 30
0.0
  0
VERTEX
  5
6E8
  8
STREAMS
 10
723212.11716090969
 20
4540424.6543401042
 30
0.0
  0
VERTEX
  5
6E9
  8
STREAMS
 10
723180.12105825217
 20
4540363.8882798124
 30
0.0
  0
VERTEX
  5
6EA
  8
STREAMS
 10
723112.92930062395
 20
4540338.302579022
 30
0.0
  0
VERTEX
  5
6EB
  8
STREAMS
 10
723016.94070288946
 20
4540328.707920311
 30
0.0
  0
VERTEX
  5
6EC
  8
STREAMS
 10
722956.14804988797
 20
4540290.3294527847
 30
0.0
  0
VERTEX
  5
6ED
  8
STREAMS
 10
722879.35734555754
 20
4540219.9689010987
 30
0.0
  0
VERTEX
  5
6EE
  8
STREAMS
 10
722837.76229619805
 20
4540095.2386724912
 30
0.0
  0
VERTEX
  5
6EF
  8
STREAMS
 10
722824.96379718266
 20
4539960.9137851708
 30
0.0
  0
VERTEX
  5
6F0
  8
STREAMS
 10
722799.36708891403
 20
4539868.165640722
 30
0.0
  0
SEQEND
  5
6F1
  8
STREAMS
  0
POLYLINE
  5
7F
  8
STREAMS
 66
     1
 10
0.0
 20
0.0
 30
0.0
  0
VERTEX
  5
6F2
  8
STREAMS
 10
732417.04554642644
 20
4553120.2359643467
 30
0.0
  0
VERTEX
  5
6F3
  8
STREAMS
 10
732375.05206100852
 20
4553094.0124306204
 30
0.0
  0
VERTEX
  5
6F4
  8
STREAMS
 10
732335.62255392526
 20
4553067.6437866827
 30
0.0
  0
VERTEX
  5
6F5
  8
STREAMS
 10
732254.16844901699
 20
4553076.5452070422
 30
0.0
  0
VERTEX
  5
6F6
  8
STREAMS
 10
732196.8960979667
 20
4553110.879382153
 30
0.0
  0
VERTEX
  5
6F7
  8
STREAMS
 10
732189.25970347156
 20
4553135.0405509369
 30
0.0
  0
VERTEX
  5
6F8
  8
STREAMS
 10
732182.89612241392
 20
4553164.2882228848
 30
0.0
  0
VERTEX
  5
6F9
  8
STREAMS
 10
732191.8052088141
 20
4553182.0911432467
 30
0.0
  0
VERTEX
  5
6FA
  8
STREAMS
 10
732212.1687654244
 20
4553204.9805667726
 30
0.0
  0
VERTEX
  5
6FB
  8
STREAMS
 10
732221.07773029176
 20
4553240.5864074985
 30
0.0
  0
VERTEX
  5
6FC
  8
STREAMS
 10
732194.35059262405
 20
4553266.0191622498
 30
0.0
  0
VERTEX
  5
6FD
  8
STREAMS
 10
732166.35076305142
 20
4553288.9086654196
 30
0.0
  0
VERTEX
  5
6FE
  8
STREAMS
 10
732154.89629284141
 20
4553292.7235826151
 30
0.0
  0
VERTEX
  5
6FF
  8
STREAMS
 10
732143.4418226314
 20
4553316.8846717551
 30
0.0
  0
VERTEX
  5
700
  8
STREAMS
 10
732144.7145145362
 20
4553347.4039296713
 30
0.0
  0
VERTEX
  5
701
  8
STREAMS
 10
732134.53273623099
 20
4553363.935264064
 30
0.0
  0
VERTEX
  5
702
  8
STREAMS
 10
732129.93150289252
 20
4553389.6599913929
 30
0.0
  0
VERTEX
  5
703
  8
STREAMS
 10
732117.63991447771
 20
4553412.89450962
 30
0.0
  0
VERTEX
  5
704
  8
STREAMS
 10
732124.31583493506
 20
4553431.7894998081
 30
0.0
  0
VERTEX
  5
705
  8
STREAMS
 10
732117.09058603877
 20
4553453.962451621
 30
0.0
  0
VERTEX
  5
706
  8
STREAMS
 10
732103.67226666037
 20
4553477.166625727
 30
0.0
  0
VERTEX
  5
707
  8
STREAMS
 10
732071.67485736765
 20
4553502.9490944957
 30
0.0
  0
VERTEX
  5
708
  8
STREAMS
 10
732026.77515713684
 20
4553540.0758845657
 30
0.0
  0
VERTEX
  5
709
  8
STREAMS
 10
732007.16376727575
 20
4553563.2800586717
 30
0.0
  0
VERTEX
  5
70A
  8
STREAMS
 10
732006.6476173026
 20
4553580.296500803
 30
0.0
  0
VERTEX
  5
70B
  8
STREAMS
 10
732001.0308555495
 20
4553598.0764042335
 30
0.0
  0
VERTEX
  5
70C
  8
STREAMS
 10
732005.9701932501
 20
4553608.001002905
 30
0.0
  0
VERTEX
  5
70D
  8
STREAMS
 10
731991.54460969032
 20
4553619.08815578
 30
0.0
  0
VERTEX
  5
70E
  8
STREAMS
 10
731973.77687301859
 20
4553629.5290823895
 30
0.0
  0
VERTEX
  5
70F
  8
STREAMS
 10
731954.814103927
 20
4553617.4721122561
 30
0.0
  0
VERTEX
  5
710
  8
STREAMS
 10
731927.23173966131
 20
4553619.1945593162
 30
0.0
  0
VERTEX
  5
711
  8
STREAMS
 10
731903.09726207831
 20
4553646.7533140602
 30
0.0
  0
VERTEX
  5
712
  8
STREAMS
 10
731878.96278449532
 20
4553682.9243041044
 30
0.0
  0
VERTEX
  5
713
  8
STREAMS
 10
731841.03712477954
 20
4553696.7036416549
 30
0.0
  0
VERTEX
  5
714
  8
STREAMS
 10
731789.32040446356
 20
4553732.8746316992
 30
0.0
  0
VERTEX
  5
715
  8
STREAMS
 10
731785.87263931334
 20
4553750.0988633689
 30
0.0
  0
VERTEX
  5
716
  8
STREAMS
 10
731765.18592688057
 20
4553772.4903565766
 30
0.0
  0
VERTEX
  5
717
  8
STREAMS
 10
731735.87974080595
 20
4553791.4370353064
 30
0.0
  0
VERTEX
  5
718
  8
STREAMS
 10
731715.46951558511
 20
4553813.6381808696
 30
0.0
  0
VERTEX
  5
719
  8
STREAMS
 10
731676.63163036911
 20
4553840.801585949
 30
0.0
  0
VERTEX
  5
71A
  8
STREAMS
 10
731664.98027695739
 20
4553856.3235203307
 30
0.0
  0
VERTEX
  5
71B
  8
STREAMS
 10
731641.67757013428
 20
4553880.1606999049
 30
0.0
  0
VERTEX
  5
71C
  8
STREAMS
 10
731598.40118405304
 20
4553897.9000648614
 30
0.0
  0
VERTEX
  5
71D
  8
STREAMS
 10
731557.34398763801
 20
4553902.3348463681
 30
0.0
  0
VERTEX
  5
71E
  8
STREAMS
 10
731524.60923860234
 20
4553919.5198935019
 30
0.0
  0
VERTEX
  5
71F
  8
STREAMS
 10
731490.76489473355
 20
4553958.8790074568
 30
0.0
  0
VERTEX
  5
720
  8
STREAMS
 10
731472.45560772496
 20
4553989.3684787545
 30
0.0
  0
VERTEX
  5
721
  8
STREAMS
 10
731454.70111813291
 20
4554014.8687710818
 30
0.0
  0
VERTEX
  5
722
  8
STREAMS
 10
731436.00523515895
 20
4554025.7815846298
 30
0.0
  0
VERTEX
  5
723
  8
STREAMS
 10
731424.05369563156
 20
4554019.7530597411
 30
0.0
  0
VERTEX
  5
724
  8
STREAMS
 10
731400.48823480762
 20
4554014.3324526586
 30
0.0
  0
VERTEX
  5
725
  8
STREAMS
 10
731367.20427886595
 20
4554035.1172206169
 30
0.0
  0
VERTEX
  5
726
  8
STREAMS
 10
731340.16103428043
 20
4554070.4513978222
 30
0.0
  0
VERTEX
  5
727
  8
STREAMS
 10
731304.79680070921
 20
4554118.2563720867
 30
0.0
  0
VERTEX
  5
728
  8
STREAMS
 10
731288.15470120555
 20
4554145.2765783947
 30
0.0
  0
VERTEX
  5
729
  8
STREAMS
 10
731263.69793767016
 20
4554156.9517636793
 30
0.0
  0
VERTEX
  5
72A
  8
STREAMS
 10
731176.89701023488
 20
4554197.7218332579
 30
0.0
  0
VERTEX
  5
72B
  8
STREAMS
 10
730749.42847602605
 20
4554444.1431341413
 30
0.0
  0
VERTEX
  5
72C
  8
STREAMS
 10
729899.01488262776
 20
4555061.3267838461
 30
0.0
  0
VERTEX
  5
72D
  8
STREAMS
 10
729467.02258363739
 20
4555452.4359530378
 30
0.0
  0
VERTEX
  5
72E
  8
STREAMS
 10
729188.82872506685
 20
4555519.1277323747
 30
0.0
  0
VERTEX
  5
72F
  8
STREAMS
 10
729039.55404942855
 20
4555571.1248461613
 30
0.0
  0
VERTEX
  5
730
  8
STREAMS
 10
728777.19249830674
 20
4555632.1649726322
 30
0.0
  0
VERTEX
  5
731
  8
STREAMS
 10
728666.41460295953
 20
4555719.009166481
 30
0.0
  0
VERTEX
  5
732
  8
STREAMS
 10
728589.92645144404
 20
4555753.3581552599
 30
0.0
  0
VERTEX
  5
733
  8
STREAMS
 10
728566.76302125608
 20
4555825.3802875932
 30
0.0
  0
VERTEX
  5
734
  8
STREAMS
 10
728517.06459682109
 20
4555857.7646338372
 30
0.0
  0
VERTEX
  5
735
  8
STREAMS
 10
728415.50713711383
 20
4555924.6923783123
 30
0.0
  0
VERTEX
  5
736
  8
STREAMS
 10
728329.07529012766
 20
4556008.8917422621
 30
0.0
  0
VERTEX
  5
737
  8
STREAMS
 10
728203.74904515431
 20
4556080.1373517849
 30
0.0
  0
VERTEX
  5
738
  8
STREAMS
 10
728061.13645509037
 20
4556157.8597986978
 30
0.0
  0
VERTEX
  5
739
  8
STREAMS
 10
727918.52386502642
 20
4556235.5823252546
 30
0.0
  0
VERTEX
  5
73A
  8
STREAMS
 10
727847.21750922815
 20
4556289.5562356608
 30
0.0
  0
VERTEX
  5
73B
  8
STREAMS
 10
727767.26810241712
 20
4556384.5503816921
 30
0.0
  0
VERTEX
  5
73C
  8
STREAMS
 10
727695.96174661873
 20
4556445.0012091333
 30
0.0
  0
VERTEX
  5
73D
  8
STREAMS
 10
727648.42417608656
 20
4556511.9289536094
 30
0.0
  0
VERTEX
  5
73E
  8
STREAMS
 10
727589.37124739122
 20
4556554.3439038452
 30
0.0
  0
VERTEX
  5
73F
  8
STREAMS
 10
727450.33160130295
 20
4556670.3660486704
 30
0.0
  0
VERTEX
  5
740
  8
STREAMS
 10
727383.10364456347
 20
4556734.4835770018
 30
0.0
  0
VERTEX
  5
741
  8
STREAMS
 10
727283.78968109051
 20
4556804.7075214349
 30
0.0
  0
VERTEX
  5
742
  8
STREAMS
 10
727218.08963522094
 20
4556874.9314658688
 30
0.0
  0
VERTEX
  5
743
  8
STREAMS
 10
727143.22212413244
 20
4556960.4214505507
 30
0.0
  0
VERTEX
  5
744
  8
STREAMS
 10
727120.30358261801
 20
4556983.3205905678
 30
0.0
  0
VERTEX
  5
745
  8
STREAMS
 10
727085.97833329963
 20
4556991.368711913
 30
0.0
  0
VERTEX
  5
746
  8
STREAMS
 10
726975.67026601627
 20
4557083.2138389237
 30
0.0
  0
VERTEX
  5
747
  8
STREAMS
 10
726830.86886949616
 20
4557236.144312067
 30
0.0
  0
VERTEX
  5
748
  8
STREAMS
 10
726748.62650258513
 20
4557306.5777981952
 30
0.0
  0
VERTEX
  5
749
  8
STREAMS
 10
726668.44885709987
 20
4557375.1986809727
 30
0.0
  0
VERTEX
  5
74A
  8
STREAMS
 10
726602.99054004985
 20
4557447.3091377979
 30
0.0
  0
VERTEX
  5
74B
  8
STREAMS
 10
726453.61148756254
 20
4557546.2514443733
 30
0.0
  0
VERTEX
  5
74C
  8
STREAMS
 10
726427.69849839271
 20
4557609.8412557691
 30
0.0
  0
VERTEX
  5
74D
  8
STREAMS
 10
726395.80852413084
 20
4557646.7350093527
 30
0.0
  0
VERTEX
  5
74E
  8
STREAMS
 10
726358.88332275744
 20
4557676.9208004987
 30
0.0
  0
VERTEX
  5
74F
  8
STREAMS
 10
726318.60138433136
 20
4557715.4915247811
 30
0.0
  0
VERTEX
  5
750
  8
STREAMS
 10
726274.9625873199
 20
4557765.8011235958
 30
0.0
  0
VERTEX
  5
751
  8
STREAMS
 10
726214.53949738154
 20
4557809.4028396178
 30
0.0
  0
VERTEX
  5
752
  8
STREAMS
 10
726170.90070037008
 20
4557842.9425721597
 30
0.0
  0
VERTEX
  5
753
  8
STREAMS
 10
726150.75967039063
 20
4557869.7744219098
 30
0.0
  0
VERTEX
  5
754
  8
STREAMS
 10
726120.54818618775
 20
4557911.69908759
 30
0.0
  0
VERTEX
  5
755
  8
STREAMS
 10
726088.65833345905
 20
4557960.3317953488
 30
0.0
  0
VERTEX
  5
756
  8
STREAMS
 10
726050.05476355914
 20
4558015.6723859031
 30
0.0
  0
VERTEX
  5
757
  8
STREAMS
 10
726031.59210210596
 20
4558052.5661394866
 30
0.0
  0
VERTEX
  5
758
  8
STREAMS
 10
726024.87850646814
 20
4558107.9067300409
 30
0.0
  0
VERTEX
  5
759
  8
STREAMS
 10
726011.45119365945
 20
4558143.1234332826
 30
0.0
  0
VERTEX
  5
75A
  8
STREAMS
 10
725987.95330509462
 20
4558173.3092244295
 30
0.0
  0
VERTEX
  5
75B
  8
STREAMS
 10
725937.82319601031
 20
4558248.4416691046
 30
0.0
  0
VERTEX
  5
75C
  8
STREAMS
 10
725906.27545822714
 20
4558314.801476744
 30
0.0
  0
VERTEX
  5
75D
  8
STREAMS
 10
725881.36936864036
 20
4558404.3872807696
 30
0.0
  0
VERTEX
  5
75E
  8
STREAMS
 10
725834.87795279839
 20
4558457.475079095
 30
0.0
  0
VERTEX
  5
75F
  8
STREAMS
 10
725813.29262654332
 20
4558493.9730051542
 30
0.0
  0
VERTEX
  5
760
  8
STREAMS
 10
725786.72603375779
 20
4558533.7888738085
 30
0.0
  0
VERTEX
  5
761
  8
STREAMS
 10
725750.19702944416
 20
4558593.5127166109
 30
0.0
  0
VERTEX
  5
762
  8
STREAMS
 10
725740.23461791594
 20
4558630.0106426701
 30
0.0
  0
VERTEX
  5
763
  8
STREAMS
 10
725693.74320207408
 20
4558707.9834086811
 30
0.0
  0
VERTEX
  5
764
  8
STREAMS
 10
725662.19546429079
 20
4558734.5273476653
 30
0.0
  0
VERTEX
  5
765
  8
STREAMS
 10
725628.98722330888
 20
4558747.7992773363
 30
0.0
  0
VERTEX
  5
766
  8
STREAMS
 10
725529.36274342868
 20
4558835.7260304196
 30
0.0
  0
VERTEX
  5
767
  8
STREAMS
 10
725414.7945854899
 20
4558921.9938122081
 30
0.0
  0
VERTEX
  5
768
  8
STREAMS
 10
725398.19040423259
 20
4558968.4457253423
 30
0.0
  0
VERTEX
  5
769
  8
STREAMS
 10
725383.24672617391
 20
4558998.3076069197
 30
0.0
  0
VERTEX
  5
76A
  8
STREAMS
 10
725356.68025492132
 20
4559031.4875107398
 30
0.0
  0
VERTEX
  5
76B
  8
STREAMS
 10
725331.77404380147
 20
4559049.7364339475
 30
0.0
  0
VERTEX
  5
76C
  8
STREAMS
 10
725315.16998407699
 20
4559044.7595200539
 30
0.0
  0
VERTEX
  5
76D
  8
STREAMS
 10
725283.95196488977
 20
4559033.5499553261
 30
0.0
  0
VERTEX
  5
76E
  8
STREAMS
 10
725227.84961049422
 20
4559013.5304008229
 30
0.0
  0
VERTEX
  5
76F
  8
STREAMS
 10
725151.71050129645
 20
4559029.546044426
 30
0.0
  0
VERTEX
  5
770
  8
STREAMS
 10
725083.58611832594
 20
4559061.5773316324
 30
0.0
  0
VERTEX
  5
771
  8
STREAMS
 10
725039.50554943946
 20
4559133.6476482013
 30
0.0
  0
VERTEX
  5
772
  8
STREAMS
 10
725015.46161382284
 20
4559189.702400811
 30
0.0
  0
VERTEX
  5
773
  8
STREAMS
 10
724995.42510208616
 20
4559245.7570737777
 30
0.0
  0
VERTEX
  5
774
  8
STREAMS
 10
724955.35183554713
 20
4559297.8079154873
 30
0.0
  0
VERTEX
  5
775
  8
STREAMS
 10
724899.24948115158
 20
4559365.8743211562
 30
0.0
  0
VERTEX
  5
776
  8
STREAMS
 10
724815.25303075463
 20
4559413.6452080598
 30
0.0
  0
VERTEX
  5
777
  8
STREAMS
 10
724761.10796275409
 20
4559439.963676678
 30
0.0
  0
VERTEX
  5
778
  8
STREAMS
 10
724725.98667333077
 20
4559470.6685036346
 30
0.0
  0
VERTEX
  5
779
  8
STREAMS
 10
724671.84160533047
 20
4559483.8277379442
 30
0.0
  0
VERTEX
  5
77A
  8
STREAMS
 10
724607.45277727616
 20
4559476.5170345176
 30
0.0
  0
VERTEX
  5
77B
  8
STREAMS
 10
724585.50200176996
 20
4559460.4335347684
 30
0.0
  0
VERTEX
  5
77C
  8
STREAMS
 10
724559.16109546903
 20
4559416.5694735022
 30
0.0
  0
VERTEX
  5
77D
  8
STREAMS
 10
724510.86953519494
 20
4559382.9403014593
 30
0.0
  0
VERTEX
  5
77E
  8
STREAMS
 10
724447.94408407225
 20
4559366.8568017092
 30
0.0
  0
VERTEX
  5
77F
  8
STREAMS
 10
724396.72564840212
 20
4559374.1675051348
 30
0.0
  0
VERTEX
  5
780
  8
STREAMS
 10
724360.14110358013
 20
4559401.9480666509
 30
0.0
  0
VERTEX
  5
781
  8
STREAMS
 10
724313.31279870472
 20
4559431.1908007087
 30
0.0
  0
VERTEX
  5
782
  8
STREAMS
 10
724262.09448456718
 20
4559466.2820656514
 30
0.0
  0
VERTEX
  5
783
  8
STREAMS
 10
724251.85084604635
 20
4559494.0627068114
 30
0.0
  0
VERTEX
  5
784
  8
STREAMS
 10
724244.53383985581
 20
4559529.1539717522
 30
0.0
  0
VERTEX
  5
785
  8
STREAMS
 10
724228.43669360864
 20
4559555.4724403694
 30
0.0
  0
VERTEX
  5
786
  8
STREAMS
 10
724193.10733996262
 20
4559571.0404086169
 30
0.0
  0
VERTEX
  5
787
  8
STREAMS
 10
724143.09244401124
 20
4559580.1262830095
 30
0.0
  0
VERTEX
  5
788
  8
STREAMS
 10
724088.53063990071
 20
4559571.0404086169
 30
0.0
  0
VERTEX
  5
789
  8
STREAMS
 10
724020.32835437986
 20
4559573.3118373929
 30
0.0
  0
VERTEX
  5
78A
  8
STREAMS
 10
723952.1261903916
 20
4559564.2259630002
 30
0.0
  0
VERTEX
  5
78B
  8
STREAMS
 10
723911.20486769185
 20
4559534.6968313986
 30
0.0
  0
VERTEX
  5
78C
  8
STREAMS
 10
723847.57258156955
 20
4559490.889316923
 30
0.0
  0
VERTEX
  5
78D
  8
STREAMS
 10
723763.07420054136
 20
4559427.5694168927
 30
0.0
  0
VERTEX
  5
78E
  8
STREAMS
 10
723689.95056418015
 20
4559373.991095081
 30
0.0
  0
VERTEX
  5
78F
  8
STREAMS
 10
723650.95128335198
 20
4559356.1316279294
 30
0.0
  0
VERTEX
  5
790
  8
STREAMS
 10
723615.20191220962
 20
4559351.2608786412
 30
0.0
  0
VERTEX
  5
791
  8
STREAMS
 10
723598.95224224776
 20
4559354.508018286
 30
0.0
  0
VERTEX
  5
792
  8
STREAMS
 10
723582.7025722859
 20
4559354.508018286
 30
0.0
  0
VERTEX
  5
793
  8
STREAMS
 10
723551.82812643854
 20
4559331.7778018462
 30
0.0
  0
VERTEX
  5
794
  8
STREAMS
 10
723532.32842525805
 20
4559270.0815114593
 30
0.0
  0
VERTEX
  5
795
  8
STREAMS
 10
723491.70425035339
 20
4559187.278614277
 30
0.0
  0
VERTEX
  5
796
  8
STREAMS
 10
723462.45482011547
 20
4559138.5709621115
 30
0.0
  0
VERTEX
  5
797
  8
STREAMS
 10
723465.89869621454
 20
4559104.0676244907
 30
0.0
  0
VERTEX
  5
798
  8
STREAMS
 10
723435.06362700765
 20
4558955.6251346217
 30
0.0
  0
VERTEX
  5
799
  8
STREAMS
 10
723387.40950648137
 20
4558849.1946792034
 30
0.0
  0
VERTEX
  5
79A
  8
STREAMS
 10
723348.16485084838
 20
4558793.178633268
 30
0.0
  0
VERTEX
  5
79B
  8
STREAMS
 10
723342.55854091968
 20
4558779.1746217841
 30
0.0
  0
VERTEX
  5
79C
  8
STREAMS
 10
723342.55854091968
 20
4558720.3578372682
 30
0.0
  0
VERTEX
  5
79D
  8
STREAMS
 10
723336.95210945792
 20
4558700.7521893336
 30
0.0
  0
VERTEX
  5
79E
  8
STREAMS
 10
723308.92019521538
 20
4558678.3458028166
 30
0.0
  0
VERTEX
  5
79F
  8
STREAMS
 10
723163.1545571395
 20
4558569.1145291738
 30
0.0
  0
VERTEX
  5
7A0
  8
STREAMS
 10
723104.28757368983
 20
4558499.0944717554
 30
0.0
  0
VERTEX
  5
7A1
  8
STREAMS
 10
723073.45250448294
 20
4558459.8832555301
 30
0.0
  0
VERTEX
  5
7A2
  8
STREAMS
 10
723073.45250448294
 20
4558434.6760507878
 30
0.0
  0
VERTEX
  5
7A3
  8
STREAMS
 10
723081.86209090892
 20
4558412.2696642708
 30
0.0
  0
VERTEX
  5
7A4
  8
STREAMS
 10
723081.86209090892
 20
4558373.0584480464
 30
0.0
  0
VERTEX
  5
7A5
  8
STREAMS
 10
723058.56606839213
 20
4558337.5578958523
 30
0.0
  0
VERTEX
  5
7A6
  8
STREAMS
 10
723041.64675247937
 20
4558288.5338205937
 30
0.0
  0
VERTEX
  5
7A7
  8
STREAMS
 10
723024.72755809966
 20
4558241.200255408
 30
0.0
  0
VERTEX
  5
7A8
  8
STREAMS
 10
723007.80824218725
 20
4558220.914373491
 30
0.0
  0
VERTEX
  5
7A9
  8
STREAMS
 10
723004.4244033111
 20
4558185.4142195117
 30
0.0
  0
VERTEX
  5
7AA
  8
STREAMS
 10
722975.66171209898
 20
4558149.9139858903
 30
0.0
  0
VERTEX
  5
7AB
  8
STREAMS
 10
722909.67655018589
 20
4558092.4374399241
 30
0.0
  0
VERTEX
  5
7AC
  8
STREAMS
 10
722892.75723427325
 20
4558073.8420680771
 30
0.0
  0
VERTEX
  5
7AD
  8
STREAMS
 10
722838.61569072516
 20
4558111.0328117702
 30
0.0
  0
VERTEX
  5
7AE
  8
STREAMS
 10
722798.00938114803
 20
4558114.4137522681
 30
0.0
  0
VERTEX
  5
7AF
  8
STREAMS
 10
722755.7112128993
 20
4558111.0328117702
 30
0.0
  0
VERTEX
  5
7B0
  8
STREAMS
 10
722716.79700505943
 20
4558077.2230882179
 30
0.0
  0
VERTEX
  5
7B1
  8
STREAMS
 10
722677.88267568673
 20
4558043.4133646684
 30
0.0
  0
VERTEX
  5
7B2
  8
STREAMS
 10
722650.81184314622
 20
4557985.9368187021
 30
0.0
  0
VERTEX
  5
7B3
  8
STREAMS
 10
722635.584507438
 20
4557938.6031738706
 30
0.0
  0
VERTEX
  5
7B4
  8
STREAMS
 10
722632.20066856197
 20
4557847.3169839969
 30
0.0
  0
VERTEX
  5
7B5
  8
STREAMS
 10
722649.32525344216
 20
4557806.457150111
 30
0.0
  0
VERTEX
  5
7B6
  8
STREAMS
 10
722635.42578554852
 20
4557774.0526540959
 30
0.0
  0
VERTEX
  5
7B7
  8
STREAMS
 10
722630.79258907284
 20
4557755.5358106066
 30
0.0
  0
VERTEX
  5
7B8
  8
STREAMS
 10
722575.19471749791
 20
4557718.5020439876
 30
0.0
  0
VERTEX
  5
7B9
  8
STREAMS
 10
722533.49631381675
 20
4557718.5020439876
 30
0.0
  0
VERTEX
  5
7BA
  8
STREAMS
 10
722487.16459212732
 20
4557713.8728530258
 30
0.0
  0
VERTEX
  5
7BB
  8
STREAMS
 10
722440.83299197035
 20
4557704.614391461
 30
0.0
  0
VERTEX
  5
7BC
  8
STREAMS
 10
722380.60192391998
 20
4557704.614391461
 30
0.0
  0
VERTEX
  5
7BD
  8
STREAMS
 10
722348.16979165701
 20
4557713.8728530258
 30
0.0
  0
VERTEX
  5
7BE
  8
STREAMS
 10
722311.10446291848
 20
4557718.5020439876
 30
0.0
  0
VERTEX
  5
7BF
  8
STREAMS
 10
722269.40605923731
 20
4557741.6481580799
 30
0.0
  0
VERTEX
  5
7C0
  8
STREAMS
 10
722213.80818766251
 20
4557769.4234631341
 30
0.0
  0
VERTEX
  5
7C1
  8
STREAMS
 10
722169.52550966234
 20
4557781.8843047721
 30
0.0
  0
VERTEX
  5
7C2
  8
STREAMS
 10
722136.02692672482
 20
4557789.0564287426
 30
0.0
  0
VERTEX
  5
7C3
  8
STREAMS
 10
722069.02976084908
 20
4557781.8843047721
 30
0.0
  0
VERTEX
  5
7C4
  8
STREAMS
 10
722052.28046938032
 20
4557753.1956496062
 30
0.0
  0
VERTEX
  5
7C5
  8
STREAMS
 10
722023.56736356718
 20
4557724.5070740832
 30
0.0
  0
VERTEX
  5
7C6
  8
STREAMS
 10
722016.38914788025
 20
4557698.2091534548
 30
0.0
  0
VERTEX
  5
7C7
  8
STREAMS
 10
722016.38914788025
 20
4557679.0833567949
 30
0.0
  0
VERTEX
  5
7C8
  8
STREAMS
 10
722025.96010212961
 20
4557669.5204982879
 30
0.0
  0
VERTEX
  5
7C9
  8
STREAMS
 10
722042.70939359849
 20
4557657.5669052424
 30
0.0
  0
VERTEX
  5
7CA
  8
STREAMS
 10
722047.49499225582
 20
4557657.5669052424
 30
0.0
  0
VERTEX
  5
7CB
  8
STREAMS
 10
722048.81848488806
 20
4557619.6371507645
 30
0.0
  0
VERTEX
  5
7CC
  8
STREAMS
 10
722061.14009191445
 20
4557607.3260386521
 30
0.0
  0
VERTEX
  5
7CD
  8
STREAMS
 10
722071.92151325429
 20
4557593.4759777924
 30
0.0
  0
VERTEX
  5
7CE
  8
STREAMS
 10
722084.24312028079
 20
4557578.0869681872
 30
0.0
  0
VERTEX
  5
7CF
  8
STREAMS
 10
722107.34627017996
 20
4557568.8535942817
 30
0.0
  0
VERTEX
  5
7D0
  8
STREAMS
 10
722113.50713445968
 20
4557564.2369073294
 30
0.0
  0
VERTEX
  5
7D1
  8
STREAMS
 10
722119.66787720658
 20
4557551.925795217
 30
0.0
  0
VERTEX
  5
7D2
  8
STREAMS
 10
722118.12769151968
 20
4557531.9201783016
 30
0.0
  0
VERTEX
  5
7D3
  8
STREAMS
 10
722105.80608449306
 20
4557502.6811078377
 30
0.0
  0
VERTEX
  5
7D4
  8
STREAMS
 10
722093.48435593385
 20
4557444.2031261967
 30
0.0
  0
VERTEX
  5
7D5
  8
STREAMS
 10
722075.00188462785
 20
4557411.8863175279
 30
0.0
  0
VERTEX
  5
7D6
  8
STREAMS
 10
722073.46169894096
 20
4557359.5638919417
 30
0.0
  0
VERTEX
  5
7D7
  8
STREAMS
 10
722082.70293459424
 20
4557348.7916489337
 30
0.0
  0
VERTEX
  5
7D8
  8
STREAMS
 10
722098.1050345269
 20
4557342.636013234
 30
0.0
  0
VERTEX
  5
7D9
  8
STREAMS
 10
722108.88645586662
 20
4557331.8637702251
 30
0.0
  0
VERTEX
  5
7DA
  8
STREAMS
 10
722085.78342750052
 20
4557314.9358915174
 30
0.0
  0
VERTEX
  5
7DB
  8
STREAMS
 10
722047.27817766846
 20
4557304.1636485094
 30
0.0
  0
VERTEX
  5
7DC
  8
STREAMS
 10
722004.15249230945
 20
4557294.930274602
 30
0.0
  0
VERTEX
  5
7DD
  8
STREAMS
 10
721948.70507839101
 20
4557296.4691437064
 30
0.0
  0
VERTEX
  5
7DE
  8
STREAMS
 10
721913.28032146534
 20
4557301.0858306577
 30
0.0
  0
VERTEX
  5
7DF
  8
STREAMS
 10
721891.71747878578
 20
4557301.0858306577
 30
0.0
  0
VERTEX
  5
7E0
  8
STREAMS
 10
721843.40768858534
 20
4557275.0416537924
 30
0.0
  0
VERTEX
  5
7E1
  8
STREAMS
 10
721801.20200682816
 20
4557247.932485844
 30
0.0
  0
VERTEX
  5
7E2
  8
STREAMS
 10
721786.12853169604
 20
4557223.8355096132
 30
0.0
  0
VERTEX
  5
7E3
  8
STREAMS
 10
721795.17251954903
 20
4557181.6657016566
 30
0.0
  0
VERTEX
  5
7E4
  8
STREAMS
 10
721795.17251954903
 20
4557157.5687254248
 30
0.0
  0
VERTEX
  5
7E5
  8
STREAMS
 10
721795.17251954903
 20
4557121.4232212594
 30
0.0
  0
VERTEX
  5
7E6
  8
STREAMS
 10
721765.02569081751
 20
4557094.3141329549
 30
0.0
  0
VERTEX
  5
7E7
  8
STREAMS
 10
721728.84937480662
 20
4557034.0715729129
 30
0.0
  0
VERTEX
  5
7E8
  8
STREAMS
 10
721695.68780243536
 20
4557006.9624846103
 30
0.0
  0
VERTEX
  5
7E9
  8
STREAMS
 10
721665.54085217102
 20
4556952.7442283593
 30
0.0
  0
VERTEX
  5
7EA
  8
STREAMS
 10
721656.49674278486
 20
4556916.598724192
 30
0.0
  0
VERTEX
  5
7EB
  8
STREAMS
 10
721644.43801129237
 20
4556883.4653320983
 30
0.0
  0
VERTEX
  5
7EC
  8
STREAMS
 10
721599.2177074285
 20
4556850.3319400037
 30
0.0
  0
VERTEX
  5
7ED
  8
STREAMS
 10
721563.04139141762
 20
4556844.3077158583
 30
0.0
  0
VERTEX
  5
7EE
  8
STREAMS
 10
721514.80634391424
 20
4556817.19854791
 30
0.0
  0
VERTEX
  5
7EF
  8
STREAMS
 10
721502.74749088881
 20
4556805.1500996156
 30
0.0
  0
VERTEX
  5
7F0
  8
STREAMS
 10
721475.61528426385
 20
4556799.1257958263
 30
0.0
  0
VERTEX
  5
7F1
  8
STREAMS
 10
721457.52718702483
 20
4556796.1136837518
 30
0.0
  0
VERTEX
  5
7F2
  8
STREAMS
 10
721433.40960250667
 20
4556753.9439554391
 30
0.0
  0
VERTEX
  5
7F3
  8
STREAMS
 10
721445.46845553222
 20
4556714.7863391982
 30
0.0
  0
VERTEX
  5
7F4
  8
STREAMS
 10
721483.5461528314
 20
4556691.9067914477
 30
0.0
  0
VERTEX
  5
7F5
  8
STREAMS
 10
721500.67219610559
 20
4556673.2397405738
 30
0.0
  0
VERTEX
  5
7F6
  8
STREAMS
 10
721505.34294622892
 20
4556643.6836098731
 30
0.0
  0
VERTEX
  5
7F7
  8
STREAMS
 10
721505.34294622892
 20
4556623.4610444317
 30
0.0
  0
VERTEX
  5
7F8
  8
STREAMS
 10
721505.34294622892
 20
4556597.0161021501
 30
0.0
  0
VERTEX
  5
7F9
  8
STREAMS
 10
721472.64781689912
 20
4556572.126754079
 30
0.0
  0
VERTEX
  5
7FA
  8
STREAMS
 10
721422.82664429548
 20
4556550.3485147841
 30
0.0
  0
VERTEX
  5
7FB
  8
STREAMS
 10
721383.90392915672
 20
4556545.6817321554
 30
0.0
  0
VERTEX
  5
7FC
  8
STREAMS
 10
721326.29821352486
 20
4556534.7926523276
 30
0.0
  0
VERTEX
  5
7FD
  8
STREAMS
 10
721292.04624850943
 20
4556537.9038407486
 30
0.0
  0
VERTEX
  5
7FE
  8
STREAMS
 10
721253.12341183785
 20
4556559.6820004014
 30
0.0
  0
VERTEX
  5
7FF
  8
STREAMS
 10
721226.65598985017
 20
4556570.5711598694
 30
0.0
  0
VERTEX
  5
800
  8
STREAMS
 10
721195.51781773916
 20
4556573.6822686456
 30
0.0
  0
VERTEX
  5
801
  8
STREAMS
 10
721167.49331699987
 20
4556558.1264858339
 30
0.0
  0
VERTEX
  5
802
  8
STREAMS
 10
721161.26573119091
 20
4556464.791311102
 30
0.0
  0
VERTEX
  5
803
  8
STREAMS
 10
721151.92423094437
 20
4556427.4572889945
 30
0.0
  0
VERTEX
  5
804
  8
STREAMS
 10
721130.12755907979
 20
4556405.6791293425
 30
0.0
  0
VERTEX
  5
805
  8
STREAMS
 10
721105.21697277785
 20
4556385.4564842582
 30
0.0
  0
VERTEX
  5
806
  8
STREAMS
 10
721050.72505005088
 20
4556391.6788610974
 30
0.0
  0
VERTEX
  5
807
  8
STREAMS
 10
721013.3592921308
 20
4556397.9011582937
 30
0.0
  0
VERTEX
  5
808
  8
STREAMS
 10
720969.765705336
 20
4556396.3455640841
 30
0.0
  0
VERTEX
  5
809
  8
STREAMS
 10
720940.18449044367
 20
4556377.6785928523
 30
0.0
  0
VERTEX
  5
80A
  8
STREAMS
 10
720912.16011123708
 20
4556377.6785928523
 30
0.0
  0
VERTEX
  5
80B
  8
STREAMS
 10
720885.69256771659
 20
4556376.1229986427
 30
0.0
  0
VERTEX
  5
80C
  8
STREAMS
 10
720863.89589585213
 20
4556317.0107372422
 30
0.0
  0
VERTEX
  5
80D
  8
STREAMS
 10
720863.89589585213
 20
4556293.6769833788
 30
0.0
  0
VERTEX
  5
80E
  8
STREAMS
 10
720854.55439560569
 20
4556262.5652584676
 30
0.0
  0
VERTEX
  5
80F
  8
STREAMS
 10
720824.97305918054
 20
4556223.6756421532
 30
0.0
  0
VERTEX
  5
810
  8
STREAMS
 10
720798.50563719275
 20
4556195.6751056612
 30
0.0
  0
VERTEX
  5
811
  8
STREAMS
 10
720786.05034404178
 20
4556191.0083230324
 30
0.0
  0
VERTEX
  5
812
  8
STREAMS
 10
720770.48125798616
 20
4556173.8968663672
 30
0.0
  0
VERTEX
  5
813
  8
STREAMS
 10
720759.58280052117
 20
4556159.8965981221
 30
0.0
  0
VERTEX
  5
814
  8
STREAMS
 10
720732.18528770574
 20
4556132.0391807584
 30
0.0
  0
VERTEX
  5
815
  8
STREAMS
 10
720703.85695486539
 20
4556091.1552945739
 30
0.0
  0
VERTEX
  5
816
  8
STREAMS
 10
720666.08576338959
 20
4556048.6990094334
 30
0.0
  0
VERTEX
  5
817
  8
STREAMS
 10
720648.77401793515
 20
4555998.380410918
 30
0.0
  0
VERTEX
  5
818
  8
STREAMS
 10
720626.74096469604
 20
4555949.6342113623
 30
0.0
  0
VERTEX
  5
819
  8
STREAMS
 10
720609.42909770878
 20
4555916.6126385527
 30
0.0
  0
VERTEX
  5
81A
  8
STREAMS
 10
720563.78901941411
 20
4555916.6126385527
 30
0.0
  0
VERTEX
  5
81B
  8
STREAMS
 10
720530.73937878897
 20
4555915.04015995
 30
0.0
  0
VERTEX
  5
81C
  8
STREAMS
 10
720499.26346691453
 20
4555922.902473323
 30
0.0
  0
VERTEX
  5
81D
  8
STREAMS
 10
720469.36128379055
 20
4555929.1923080916
 30
0.0
  0
VERTEX
  5
81E
  8
STREAMS
 10
720420.57362646179
 20
4555922.902473323
 30
0.0
  0
VERTEX
  5
81F
  8
STREAMS
 10
720395.39287265553
 20
4555899.315612847
 30
0.0
  0
VERTEX
  5
820
  8
STREAMS
 10
720396.96672293905
 20
4555875.7287523709
 30
0.0
  0
VERTEX
  5
821
  8
STREAMS
 10
720384.37628526951
 20
4555860.0042052679
 30
0.0
  0
VERTEX
  5
822
  8
STREAMS
 10
720357.62180271267
 20
4555858.4317266643
 30
0.0
  0
VERTEX
  5
823
  8
STREAMS
 10
720351.32664464437
 20
4555853.7143704984
 30
0.0
  0
VERTEX
  5
824
  8
STREAMS
 10
720349.75279436074
 20
4555823.837675252
 30
0.0
  0
VERTEX
  5
825
  8
STREAMS
 10
720363.91696078097
 20
4555771.9465981331
 30
0.0
  0
VERTEX
  5
826
  8
STREAMS
 10
720385.95013555302
 20
4555738.9250253243
 30
0.0
  0
VERTEX
  5
827
  8
STREAMS
 10
720393.81914390496
 20
4555709.0483300779
 30
0.0
  0
VERTEX
  5
828
  8
STREAMS
 10
720414.27846839337
 20
4555666.5920449356
 30
0.0
  0
VERTEX
  5
829
  8
STREAMS
 10
720425.2950557794
 20
4555643.0051844604
 30
0.0
  0
VERTEX
  5
82A
  8
STREAMS
 10
720417.42604742758
 20
4555606.8386544446
 30
0.0
  0
VERTEX
  5
82B
  8
STREAMS
 10
720403.26188100735
 20
4555580.1069164053
 30
0.0
  0
VERTEX
  5
82C
  8
STREAMS
 10
720387.52386430372
 20
4555567.5272468654
 30
0.0
  0
VERTEX
  5
82D
  8
STREAMS
 10
720379.65497748472
 20
4555556.5200559292
 30
0.0
  0
VERTEX
  5
82E
  8
STREAMS
 10
720301.90498207021
 20
4555526.0752598178
 30
0.0
  0
VERTEX
  5
82F
  8
STREAMS
 10
720209.65083735297
 20
4555499.7284314018
 30
0.0
  0
VERTEX
  5
830
  8
STREAMS
 10
720110.80692459433
 20
4555559.0087116761
 30
0.0
  0
VERTEX
  5
831
  8
STREAMS
 10
720064.67999711668
 20
4555657.809067254
 30
0.0
  0
VERTEX
  5
832
  8
STREAMS
 10
719913.11938883946
 20
4555736.8493851796
 30
0.0
  0
VERTEX
  5
833
  8
STREAMS
 10
719748.3798240039
 20
4555763.1960462751
 30
0.0
  0
VERTEX
  5
834
  8
STREAMS
 10
719668.24005015381
 20
4555721.4934805939
 30
0.0
  0
VERTEX
  5
835
  8
STREAMS
 10
719545.71707422798
 20
4555691.9318123981
 30
0.0
  0
VERTEX
  5
836
  8
STREAMS
 10
719486.56795144919
 20
4555666.5934069753
 30
0.0
  0
VERTEX
  5
837
  8
STREAMS
 10
719456.99339005991
 20
4555632.8088106401
 30
0.0
  0
VERTEX
  5
838
  8
STREAMS
 10
719435.86886893143
 20
4555539.9010452293
 30
0.0
  0
VERTEX
  5
839
  8
STREAMS
 10
719372.49472602236
 20
4555527.2319261748
 30
0.0
  0
VERTEX
  5
83A
  8
STREAMS
 10
719300.67112237611
 20
4555514.5626398064
 30
0.0
  0
VERTEX
  5
83B
  8
STREAMS
 10
719233.07224909845
 20
4555442.7703516781
 30
0.0
  0
VERTEX
  5
83C
  8
STREAMS
 10
719195.04764744826
 20
4555379.4242544621
 30
0.0
  0
VERTEX
  5
83D
  8
STREAMS
 10
719152.79831542936
 20
4555341.4165626699
 30
0.0
  0
VERTEX
  5
83E
  8
STREAMS
 10
719064.07492102333
 20
4555328.7472762996
 30
0.0
  0
VERTEX
  5
83F
  8
STREAMS
 10
718971.12650648691
 20
4555332.9703717567
 30
0.0
  0
VERTEX
  5
840
  8
STREAMS
 10
718878.17809195037
 20
4555370.9780635498
 30
0.0
  0
VERTEX
  5
841
  8
STREAMS
 10
718802.12917841168
 20
4555417.4319462553
 30
0.0
  0
VERTEX
  5
842
  8
STREAMS
 10
718751.43009589415
 20
4555480.7780434703
 30
0.0
  0
VERTEX
  5
843
  8
STREAMS
 10
718696.50599324575
 20
4555518.7857352616
 30
0.0
  0
VERTEX
  5
844
  8
STREAMS
 10
718620.45707970718
 20
4555518.7857352616
 30
0.0
  0
VERTEX
  5
845
  8
STREAMS
 10
718514.83389454125
 20
4555506.1164488923
 30
0.0
  0
VERTEX
  5
846
  8
STREAMS
 10
718481.03460278339
 20
4555535.678117089
 30
0.0
  0
VERTEX
  5
847
  8
STREAMS
 10
718404.98568924493
 20
4555544.1241406854
 30
0.0
  0
VERTEX
  5
848
  8
STREAMS
 10
718379.63614798605
 20
4555527.2319261748
 30
0.0
  0
VERTEX
  5
849
  8
STREAMS
 10
718354.28660672717
 20
4555472.3318525562
 30
0.0
  0
VERTEX
  5
84A
  8
STREAMS
 10
718344.97365514655
 20
4555417.1205682578
 30
0.0
  0
VERTEX
  5
84B
  8
STREAMS
 10
718379.67787371785
 20
4555395.439892225
 30
0.0
  0
VERTEX
  5
84C
  8
STREAMS
 10
718433.90336011664
 20
4555345.5745715918
 30
0.0
  0
VERTEX
  5
84D
  8
STREAMS
 10
718429.56533279538
 20
4555300.0452857772
 30
0.0
  0
VERTEX
  5
84E
  8
STREAMS
 10
718390.52308690245
 20
4555261.0201358432
 30
0.0
  0
VERTEX
  5
84F
  8
STREAMS
 10
718342.80478636699
 20
4555261.0201358432
 30
0.0
  0
VERTEX
  5
850
  8
STREAMS
 10
718284.24127264693
 20
4555280.5327108102
 30
0.0
  0
VERTEX
  5
851
  8
STREAMS
 10
718206.15678086155
 20
4555302.2132195262
 30
0.0
  0
VERTEX
  5
852
  8
STREAMS
 10
718136.74863348075
 20
4555332.5661325091
 30
0.0
  0
VERTEX
  5
853
  8
STREAMS
 10
718091.19920172496
 20
4555345.5745715918
 30
0.0
  0
VERTEX
  5
854
  8
STREAMS
 10
718043.4809011895
 20
4555375.9273172589
 30
0.0
  0
VERTEX
  5
855
  8
STREAMS
 10
718000.10062797542
 20
4555399.7760943593
 30
0.0
  0
VERTEX
  5
856
  8
STREAMS
 10
717971.90359526721
 20
4555462.6498540752
 30
0.0
  0
VERTEX
  5
857
  8
STREAMS
 10
717932.86134937464
 20
4555508.1791398907
 30
0.0
  0
VERTEX
  5
858
  8
STREAMS
 10
717889.48107616045
 20
4555542.8680876903
 30
0.0
  0
VERTEX
  5
859
  8
STREAMS
 10
717815.73461169645
 20
4555571.0528996056
 30
0.0
  0
VERTEX
  5
85A
  8
STREAMS
 10
717759.3402565181
 20
4555568.8847985398
 30
0.0
  0
VERTEX
  5
85B
  8
STREAMS
 10
717687.76295059558
 20
4555514.6832757741
 30
0.0
  0
VERTEX
  5
85C
  8
STREAMS
 10
717655.22760080418
 20
4555482.1622617226
 30
0.0
  0
VERTEX
  5
85D
  8
STREAMS
 10
717609.67845881043
 20
4555473.4900247734
 30
0.0
  0
VERTEX
  5
85E
  8
STREAMS
 10
717553.28410363209
 20
4555482.1622617226
 30
0.0
  0
VERTEX
  5
85F
  8
STREAMS
 10
717551.11494509014
 20
4555501.6748366896
 30
0.0
  0
VERTEX
  5
860
  8
STREAMS
 10
717548.94607631036
 20
4555540.6999866227
 30
0.0
  0
VERTEX
  5
861
  8
STREAMS
 10
717503.39664455457
 20
4555562.3806626573
 30
0.0
  0
VERTEX
  5
862
  8
STREAMS
 10
717453.50947523944
 20
4555579.7251365557
 30
0.0
  0
VERTEX
  5
863
  8
STREAMS
 10
717401.45314738259
 20
4555566.7166974731
 30
0.0
  0
VERTEX
  5
864
  8
STREAMS
 10
717351.56597806723
 20
4555540.6999866227
 30
0.0
  0
VERTEX
  5
865
  8
STREAMS
 10
717349.39681952563
 20
4555506.011038824
 30
0.0
  0
VERTEX
  5
866
  8
STREAMS
 10
717310.35457363294
 20
4555469.1539899576
 30
0.0
  0
VERTEX
  5
867
  8
STREAMS
 10
717251.79134967492
 20
4555436.6331432248
 30
0.0
  0
VERTEX
  5
868
  8
STREAMS
 10
717197.56586327625
 20
4555469.1539899576
 30
0.0
  0
VERTEX
  5
869
  8
STREAMS
 10
717152.01672128227
 20
4555547.2041225061
 30
0.0
  0
VERTEX
  5
86A
  8
STREAMS
 10
717106.46757928841
 20
4555633.9266593223
 30
0.0
  0
VERTEX
  5
86B
  8
STREAMS
 10
717047.90406556835
 20
4555711.9767918708
 30
0.0
  0
VERTEX
  5
86C
  8
STREAMS
 10
716998.01689625334
 20
4555774.8505515857
 30
0.0
  0
VERTEX
  5
86D
  8
STREAMS
 10
716943.79140985454
 20
4555807.3713983176
 30
0.0
  0
VERTEX
  5
86E
  8
STREAMS
 10
716839.67904390255
 20
4555818.2117363354
 30
0.0
  0
VERTEX
  5
86F
  8
STREAMS
 10
716750.74933893257
 20
4555820.3798374021
 30
0.0
  0
VERTEX
  5
870
  8
STREAMS
 10
716705.20019693882
 20
4555785.6908896035
 30
0.0
  0
VERTEX
  5
871
  8
STREAMS
 10
716670.49597836751
 20
4555735.8254016535
 30
0.0
  0
VERTEX
  5
872
  8
STREAMS
 10
716631.45373247482
 20
4555675.1197430044
 30
0.0
  0
VERTEX
  5
873
  8
STREAMS
 10
716581.56627339753
 20
4555636.0945930714
 30
0.0
  0
VERTEX
  5
874
  8
STREAMS
 10
716503.48207137408
 20
4555638.2626941381
 30
0.0
  0
VERTEX
  5
875
  8
STREAMS
 10
716451.42574351723
 20
4555664.2794049876
 30
0.0
  0
VERTEX
  5
876
  8
STREAMS
 10
716405.87631176133
 20
4555711.9767918708
 30
0.0
  0
VERTEX
  5
877
  8
STREAMS
 10
716360.32716976758
 20
4555744.4976386027
 30
0.0
  0
VERTEX
  5
878
  8
STREAMS
 10
716282.2426779822
 20
4555796.5312276203
 30
0.0
  0
VERTEX
  5
879
  8
STREAMS
 10
716221.51029548235
 20
4555826.8839732856
 30
0.0
  0
VERTEX
  5
87A
  8
STREAMS
 10
716171.62312616711
 20
4555835.5562102357
 30
0.0
  0
VERTEX
  5
87B
  8
STREAMS
 10
716145.59496223857
 20
4555861.5729210852
 30
0.0
  0
VERTEX
  5
87C
  8
STREAMS
 10
716080.52455241745
 20
4555887.5897992533
 30
0.0
  0
VERTEX
  5
87D
  8
STREAMS
 10
715973.15873841499
 20
4555924.4468481177
 30
0.0
  0
VERTEX
  5
87E
  8
STREAMS
 10
715866.8772139214
 20
4556035.0178273991
 30
0.0
  0
VERTEX
  5
87F
  8
STREAMS
 10
715767.10258552898
 20
4556080.5471132146
 30
0.0
  0
VERTEX
  5
880
  8
STREAMS
 10
715660.82106103539
 20
4556089.2193501638
 30
0.0
  0
VERTEX
  5
881
  8
STREAMS
 10
715630.45486978535
 20
4556058.8666045005
 30
0.0
  0
VERTEX
  5
882
  8
STREAMS
 10
715600.08867853554
 20
4555995.9928447837
 30
0.0
  0
VERTEX
  5
883
  8
STREAMS
 10
715532.8491101726
 20
4555935.2870188169
 30
0.0
  0
VERTEX
  5
884
  8
STREAMS
 10
715383.18731246493
 20
4555900.5980710182
 30
0.0
  0
VERTEX
  5
885
  8
STREAMS
 10
715346.31422511395
 20
4555920.1106459843
 30
0.0
  0
VERTEX
  5
886
  8
STREAMS
 10
715300.76479335804
 20
4555961.3037296673
 30
0.0
  0
VERTEX
  5
887
  8
STREAMS
 10
715207.49735082884
 20
4555995.9928447837
 30
0.0
  0
VERTEX
  5
888
  8
STREAMS
 10
715099.04666779353
 20
4556011.1692176163
 30
0.0
  0
VERTEX
  5
889
  8
STREAMS
 10
715012.28612136515
 20
4555969.9759666175
 30
0.0
  0
VERTEX
  5
88A
  8
STREAMS
 10
714901.66656955006
 20
4555928.7828829354
 30
0.0
  0
VERTEX
  5
88B
  8
STREAMS
 10
714832.25813240767
 20
4555928.7828829354
 30
0.0
  0
VERTEX
  5
88C
  8
STREAMS
 10
714778.032646009
 20
4555972.1440676833
 30
0.0
  0
VERTEX
  5
88D
  8
STREAMS
 10
714693.44125812245
 20
4556009.0011165487
 30
0.0
  0
VERTEX
  5
88E
  8
STREAMS
 10
714643.55408880697
 20
4556006.8330154829
 30
0.0
  0
VERTEX
  5
88F
  8
STREAMS
 10
714595.83578827162
 20
4555969.9759666175
 30
0.0
  0
VERTEX
  5
890
  8
STREAMS
 10
714513.41326916486
 20
4555948.2954578996
 30
0.0
  0
VERTEX
  5
891
  8
STREAMS
 10
714372.42752609996
 20
4555950.4635589672
 30
0.0
  0
VERTEX
  5
892
  8
STREAMS
 10
714331.21612166555
 20
4555989.4885415826
 30
0.0
  0
VERTEX
  5
893
  8
STREAMS
 10
714316.0331709215
 20
4556050.1943675494
 30
0.0
  0
VERTEX
  5
894
  8
STREAMS
 10
714290.00500699296
 20
4556115.2360610142
 30
0.0
  0
VERTEX
  5
895
  8
STREAMS
 10
714244.45557523728
 20
4556141.2529391814
 30
0.0
  0
VERTEX
  5
896
  8
STREAMS
 10
714178.30116566934
 20
4556167.2696500309
 30
0.0
  0
VERTEX
  5
897
  8
STREAMS
 10
714102.38583242544
 20
4556193.2863608813
 30
0.0
  0
VERTEX
  5
898
  8
STREAMS
 10
714009.11810013407
 20
4556217.1349706631
 30
0.0
  0
VERTEX
  5
899
  8
STREAMS
 10
713952.72374495561
 20
4556214.9668695964
 30
0.0
  0
VERTEX
  5
89A
  8
STREAMS
 10
713902.8365756406
 20
4556184.6141239312
 30
0.0
  0
VERTEX
  5
89B
  8
STREAMS
 10
713876.80841171206
 20
4556134.7486359812
 30
0.0
  0
VERTEX
  5
89C
  8
STREAMS
 10
713818.24518775404
 20
4556106.563824065
 30
0.0
  0
VERTEX
  5
89D
  8
STREAMS
 10
713744.49872329005
 20
4556080.5471132146
 30
0.0
  0
VERTEX
  5
89E
  8
STREAMS
 10
713623.03395829047
 20
4556067.5388414497
 30
0.0
  0
VERTEX
  5
89F
  8
STREAMS
 10
713538.44257040392
 20
4556095.7236533649
 30
0.0
  0
VERTEX
  5
8A0
  8
STREAMS
 10
713499.40032451111
 20
4556165.1015489642
 30
0.0
  0
VERTEX
  5
8A1
  8
STREAMS
 10
713473.37216058257
 20
4556206.2946326472
 30
0.0
  0
VERTEX
  5
8A2
  8
STREAMS
 10
713414.80864686263
 20
4556245.3197825793
 30
0.0
  0
VERTEX
  5
8A3
  8
STREAMS
 10
713382.27358683303
 20
4556280.0087303789
 30
0.0
  0
VERTEX
  5
8A4
  8
STREAMS
 10
713354.07626436278
 20
4556342.8824900948
 30
0.0
  0
VERTEX
  5
8A5
  8
STREAMS
 10
713349.7382370414
 20
4556427.4369258452
 30
0.0
  0
VERTEX
  5
8A6
  8
STREAMS
 10
713369.25950486888
 20
4556466.4620757774
 30
0.0
  0
VERTEX
  5
8A7
  8
STREAMS
 10
713397.45653757686
 20
4556496.8148214417
 30
0.0
  0
VERTEX
  5
8A8
  8
STREAMS
 10
713386.61161415442
 20
4556561.8566822251
 30
0.0
  0
VERTEX
  5
8A9
  8
STREAMS
 10
713349.7382370414
 20
4556624.7304419409
 30
0.0
  0
VERTEX
  5
8AA
  8
STREAMS
 10
713304.18909504765
 20
4556665.9235256221
 30
0.0
  0
VERTEX
  5
8AB
  8
STREAMS
 10
713239.11868522642
 20
4556672.4278288241
 30
0.0
  0
VERTEX
  5
8AC
  8
STREAMS
 10
713182.72433004808
 20
4556652.9152538572
 30
0.0
  0
VERTEX
  5
8AD
  8
STREAMS
 10
713178.38630272658
 20
4556605.2178669749
 30
0.0
  0
VERTEX
  5
8AE
  8
STREAMS
 10
713158.86532466125
 20
4556535.8399713747
 30
0.0
  0
VERTEX
  5
8AF
  8
STREAMS
 10
713089.45688751864
 20
4556477.3022464756
 30
0.0
  0
VERTEX
  5
8B0
  8
STREAMS
 10
712998.35831376899
 20
4556470.7981105931
 30
0.0
  0
VERTEX
  5
8B1
  8
STREAMS
 10
712911.59776734072
 20
4556509.8232605262
 30
0.0
  0
VERTEX
  5
8B2
  8
STREAMS
 10
712829.17524823395
 20
4556594.377528958
 30
0.0
  0
VERTEX
  5
8B3
  8
STREAMS
 10
712800.97821552574
 20
4556622.5623408752
 30
0.0
  0
VERTEX
  5
8B4
  8
STREAMS
 10
712761.93596963305
 20
4556655.0833549229
 30
0.0
  0
VERTEX
  5
8B5
  8
STREAMS
 10
712716.38653787714
 20
4556678.9319647057
 30
0.0
  0
VERTEX
  5
8B6
  8
STREAMS
 10
712659.9921826988
 20
4556681.1000657734
 30
0.0
  0
VERTEX
  5
8B7
  8
STREAMS
 10
712625.28796412749
 20
4556724.4612505231
 30
0.0
  0
VERTEX
  5
8B8
  8
STREAMS
 10
712611.18988241651
 20
4556816.6035380531
 30
0.0
  0
VERTEX
  5
8B9
  8
STREAMS
 10
712593.83777313086
 20
4556879.477297768
 30
0.0
  0
VERTEX
  5
8BA
  8
STREAMS
 10
712561.30271310126
 20
4556925.0065835854
 30
0.0
  0
VERTEX
  5
8BB
  8
STREAMS
 10
712498.40117205982
 20
4556994.3846465014
 30
0.0
  0
VERTEX
  5
8BC
  8
STREAMS
 10
712424.65470759571
 20
4557022.5694584176
 30
0.0
  0
VERTEX
  5
8BD
  8
STREAMS
 10
712283.66896453081
 20
4557094.1154550826
 30
0.0
  0
VERTEX
  5
8BE
  8
STREAMS
 10
712251.1339045011
 20
4557183.0059256488
 30
0.0
  0
VERTEX
  5
8BF
  8
STREAMS
 10
712183.89433613839
 20
4557302.2493091971
 30
0.0
  0
VERTEX
  5
8C0
  8
STREAMS
 10
712140.51406292419
 20
4557397.6439156448
 30
0.0
  0
VERTEX
  5
8C1
  8
STREAMS
 10
712088.45773506723
 20
4557508.2150622429
 30
0.0
  0
VERTEX
  5
8C2
  8
STREAMS
 10
712092.79576238873
 20
4557633.9625816746
 30
0.0
  0
VERTEX
  5
8C3
  8
STREAMS
 10
712099.30294825183
 20
4557764.0461359229
 30
0.0
  0
VERTEX
  5
8C4
  8
STREAMS
 10
712094.96492093045
 20
4557884.3734026868
 30
0.0
  0
VERTEX
  5
8C5
  8
STREAMS
 10
712129.66913950164
 20
4558020.9612601353
 30
0.0
  0
VERTEX
  5
8C6
  8
STREAMS
 10
712162.20419953135
 20
4558213.9185740976
 30
0.0
  0
VERTEX
  5
8C7
  8
STREAMS
 10
712181.72546735872
 20
4558346.1703967303
 30
0.0
  0
VERTEX
  5
8C8
  8
STREAMS
 10
712186.06349467998
 20
4558454.5734422617
 30
0.0
  0
VERTEX
  5
8C9
  8
STREAMS
 10
712170.88025417412
 20
4558552.1361497771
 30
0.0
  0
VERTEX
  5
8CA
  8
STREAMS
 10
712127.49998096004
 20
4558610.6737073585
 30
0.0
  0
VERTEX
  5
8CB
  8
STREAMS
 10
712079.78168042446
 20
4558677.8836692087
 30
0.0
  0
VERTEX
  5
8CC
  8
STREAMS
 10
711990.85226521641
 20
4558729.9170909068
 30
0.0
  0
VERTEX
  5
8CD
  8
STREAMS
 10
711940.96509590128
 20
4558801.4630875736
 30
0.0
  0
VERTEX
  5
8CE
  8
STREAMS
 10
711899.75369146676
 20
4558878.429002271
 30
0.0
  0
VERTEX
  5
8CF
  8
STREAMS
 10
711880.23271340155
 20
4558978.1598108532
 30
0.0
  0
VERTEX
  5
8D0
  8
STREAMS
 10
711852.03539093141
 20
4559084.3947553169
 30
0.0
  0
VERTEX
  5
8D1
  8
STREAMS
 10
711795.64103575284
 20
4559160.2769541172
 30
0.0
  0
VERTEX
  5
8D2
  8
STREAMS
 10
711685.02148393798
 20
4559214.4784768829
 30
0.0
  0
VERTEX
  5
8D3
  8
STREAMS
 10
711587.41601408715
 20
4559257.8396616327
 30
0.0
  0
VERTEX
  5
8D4
  8
STREAMS
 10
711392.20478462358
 20
4559303.3689474482
 30
0.0
  0
VERTEX
  5
8D5
  8
STREAMS
 10
711188.31750051724
 20
4559277.3522365978
 30
0.0
  0
VERTEX
  5
8D6
  8
STREAMS
 10
711040.82486135128
 20
4559251.3355257502
 30
0.0
  0
VERTEX
  5
8D7
  8
STREAMS
 10
710871.64179581625
 20
4559164.6131562507
 30
0.0
  0
VERTEX
  5
8D8
  8
STREAMS
 10
710823.92349528056
 20
4559114.7476683008
 30
0.0
  0
VERTEX
  5
8D9
  8
STREAMS
 10
710765.3599815605
 20
4559069.2183824852
 30
0.0
  0
VERTEX
  5
8DA
  8
STREAMS
 10
710630.8814243587
 20
4559082.2268215688
 30
0.0
  0
VERTEX
  5
8DB
  8
STREAMS
 10
710495.31857764826
 20
4559106.0754313506
 30
0.0
  0
VERTEX
  5
8DC
  8
STREAMS
 10
710356.50170336303
 20
4559147.2685150327
 30
0.0
  0
VERTEX
  5
8DD
  8
STREAMS
 10
710230.69891104195
 20
4559145.1005812837
 30
0.0
  0
VERTEX
  5
8DE
  8
STREAMS
 10
710083.20598211396
 20
4559112.579567234
 30
0.0
  0
VERTEX
  5
8DF
  8
STREAMS
 10
709979.09332640003
 20
4559101.7392292172
 30
0.0
  0
VERTEX
  5
8E0
  8
STREAMS
 10
709831.60068723385
 20
4559136.4283443335
 30
0.0
  0
VERTEX
  5
8E1
  8
STREAMS
 10
709710.13592223462
 20
4559231.8229507832
 30
0.0
  0
VERTEX
  5
8E2
  8
STREAMS
 10
709610.36129384197
 20
4559338.0578952478
 30
0.0
  0
VERTEX
  5
8E3
  8
STREAMS
 10
709601.6852391992
 20
4559446.4609407792
 30
0.0
  0
VERTEX
  5
8E4
  8
STREAMS
 10
709627.71340312774
 20
4559563.5362232607
 30
0.0
  0
VERTEX
  5
8E5
  8
STREAMS
 10
709597.34721187782
 20
4559652.4268611427
 30
0.0
  0
VERTEX
  5
8E6
  8
STREAMS
 10
709512.75582399126
 20
4559765.1659414917
 30
0.0
  0
VERTEX
  5
8E7
  8
STREAMS
 10
709467.20639223536
 20
4559854.0564120561
 30
0.0
  0
VERTEX
  5
8E8
  8
STREAMS
 10
709420.57325049466
 20
4559939.6945637036
 30
0.0
  0
VERTEX
  5
8E9
  8
STREAMS
 10
709370.68579141749
 20
4560017.7448635707
 30
0.0
  0
VERTEX
  5
8EA
  8
STREAMS
 10
709318.62946356065
 20
4560074.1143200863
 30
0.0
  0
VERTEX
  5
8EB
  8
STREAMS
 10
709225.36202103109
 20
4560119.6436059019
 30
0.0
  0
VERTEX
  5
8EC
  8
STREAMS
 10
709175.47456195392
 20
4560119.6436059019
 30
0.0
  0
VERTEX
  5
8ED
  8
STREAMS
 10
709153.78442534688
 20
4560087.122759169
 30
0.0
  0
VERTEX
  5
8EE
  8
STREAMS
 10
709147.27752924582
 20
4560048.0976092359
 30
0.0
  0
VERTEX
  5
8EF
  8
STREAMS
 10
709129.92541996017
 20
4560022.0808983864
 30
0.0
  0
VERTEX
  5
8F0
  8
STREAMS
 10
709056.17895549606
 20
4560017.7448635707
 30
0.0
  0
VERTEX
  5
8F1
  8
STREAMS
 10
708984.60164957377
 20
4560035.0893374691
 30
0.0
  0
VERTEX
  5
8F2
  8
STREAMS
 10
708923.86926707404
 20
4560074.1143200863
 30
0.0
  0
VERTEX
  5
8F3
  8
STREAMS
 10
708926.03813585383
 20
4560145.6603167513
 30
0.0
  0
VERTEX
  5
8F4
  8
STREAMS
 10
708878.31983531814
 20
4560212.8702786006
 30
0.0
  0
VERTEX
  5
8F5
  8
STREAMS
 10
708811.08055671735
 20
4560247.5592264002
 30
0.0
  0
VERTEX
  5
8F6
  8
STREAMS
 10
708713.47508686653
 20
4560254.0635296004
 30
0.0
  0
VERTEX
  5
8F7
  8
STREAMS
 10
708652.74270436692
 20
4560232.3828535676
 30
0.0
  0
VERTEX
  5
8F8
  8
STREAMS
 10
708624.54538189655
 20
4560184.6854666844
 30
0.0
  0
VERTEX
  5
8F9
  8
STREAMS
 10
708559.47497207543
 20
4560121.8117069677
 30
0.0
  0
VERTEX
  5
8FA
  8
STREAMS
 10
708446.68655148067
 20
4560091.4587939847
 30
0.0
  0
VERTEX
  5
8FB
  8
STREAMS
 10
708353.41881918942
 20
4560065.4420831362
 30
0.0
  0
VERTEX
  5
8FC
  8
STREAMS
 10
708316.54573183844
 20
4560065.4420831362
 30
0.0
  0
VERTEX
  5
8FD
  8
STREAMS
 10
708290.5175679099
 20
4560076.282421153
 30
0.0
  0
VERTEX
  5
8FE
  8
STREAMS
 10
708290.5175679099
 20
4560095.79499612
 30
0.0
  0
VERTEX
  5
8FF
  8
STREAMS
 10
708262.32024543965
 20
4560119.6436059019
 30
0.0
  0
VERTEX
  5
900
  8
STREAMS
 10
708186.40491219598
 20
4560119.6436059019
 30
0.0
  0
VERTEX
  5
901
  8
STREAMS
 10
708112.65844773187
 20
4560102.2991320016
 30
0.0
  0
VERTEX
  5
902
  8
STREAMS
 10
708067.10930573801
 20
4560071.9463863373
 30
0.0
  0
VERTEX
  5
903
  8
STREAMS
 10
708043.25001058925
 20
4560015.5767625039
 30
0.0
  0
VERTEX
  5
904
  8
STREAMS
 10
707995.53171005379
 20
4559954.8711038548
 30
0.0
  0
VERTEX
  5
905
  8
STREAMS
 10
707958.65862270293
 20
4559915.8459539218
 30
0.0
  0
VERTEX
  5
906
  8
STREAMS
 10
707939.13735487545
 20
4559887.6611420047
 30
0.0
  0
VERTEX
  5
907
  8
STREAMS
 10
707871.89807627443
 20
4559872.484769173
 30
0.0
  0
VERTEX
  5
908
  8
STREAMS
 10
707832.85583038197
 20
4559837.7958213734
 30
0.0
  0
VERTEX
  5
909
  8
STREAMS
 10
707750.43331127497
 20
4559761.913622573
 30
0.0
  0
VERTEX
  5
90A
  8
STREAMS
 10
707702.71501073951
 20
4559688.1995248413
 30
0.0
  0
VERTEX
  5
90B
  8
STREAMS
 10
707631.137704817
 20
4559575.4604444923
 30
0.0
  0
VERTEX
  5
90C
  8
STREAMS
 10
707529.19391788286
 20
4559486.5698066112
 30
0.0
  0
VERTEX
  5
90D
  8
STREAMS
 10
707461.95463928208
 20
4559402.0155381793
 30
0.0
  0
VERTEX
  5
90E
  8
STREAMS
 10
707442.43366121675
 20
4559313.125067614
 30
0.0
  0
VERTEX
  5
90F
  8
STREAMS
 10
707394.71536068106
 20
4559202.553921015
 30
0.0
  0
VERTEX
  5
910
  8
STREAMS
 10
707364.34916943125
 20
4559135.3439591657
 30
0.0
  0
VERTEX
  5
911
  8
STREAMS
 10
707338.32100550272
 20
4559065.9660635674
 30
0.0
  0
VERTEX
  5
912
  8
STREAMS
 10
707266.7434098185
 20
4558981.4116278179
 30
0.0
  0
VERTEX
  5
913
  8
STREAMS
 10
707156.12385800341
 20
4558929.378206118
 30
0.0
  0
VERTEX
  5
914
  8
STREAMS
 10
707021.64501103968
 20
4558864.3363453364
 30
0.0
  0
VERTEX
  5
915
  8
STREAMS
 10
706886.08216432913
 20
4558804.7149045384
 30
0.0
  0
VERTEX
  5
916
  8
STREAMS
 10
706799.32161790086
 20
4558770.0259567387
 30
0.0
  0
VERTEX
  5
917
  8
STREAMS
 10
706627.96968358604
 20
4558737.5051100058
 30
0.0
  0
VERTEX
  5
918
  8
STREAMS
 10
706499.99802248529
 20
4558720.1606361084
 30
0.0
  0
VERTEX
  5
919
  8
STREAMS
 10
706411.06831751531
 20
4558733.1689078733
 30
0.0
  0
VERTEX
  5
91A
  8
STREAMS
 10
706345.99790769431
 20
4558783.0343958233
 30
0.0
  0
VERTEX
  5
91B
  8
STREAMS
 10
706311.29397888505
 20
4558889.2693402879
 30
0.0
  0
VERTEX
  5
91C
  8
STREAMS
 10
706235.37835587922
 20
4558993.3361836858
 30
0.0
  0
VERTEX
  5
91D
  8
STREAMS
 10
706181.15315924247
 20
4559049.7058075191
 30
0.0
  0
VERTEX
  5
91E
  8
STREAMS
 10
706024.98417567182
 20
4559160.2769541172
 30
0.0
  0
VERTEX
  5
91F
  8
STREAMS
 10
705940.39278778515
 20
4559218.8146790182
 30
0.0
  0
VERTEX
  5
920
  8
STREAMS
 10
705870.98435064266
 20
4559335.8899614988
 30
0.0
  0
VERTEX
  5
921
  8
STREAMS
 10
705883.99843260692
 20
4559442.1249059634
 30
0.0
  0
VERTEX
  5
922
  8
STREAMS
 10
705881.82927406498
 20
4559518.0069374451
 30
0.0
  0
VERTEX
  5
923
  8
STREAMS
 10
705823.26605010708
 20
4559624.2420492265
 30
0.0
  0
VERTEX
  5
924
  8
STREAMS
 10
705779.88577689289
 20
4559719.6366556762
 30
0.0
  0
VERTEX
  5
925
  8
STREAMS
 10
705758.19564028585
 20
4559778.1743805753
 30
0.0
  0
VERTEX
  5
926
  8
STREAMS
 10
705706.13931242889
 20
4559793.3507534079
 30
0.0
  0
VERTEX
  5
927
  8
STREAMS
 10
705628.05482064351
 20
4559856.2245131237
 30
0.0
  0
VERTEX
  5
928
  8
STREAMS
 10
705572.745334498
 20
4559891.997344139
 30
0.0
  0
VERTEX
  5
929
  8
STREAMS
 10
705507.67492467689
 20
4560006.9045255529
 30
0.0
  0
VERTEX
  5
92A
  8
STREAMS
 10
705433.92874997482
 20
4560089.2908602348
 30
0.0
  0
VERTEX
  5
92B
  8
STREAMS
 10
705340.66101768345
 20
4560158.6687558349
 30
0.0
  0
VERTEX
  5
92C
  8
STREAMS
 10
705253.9004712553
 20
4560171.6771949176
 30
0.0
  0
VERTEX
  5
92D
  8
STREAMS
 10
705188.83006143407
 20
4560136.9880798012
 30
0.0
  0
VERTEX
  5
92E
  8
STREAMS
 10
705130.26683747594
 20
4560106.635334135
 30
0.0
  0
VERTEX
  5
92F
  8
STREAMS
 10
705063.02755887504
 20
4560071.9463863373
 30
0.0
  0
VERTEX
  5
930
  8
STREAMS
 10
704943.73166265525
 20
4560069.7782852696
 30
0.0
  0
VERTEX
  5
931
  8
STREAMS
 10
704843.95732402476
 20
4560041.5934733544
 30
0.0
  0
VERTEX
  5
932
  8
STREAMS
 10
704737.67550976912
 20
4560035.0893374691
 30
0.0
  0
VERTEX
  5
933
  8
STREAMS
 10
704668.26707262662
 20
4560061.1060483186
 30
0.0
  0
VERTEX
  5
934
  8
STREAMS
 10
704633.5628540552
 20
4560093.6268950524
 30
0.0
  0
VERTEX
  5
935
  8
STREAMS
 10
704594.52060816262
 20
4560139.156180867
 30
0.0
  0
VERTEX
  5
936
  8
STREAMS
 10
704505.59119295457
 20
4560271.4080034997
 30
0.0
  0
VERTEX
  5
937
  8
STREAMS
 10
704453.53486509761
 20
4560345.1219339147
 30
0.0
  0
VERTEX
  5
938
  8
STREAMS
 10
704403.64769578236
 20
4560386.3151849154
 30
0.0
  0
SEQEND
  5
939
  8
STREAMS
  0
POLYLINE
  5
80
  8
STREAMS
 66
     1
 10
0.0
 20
0.0
 30
0.0
  0
VERTEX
  5
93A
  8
STREAMS
 10
731300.94761258725
 20
4551107.7403517449
 30
0.0
  0
VERTEX
  5
93B
  8
STREAMS
 10
731335.48651663901
 20
4551094.9923161305
 30
0.0
  0
VERTEX
  5
93C
  8
STREAMS
 10
731352.21818584588
 20
4551108.5255556833
 30
0.0
  0
VERTEX
  5
93D
  8
STREAMS
 10
731402.41343653272
 20
4551111.7098567123
 30
0.0
  0
VERTEX
  5
93E
  8
STREAMS
 10
731472.52731210086
 20
4551083.0513067367
 30
0.0
  0
VERTEX
  5
93F
  8
STREAMS
 10
731490.05575060972
 20
4551074.2945187297
 30
0.0
  0
VERTEX
  5
940
  8
STREAMS
 10
731517.57443166722
 20
4551054.091147339
 30
0.0
  0
VERTEX
  5
941
  8
STREAMS
 10
731565.2563832138
 20
4551019.5021931017
 30
0.0
  0
VERTEX
  5
942
  8
STREAMS
 10
731607.05979126913
 20
4550992.7446506126
 30
0.0
  0
VERTEX
  5
943
  8
STREAMS
 10
731666.49895133125
 20
4550956.1978235273
 30
0.0
  0
VERTEX
  5
944
  8
STREAMS
 10
731694.58555535204
 20
4550937.2718520723
 30
0.0
  0
VERTEX
  5
945
  8
STREAMS
 10
731716.79361588135
 20
4550917.6932032378
 30
0.0
  0
VERTEX
  5
946
  8
STREAMS
 10
731752.57130417565
 20
4550840.1264591031
 30
0.0
  0
VERTEX
  5
947
  8
STREAMS
 10
731768.46342452103
 20
4550793.5492669558
 30
0.0
  0
VERTEX
  5
948
  8
STREAMS
 10
731789.65291831491
 20
4550724.7420983482
 30
0.0
  0
VERTEX
  5
949
  8
STREAMS
 10
731811.90181387856
 20
4550655.9349297378
 30
0.0
  0
VERTEX
  5
94A
  8
STREAMS
 10
731843.68605456944
 20
4550578.6592024611
 30
0.0
  0
VERTEX
  5
94B
  8
STREAMS
 10
731841.5671294966
 20
4550510.9105738187
 30
0.0
  0
VERTEX
  5
94C
  8
STREAMS
 10
731839.74883749522
 20
4550452.7741200402
 30
0.0
  0
VERTEX
  5
94D
  8
STREAMS
 10
731833.57039012935
 20
4550385.2227509031
 30
0.0
  0
VERTEX
  5
94E
  8
STREAMS
 10
731830.90067822381
 20
4550319.8704318348
 30
0.0
  0
VERTEX
  5
94F
  8
STREAMS
 10
731818.88703541481
 20
4550257.1855283538
 30
0.0
  0
VERTEX
  5
950
  8
STREAMS
 10
731805.5384758868
 20
4550178.4960516999
 30
0.0
  0
VERTEX
  5
951
  8
STREAMS
 10
731793.52471154509
 20
4550157.156488061
 30
0.0
  0
VERTEX
  5
952
  8
STREAMS
 10
731769.49730439449
 20
4550114.4774404271
 30
0.0
  0
VERTEX
  5
953
  8
STREAMS
 10
731744.13498052489
 20
4550061.1285711508
 30
0.0
  0
VERTEX
  5
954
  8
STREAMS
 10
731722.77728527994
 20
4550017.1158157215
 30
0.0
  0
VERTEX
  5
955
  8
STREAMS
 10
731713.43335437658
 20
4550006.44599408
 30
0.0
  0
VERTEX
  5
956
  8
STREAMS
 10
731733.4561329023
 20
4549914.4192801947
 30
0.0
  0
VERTEX
  5
957
  8
STREAMS
 10
731748.13960914966
 20
4549858.4029953312
 30
0.0
  0
VERTEX
  5
958
  8
STREAMS
 10
731760.15325195855
 20
4549817.2196500953
 30
0.0
  0
VERTEX
  5
959
  8
STREAMS
 10
731765.49267576972
 20
4549771.8731072284
 30
0.0
  0
VERTEX
  5
95A
  8
STREAMS
 10
731768.16238767526
 20
4549701.1859569829
 30
0.0
  0
VERTEX
  5
95B
  8
STREAMS
 10
731769.81937967974
 20
4549657.313042256
 30
0.0
  0
VERTEX
  5
95C
  8
STREAMS
 10
731771.12513320055
 20
4549622.740025172
 30
0.0
  0
VERTEX
  5
95D
  8
STREAMS
 10
731809.54298297875
 20
4549575.8161500236
 30
0.0
  0
VERTEX
  5
95E
  8
STREAMS
 10
731850.92357828235
 20
4549543.8068443872
 30
0.0
  0
VERTEX
  5
95F
  8
STREAMS
 10
731928.34522354533
 20
4549518.4661573647
 30
0.0
  0
VERTEX
  5
960
  8
STREAMS
 10
731953.4396890346
 20
4549495.8509459449
 30
0.0
  0
VERTEX
  5
961
  8
STREAMS
 10
732012.17335095839
 20
4549443.8358641062
 30
0.0
  0
VERTEX
  5
962
  8
STREAMS
 10
732032.19625101681
 20
4549413.1602662643
 30
0.0
  0
VERTEX
  5
963
  8
STREAMS
 10
732074.91164150683
 20
4549358.4776891926
 30
0.0
  0
VERTEX
  5
964
  8
STREAMS
 10
732096.26933675155
 20
4549306.4626073558
 30
0.0
  0
VERTEX
  5
965
  8
STREAMS
 10
732106.94818437402
 20
4549281.1219203332
 30
0.0
  0
VERTEX
  5
966
  8
STREAMS
 10
732155.00312020804
 20
4549242.443996083
 30
0.0
  0
VERTEX
  5
967
  8
STREAMS
 10
732213.46892375115
 20
4549186.8029907541
 30
0.0
  0
VERTEX
  5
968
  8
STREAMS
 10
732301.56953816966
 20
4549106.7797266608
 30
0.0
  0
VERTEX
  5
969
  8
STREAMS
 10
732389.67003105476
 20
4549014.7530127773
 30
0.0
  0
VERTEX
  5
96A
  8
STREAMS
 10
732469.76150975621
 20
4548929.3949175067
 30
0.0
  0
VERTEX
  5
96B
  8
STREAMS
 10
732513.81169543252
 20
4548869.3774296166
 30
0.0
  0
VERTEX
  5
96C
  8
STREAMS
 10
732587.22883360332
 20
4548765.3471862962
 30
0.0
  0
VERTEX
  5
96D
  8
STREAMS
 10
732611.25636228675
 20
4548710.6646888703
 30
0.0
  0
VERTEX
  5
96E
  8
STREAMS
 10
732627.27463372063
 20
4548661.3169429759
 30
0.0
  0
VERTEX
  5
96F
  8
STREAMS
 10
732637.95348134299
 20
4548621.305390574
 30
0.0
  0
VERTEX
  5
970
  8
STREAMS
 10
732648.63232896535
 20
4548541.2821264807
 30
0.0
  0
VERTEX
  5
971
  8
STREAMS
 10
732849.83402231103
 20
4548207.2759865718
 30
0.0
  0
VERTEX
  5
972
  8
STREAMS
 10
733294.08412437234
 20
4547897.7831566064
 30
0.0
  0
VERTEX
  5
973
  8
STREAMS
 10
733563.32636461162
 20
4547480.6405448094
 30
0.0
  0
VERTEX
  5
974
  8
STREAMS
 10
733617.17487061175
 20
4546955.848318493
 30
0.0
  0
VERTEX
  5
975
  8
STREAMS
 10
733859.49300273159
 20
4546646.3554885276
 30
0.0
  0
VERTEX
  5
976
  8
STREAMS
 10
734047.96262885141
 20
4546108.1070813127
 30
0.0
  0
VERTEX
  5
977
  8
STREAMS
 10
733926.80356279155
 20
4545273.821857716
 30
0.0
  0
VERTEX
  5
978
  8
STREAMS
 10
733630.63692467124
 20
4544654.8361977851
 30
0.0
  0
VERTEX
  5
979
  8
STREAMS
 10
733226.77356431272
 20
4543766.726250588
 30
0.0
  0
VERTEX
  5
97A
  8
STREAMS
 10
732876.75842019229
 20
4542918.9848460909
 30
0.0
  0
VERTEX
  5
97B
  8
STREAMS
 10
732553.66738419083
 20
4542286.5430052597
 30
0.0
  0
VERTEX
  5
97C
  8
STREAMS
 10
732190.19018601079
 20
4541788.6631407449
 30
0.0
  0
VERTEX
  5
97D
  8
STREAMS
 10
731988.25850583147
 20
4541317.6958053457
 30
0.0
  0
VERTEX
  5
97E
  8
STREAMS
 10
732069.03111995093
 20
4540658.3414353989
 30
0.0
  0
VERTEX
  5
97F
  8
STREAMS
 10
731907.48589171225
 20
4540281.5675336169
 30
0.0
  0
SEQEND
  5
980
  8
STREAMS
  0
POLYLINE
  5
81
  8
STREAMS
 66
     1
 10
0.0
 20
0.0
 30
0.0
  0
VERTEX
  5
981
  8
STREAMS
 10
739981.04560237541
 20
4563675.5620647669
 30
0.0
  0
VERTEX
  5
982
  8
STREAMS
 10
740017.13379353599
 20
4563732.2426324096
 30
0.0
  0
VERTEX
  5
983
  8
STREAMS
 10
739954.14297128597
 20
4563734.4721913077
 30
0.0
  0
VERTEX
  5
984
  8
STREAMS
 10
739907.62773500732
 20
4563796.4398266394
 30
0.0
  0
VERTEX
  5
985
  8
STREAMS
 10
739857.66679963702
 20
4563817.0957316319
 30
0.0
  0
VERTEX
  5
986
  8
STREAMS
 10
739823.21102404816
 20
4563896.2765282067
 30
0.0
  0
VERTEX
  5
987
  8
STREAMS
 10
739799.09198113589
 20
4563954.801499432
 30
0.0
  0
VERTEX
  5
988
  8
STREAMS
 10
739804.26040824072
 20
4564004.7198900366
 30
0.0
  0
VERTEX
  5
989
  8
STREAMS
 10
739828.37945115287
 20
4564018.4904668182
 30
0.0
  0
VERTEX
  5
98A
  8
STREAMS
 10
739836.99333428382
 20
4564051.1956165368
 30
0.0
  0
VERTEX
  5
98B
  8
STREAMS
 10
739823.32660177932
 20
4564123.2744549466
 30
0.0
  0
VERTEX
  5
98C
  8
STREAMS
 10
739807.68872813624
 20
4564136.9459553799
 30
0.0
  0
VERTEX
  5
98D
  8
STREAMS
 10
739799.8697913147
 20
4564162.3360212883
 30
0.0
  0
VERTEX
  5
98E
  8
STREAMS
 10
739803.77925972536
 20
4564183.819819062
 30
0.0
  0
VERTEX
  5
98F
  8
STREAMS
 10
739803.77925972536
 20
4564201.397507987
 30
0.0
  0
VERTEX
  5
990
  8
STREAMS
 10
739749.04645890859
 20
4564259.9898575004
 30
0.0
  0
VERTEX
  5
991
  8
STREAMS
 10
739672.81158183259
 20
4564332.253707448
 30
0.0
  0
VERTEX
  5
992
  8
STREAMS
 10
739500.13188858028
 20
4564549.1259360183
 30
0.0
  0
VERTEX
  5
993
  8
STREAMS
 10
739398.90001535264
 20
4564655.0880088042
 30
0.0
  0
VERTEX
  5
994
  8
STREAMS
 10
739345.87390021409
 20
4564736.9678393845
 30
0.0
  0
VERTEX
  5
995
  8
STREAMS
 10
739239.82142687088
 20
4564847.7464243276
 30
0.0
  0
VERTEX
  5
996
  8
STREAMS
 10
739225.35974805744
 20
4564963.341441785
 30
0.0
  0
VERTEX
  5
997
  8
STREAMS
 10
739215.71866935922
 20
4565117.4681582749
 30
0.0
  0
VERTEX
  5
998
  8
STREAMS
 10
739225.35974805744
 20
4565208.9808538798
 30
0.0
  0
VERTEX
  5
999
  8
STREAMS
 10
739244.64202698634
 20
4565348.6581931878
 30
0.0
  0
VERTEX
  5
99A
  8
STREAMS
 10
739249.46262710181
 20
4565420.9050790984
 30
0.0
  0
VERTEX
  5
99B
  8
STREAMS
 10
739239.82142687088
 20
4565464.2532902872
 30
0.0
  0
VERTEX
  5
99C
  8
STREAMS
 10
739260.57449623465
 20
4565475.2807902806
 30
0.0
  0
VERTEX
  5
99D
  8
STREAMS
 10
739292.53240735433
 20
4565517.1899255048
 30
0.0
  0
VERTEX
  5
99E
  8
STREAMS
 10
739302.51924698346
 20
4565557.1033572806
 30
0.0
  0
VERTEX
  5
99F
  8
STREAMS
 10
739290.53501512203
 20
4565606.9951470029
 30
0.0
  0
VERTEX
  5
9A0
  8
STREAMS
 10
739292.53240735433
 20
4565684.8263071086
 30
0.0
  0
VERTEX
  5
9A1
  8
STREAMS
 10
739248.59026437334
 20
4565724.7397388872
 30
0.0
  0
VERTEX
  5
9A2
  8
STREAMS
 10
739188.66910506587
 20
4565790.5969172474
 30
0.0
  0
VERTEX
  5
9A3
  8
STREAMS
 10
739159.74793502991
 20
4565919.2954186564
 30
0.0
  0
VERTEX
  5
9A4
  8
STREAMS
 10
739156.92314722005
 20
4566029.3658147966
 30
0.0
  0
VERTEX
  5
9A5
  8
STREAMS
 10
739179.52096356847
 20
4566159.1924644746
 30
0.0
  0
VERTEX
  5
9A6
  8
STREAMS
 10
739216.24235436867
 20
4566277.7298264159
 30
0.0
  0
VERTEX
  5
9A7
  8
STREAMS
 10
739236.01538290735
 20
4566320.064575783
 30
0.0
  0
VERTEX
  5
9A8
  8
STREAMS
 10
739185.17041765584
 20
4566410.3787183836
 30
0.0
  0
VERTEX
  5
9A9
  8
STREAMS
 10
739142.7995727685
 20
4566424.4903280549
 30
0.0
  0
VERTEX
  5
9AA
  8
STREAMS
 10
739055.23321671668
 20
4566472.4697212894
 30
0.0
  0
VERTEX
  5
9AB
  8
STREAMS
 10
739024.16128000384
 20
4566503.5152625637
 30
0.0
  0
VERTEX
  5
9AC
  8
STREAMS
 10
738990.2645554808
 20
4566622.0526245059
 30
0.0
  0
VERTEX
  5
9AD
  8
STREAMS
 10
738925.29601577786
 20
4566701.0774793718
 30
0.0
  0
VERTEX
  5
9AE
  8
STREAMS
 10
738755.81263622874
 20
4566825.2594851814
 30
0.0
  0
VERTEX
  5
9AF
  8
STREAMS
 10
738693.66876280284
 20
4566938.1522032553
 30
0.0
  0
VERTEX
  5
9B0
  8
STREAMS
 10
738659.7720382798
 20
4567017.1770581212
 30
0.0
  0
VERTEX
  5
9B1
  8
STREAMS
 10
738668.24628017715
 20
4567087.735026828
 30
0.0
  0
VERTEX
  5
9B2
  8
STREAMS
 10
738707.79233725427
 20
4567128.2587657133
 30
0.0
  0
VERTEX
  5
9B3
  8
STREAMS
 10
738716.26657915139
 20
4567201.6390563538
 30
0.0
  0
VERTEX
  5
9B4
  8
STREAMS
 10
738724.74069951568
 20
4567311.7094524931
 30
0.0
  0
VERTEX
  5
9B5
  8
STREAMS
 10
738702.14288316725
 20
4567416.135204765
 30
0.0
  0
VERTEX
  5
9B6
  8
STREAMS
 10
738654.12258419266
 20
4567466.9369199341
 30
0.0
  0
VERTEX
  5
9B7
  8
STREAMS
 10
738606.10240675125
 20
4567492.3377376972
 30
0.0
  0
VERTEX
  5
9B8
  8
STREAMS
 10
738555.25731996668
 20
4567548.7840967327
 30
0.0
  0
VERTEX
  5
9B9
  8
STREAMS
 10
738552.43265368952
 20
4567636.2759970454
 30
0.0
  0
VERTEX
  5
9BA
  8
STREAMS
 10
738538.30907923798
 20
4567735.0571054481
 30
0.0
  0
VERTEX
  5
9BB
  8
STREAMS
 10
738504.41235471505
 20
4567805.6150741549
 30
0.0
  0
VERTEX
  5
9BC
  8
STREAMS
 10
738450.74260165344
 20
4567969.3095073979
 30
0.0
  0
VERTEX
  5
9BD
  8
STREAMS
 10
738377.29982005327
 20
4568014.4665786987
 30
0.0
  0
VERTEX
  5
9BE
  8
STREAMS
 10
738315.15594662738
 20
4568079.3799035372
 30
0.0
  0
VERTEX
  5
9BF
  8
STREAMS
 10
738204.991774227
 20
4568133.0039406409
 30
0.0
  0
VERTEX
  5
9C0
  8
STREAMS
 10
738142.84790080111
 20
4568195.0949435448
 30
0.0
  0
VERTEX
  5
9C1
  8
STREAMS
 10
738089.17826927244
 20
4568260.0081887413
 30
0.0
  0
VERTEX
  5
9C2
  8
STREAMS
 10
737981.83876314922
 20
4568364.4340206571
 30
0.0
  0
VERTEX
  5
9C3
  8
STREAMS
 10
737911.22076935915
 20
4568437.8142316537
 30
0.0
  0
VERTEX
  5
9C4
  8
STREAMS
 10
737834.95319994877
 20
4568539.4176619919
 30
0.0
  0
VERTEX
  5
9C5
  8
STREAMS
 10
737784.10823469725
 20
4568598.686342963
 30
0.0
  0
VERTEX
  5
9C6
  8
STREAMS
 10
737744.27414478816
 20
4568702.6860828744
 30
0.0
  0
VERTEX
  5
9C7
  8
STREAMS
 10
737748.31219494401
 20
4568779.3447333584
 30
0.0
  0
VERTEX
  5
9C8
  8
STREAMS
 10
737732.15987278731
 20
4568856.0033838432
 30
0.0
  0
VERTEX
  5
9C9
  8
STREAMS
 10
737671.58826971811
 20
4568944.7660736898
 30
0.0
  0
VERTEX
  5
9CA
  8
STREAMS
 10
737542.36896326754
 20
4569057.7366829738
 30
0.0
  0
VERTEX
  5
9CB
  8
STREAMS
 10
737433.34015066235
 20
4569049.667376495
 30
0.0
  0
VERTEX
  5
9CC
  8
STREAMS
 10
737332.38755990216
 20
4568989.1474186135
 30
0.0
  0
VERTEX
  5
9CD
  8
STREAMS
 10
737227.39691898576
 20
4568981.0780324908
 30
0.0
  0
VERTEX
  5
9CE
  8
STREAMS
 10
737142.59677191509
 20
4568944.7660736898
 30
0.0
  0
VERTEX
  5
9CF
  8
STREAMS
 10
737025.49173746514
 20
4568924.5927278483
 30
0.0
  0
VERTEX
  5
9D0
  8
STREAMS
 10
736940.69159039436
 20
4568912.4886884857
 30
0.0
  0
VERTEX
  5
9D1
  8
STREAMS
 10
736847.81522147881
 20
4568924.5927278483
 30
0.0
  0
VERTEX
  5
9D2
  8
STREAMS
 10
736714.55774333945
 20
4568981.0780324908
 30
0.0
  0
VERTEX
  5
9D3
  8
STREAMS
 10
736653.98626180296
 20
4568993.1820718544
 30
0.0
  0
VERTEX
  5
9D4
  8
STREAMS
 10
736597.45270888961
 20
4569001.2513783323
 30
0.0
  0
VERTEX
  5
9D5
  8
STREAMS
 10
736548.99549935386
 20
4568968.9740727711
 30
0.0
  0
VERTEX
  5
9D6
  8
STREAMS
 10
736516.69073350762
 20
4568928.6273810882
 30
0.0
  0
VERTEX
  5
9D7
  8
STREAMS
 10
736415.73814274743
 20
4568936.696687567
 30
0.0
  0
VERTEX
  5
9D8
  8
STREAMS
 10
736379.39520521229
 20
4568960.9046866484
 30
0.0
  0
VERTEX
  5
9D9
  8
STREAMS
 10
736330.93787414383
 20
4568973.008726011
 30
0.0
  0
VERTEX
  5
9DA
  8
STREAMS
 10
736282.48066460795
 20
4569013.3554176949
 30
0.0
  0
VERTEX
  5
9DB
  8
STREAMS
 10
736177.49002369156
 20
4569033.5286838934
 30
0.0
  0
VERTEX
  5
9DC
  8
STREAMS
 10
736088.65170493221
 20
4569033.5286838934
 30
0.0
  0
VERTEX
  5
9DD
  8
STREAMS
 10
736011.92777970596
 20
4568993.1820718544
 30
0.0
  0
VERTEX
  5
9DE
  8
STREAMS
 10
735971.54667048226
 20
4568989.1474186135
 30
0.0
  0
VERTEX
  5
9DF
  8
STREAMS
 10
735902.89896710101
 20
4568912.4886884857
 30
0.0
  0
VERTEX
  5
9E0
  8
STREAMS
 10
735818.09882003022
 20
4568835.8300379999
 30
0.0
  0
VERTEX
  5
9E1
  8
STREAMS
 10
735781.7558824952
 20
4568803.5527324406
 30
0.0
  0
VERTEX
  5
9E2
  8
STREAMS
 10
735779.55370742665
 20
4568729.1301490776
 30
0.0
  0
VERTEX
  5
9E3
  8
STREAMS
 10
735759.47563145857
 20
4568694.0236722538
 30
0.0
  0
VERTEX
  5
9E4
  8
STREAMS
 10
735726.01241457742
 20
4568655.5736076701
 30
0.0
  0
VERTEX
  5
9E5
  8
STREAMS
 10
735709.28074537055
 20
4568618.7953369645
 30
0.0
  0
VERTEX
  5
9E6
  8
STREAMS
 10
735712.62715213152
 20
4568583.6888601417
 30
0.0
  0
VERTEX
  5
9E7
  8
STREAMS
 10
735682.51009894582
 20
4568501.7735882644
 30
0.0
  0
VERTEX
  5
9E8
  8
STREAMS
 10
735657.41271666798
 20
4568449.9496505028
 30
0.0
  0
VERTEX
  5
9E9
  8
STREAMS
 10
735628.96892762941
 20
4568374.7213152153
 30
0.0
  0
VERTEX
  5
9EA
  8
STREAMS
 10
735601.04724367324
 20
4568350.4733351637
 30
0.0
  0
VERTEX
  5
9EB
  8
STREAMS
 10
735536.0804054297
 20
4568300.9355602013
 30
0.0
  0
VERTEX
  5
9EC
  8
STREAMS
 10
735484.79075151496
 20
4568244.5649420051
 30
0.0
  0
VERTEX
  5
9ED
  8
STREAMS
 10
735440.33975053113
 20
4568159.1549989041
 30
0.0
  0
VERTEX
  5
9EE
  8
STREAMS
 10
735402.72740247776
 20
4568083.9942808338
 30
0.0
  0
VERTEX
  5
9EF
  8
STREAMS
 10
735329.21230883757
 20
4568015.6663263533
 30
0.0
  0
VERTEX
  5
9F0
  8
STREAMS
 10
735253.98749119823
 20
4567945.6301809754
 30
0.0
  0
VERTEX
  5
9F1
  8
STREAMS
 10
735113.79583531548
 20
4567920.0072378656
 30
0.0
  0
VERTEX
  5
9F2
  8
STREAMS
 10
735041.99046567432
 20
4567906.3416310418
 30
0.0
  0
VERTEX
  5
9F3
  8
STREAMS
 10
735024.8938333476
 20
4567882.4268788313
 30
0.0
  0
VERTEX
  5
9F4
  8
STREAMS
 10
735018.05530194973
 20
4567851.6792833861
 30
0.0
  0
VERTEX
  5
9F5
  8
STREAMS
 10
734971.89457696665
 20
4567831.1809129706
 30
0.0
  0
VERTEX
  5
9F6
  8
STREAMS
 10
734812.89680782368
 20
4567808.9742720136
 30
0.0
  0
VERTEX
  5
9F7
  8
STREAMS
 10
734665.86662054318
 20
4567785.0595198041
 30
0.0
  0
VERTEX
  5
9F8
  8
STREAMS
 10
734553.02945485036
 20
4567783.3513289057
 30
0.0
  0
VERTEX
  5
9F9
  8
STREAMS
 10
734392.32196170848
 20
4567779.9349471098
 30
0.0
  0
VERTEX
  5
9FA
  8
STREAMS
 10
734310.25861267128
 20
4567762.8529584911
 30
0.0
  0
VERTEX
  5
9FB
  8
STREAMS
 10
734267.51721415354
 20
4567786.7677107016
 30
0.0
  0
VERTEX
  5
9FC
  8
STREAMS
 10
734229.90486610029
 20
4567817.5153061459
 30
0.0
  0
VERTEX
  5
9FD
  8
STREAMS
 10
734170.06695678853
 20
4567829.4726424301
 30
0.0
  0
VERTEX
  5
9FE
  8
STREAMS
 10
734026.4560959735
 20
4567856.8038560804
 30
0.0
  0
VERTEX
  5
9FF
  8
STREAMS
 10
733971.7471155934
 20
4567868.7612720067
 30
0.0
  0
VERTEX
  5
A00
  8
STREAMS
 10
733917.03825674613
 20
4567870.4694629041
 30
0.0
  0
VERTEX
  5
A01
  8
STREAMS
 10
733887.97404255695
 20
4567860.2202378744
 30
0.0
  0
VERTEX
  5
A02
  8
STREAMS
 10
733795.65283565654
 20
4567882.4268788313
 30
0.0
  0
VERTEX
  5
A03
  8
STREAMS
 10
733749.49211067345
 20
4567889.2596424222
 30
0.0
  0
VERTEX
  5
A04
  8
STREAMS
 10
733578.00720677548
 20
4567960.2097750586
 30
0.0
  0
VERTEX
  5
A05
  8
STREAMS
 10
733489.05489021156
 20
4568021.0201922944
 30
0.0
  0
VERTEX
  5
A06
  8
STREAMS
 10
733376.69389018766
 20
4568063.1196751604
 30
0.0
  0
VERTEX
  5
A07
  8
STREAMS
 10
733311.15001401806
 20
4568119.252398625
 30
0.0
  0
VERTEX
  5
A08
  8
STREAMS
 10
733161.33538783051
 20
4568184.7405096302
 30
0.0
  0
VERTEX
  5
A09
  8
STREAMS
 10
733105.1548878185
 20
4568208.1290581282
 30
0.0
  0
VERTEX
  5
A0A
  8
STREAMS
 10
733047.80378348764
 20
4568203.5874748677
 30
0.0
  0
VERTEX
  5
A0B
  8
STREAMS
 10
733034.22491922695
 20
4568197.7728720587
 30
0.0
  0
VERTEX
  5
A0C
  8
STREAMS
 10
732956.63142652775
 20
4568234.5984509205
 30
0.0
  0
VERTEX
  5
A0D
  8
STREAMS
 10
732946.93225513177
 20
4568246.2275768984
 30
0.0
  0
VERTEX
  5
A0E
  8
STREAMS
 10
732892.61679808924
 20
4568265.6094269753
 30
0.0
  0
VERTEX
  5
A0F
  8
STREAMS
 10
732791.74526973336
 20
4568300.4968049023
 30
0.0
  0
VERTEX
  5
A10
  8
STREAMS
 10
732762.64763401321
 20
4568316.0022531077
 30
0.0
  0
VERTEX
  5
A11
  8
STREAMS
 10
732673.41518425208
 20
4568343.1369069312
 30
0.0
  0
VERTEX
  5
A12
  8
STREAMS
 10
732595.82157002005
 20
4568370.2714811116
 30
0.0
  0
VERTEX
  5
A13
  8
STREAMS
 10
732446.45406315231
 20
4568403.2206581021
 30
0.0
  0
VERTEX
  5
A14
  8
STREAMS
 10
732293.20698495267
 20
4568428.4171109898
 30
0.0
  0
VERTEX
  5
A15
  8
STREAMS
 10
732157.41834234574
 20
4568443.9226388382
 30
0.0
  0
VERTEX
  5
A16
  8
STREAMS
 10
732124.44101376063
 20
4568443.9226388382
 30
0.0
  0
VERTEX
  5
A17
  8
STREAMS
 10
732033.26865680085
 20
4568476.8717361838
 30
0.0
  0
VERTEX
  5
A18
  8
STREAMS
 10
731930.45722124609
 20
4568496.2536659064
 30
0.0
  0
VERTEX
  5
A19
  8
STREAMS
 10
731868.38250000635
 20
4568515.6355159841
 30
0.0
  0
VERTEX
  5
A1A
  8
STREAMS
 10
731854.80363574566
 20
4568511.7591141118
 30
0.0
  0
VERTEX
  5
A1B
  8
STREAMS
 10
731817.94661429571
 20
4568527.2646419602
 30
0.0
  0
VERTEX
  5
A1C
  8
STREAMS
 10
731796.60848583805
 20
4568546.6464920379
 30
0.0
  0
VERTEX
  5
A1D
  8
STREAMS
 10
731713.19539307512
 20
4568579.5956690283
 30
0.0
  0
VERTEX
  5
A1E
  8
STREAMS
 10
731612.32386471925
 20
4568618.3594488269
 30
0.0
  0
VERTEX
  5
A1F
  8
STREAMS
 10
731528.91089348914
 20
4568633.8648970332
 30
0.0
  0
VERTEX
  5
A20
  8
STREAMS
 10
731405.71183782187
 20
4568654.506784793
 30
0.0
  0
VERTEX
  5
A21
  8
STREAMS
 10
731328.06474913994
 20
4568599.0918073347
 30
0.0
  0
VERTEX
  5
A22
  8
STREAMS
 10
731333.61090031266
 20
4568576.9257844957
 30
0.0
  0
VERTEX
  5
A23
  8
STREAMS
 10
731261.51008433651
 20
4568532.5938184578
 30
0.0
  0
VERTEX
  5
A24
  8
STREAMS
 10
731158.90501154505
 20
4568477.1788410023
 30
0.0
  0
VERTEX
  5
A25
  8
STREAMS
 10
731117.30845238396
 20
4568474.4080483243
 30
0.0
  0
VERTEX
  5
A26
  8
STREAMS
 10
731045.20751487487
 20
4568479.9495540336
 30
0.0
  0
VERTEX
  5
A27
  8
STREAMS
 10
730995.29154665547
 20
4568510.4277956178
 30
0.0
  0
VERTEX
  5
A28
  8
STREAMS
 10
730967.56054772588
 20
4568510.4277956178
 30
0.0
  0
VERTEX
  5
A29
  8
STREAMS
 10
730914.87144315359
 20
4568529.8230257817
 30
0.0
  0
VERTEX
  5
A2A
  8
STREAMS
 10
730878.82103516557
 20
4568565.8427730752
 30
0.0
  0
VERTEX
  5
A2B
  8
STREAMS
 10
730856.6361874087
 20
4568593.5503016263
 30
0.0
  0
VERTEX
  5
A2C
  8
STREAMS
 10
730804.00152954913
 20
4568648.0735123223
 30
0.0
  0
VERTEX
  5
A2D
  8
STREAMS
 10
730771.87079873018
 20
4568658.7746338062
 30
0.0
  0
VERTEX
  5
A2E
  8
STREAMS
 10
730716.53470889363
 20
4568687.3109312151
 30
0.0
  0
VERTEX
  5
A2F
  8
STREAMS
 10
730668.33867343189
 20
4568689.0944647361
 30
0.0
  0
VERTEX
  5
A30
  8
STREAMS
 10
730643.34811852104
 20
4568671.2592888111
 30
0.0
  0
VERTEX
  5
A31
  8
STREAMS
 10
730621.92759079766
 20
4568644.5065249233
 30
0.0
  0
VERTEX
  5
A32
  8
STREAMS
 10
730571.94660250854
 20
4568633.8054034393
 30
0.0
  0
VERTEX
  5
A33
  8
STREAMS
 10
730539.81587168993
 20
4568644.5065249233
 30
0.0
  0
VERTEX
  5
A34
  8
STREAMS
 10
730505.90018804371
 20
4568676.6098097311
 30
0.0
  0
VERTEX
  5
A35
  8
STREAMS
 10
730475.55453158531
 20
4568701.579119741
 30
0.0
  0
VERTEX
  5
A36
  8
STREAMS
 10
730443.42380076647
 20
4568717.6307621449
 30
0.0
  0
VERTEX
  5
A37
  8
STREAMS
 10
730420.2183202157
 20
4568726.5483501069
 30
0.0
  0
VERTEX
  5
A38
  8
STREAMS
 10
730395.22776530473
 20
4568708.7131741811
 30
0.0
  0
VERTEX
  5
A39
  8
STREAMS
 10
730372.02228475385
 20
4568708.7131741811
 30
0.0
  0
VERTEX
  5
A3A
  8
STREAMS
 10
730350.60175703058
 20
4568714.0637747459
 30
0.0
  0
VERTEX
  5
A3B
  8
STREAMS
 10
730332.75137802737
 20
4568731.8989506708
 30
0.0
  0
VERTEX
  5
A3C
  8
STREAMS
 10
730311.33097183681
 20
4568740.8165386338
 30
0.0
  0
VERTEX
  5
A3D
  8
STREAMS
 10
730322.04117493215
 20
4568747.9505930739
 30
0.0
  0
VERTEX
  5
A3E
  8
STREAMS
 10
730334.53645238769
 20
4568749.7341265958
 30
0.0
  0
VERTEX
  5
A3F
  8
STREAMS
 10
730339.89155393525
 20
4568758.6517145578
 30
0.0
  0
VERTEX
  5
A40
  8
STREAMS
 10
730311.33097183681
 20
4568787.1880119676
 30
0.0
  0
VERTEX
  5
A41
  8
STREAMS
 10
730259.5647876549
 20
4568790.7550790086
 30
0.0
  0
VERTEX
  5
A42
  8
STREAMS
 10
730234.57435427664
 20
4568815.7243093764
 30
0.0
  0
VERTEX
  5
A43
  8
STREAMS
 10
730204.22869781824
 20
4568835.3430188233
 30
0.0
  0
VERTEX
  5
A44
  8
STREAMS
 10
730150.67756080884
 20
4568872.7969838372
 30
0.0
  0
VERTEX
  5
A45
  8
STREAMS
 10
730043.57516525732
 20
4568894.199147162
 30
0.0
  0
VERTEX
  5
A46
  8
STREAMS
 10
729943.61306714651
 20
4568904.900268645
 30
0.0
  0
VERTEX
  5
A47
  8
STREAMS
 10
729857.93119931861
 20
4568904.900268645
 30
0.0
  0
VERTEX
  5
A48
  8
STREAMS
 10
729750.82892529981
 20
4568894.199147162
 30
0.0
  0
VERTEX
  5
A49
  8
STREAMS
 10
729731.19347193663
 20
4568854.9617282692
 30
0.0
  0
VERTEX
  5
A4A
  8
STREAMS
 10
729677.64233492734
 20
4568854.9617282692
 30
0.0
  0
VERTEX
  5
A4B
  8
STREAMS
 10
729647.2966784687
 20
4568853.1782743912
 30
0.0
  0
VERTEX
  5
A4C
  8
STREAMS
 10
729516.98892389913
 20
4568831.7760314234
 30
0.0
  0
VERTEX
  5
A4D
  8
STREAMS
 10
729440.23218480626
 20
4568819.2913764184
 30
0.0
  0
VERTEX
  5
A4E
  8
STREAMS
 10
729309.9244302368
 20
4568813.9408554984
 30
0.0
  0
VERTEX
  5
A4F
  8
STREAMS
 10
729260.01575398794
 20
4568809.3744235095
 30
0.0
  0
VERTEX
  5
A50
  8
STREAMS
 10
729208.24969133874
 20
4568786.1886470197
 30
0.0
  0
VERTEX
  5
A51
  8
STREAMS
 10
729129.70799941837
 20
4568789.7557140617
 30
0.0
  0
VERTEX
  5
A52
  8
STREAMS
 10
729026.17575258727
 20
4568786.1886470197
 30
0.0
  0
VERTEX
  5
A53
  8
STREAMS
 10
728958.34426376235
 20
4568795.1062349826
 30
0.0
  0
VERTEX
  5
A54
  8
STREAMS
 10
728908.36327547336
 20
4568811.1579570305
 30
0.0
  0
VERTEX
  5
A55
  8
STREAMS
 10
728867.30729438656
 20
4568846.8283088803
 30
0.0
  0
VERTEX
  5
A56
  8
STREAMS
 10
728799.47592709446
 20
4568852.1788298013
 30
0.0
  0
VERTEX
  5
A57
  8
STREAMS
 10
728772.70029782329
 20
4568853.9623633232
 30
0.0
  0
VERTEX
  5
A58
  8
STREAMS
 10
728733.42951262975
 20
4568891.416328337
 30
0.0
  0
VERTEX
  5
A59
  8
STREAMS
 10
728672.73819971259
 20
4568934.2207346288
 30
0.0
  0
VERTEX
  5
A5A
  8
STREAMS
 10
728638.82239453366
 20
4568975.2416870417
 30
0.0
  0
VERTEX
  5
A5B
  8
STREAMS
 10
728599.55160933989
 20
4569019.8296268564
 30
0.0
  0
VERTEX
  5
A5C
  8
STREAMS
 10
728540.64537078305
 20
4569098.304544284
 30
0.0
  0
VERTEX
  5
A5D
  8
STREAMS
 10
728522.79499177984
 20
4569130.407829091
 30
0.0
  0
SEQEND
  5
A5E
  8
STREAMS
  0
POLYLINE
  5
82
  8
STREAMS
 66
     1
 10
0.0
 20
0.0
 30
0.0
  0
VERTEX
  5
A5F
  8
STREAMS
 10
722928.7235415359
 20
4569759.2927872334
 30
0.0
  0
VERTEX
  5
A60
  8
STREAMS
 10
722982.68290735618
 20
4569629.900512469
 30
0.0
  0
VERTEX
  5
A61
  8
STREAMS
 10
723106.78944874299
 20
4569554.4216987966
 30
0.0
  0
VERTEX
  5
A62
  8
STREAMS
 10
723209.31224380166
 20
4569425.0294240331
 30
0.0
  0
VERTEX
  5
A63
  8
STREAMS
 10
723290.25129253196
 20
4569284.854393336
 30
0.0
  0
VERTEX
  5
A64
  8
STREAMS
 10
723344.21065835236
 20
4569020.6785454853
 30
0.0
  0
VERTEX
  5
A65
  8
STREAMS
 10
723560.04824316641
 20
4568934.41697588
 30
0.0
  0
VERTEX
  5
A66
  8
STREAMS
 10
723560.04824316641
 20
4568885.894892755
 30
0.0
  0
SEQEND
  5
A67
  8
STREAMS
  0
POLYLINE
  5
83
  8
STREAMS
 66
     1
 10
0.0
 20
0.0
 30
0.0
  0
VERTEX
  5
A68
  8
STREAMS
 10
725058.54828713997
 20
4568305.9921971029
 30
0.0
  0
VERTEX
  5
A69
  8
STREAMS
 10
725107.71792218648
 20
4568243.4660228509
 30
0.0
  0
VERTEX
  5
A6A
  8
STREAMS
 10
725112.1879000573
 20
4568118.4135947023
 30
0.0
  0
VERTEX
  5
A6B
  8
STREAMS
 10
725156.88743569993
 20
4567975.496522584
 30
0.0
  0
VERTEX
  5
A6C
  8
STREAMS
 10
725179.23732505424
 20
4567877.2410603901
 30
0.0
  0
VERTEX
  5
A6D
  8
STREAMS
 10
725201.5870928755
 20
4567720.9255052926
 30
0.0
  0
VERTEX
  5
A6E
  8
STREAMS
 10
725259.69656213059
 20
4567640.5346870711
 30
0.0
  0
VERTEX
  5
A6F
  8
STREAMS
 10
725286.5164293556
 20
4567600.3392381379
 30
0.0
  0
VERTEX
  5
A70
  8
STREAMS
 10
725258.50372799509
 20
4567531.443670189
 30
0.0
  0
SEQEND
  5
A71
  8
STREAMS
  0
POLYLINE
  5
84
  8
STREAMS
 66
     1
 10
0.0
 20
0.0
 30
0.0
  0
VERTEX
  5
A72
  8
STREAMS
 10
739152.641423719
 20
4561740.6958756279
 30
0.0
  0
VERTEX
  5
A73
  8
STREAMS
 10
739164.91915739002
 20
4561764.1917037386
 30
0.0
  0
VERTEX
  5
A74
  8
STREAMS
 10
739199.62650595861
 20
4561794.8682573009
 30
0.0
  0
VERTEX
  5
A75
  8
STREAMS
 10
739239.67339987133
 20
4561829.5460138908
 30
0.0
  0
VERTEX
  5
A76
  8
STREAMS
 10
739275.71554362634
 20
4561840.216074462
 30
0.0
  0
VERTEX
  5
A77
  8
STREAMS
 10
739335.78594526171
 20
4561853.5537099103
 30
0.0
  0
VERTEX
  5
A78
  8
STREAMS
 10
739375.83283917443
 20
4561858.8887800165
 30
0.0
  0
VERTEX
  5
A79
  8
STREAMS
 10
739431.89861218492
 20
4561854.8874973468
 30
0.0
  0
VERTEX
  5
A7A
  8
STREAMS
 10
739437.23815752892
 20
4561838.8823666666
 30
0.0
  0
VERTEX
  5
A7B
  8
STREAMS
 10
739449.25216493628
 20
4561832.2135091228
 30
0.0
  0
VERTEX
  5
A7C
  8
STREAMS
 10
739465.27092250134
 20
4561840.216074462
 30
0.0
  0
VERTEX
  5
A7D
  8
STREAMS
 10
739479.95488487999
 20
4561860.222487811
 30
0.0
  0
VERTEX
  5
A7E
  8
STREAMS
 10
739489.29918038193
 20
4561873.5601232583
 30
0.0
  0
VERTEX
  5
A7F
  8
STREAMS
 10
739511.99240001023
 20
4561902.9028893821
 30
0.0
  0
VERTEX
  5
A80
  8
STREAMS
 10
739532.01578620006
 20
4561901.5691019436
 30
0.0
  0
VERTEX
  5
A81
  8
STREAMS
 10
739562.71850614389
 20
4561900.235314507
 30
0.0
  0
VERTEX
  5
A82
  8
STREAMS
 10
739590.75127111631
 20
4561880.2289011581
 30
0.0
  0
VERTEX
  5
A83
  8
STREAMS
 10
739597.42573317955
 20
4561848.2186398013
 30
0.0
  0
VERTEX
  5
A84
  8
STREAMS
 10
739598.76064989879
 20
4561821.5434485516
 30
0.0
  0
VERTEX
  5
A85
  8
STREAMS
 10
739618.78415762156
 20
4561801.5370352026
 30
0.0
  0
VERTEX
  5
A86
  8
STREAMS
 10
739658.83105153416
 20
4561754.8554306049
 30
0.0
  0
VERTEX
  5
A87
  8
STREAMS
 10
739688.19873322605
 20
4561724.1788770407
 30
0.0
  0
VERTEX
  5
A88
  8
STREAMS
 10
739714.89670301194
 20
4561706.8400385678
 30
0.0
  0
VERTEX
  5
A89
  8
STREAMS
 10
739736.25512745394
 20
4561706.8400385678
 30
0.0
  0
VERTEX
  5
A8A
  8
STREAMS
 10
739752.27388501912
 20
4561696.1698983544
 30
0.0
  0
VERTEX
  5
A8B
  8
STREAMS
 10
739770.96235448972
 20
4561681.4985551126
 30
0.0
  0
VERTEX
  5
A8C
  8
STREAMS
 10
739790.98586221237
 20
4561664.1596369967
 30
0.0
  0
VERTEX
  5
A8D
  8
STREAMS
 10
739809.67445321602
 20
4561620.145527631
 30
0.0
  0
VERTEX
  5
A8E
  8
STREAMS
 10
739842.59150151233
 20
4561590.6390147451
 30
0.0
  0
VERTEX
  5
A8F
  8
STREAMS
 10
739869.50142457208
 20
4561567.1129221581
 30
0.0
  0
VERTEX
  5
A90
  8
STREAMS
 10
739869.50142457208
 20
4561528.4627934396
 30
0.0
  0
VERTEX
  5
A91
  8
STREAMS
 10
739866.13776014745
 20
4561484.7713989913
 30
0.0
  0
VERTEX
  5
A92
  8
STREAMS
 10
739881.27455388964
 20
4561466.286651778
 30
0.0
  0
VERTEX
  5
A93
  8
STREAMS
 10
739898.09324061044
 20
4561437.7191341696
 30
0.0
  0
VERTEX
  5
A94
  8
STREAMS
 10
739911.54826290684
 20
4561397.3886100892
 30
0.0
  0
VERTEX
  5
A95
  8
STREAMS
 10
739928.36694962741
 20
4561362.0994313853
 30
0.0
  0
VERTEX
  5
A96
  8
STREAMS
 10
739943.50374336937
 20
4561345.2950795367
 30
0.0
  0
VERTEX
  5
A97
  8
STREAMS
 10
739963.68621604762
 20
4561293.2014693404
 30
0.0
  0
VERTEX
  5
A98
  8
STREAMS
 10
739990.59613910725
 20
4561259.5926859993
 30
0.0
  0
VERTEX
  5
A99
  8
STREAMS
 10
740017.50594063418
 20
4561222.6231119307
 30
0.0
  0
VERTEX
  5
A9A
  8
STREAMS
 10
740054.50710003299
 20
4561162.127285989
 30
0.0
  0
VERTEX
  5
A9B
  8
STREAMS
 10
740089.82636645308
 20
4561104.99241006
 30
0.0
  0
VERTEX
  5
A9C
  8
STREAMS
 10
740140.28242661525
 20
4561054.5792748686
 30
0.0
  0
VERTEX
  5
A9D
  8
STREAMS
 10
740205.87540205242
 20
4561010.8878804203
 30
0.0
  0
VERTEX
  5
A9E
  8
STREAMS
 10
740271.46825595677
 20
4560987.3617081866
 30
0.0
  0
VERTEX
  5
A9F
  8
STREAMS
 10
740328.65188803372
 20
4560994.083448926
 30
0.0
  0
VERTEX
  5
AA0
  8
STREAMS
 10
740390.55160198326
 20
4560966.9485561717
 30
0.0
  0
VERTEX
  5
AA1
  8
STREAMS
 10
740444.95517033513
 20
4560960.1539417543
 30
0.0
  0
VERTEX
  5
AA2
  8
STREAMS
 10
740458.55603203981
 20
4560948.2632669676
 30
0.0
  0
VERTEX
  5
AA3
  8
STREAMS
 10
740509.55935458257
 20
4560931.2766114557
 30
0.0
  0
VERTEX
  5
AA4
  8
STREAMS
 10
740548.66193832515
 20
4560938.0713055171
 30
0.0
  0
VERTEX
  5
AA5
  8
STREAMS
 10
740570.76341455348
 20
4560924.4819970364
 30
0.0
  0
VERTEX
  5
AA6
  8
STREAMS
 10
740669.36981382954
 20
4560905.7967078313
 30
0.0
  0
VERTEX
  5
AA7
  8
STREAMS
 10
740735.6741209816
 20
4560902.3993607992
 30
0.0
  0
VERTEX
  5
AA8
  8
STREAMS
 10
740767.97621310549
 20
4560902.3993607992
 30
0.0
  0
VERTEX
  5
AA9
  8
STREAMS
 10
740829.18015154335
 20
4560899.0020137681
 30
0.0
  0
VERTEX
  5
AAA
  8
STREAMS
 10
740866.58261238143
 20
4560883.7140715942
 30
0.0
  0
VERTEX
  5
AAB
  8
STREAMS
 10
740878.48335118138
 20
4560880.316724563
 30
0.0
  0
VERTEX
  5
AAC
  8
STREAMS
 10
740890.38408998156
 20
4560858.2340883268
 30
0.0
  0
VERTEX
  5
AAD
  8
STREAMS
 10
740915.88581201935
 20
4560854.8368209377
 30
0.0
  0
VERTEX
  5
AAE
  8
STREAMS
 10
740971.98950327595
 20
4560854.8368209377
 30
0.0
  0
VERTEX
  5
AAF
  8
STREAMS
 10
740995.79098087619
 20
4560868.4261294194
 30
0.0
  0
VERTEX
  5
AB0
  8
STREAMS
 10
741033.19344171404
 20
4560871.8233968075
 30
0.0
  0
VERTEX
  5
AB1
  8
STREAMS
 10
741070.5959025519
 20
4560883.7140715942
 30
0.0
  0
VERTEX
  5
AB2
  8
STREAMS
 10
741130.09971808526
 20
4560883.7140715942
 30
0.0
  0
VERTEX
  5
AB3
  8
STREAMS
 10
741223.60587017995
 20
4560876.9193775319
 30
0.0
  0
VERTEX
  5
AB4
  8
STREAMS
 10
741261.00820948486
 20
4560873.5221101446
 30
0.0
  0
VERTEX
  5
AB5
  8
STREAMS
 10
741283.10968571319
 20
4560870.1247631144
 30
0.0
  0
VERTEX
  5
AB6
  8
STREAMS
 10
741306.91128484625
 20
4560870.1247631144
 30
0.0
  0
VERTEX
  5
AB7
  8
STREAMS
 10
741340.91349987476
 20
4560859.9328016639
 30
0.0
  0
VERTEX
  5
AB8
  8
STREAMS
 10
741368.11522328435
 20
4560848.0421268763
 30
0.0
  0
VERTEX
  5
AB9
  8
STREAMS
 10
741383.41620789387
 20
4560820.8635099148
 30
0.0
  0
VERTEX
  5
ABA
  8
STREAMS
 10
741415.71830001753
 20
4560776.6982374405
 30
0.0
  0
VERTEX
  5
ABB
  8
STREAMS
 10
741442.92002342723
 20
4560769.903623024
 30
0.0
  0
VERTEX
  5
ABC
  8
STREAMS
 10
741441.22002205532
 20
4560747.8209867859
 30
0.0
  0
VERTEX
  5
ABD
  8
STREAMS
 10
741449.72051504604
 20
4560637.407885245
 30
0.0
  0
VERTEX
  5
ABE
  8
STREAMS
 10
741465.02149965544
 20
4560577.9545909539
 30
0.0
  0
VERTEX
  5
ABF
  8
STREAMS
 10
741482.02260716981
 20
4560533.7893981244
 30
0.0
  0
VERTEX
  5
AC0
  8
STREAMS
 10
741510.92445348413
 20
4560511.7067618873
 30
0.0
  0
VERTEX
  5
AC1
  8
STREAMS
 10
741546.62679141725
 20
4560487.9254919561
 30
0.0
  0
VERTEX
  5
AC2
  8
STREAMS
 10
741577.2287606363
 20
4560465.8428557198
 30
0.0
  0
VERTEX
  5
AC3
  8
STREAMS
 10
741601.03035976936
 20
4560428.472197664
 30
0.0
  0
VERTEX
  5
AC4
  8
STREAMS
 10
741624.8319589023
 20
4560418.2802362153
 30
0.0
  0
VERTEX
  5
AC5
  8
STREAMS
 10
741650.33355940727
 20
4560345.2377130864
 30
0.0
  0
VERTEX
  5
AC6
  8
STREAMS
 10
741686.03589734051
 20
4560260.304515169
 30
0.0
  0
VERTEX
  5
AC7
  8
STREAMS
 10
741705.17877810157
 20
4560201.6674857289
 30
0.0
  0
VERTEX
  5
AC8
  8
STREAMS
 10
741728.98025570158
 20
4560179.5848494917
 30
0.0
  0
VERTEX
  5
AC9
  8
STREAMS
 10
741749.38160902529
 20
4560101.4463456394
 30
0.0
  0
VERTEX
  5
ACA
  8
STREAMS
 10
741786.78406986315
 20
4559989.3345307615
 30
0.0
  0
VERTEX
  5
ACB
  8
STREAMS
 10
741824.186530701
 20
4559911.1960269073
 30
0.0
  0
VERTEX
  5
ACC
  8
STREAMS
 10
741847.98800830124
 20
4559877.2227158817
 30
0.0
  0
VERTEX
  5
ACD
  8
STREAMS
 10
741863.28899291065
 20
4559872.1267351583
 30
0.0
  0
VERTEX
  5
ACE
  8
STREAMS
 10
741883.69034623425
 20
4559863.6334074019
 30
0.0
  0
VERTEX
  5
ACF
  8
STREAMS
 10
741904.09169955796
 20
4559827.961462683
 30
0.0
  0
VERTEX
  5
AD0
  8
STREAMS
 10
741925.597057204
 20
4559779.9933788078
 30
0.0
  0
VERTEX
  5
AD1
  8
STREAMS
 10
741925.597057204
 20
4559747.7187811211
 30
0.0
  0
VERTEX
  5
AD2
  8
STREAMS
 10
741954.49902505113
 20
4559705.2522219839
 30
0.0
  0
VERTEX
  5
AD3
  8
STREAMS
 10
741973.20013393729
 20
4559674.6762579922
 30
0.0
  0
VERTEX
  5
AD4
  8
STREAMS
 10
742024.20345647994
 20
4559618.6203903742
 30
0.0
  0
VERTEX
  5
AD5
  8
STREAMS
 10
742065.00616312725
 20
4559572.7564842068
 30
0.0
  0
VERTEX
  5
AD6
  8
STREAMS
 10
742095.60813234618
 20
4559550.6738479696
 30
0.0
  0
VERTEX
  5
AD7
  8
STREAMS
 10
742102.40862396511
 20
4559531.9885587636
 30
0.0
  0
VERTEX
  5
AD8
  8
STREAMS
 10
742161.91243949835
 20
4559487.8232862912
 30
0.0
  0
VERTEX
  5
AD9
  8
STREAMS
 10
742246.9179770695
 20
4559462.3433030238
 30
0.0
  0
VERTEX
  5
ADA
  8
STREAMS
 10
742301.32154542161
 20
4559401.1914546806
 30
0.0
  0
VERTEX
  5
ADB
  8
STREAMS
 10
742369.32597547839
 20
4559367.2181436568
 30
0.0
  0
VERTEX
  5
ADC
  8
STREAMS
 10
742437.33040553541
 20
4559338.3408930032
 30
0.0
  0
VERTEX
  5
ADD
  8
STREAMS
 10
742490.03385098279
 20
4559285.6822927734
 30
0.0
  0
VERTEX
  5
ADE
  8
STREAMS
 10
742518.93569729698
 20
4559270.3943505976
 30
0.0
  0
VERTEX
  5
ADF
  8
STREAMS
 10
742593.74049743998
 20
4559235.6743830247
 30
0.0
  0
VERTEX
  5
AE0
  8
STREAMS
 10
742639.64357280126
 20
4559203.3997853389
 30
0.0
  0
VERTEX
  5
AE1
  8
STREAMS
 10
742719.54874165822
 20
4559154.1385321403
 30
0.0
  0
VERTEX
  5
AE2
  8
STREAMS
 10
742743.35021925846
 20
4559143.9465706898
 30
0.0
  0
VERTEX
  5
AE3
  8
STREAMS
 10
742975.34294619947
 20
4559030.9649011819
 30
0.0
  0
VERTEX
  5
AE4
  8
STREAMS
 10
743255.57441135112
 20
4558920.758339569
 30
0.0
  0
VERTEX
  5
AE5
  8
STREAMS
 10
743448.52028127981
 20
4558861.0631117234
 30
0.0
  0
VERTEX
  5
AE6
  8
STREAMS
 10
743526.61781235645
 20
4558787.5921264188
 30
0.0
  0
VERTEX
  5
AE7
  8
STREAMS
 10
743531.21169954841
 20
4558723.3050351935
 30
0.0
  0
VERTEX
  5
AE8
  8
STREAMS
 10
743499.05390967941
 20
4558631.4662617343
 30
0.0
  0
VERTEX
  5
AE9
  8
STREAMS
 10
743471.49029676465
 20
4558548.8112150338
 30
0.0
  0
VERTEX
  5
AEA
  8
STREAMS
 10
743471.49029676465
 20
4558493.7080178857
 30
0.0
  0
VERTEX
  5
AEB
  8
STREAMS
 10
743517.42974821012
 20
4558438.6046534199
 30
0.0
  0
VERTEX
  5
AEC
  8
STREAMS
 10
743595.52698952472
 20
4558383.5014562719
 30
0.0
  0
VERTEX
  5
AED
  8
STREAMS
 10
743664.43645645503
 20
4558365.1336681163
 30
0.0
  0
VERTEX
  5
AEE
  8
STREAMS
 10
743774.69119787693
 20
4558314.622334348
 30
0.0
  0
VERTEX
  5
AEF
  8
STREAMS
 10
743857.38261614565
 20
4558300.84657689
 30
0.0
  0
VERTEX
  5
AF0
  8
STREAMS
 10
743953.85540622903
 20
4558268.7030312773
 30
0.0
  0
VERTEX
  5
AF1
  8
STREAMS
 10
743981.41930890596
 20
4558227.3754242687
 30
0.0
  0
VERTEX
  5
AF2
  8
STREAMS
 10
743949.26151903672
 20
4558176.8640905004
 30
0.0
  0
VERTEX
  5
AF3
  8
STREAMS
 10
743935.47985746025
 20
4558107.9851358952
 30
0.0
  0
VERTEX
  5
AF4
  8
STREAMS
 10
743986.01319609804
 20
4558052.8817714294
 30
0.0
  0
VERTEX
  5
AF5
  8
STREAMS
 10
744045.73459888215
 20
4558011.5543317376
 30
0.0
  0
VERTEX
  5
AF6
  8
STREAMS
 10
744224.89880723425
 20
4558011.5543317376
 30
0.0
  0
VERTEX
  5
AF7
  8
STREAMS
 10
744243.27464576473
 20
4558098.801241816
 30
0.0
  0
VERTEX
  5
AF8
  8
STREAMS
 10
744206.52296870353
 20
4558209.0078034308
 30
0.0
  0
VERTEX
  5
AF9
  8
STREAMS
 10
744266.24466124945
 20
4558305.4384402689
 30
0.0
  0
VERTEX
  5
AFA
  8
STREAMS
 10
744385.68746681768
 20
4558245.7432124242
 30
0.0
  0
VERTEX
  5
AFB
  8
STREAMS
 10
744408.65719254036
 20
4558176.8640905004
 30
0.0
  0
VERTEX
  5
AFC
  8
STREAMS
 10
744468.37859532447
 20
4558121.7608933523
 30
0.0
  0
VERTEX
  5
AFD
  8
STREAMS
 10
744518.91222372418
 20
4558080.4334536614
 30
0.0
  0
VERTEX
  5
AFE
  8
STREAMS
 10
744615.38530356949
 20
4558089.6173477378
 30
0.0
  0
VERTEX
  5
AFF
  8
STREAMS
 10
744610.79112661525
 20
4558020.7382258149
 30
0.0
  0
VERTEX
  5
B00
  8
STREAMS
 10
744656.73086782289
 20
4557942.6752098128
 30
0.0
  0
VERTEX
  5
B01
  8
STREAMS
 10
744684.29448073776
 20
4557860.0203304319
 30
0.0
  0
VERTEX
  5
B02
  8
STREAMS
 10
744766.98560924456
 20
4557818.6928907419
 30
0.0
  0
VERTEX
  5
B03
  8
STREAMS
 10
744803.73728630575
 20
4557795.7330718888
 30
0.0
  0
VERTEX
  5
B04
  8
STREAMS
 10
744794.54951192171
 20
4557745.2217381196
 30
0.0
  0
VERTEX
  5
B05
  8
STREAMS
 10
744785.36144777539
 20
4557648.7911012797
 30
0.0
  0
VERTEX
  5
B06
  8
STREAMS
 10
744863.45868908975
 20
4557657.9749953579
 30
0.0
  0
VERTEX
  5
B07
  8
STREAMS
 10
744900.21036615095
 20
4557612.0555249713
 30
0.0
  0
VERTEX
  5
B08
  8
STREAMS
 10
744959.93176893517
 20
4557515.6248881314
 30
0.0
  0
VERTEX
  5
B09
  8
STREAMS
 10
744964.52565612737
 20
4557442.1537355101
 30
0.0
  0
VERTEX
  5
B0A
  8
STREAMS
 10
744987.49567161209
 20
4557377.8666442838
 30
0.0
  0
VERTEX
  5
B0B
  8
STREAMS
 10
745028.84123586561
 20
4557336.5392045928
 30
0.0
  0
VERTEX
  5
B0C
  8
STREAMS
 10
745102.34458998812
 20
4557249.2922945134
 30
0.0
  0
VERTEX
  5
B0D
  8
STREAMS
 10
745134.50209009508
 20
4557166.6374151316
 30
0.0
  0
VERTEX
  5
B0E
  8
STREAMS
 10
745212.59933140967
 20
4557157.4535210542
 30
0.0
  0
VERTEX
  5
B0F
  8
STREAMS
 10
745235.5690571327
 20
4557083.9825357497
 30
0.0
  0
VERTEX
  5
B10
  8
STREAMS
 10
745249.35100847099
 20
4556987.5517315939
 30
0.0
  0
VERTEX
  5
B11
  8
STREAMS
 10
745295.29074967862
 20
4556923.2646403667
 30
0.0
  0
VERTEX
  5
B12
  8
STREAMS
 10
745387.16965256969
 20
4556868.1612759009
 30
0.0
  0
VERTEX
  5
B13
  8
STREAMS
 10
745419.32744243881
 20
4556826.83383621
 30
0.0
  0
VERTEX
  5
B14
  8
STREAMS
 10
745460.6730066922
 20
4556771.7306390628
 30
0.0
  0
VERTEX
  5
B15
  8
STREAMS
 10
745570.92803787615
 20
4556689.0755923642
 30
0.0
  0
VERTEX
  5
B16
  8
STREAMS
 10
745731.71640769741
 20
4556537.5415910576
 30
0.0
  0
VERTEX
  5
B17
  8
STREAMS
 10
745846.56532607344
 20
4556532.9497276777
 30
0.0
  0
VERTEX
  5
B18
  8
STREAMS
 10
746085.45093720953
 20
4556597.2368189041
 30
0.0
  0
VERTEX
  5
B19
  8
STREAMS
 10
746241.64541983895
 20
4556560.5014099106
 30
0.0
  0
VERTEX
  5
B1A
  8
STREAMS
 10
746328.93072529975
 20
4556606.4207129823
 30
0.0
  0
VERTEX
  5
B1B
  8
STREAMS
 10
746411.62185380654
 20
4556633.9723952152
 30
0.0
  0
VERTEX
  5
B1C
  8
STREAMS
 10
746563.22244924377
 20
4556643.1562892916
 30
0.0
  0
VERTEX
  5
B1D
  8
STREAMS
 10
746645.91357775056
 20
4556693.6676230608
 30
0.0
  0
VERTEX
  5
B1E
  8
STREAMS
 10
746783.73222184926
 20
4556799.282153978
 30
0.0
  0
VERTEX
  5
B1F
  8
STREAMS
 10
746852.64168877969
 20
4556955.4081859812
 30
0.0
  0
VERTEX
  5
B20
  8
STREAMS
 10
746939.92670447845
 20
4557061.0227168966
 30
0.0
  0
SEQEND
  5
B21
  8
STREAMS
  0
POLYLINE
  5
85
  8
STREAMS
 66
     1
 10
0.0
 20
0.0
 30
0.0
  0
VERTEX
  5
B22
  8
STREAMS
 10
737339.37521209533
 20
4569394.0687825857
 30
0.0
  0
VERTEX
  5
B23
  8
STREAMS
 10
737342.6819991502
 20
4569304.8596916767
 30
0.0
  0
VERTEX
  5
B24
  8
STREAMS
 10
737345.79865478096
 20
4569220.7798852446
 30
0.0
  0
VERTEX
  5
B25
  8
STREAMS
 10
737348.80389712192
 20
4569139.7057390315
 30
0.0
  0
VERTEX
  5
B26
  8
STREAMS
 10
737342.6819991502
 20
4569086.7929719146
 30
0.0
  0
VERTEX
  5
B27
  8
STREAMS
 10
737365.82999466755
 20
4569042.1883866396
 30
0.0
  0
VERTEX
  5
B28
  8
STREAMS
 10
737405.51229005889
 20
4569042.1883866396
 30
0.0
  0
VERTEX
  5
B29
  8
STREAMS
 10
737433.34015066235
 20
4569049.667376495
 30
0.0
  0
SEQEND
  5
B2A
  8
STREAMS
  0
POLYLINE
  5
86
  8
STREAMS
 66
     1
 10
0.0
 20
0.0
 30
0.0
  0
VERTEX
  5
B2B
  8
STREAMS
 10
735746.50358067011
 20
4569993.8709305469
 30
0.0
  0
VERTEX
  5
B2C
  8
STREAMS
 10
735766.24160775077
 20
4569972.1775114359
 30
0.0
  0
VERTEX
  5
B2D
  8
STREAMS
 10
735799.79646039358
 20
4569930.7627225798
 30
0.0
  0
VERTEX
  5
B2E
  8
STREAMS
 10
735847.16789553291
 20
4569865.6823856039
 30
0.0
  0
VERTEX
  5
B2F
  8
STREAMS
 10
735884.6703778985
 20
4569814.4069516994
 30
0.0
  0
VERTEX
  5
B30
  8
STREAMS
 10
735930.06799817644
 20
4569772.9922424881
 30
0.0
  0
VERTEX
  5
B31
  8
STREAMS
 10
735967.57048054202
 20
4569692.1348734312
 30
0.0
  0
VERTEX
  5
B32
  8
STREAMS
 10
736026.7848048493
 20
4569625.0823278008
 30
0.0
  0
VERTEX
  5
B33
  8
STREAMS
 10
736078.10386971151
 20
4569544.2249587458
 30
0.0
  0
VERTEX
  5
B34
  8
STREAMS
 10
736131.39674943499
 20
4569441.6741705779
 30
0.0
  0
VERTEX
  5
B35
  8
STREAMS
 10
736170.87304666184
 20
4569368.7052379176
 30
0.0
  0
VERTEX
  5
B36
  8
STREAMS
 10
736220.21829666256
 20
4569279.959352822
 30
0.0
  0
VERTEX
  5
B37
  8
STREAMS
 10
736279.43262097007
 20
4569161.6314529311
 30
0.0
  0
VERTEX
  5
B38
  8
STREAMS
 10
736322.85654791957
 20
4569134.0216467893
 30
0.0
  0
VERTEX
  5
B39
  8
STREAMS
 10
736386.01850194973
 20
4569106.4117610054
 30
0.0
  0
VERTEX
  5
B3A
  8
STREAMS
 10
736447.20664111862
 20
4569086.6904709032
 30
0.0
  0
VERTEX
  5
B3B
  8
STREAMS
 10
736473.23302042845
 20
4569068.650691174
 30
0.0
  0
VERTEX
  5
B3C
  8
STREAMS
 10
736492.29094973404
 20
4569064.8423843794
 30
0.0
  0
VERTEX
  5
B3D
  8
STREAMS
 10
736513.89013073302
 20
4569073.728513211
 30
0.0
  0
VERTEX
  5
B3E
  8
STREAMS
 10
736541.84183330066
 20
4569055.9561759019
 30
0.0
  0
VERTEX
  5
B3F
  8
STREAMS
 10
736558.35875397886
 20
4569036.9144029934
 30
0.0
  0
VERTEX
  5
B40
  8
STREAMS
 10
736571.06404018227
 20
4569024.2198877214
 30
0.0
  0
VERTEX
  5
B41
  8
STREAMS
 10
736597.45270888961
 20
4569001.2513783323
 30
0.0
  0
SEQEND
  5
B42
  8
STREAMS
  0
POLYLINE
  5
87
  8
STREAMS
 66
     1
 10
0.0
 20
0.0
 30
0.0
  0
VERTEX
  5
B43
  8
STREAMS
 10
734649.25624111085
 20
4570223.8501473768
 30
0.0
  0
VERTEX
  5
B44
  8
STREAMS
 10
734718.27753644367
 20
4570124.9038586337
 30
0.0
  0
VERTEX
  5
B45
  8
STREAMS
 10
734784.29794288066
 20
4570025.9575698907
 30
0.0
  0
VERTEX
  5
B46
  8
STREAMS
 10
734844.31644999306
 20
4569918.0161205474
 30
0.0
  0
VERTEX
  5
B47
  8
STREAMS
 10
734901.33406820975
 20
4569840.0584071316
 30
0.0
  0
VERTEX
  5
B48
  8
STREAMS
 10
734931.34332176612
 20
4569774.0942677325
 30
0.0
  0
VERTEX
  5
B49
  8
STREAMS
 10
734985.36005108722
 20
4569717.1251296457
 30
0.0
  0
VERTEX
  5
B4A
  8
STREAMS
 10
735015.36930464348
 20
4569675.1479789903
 30
0.0
  0
VERTEX
  5
B4B
  8
STREAMS
 10
735075.38781175599
 20
4569627.1740015028
 30
0.0
  0
VERTEX
  5
B4C
  8
STREAMS
 10
735141.40821819287
 20
4569519.2325521596
 30
0.0
  0
VERTEX
  5
B4D
  8
STREAMS
 10
735204.42761420133
 20
4569453.2684127586
 30
0.0
  0
VERTEX
  5
B4E
  8
STREAMS
 10
735300.45727419446
 20
4569405.2944352739
 30
0.0
  0
VERTEX
  5
B4F
  8
STREAMS
 10
735381.48236817599
 20
4569321.3399746735
 30
0.0
  0
VERTEX
  5
B50
  8
STREAMS
 10
735456.50544130034
 20
4569270.3676634161
 30
0.0
  0
VERTEX
  5
B51
  8
STREAMS
 10
735543.53231307329
 20
4569203.2058470892
 30
0.0
  0
VERTEX
  5
B52
  8
STREAMS
 10
735618.55550773034
 20
4569104.2595583461
 30
0.0
  0
VERTEX
  5
B53
  8
STREAMS
 10
735717.58605661942
 20
4568978.3278674446
 30
0.0
  0
VERTEX
  5
B54
  8
STREAMS
 10
735750.59632060432
 20
4568891.3750730734
 30
0.0
  0
VERTEX
  5
B55
  8
STREAMS
 10
735818.09882003022
 20
4568835.8300379999
 30
0.0
  0
SEQEND
  5
B56
  8
STREAMS
  0
POLYLINE
  5
88
  8
STREAMS
 66
     1
 10
0.0
 20
0.0
 30
0.0
  0
VERTEX
  5
B57
  8
STREAMS
 10
730685.07095030311
 20
4570918.7315801261
 30
0.0
  0
VERTEX
  5
B58
  8
STREAMS
 10
730714.15460974677
 20
4570843.8326497963
 30
0.0
  0
VERTEX
  5
B59
  8
STREAMS
 10
730728.67219366692
 20
4570803.5401156005
 30
0.0
  0
VERTEX
  5
B5A
  8
STREAMS
 10
730760.93369382189
 20
4570790.646491915
 30
0.0
  0
VERTEX
  5
B5B
  8
STREAMS
 10
730819.00439410098
 20
4570700.3912057588
 30
0.0
  0
VERTEX
  5
B5C
  8
STREAMS
 10
730878.68819977099
 20
4570623.0295432899
 30
0.0
  0
VERTEX
  5
B5D
  8
STREAMS
 10
730952.88958936115
 20
4570515.0454847459
 30
0.0
  0
VERTEX
  5
B5E
  8
STREAMS
 10
730999.6687949691
 20
4570445.7422972592
 30
0.0
  0
VERTEX
  5
B5F
  8
STREAMS
 10
731035.15650590614
 20
4570394.1678025173
 30
0.0
  0
VERTEX
  5
B60
  8
STREAMS
 10
731072.25720070116
 20
4570347.4284564788
 30
0.0
  0
VERTEX
  5
B61
  8
STREAMS
 10
731101.29249007429
 20
4570305.5242591444
 30
0.0
  0
VERTEX
  5
B62
  8
STREAMS
 10
731115.81019552727
 20
4570281.3486749129
 30
0.0
  0
VERTEX
  5
B63
  8
STREAMS
 10
731125.48858480726
 20
4570244.279546638
 30
0.0
  0
VERTEX
  5
B64
  8
STREAMS
 10
731141.61939565139
 20
4570208.8220815035
 30
0.0
  0
VERTEX
  5
B65
  8
STREAMS
 10
731159.36319035327
 20
4570179.8115078546
 30
0.0
  0
VERTEX
  5
B66
  8
STREAMS
 10
731177.10698505538
 20
4570154.0242604828
 30
0.0
  0
VERTEX
  5
B67
  8
STREAMS
 10
731202.91618517938
 20
4570131.4604190346
 30
0.0
  0
VERTEX
  5
B68
  8
STREAMS
 10
731222.98672611127
 20
4570120.1218320541
 30
0.0
  0
VERTEX
  5
B69
  8
STREAMS
 10
731255.52398428135
 20
4570098.0992469164
 30
0.0
  0
VERTEX
  5
B6A
  8
STREAMS
 10
731277.56542328652
 20
4570070.8331018947
 30
0.0
  0
VERTEX
  5
B6B
  8
STREAMS
 10
731313.25147581915
 20
4570025.7391081406
 30
0.0
  0
VERTEX
  5
B6C
  8
STREAMS
 10
731357.33435382938
 20
4569973.3042261228
 30
0.0
  0
VERTEX
  5
B6D
  8
STREAMS
 10
731387.77237524663
 20
4569936.5998644633
 30
0.0
  0
VERTEX
  5
B6E
  8
STREAMS
 10
731422.40887016943
 20
4569891.5058707073
 30
0.0
  0
VERTEX
  5
B6F
  8
STREAMS
 10
731459.1446018446
 20
4569854.8014294021
 30
0.0
  0
VERTEX
  5
B70
  8
STREAMS
 10
731484.33471367951
 20
4569808.6587714562
 30
0.0
  0
VERTEX
  5
B71
  8
STREAMS
 10
731510.57450465718
 20
4569766.7109295567
 30
0.0
  0
VERTEX
  5
B72
  8
STREAMS
 10
731544.1614419698
 20
4569721.6169358026
 30
0.0
  0
VERTEX
  5
B73
  8
STREAMS
 10
731568.30199619476
 20
4569685.4189466573
 30
0.0
  0
VERTEX
  5
B74
  8
STREAMS
 10
731593.4922295626
 20
4569645.5685127825
 30
0.0
  0
VERTEX
  5
B75
  8
STREAMS
 10
731637.57498604001
 20
4569572.1597098159
 30
0.0
  0
VERTEX
  5
B76
  8
STREAMS
 10
731669.06268660026
 20
4569542.7961567733
 30
0.0
  0
VERTEX
  5
B77
  8
STREAMS
 10
731694.25291996775
 20
4569507.1404593019
 30
0.0
  0
VERTEX
  5
B78
  8
STREAMS
 10
731721.54226855538
 20
4569459.9490575232
 30
0.0
  0
VERTEX
  5
B79
  8
STREAMS
 10
731745.68282278045
 20
4569422.195952028
 30
0.0
  0
VERTEX
  5
B7A
  8
STREAMS
 10
731765.6250250329
 20
4569391.7837347938
 30
0.0
  0
VERTEX
  5
B7B
  8
STREAMS
 10
731781.36887531297
 20
4569378.1507021058
 30
0.0
  0
VERTEX
  5
B7C
  8
STREAMS
 10
731796.06316798308
 20
4569365.5663336068
 30
0.0
  0
VERTEX
  5
B7D
  8
STREAMS
 10
731817.05492784549
 20
4569346.6898206817
 30
0.0
  0
VERTEX
  5
B7E
  8
STREAMS
 10
731829.64998376288
 20
4569326.7645639228
 30
0.0
  0
VERTEX
  5
B7F
  8
STREAMS
 10
731852.80138219963
 20
4569311.5012315484
 30
0.0
  0
VERTEX
  5
B80
  8
STREAMS
 10
731877.99149403465
 20
4569296.8194550257
 30
0.0
  0
VERTEX
  5
B81
  8
STREAMS
 10
731883.23940361699
 20
4569280.0403501252
 30
0.0
  0
VERTEX
  5
B82
  8
STREAMS
 10
731897.93369628722
 20
4569249.62813289
 30
0.0
  0
VERTEX
  5
B83
  8
STREAMS
 10
731910.5287522045
 20
4569223.410652061
 30
0.0
  0
VERTEX
  5
B84
  8
STREAMS
 10
731911.57843134727
 20
4569180.4140663287
 30
0.0
  0
VERTEX
  5
B85
  8
STREAMS
 10
731927.32228162745
 20
4569167.8296978297
 30
0.0
  0
VERTEX
  5
B86
  8
STREAMS
 10
731947.26448387979
 20
4569144.7583688572
 30
0.0
  0
VERTEX
  5
B87
  8
STREAMS
 10
731949.3635990998
 20
4569131.1253361693
 30
0.0
  0
VERTEX
  5
B88
  8
STREAMS
 10
731970.35548049503
 20
4569080.7878621751
 30
0.0
  0
VERTEX
  5
B89
  8
STREAMS
 10
731987.14888838481
 20
4569054.5704609891
 30
0.0
  0
VERTEX
  5
B8A
  8
STREAMS
 10
731996.59527147259
 20
4569017.8660196839
 30
0.0
  0
VERTEX
  5
B8B
  8
STREAMS
 10
732040.67802795011
 20
4568917.1910716994
 30
0.0
  0
VERTEX
  5
B8C
  8
STREAMS
 10
732080.56243245513
 20
4568844.8310125666
 30
0.0
  0
VERTEX
  5
B8D
  8
STREAMS
 10
732111.0005754052
 20
4568827.0031638313
 30
0.0
  0
VERTEX
  5
B8E
  8
STREAMS
 10
732133.04201441037
 20
4568824.9057558076
 30
0.0
  0
VERTEX
  5
B8F
  8
STREAMS
 10
732145.63707032776
 20
4568812.3213873086
 30
0.0
  0
VERTEX
  5
B90
  8
STREAMS
 10
732192.86862116784
 20
4568816.5162033569
 30
0.0
  0
VERTEX
  5
B91
  8
STREAMS
 10
732245.34820312331
 20
4568817.5648675459
 30
0.0
  0
VERTEX
  5
B92
  8
STREAMS
 10
732279.98469804577
 20
4568809.175315096
 30
0.0
  0
VERTEX
  5
B93
  8
STREAMS
 10
732303.34428223816
 20
4568779.375794271
 30
0.0
  0
VERTEX
  5
B94
  8
STREAMS
 10
732325.82518399437
 20
4568763.5203931192
 30
0.0
  0
VERTEX
  5
B95
  8
STREAMS
 10
732357.56287760718
 20
4568759.5565428324
 30
0.0
  0
VERTEX
  5
B96
  8
STREAMS
 10
732372.10938634328
 20
4568764.8416765481
 30
0.0
  0
VERTEX
  5
B97
  8
STREAMS
 10
732390.6229700566
 20
4568788.6246986333
 30
0.0
  0
VERTEX
  5
B98
  8
STREAMS
 10
732398.55748460942
 20
4568788.6246986333
 30
0.0
  0
VERTEX
  5
B99
  8
STREAMS
 10
732427.03946270491
 20
4568781.1011239588
 30
0.0
  0
VERTEX
  5
B9A
  8
STREAMS
 10
732519.98045934679
 20
4568719.1932056844
 30
0.0
  0
VERTEX
  5
B9B
  8
STREAMS
 10
732654.2524936382
 20
4568603.3296307996
 30
0.0
  0
VERTEX
  5
B9C
  8
STREAMS
 10
732715.28531383676
 20
4568432.5834147111
 30
0.0
  0
VERTEX
  5
B9D
  8
STREAMS
 10
732791.74526973336
 20
4568300.4968049023
 30
0.0
  0
SEQEND
  5
B9E
  8
STREAMS
  0
POLYLINE
  5
89
  8
STREAMS
 66
     1
 10
0.0
 20
0.0
 30
0.0
  0
VERTEX
  5
B9F
  8
STREAMS
 10
731326.91237474699
 20
4570835.5268025212
 30
0.0
  0
VERTEX
  5
BA0
  8
STREAMS
 10
731337.4961836884
 20
4570764.5243441928
 30
0.0
  0
VERTEX
  5
BA1
  8
STREAMS
 10
731345.05613402685
 20
4570692.0112105124
 30
0.0
  0
VERTEX
  5
BA2
  8
STREAMS
 10
731369.24773204501
 20
4570658.7759545539
 30
0.0
  0
VERTEX
  5
BA3
  8
STREAMS
 10
731391.92746152799
 20
4570608.9231900824
 30
0.0
  0
VERTEX
  5
BA4
  8
STREAMS
 10
731411.58308934269
 20
4570575.6880137678
 30
0.0
  0
VERTEX
  5
BA5
  8
STREAMS
 10
731411.58308934269
 20
4570563.6024516672
 30
0.0
  0
VERTEX
  5
BA6
  8
STREAMS
 10
731413.09507941047
 20
4570533.3886260549
 30
0.0
  0
VERTEX
  5
BA7
  8
STREAMS
 10
731416.11905954592
 20
4570519.7923886012
 30
0.0
  0
VERTEX
  5
BA8
  8
STREAMS
 10
731429.72684862267
 20
4570506.1962307906
 30
0.0
  0
VERTEX
  5
BA9
  8
STREAMS
 10
731443.3346376993
 20
4570492.5999933379
 30
0.0
  0
VERTEX
  5
BAA
  8
STREAMS
 10
731469.03822578501
 20
4570482.0251862314
 30
0.0
  0
VERTEX
  5
BAB
  8
STREAMS
 10
731469.03822578501
 20
4570488.0678876378
 30
0.0
  0
VERTEX
  5
BAC
  8
STREAMS
 10
731488.69397513266
 20
4570488.0678876378
 30
0.0
  0
VERTEX
  5
BAD
  8
STREAMS
 10
731499.27778407396
 20
4570479.0037558842
 30
0.0
  0
VERTEX
  5
BAE
  8
STREAMS
 10
731502.30176420941
 20
4570472.9609748321
 30
0.0
  0
VERTEX
  5
BAF
  8
STREAMS
 10
731502.30176420941
 20
4570459.3648170242
 30
0.0
  0
VERTEX
  5
BB0
  8
STREAMS
 10
731509.8617145482
 20
4570445.7685795696
 30
0.0
  0
VERTEX
  5
BB1
  8
STREAMS
 10
731532.54132249823
 20
4570447.2792549217
 30
0.0
  0
VERTEX
  5
BB2
  8
STREAMS
 10
731550.68508177821
 20
4570444.2579042176
 30
0.0
  0
VERTEX
  5
BB3
  8
STREAMS
 10
731560.65102723846
 20
4570430.4610219924
 30
0.0
  0
VERTEX
  5
BB4
  8
STREAMS
 10
731583.9486202026
 20
4570423.1082103606
 30
0.0
  0
VERTEX
  5
BB5
  8
STREAMS
 10
731606.97374601813
 20
4570415.84139043
 30
0.0
  0
VERTEX
  5
BB6
  8
STREAMS
 10
731636.54949193262
 20
4570410.9163243668
 30
0.0
  0
VERTEX
  5
BB7
  8
STREAMS
 10
731654.62361289491
 20
4570389.5742121404
 30
0.0
  0
VERTEX
  5
BB8
  8
STREAMS
 10
731649.69436242012
 20
4570364.9487225376
 30
0.0
  0
VERTEX
  5
BB9
  8
STREAMS
 10
731631.62024145783
 20
4570327.1897234339
 30
0.0
  0
VERTEX
  5
BBA
  8
STREAMS
 10
731643.1218664099
 20
4570307.4892998952
 30
0.0
  0
VERTEX
  5
BBB
  8
STREAMS
 10
731649.69436242012
 20
4570292.7140220627
 30
0.0
  0
VERTEX
  5
BBC
  8
STREAMS
 10
731657.9097393672
 20
4570238.5379767949
 30
0.0
  0
VERTEX
  5
BBD
  8
STREAMS
 10
731687.48548528156
 20
4570222.1210102737
 30
0.0
  0
VERTEX
  5
BBE
  8
STREAMS
 10
731705.55960624397
 20
4570199.1372093596
 30
0.0
  0
VERTEX
  5
BBF
  8
STREAMS
 10
731690.77173328667
 20
4570167.9449650077
 30
0.0
  0
VERTEX
  5
BC0
  8
STREAMS
 10
731680.91311080428
 20
4570135.1110319672
 30
0.0
  0
VERTEX
  5
BC1
  8
STREAMS
 10
731674.34073632688
 20
4570090.7851984678
 30
0.0
  0
VERTEX
  5
BC2
  8
STREAMS
 10
731672.6976123245
 20
4570044.8175966414
 30
0.0
  0
VERTEX
  5
BC3
  8
STREAMS
 10
731680.91311080428
 20
4570003.7751405174
 30
0.0
  0
VERTEX
  5
BC4
  8
STREAMS
 10
731684.19935880951
 20
4569928.257062667
 30
0.0
  0
VERTEX
  5
BC5
  8
STREAMS
 10
731698.98723176657
 20
4569882.2895404818
 30
0.0
  0
VERTEX
  5
BC6
  8
STREAMS
 10
731708.84573271614
 20
4569839.605395671
 30
0.0
  0
VERTEX
  5
BC7
  8
STREAMS
 10
731731.84910415346
 20
4569826.4718065262
 30
0.0
  0
VERTEX
  5
BC8
  8
STREAMS
 10
731754.85247559054
 20
4569833.0385612771
 30
0.0
  0
VERTEX
  5
BC9
  8
STREAMS
 10
731787.71446951001
 20
4569821.5466608191
 30
0.0
  0
VERTEX
  5
BCA
  8
STREAMS
 10
731810.71771941427
 20
4569796.9211712172
 30
0.0
  0
VERTEX
  5
BCB
  8
STREAMS
 10
731832.3085146473
 20
4569772.9407132296
 30
0.0
  0
VERTEX
  5
BCC
  8
STREAMS
 10
731862.28592659917
 20
4569737.9967885138
 30
0.0
  0
VERTEX
  5
BCD
  8
STREAMS
 10
731867.28214166919
 20
4569705.5488868654
 30
0.0
  0
VERTEX
  5
BCE
  8
STREAMS
 10
731847.29728138971
 20
4569698.0609769532
 30
0.0
  0
VERTEX
  5
BCF
  8
STREAMS
 10
731814.82176190265
 20
4569700.5569203747
 30
0.0
  0
VERTEX
  5
BD0
  8
STREAMS
 10
731782.34624241572
 20
4569698.0609769532
 30
0.0
  0
VERTEX
  5
BD1
  8
STREAMS
 10
731767.3574756732
 20
4569653.1331192562
 30
0.0
  0
VERTEX
  5
BD2
  8
STREAMS
 10
731777.34990581276
 20
4569610.7012049844
 30
0.0
  0
VERTEX
  5
BD3
  8
STREAMS
 10
731774.85179827805
 20
4569580.7493264023
 30
0.0
  0
VERTEX
  5
BD4
  8
STREAMS
 10
731802.33110269508
 20
4569568.2693703538
 30
0.0
  0
VERTEX
  5
BD5
  8
STREAMS
 10
731829.81040711224
 20
4569580.7493264023
 30
0.0
  0
VERTEX
  5
BD6
  8
STREAMS
 10
731872.27847827179
 20
4569605.7092384929
 30
0.0
  0
VERTEX
  5
BD7
  8
STREAMS
 10
731909.75021282875
 20
4569620.6852176068
 30
0.0
  0
VERTEX
  5
BD8
  8
STREAMS
 10
731974.70125180285
 20
4569603.2132950705
 30
0.0
  0
VERTEX
  5
BD9
  8
STREAMS
 10
731989.68989701243
 20
4569580.7493264023
 30
0.0
  0
VERTEX
  5
BDA
  8
STREAMS
 10
731967.20692919788
 20
4569493.3896340756
 30
0.0
  0
VERTEX
  5
BDB
  8
STREAMS
 10
731967.20692919788
 20
4569475.9177115401
 30
0.0
  0
VERTEX
  5
BDC
  8
STREAMS
 10
732017.16920142947
 20
4569423.501864288
 30
0.0
  0
VERTEX
  5
BDD
  8
STREAMS
 10
732042.15039831179
 20
4569386.0619961489
 30
0.0
  0
VERTEX
  5
BDE
  8
STREAMS
 10
732029.65986063716
 20
4569361.1020840574
 30
0.0
  0
VERTEX
  5
BDF
  8
STREAMS
 10
731992.1881260802
 20
4569321.1661928501
 30
0.0
  0
VERTEX
  5
BE0
  8
STREAMS
 10
732012.17298635968
 20
4569293.7103373343
 30
0.0
  0
VERTEX
  5
BE1
  8
STREAMS
 10
732057.13916505431
 20
4569243.7905131476
 30
0.0
  0
VERTEX
  5
BE2
  8
STREAMS
 10
732112.0977738885
 20
4569248.7824796382
 30
0.0
  0
VERTEX
  5
BE3
  8
STREAMS
 10
732132.08263416798
 20
4569248.7824796382
 30
0.0
  0
VERTEX
  5
BE4
  8
STREAMS
 10
732136.21852150431
 20
4569212.0365835484
 30
0.0
  0
VERTEX
  5
BE5
  8
STREAMS
 10
732127.0864190982
 20
4569166.4147538031
 30
0.0
  0
VERTEX
  5
BE6
  8
STREAMS
 10
732117.09398895851
 20
4569116.4949296182
 30
0.0
  0
VERTEX
  5
BE7
  8
STREAMS
 10
732134.58074170304
 20
4569091.5350175239
 30
0.0
  0
VERTEX
  5
BE8
  8
STREAMS
 10
732164.55815365503
 20
4569066.5751054324
 30
0.0
  0
VERTEX
  5
BE9
  8
STREAMS
 10
732177.04881286272
 20
4568981.71135653
 30
0.0
  0
VERTEX
  5
BEA
  8
STREAMS
 10
732187.04124300228
 20
4568936.7834988339
 30
0.0
  0
VERTEX
  5
BEB
  8
STREAMS
 10
732227.0110850943
 20
4568901.8396537621
 30
0.0
  0
VERTEX
  5
BEC
  8
STREAMS
 10
732261.98483364913
 20
4568881.8717081603
 30
0.0
  0
VERTEX
  5
BED
  8
STREAMS
 10
732306.95089081069
 20
4568851.9198295772
 30
0.0
  0
VERTEX
  5
BEE
  8
STREAMS
 10
732355.19201495615
 20
4568828.9586473787
 30
0.0
  0
VERTEX
  5
BEF
  8
STREAMS
 10
732427.03946270491
 20
4568781.1011239588
 30
0.0
  0
SEQEND
  5
BF0
  8
STREAMS
  0
POLYLINE
  5
8A
  8
STREAMS
 66
     1
 10
0.0
 20
0.0
 30
0.0
  0
VERTEX
  5
BF1
  8
STREAMS
 10
725490.9785403061
 20
4568486.2992806165
 30
0.0
  0
VERTEX
  5
BF2
  8
STREAMS
 10
725460.30097766023
 20
4568448.836475186
 30
0.0
  0
VERTEX
  5
BF3
  8
STREAMS
 10
725472.23112740763
 20
4568413.0765245501
 30
0.0
  0
VERTEX
  5
BF4
  8
STREAMS
 10
725499.50005847809
 20
4568355.1794616161
 30
0.0
  0
VERTEX
  5
BF5
  8
STREAMS
 10
725477.34401400434
 20
4568317.7166561875
 30
0.0
  0
VERTEX
  5
BF6
  8
STREAMS
 10
725475.63975898304
 20
4568273.4425112326
 30
0.0
  0
VERTEX
  5
BF7
  8
STREAMS
 10
725467.11824081105
 20
4568234.2768510133
 30
0.0
  0
VERTEX
  5
BF8
  8
STREAMS
 10
725468.82249583211
 20
4568190.0026264153
 30
0.0
  0
VERTEX
  5
BF9
  8
STREAMS
 10
725484.16127715504
 20
4568171.2712237006
 30
0.0
  0
VERTEX
  5
BFA
  8
STREAMS
 10
725470.52687238646
 20
4568132.1055634813
 30
0.0
  0
VERTEX
  5
BFB
  8
STREAMS
 10
725475.63975898304
 20
4568092.9399032611
 30
0.0
  0
VERTEX
  5
BFC
  8
STREAMS
 10
725463.70960923564
 20
4568043.5571142863
 30
0.0
  0
VERTEX
  5
BFD
  8
STREAMS
 10
725443.25794131611
 20
4568012.9057280282
 30
0.0
  0
VERTEX
  5
BFE
  8
STREAMS
 10
725426.21490497189
 20
4567941.3858267544
 30
0.0
  0
VERTEX
  5
BFF
  8
STREAMS
 10
725419.39764182107
 20
4567902.2201665342
 30
0.0
  0
VERTEX
  5
C00
  8
STREAMS
 10
725383.60731411155
 20
4567810.266007755
 30
0.0
  0
VERTEX
  5
C01
  8
STREAMS
 10
725387.01594568684
 20
4567784.7231858717
 30
0.0
  0
VERTEX
  5
C02
  8
STREAMS
 10
725361.45126963768
 20
4567757.4775888398
 30
0.0
  0
VERTEX
  5
C03
  8
STREAMS
 10
725305.20927400864
 20
4567702.9862354901
 30
0.0
  0
VERTEX
  5
C04
  8
STREAMS
 10
725291.574747707
 20
4567653.6034465162
 30
0.0
  0
VERTEX
  5
C05
  8
STREAMS
 10
725296.68775583641
 20
4567607.6263671266
 30
0.0
  0
VERTEX
  5
C06
  8
STREAMS
 10
725286.46186111029
 20
4567565.0549973221
 30
0.0
  0
VERTEX
  5
C07
  8
STREAMS
 10
725258.50372799556
 20
4567531.4436701899
 30
0.0
  0
VERTEX
  5
C08
  8
STREAMS
 10
725228.40683856758
 20
4567457.4221660187
 30
0.0
  0
VERTEX
  5
C09
  8
STREAMS
 10
725204.74626279098
 20
4567414.3131389124
 30
0.0
  0
VERTEX
  5
C0A
  8
STREAMS
 10
725152.41745782923
 20
4567318.9712548917
 30
0.0
  0
VERTEX
  5
C0B
  8
STREAMS
 10
725098.77796644485
 20
4567247.5127586536
 30
0.0
  0
VERTEX
  5
C0C
  8
STREAMS
 10
725040.66849718965
 20
4567140.3249744764
 30
0.0
  0
VERTEX
  5
C0D
  8
STREAMS
 10
725040.66849718965
 20
4567042.0695122834
 30
0.0
  0
VERTEX
  5
C0E
  8
STREAMS
 10
725040.66849718965
 20
4566952.7463720739
 30
0.0
  0
VERTEX
  5
C0F
  8
STREAMS
 10
725047.86664426234
 20
4566789.4456159873
 30
0.0
  0
VERTEX
  5
C10
  8
STREAMS
 10
725019.48422930797
 20
4566679.5573642226
 30
0.0
  0
VERTEX
  5
C11
  8
STREAMS
 10
724966.26718607696
 20
4566651.1991493786
 30
0.0
  0
VERTEX
  5
C12
  8
STREAMS
 10
724952.07603936619
 20
4566640.5647690352
 30
0.0
  0
VERTEX
  5
C13
  8
STREAMS
 10
724959.17161272164
 20
4566587.3930266034
 30
0.0
  0
VERTEX
  5
C14
  8
STREAMS
 10
724969.81497275468
 20
4566548.400431416
 30
0.0
  0
VERTEX
  5
C15
  8
STREAMS
 10
724941.43255780032
 20
4566488.139155183
 30
0.0
  0
VERTEX
  5
C16
  8
STREAMS
 10
724941.43255780032
 20
4566346.347921676
 30
0.0
  0
VERTEX
  5
C17
  8
STREAMS
 10
724980.45845432056
 20
4566204.5566085251
 30
0.0
  0
VERTEX
  5
C18
  8
STREAMS
 10
725005.2930825972
 20
4566176.1983140372
 30
0.0
  0
VERTEX
  5
C19
  8
STREAMS
 10
725044.31885758473
 20
4566140.7505653929
 30
0.0
  0
VERTEX
  5
C1A
  8
STREAMS
 10
725023.03201598569
 20
4566105.3027371047
 30
0.0
  0
VERTEX
  5
C1B
  8
STREAMS
 10
725030.12758934102
 20
4565952.8771232544
 30
0.0
  0
VERTEX
  5
C1C
  8
STREAMS
 10
725026.57980266353
 20
4565842.9888714887
 30
0.0
  0
VERTEX
  5
C1D
  8
STREAMS
 10
725026.57980266353
 20
4565814.6305770017
 30
0.0
  0
VERTEX
  5
C1E
  8
STREAMS
 10
725051.41443094006
 20
4565803.9962763023
 30
0.0
  0
VERTEX
  5
C1F
  8
STREAMS
 10
725065.60569918365
 20
4565591.309306575
 30
0.0
  0
VERTEX
  5
C20
  8
STREAMS
 10
725054.9622176179
 20
4565513.3241161993
 30
0.0
  0
VERTEX
  5
C21
  8
STREAMS
 10
725030.12758934102
 20
4565378.6224164907
 30
0.0
  0
VERTEX
  5
C22
  8
STREAMS
 10
725040.77107090713
 20
4565297.0924592158
 30
0.0
  0
VERTEX
  5
C23
  8
STREAMS
 10
725058.51000429539
 20
4565258.0997843854
 30
0.0
  0
VERTEX
  5
C24
  8
STREAMS
 10
725065.60569918365
 20
4565158.845912965
 30
0.0
  0
VERTEX
  5
C25
  8
STREAMS
 10
725065.60569918365
 20
4565070.226342245
 30
0.0
  0
VERTEX
  5
C26
  8
STREAMS
 10
725062.05791250593
 20
4565017.0546794571
 30
0.0
  0
VERTEX
  5
C27
  8
STREAMS
 10
725104.63147417107
 20
4564961.1933805812
 30
0.0
  0
VERTEX
  5
C28
  8
STREAMS
 10
725157.84851740208
 20
4564932.8351657363
 30
0.0
  0
VERTEX
  5
C29
  8
STREAMS
 10
725172.03966411273
 20
4564872.5738895051
 30
0.0
  0
VERTEX
  5
C2A
  8
STREAMS
 10
725179.13535900111
 20
4564798.1334660286
 30
0.0
  0
VERTEX
  5
C2B
  8
STREAMS
 10
725186.23093235632
 20
4564723.6930425521
 30
0.0
  0
VERTEX
  5
C2C
  8
STREAMS
 10
725186.23093235632
 20
4564649.2526190775
 30
0.0
  0
VERTEX
  5
C2D
  8
STREAMS
 10
725218.16113398841
 20
4564603.1704104459
 30
0.0
  0
VERTEX
  5
C2E
  8
STREAMS
 10
725200.4220790671
 20
4564588.9913428454
 30
0.0
  0
VERTEX
  5
C2F
  8
STREAMS
 10
725345.88194051653
 20
4564525.1852200702
 30
0.0
  0
VERTEX
  5
C30
  8
STREAMS
 10
725448.76824030082
 20
4564525.1852200702
 30
0.0
  0
VERTEX
  5
C31
  8
STREAMS
 10
725526.81991180836
 20
4564528.7299869703
 30
0.0
  0
VERTEX
  5
C32
  8
STREAMS
 10
725686.47091996856
 20
4564493.2821586812
 30
0.0
  0
VERTEX
  5
C33
  8
STREAMS
 10
725807.09615314147
 20
4564496.8270052271
 30
0.0
  0
VERTEX
  5
C34
  8
STREAMS
 10
725934.8170812024
 20
4564450.7447965937
 30
0.0
  0
VERTEX
  5
C35
  8
STREAMS
 10
725998.67748446658
 20
4564457.8344100369
 30
0.0
  0
VERTEX
  5
C36
  8
STREAMS
 10
726112.20714428404
 20
4564472.0134776384
 30
0.0
  0
VERTEX
  5
C37
  8
STREAMS
 10
726215.09332253528
 20
4564479.1030910816
 30
0.0
  0
VERTEX
  5
C38
  8
STREAMS
 10
726268.3103657664
 20
4564457.8344100369
 30
0.0
  0
VERTEX
  5
C39
  8
STREAMS
 10
726332.17076903046
 20
4564337.3117779307
 30
0.0
  0
VERTEX
  5
C3A
  8
STREAMS
 10
726367.64887887286
 20
4564170.7070168359
 30
0.0
  0
VERTEX
  5
C3B
  8
STREAMS
 10
726410.22244053811
 20
4564131.7144216467
 30
0.0
  0
VERTEX
  5
C3C
  8
STREAMS
 10
726523.75210035546
 20
4564089.1770595592
 30
0.0
  0
VERTEX
  5
C3D
  8
STREAMS
 10
726694.04659008153
 20
4563958.0201267516
 30
0.0
  0
VERTEX
  5
C3E
  8
STREAMS
 10
726839.50645153096
 20
4563869.4005560325
 30
0.0
  0
VERTEX
  5
C3F
  8
STREAMS
 10
726938.84484310483
 20
4563805.5945129003
 30
0.0
  0
VERTEX
  5
C40
  8
STREAMS
 10
727038.18335621152
 20
4563624.8106045621
 30
0.0
  0
VERTEX
  5
C41
  8
STREAMS
 10
727137.52174778515
 20
4563497.1984386528
 30
0.0
  0
VERTEX
  5
C42
  8
STREAMS
 10
727243.89433862991
 20
4563352.3727132874
 30
0.0
  0
VERTEX
  5
C43
  8
STREAMS
 10
727365.67972429737
 20
4563168.555667026
 30
0.0
  0
VERTEX
  5
C44
  8
STREAMS
 10
727433.05023905856
 20
4563002.8615481677
 30
0.0
  0
VERTEX
  5
C45
  8
STREAMS
 10
727505.60327873402
 20
4562899.3026342848
 30
0.0
  0
VERTEX
  5
C46
  8
STREAMS
 10
727554.83562472602
 20
4562803.5107006636
 30
0.0
  0
VERTEX
  5
C47
  8
STREAMS
 10
727671.43860701215
 20
4562619.693734047
 30
0.0
  0
VERTEX
  5
C48
  8
STREAMS
 10
727751.76500869414
 20
4562560.7721388619
 30
0.0
  0
VERTEX
  5
C49
  8
STREAMS
 10
727782.85918591684
 20
4562483.1030530017
 30
0.0
  0
VERTEX
  5
C4A
  8
STREAMS
 10
727819.13564498804
 20
4562418.3787218686
 30
0.0
  0
VERTEX
  5
C4B
  8
STREAMS
 10
727852.82090236864
 20
4562353.6544703795
 30
0.0
  0
VERTEX
  5
C4C
  8
STREAMS
 10
727915.00913528143
 20
4562283.7522054976
 30
0.0
  0
VERTEX
  5
C4D
  8
STREAMS
 10
727969.42388465477
 20
4562239.739688999
 30
0.0
  0
VERTEX
  5
C4E
  8
STREAMS
 10
728025.21645184001
 20
4562192.2391913189
 30
0.0
  0
VERTEX
  5
C4F
  8
STREAMS
 10
728058.57502894546
 20
4562145.5769400597
 30
0.0
  0
VERTEX
  5
C50
  8
STREAMS
 10
728075.2543174983
 20
4562102.2476839898
 30
0.0
  0
VERTEX
  5
C51
  8
STREAMS
 10
728080.25806760415
 20
4562070.5840305593
 30
0.0
  0
VERTEX
  5
C52
  8
STREAMS
 10
728108.61289460387
 20
4562040.5868349019
 30
0.0
  0
VERTEX
  5
C53
  8
STREAMS
 10
728156.98284356017
 20
4562000.5906536682
 30
0.0
  0
VERTEX
  5
C54
  8
STREAMS
 10
728182.00183715578
 20
4561960.5943927914
 30
0.0
  0
VERTEX
  5
C55
  8
STREAMS
 10
728205.35279251658
 20
4561963.9273879826
 30
0.0
  0
VERTEX
  5
C56
  8
STREAMS
 10
728222.03208106931
 20
4561953.928402408
 30
0.0
  0
VERTEX
  5
C57
  8
STREAMS
 10
728245.38315796305
 20
4561927.264201941
 30
0.0
  0
VERTEX
  5
C58
  8
STREAMS
 10
728260.39452981378
 20
4561882.2684880989
 30
0.0
  0
VERTEX
  5
C59
  8
STREAMS
 10
728268.73411332374
 20
4561845.6052224142
 30
0.0
  0
VERTEX
  5
C5A
  8
STREAMS
 10
728307.09644053516
 20
4561820.6076390101
 30
0.0
  0
VERTEX
  5
C5B
  8
STREAMS
 10
728335.45126753475
 20
4561768.9457754958
 30
0.0
  0
VERTEX
  5
C5C
  8
STREAMS
 10
728355.46638949146
 20
4561732.2825894551
 30
0.0
  0
VERTEX
  5
C5D
  8
STREAMS
 10
728422.18354370259
 20
4561673.9547355575
 30
0.0
  0
VERTEX
  5
C5E
  8
STREAMS
 10
728488.90081944654
 20
4561615.6269613039
 30
0.0
  0
VERTEX
  5
C5F
  8
STREAMS
 10
728558.95380706165
 20
4561597.2953682831
 30
0.0
  0
VERTEX
  5
C60
  8
STREAMS
 10
728652.35787157028
 20
4561550.633037379
 30
0.0
  0
VERTEX
  5
C61
  8
STREAMS
 10
728694.05603218579
 20
4561522.3023791397
 30
0.0
  0
VERTEX
  5
C62
  8
STREAMS
 10
728750.76568618487
 20
4561463.9746048851
 30
0.0
  0
VERTEX
  5
C63
  8
STREAMS
 10
728810.81105205521
 20
4561432.3108718097
 30
0.0
  0
VERTEX
  5
C64
  8
STREAMS
 10
728837.49796235282
 20
4561430.6444140347
 30
0.0
  0
VERTEX
  5
C65
  8
STREAMS
 10
728841.39078076463
 20
4561403.0651113037
 30
0.0
  0
VERTEX
  5
C66
  8
STREAMS
 10
728873.56319734745
 20
4561346.3385669077
 30
0.0
  0
VERTEX
  5
C67
  8
STREAMS
 10
728941.69292776298
 20
4561323.6479332196
 30
0.0
  0
VERTEX
  5
C68
  8
STREAMS
 10
729023.07022391586
 20
4561229.1036925614
 30
0.0
  0
VERTEX
  5
C69
  8
STREAMS
 10
729112.01755763346
 20
4561142.1230230117
 30
0.0
  0
VERTEX
  5
C6A
  8
STREAMS
 10
729193.39485378645
 20
4561089.1782641709
 30
0.0
  0
VERTEX
  5
C6B
  8
STREAMS
 10
729280.44955658005
 20
4561019.2155499756
 30
0.0
  0
VERTEX
  5
C6C
  8
STREAMS
 10
729397.7842880981
 20
4560901.9807552723
 30
0.0
  0
VERTEX
  5
C6D
  8
STREAMS
 10
729468.10647095495
 20
4560819.918063526
 30
0.0
  0
VERTEX
  5
C6E
  8
STREAMS
 10
729521.09636930702
 20
4560759.4097335748
 30
0.0
  0
VERTEX
  5
C6F
  8
STREAMS
 10
729581.65618369065
 20
4560679.9926351355
 30
0.0
  0
VERTEX
  5
C70
  8
STREAMS
 10
729596.79613728682
 20
4560611.9208137179
 30
0.0
  0
VERTEX
  5
C71
  8
STREAMS
 10
729649.78603563912
 20
4560519.2674658364
 30
0.0
  0
VERTEX
  5
C72
  8
STREAMS
 10
729719.80827544548
 20
4560419.0505468426
 30
0.0
  0
VERTEX
  5
C73
  8
STREAMS
 10
729795.50816495821
 20
4560339.6334484043
 30
0.0
  0
VERTEX
  5
C74
  8
STREAMS
 10
729865.53040476458
 20
4560250.761886077
 30
0.0
  0
VERTEX
  5
C75
  8
STREAMS
 10
729910.95038708521
 20
4560190.2535561249
 30
0.0
  0
VERTEX
  5
C76
  8
STREAMS
 10
730027.23689785483
 20
4559957.615206616
 30
0.0
  0
VERTEX
  5
C77
  8
STREAMS
 10
730077.54298649193
 20
4559883.5430540619
 30
0.0
  0
VERTEX
  5
C78
  8
STREAMS
 10
730120.9065116198
 20
4559837.1508734534
 30
0.0
  0
VERTEX
  5
C79
  8
STREAMS
 10
730161.49750805914
 20
4559747.2690350367
 30
0.0
  0
VERTEX
  5
C7A
  8
STREAMS
 10
730209.76792161923
 20
4559688.0785638504
 30
0.0
  0
VERTEX
  5
C7B
  8
STREAMS
 10
730341.4143604259
 20
4559614.6385406861
 30
0.0
  0
VERTEX
  5
C7C
  8
STREAMS
 10
730416.01401313406
 20
4559582.8510418218
 30
0.0
  0
VERTEX
  5
C7D
  8
STREAMS
 10
730452.21670177125
 20
4559563.1209113067
 30
0.0
  0
VERTEX
  5
C7E
  8
STREAMS
 10
730532.30161769909
 20
4559507.2187553849
 30
0.0
  0
VERTEX
  5
C7F
  8
STREAMS
 10
730555.33974752866
 20
4559480.9119146988
 30
0.0
  0
VERTEX
  5
C80
  8
STREAMS
 10
730616.66424654447
 20
4559364.2048369329
 30
0.0
  0
VERTEX
  5
C81
  8
STREAMS
 10
730661.94252157316
 20
4559252.8454129267
 30
0.0
  0
VERTEX
  5
C82
  8
STREAMS
 10
730679.35720534332
 20
4559157.1458656108
 30
0.0
  0
VERTEX
  5
C83
  8
STREAMS
 10
730698.51345471689
 20
4559063.1862868974
 30
0.0
  0
VERTEX
  5
C84
  8
STREAMS
 10
730679.35720534332
 20
4559012.7265603384
 30
0.0
  0
VERTEX
  5
C85
  8
STREAMS
 10
730701.99646439066
 20
4558882.2271631528
 30
0.0
  0
VERTEX
  5
C86
  8
STREAMS
 10
730719.41114816081
 20
4558781.3076303918
 30
0.0
  0
VERTEX
  5
C87
  8
STREAMS
 10
730742.05028567521
 20
4558739.5478264801
 30
0.0
  0
VERTEX
  5
C88
  8
STREAMS
 10
730762.94797911902
 20
4558671.6881749872
 30
0.0
  0
VERTEX
  5
C89
  8
STREAMS
 10
730813.45070789207
 20
4558588.1685671611
 30
0.0
  0
VERTEX
  5
C8A
  8
STREAMS
 10
730848.63312833395
 20
4558543.2294797497
 30
0.0
  0
VERTEX
  5
C8B
  8
STREAMS
 10
730848.63312833395
 20
4558494.1267168494
 30
0.0
  0
VERTEX
  5
C8C
  8
STREAMS
 10
730853.38907297817
 20
4558429.1842425382
 30
0.0
  0
VERTEX
  5
C8D
  8
STREAMS
 10
730823.26813074155
 20
4558300.8834004514
 30
0.0
  0
VERTEX
  5
C8E
  8
STREAMS
 10
730766.19703807496
 20
4558091.8005319322
 30
0.0
  0
VERTEX
  5
C8F
  8
STREAMS
 10
730729.73487682338
 20
4557985.6751106028
 30
0.0
  0
VERTEX
  5
C90
  8
STREAMS
 10
730700.88650495897
 20
4557886.3857978852
 30
0.0
  0
VERTEX
  5
C91
  8
STREAMS
 10
730688.47459903208
 20
4557833.6801284272
 30
0.0
  0
VERTEX
  5
C92
  8
STREAMS
 10
730691.57757551374
 20
4557790.2754500918
 30
0.0
  0
VERTEX
  5
C93
  8
STREAMS
 10
730691.57757551374
 20
4557756.171762879
 30
0.0
  0
VERTEX
  5
C94
  8
STREAMS
 10
730722.60734033096
 20
4557722.0680756662
 30
0.0
  0
VERTEX
  5
C95
  8
STREAMS
 10
730769.15198755718
 20
4557669.3624062082
 30
0.0
  0
VERTEX
  5
C96
  8
STREAMS
 10
730843.62342311861
 20
4557588.7536837365
 30
0.0
  0
VERTEX
  5
C97
  8
STREAMS
 10
730924.30081164383
 20
4557511.2453181893
 30
0.0
  0
VERTEX
  5
C98
  8
STREAMS
 10
730986.36034127825
 20
4557418.2352476744
 30
0.0
  0
VERTEX
  5
C99
  8
STREAMS
 10
731014.2870080811
 20
4557341.9701150581
 30
0.0
  0
VERTEX
  5
C9A
  8
STREAMS
 10
731032.90486697166
 20
4557227.2577053737
 30
0.0
  0
VERTEX
  5
C9B
  8
STREAMS
 10
731017.38998456288
 20
4557010.2343136976
 30
0.0
  0
VERTEX
  5
C9C
  8
STREAMS
 10
731014.2870080811
 20
4556911.0235293368
 30
0.0
  0
VERTEX
  5
C9D
  8
STREAMS
 10
731001.87510215421
 20
4556799.4114765767
 30
0.0
  0
VERTEX
  5
C9E
  8
STREAMS
 10
731020.49296104466
 20
4556669.1974415705
 30
0.0
  0
VERTEX
  5
C9F
  8
STREAMS
 10
731020.49296104466
 20
4556573.087093777
 30
0.0
  0
VERTEX
  5
CA0
  8
STREAMS
 10
731048.41974938032
 20
4556526.5820585191
 30
0.0
  0
VERTEX
  5
CA1
  8
STREAMS
 10
731091.86142012454
 20
4556442.8729791259
 30
0.0
  0
VERTEX
  5
CA2
  8
STREAMS
 10
731122.89118494175
 20
4556405.6690146346
 30
0.0
  0
VERTEX
  5
CA3
  8
STREAMS
 10
731166.33285568596
 20
4556377.7659616238
 30
0.0
  0
VERTEX
  5
CA4
  8
STREAMS
 10
731200.46559698496
 20
4556325.0602921657
 30
0.0
  0
VERTEX
  5
CA5
  8
STREAMS
 10
731184.95071457641
 20
4556241.3512127744
 30
0.0
  0
VERTEX
  5
CA6
  8
STREAMS
 10
731147.71499679564
 20
4556151.4415788241
 30
0.0
  0
VERTEX
  5
CA7
  8
STREAMS
 10
731129.09713790531
 20
4556070.8328563534
 30
0.0
  0
VERTEX
  5
CA8
  8
STREAMS
 10
731132.20011438697
 20
4555943.7190986257
 30
0.0
  0
VERTEX
  5
CA9
  8
STREAMS
 10
731113.40858506761
 20
4555802.213784799
 30
0.0
  0
VERTEX
  5
CAA
  8
STREAMS
 10
731098.98603982874
 20
4555702.9431086294
 30
0.0
  0
VERTEX
  5
CAB
  8
STREAMS
 10
731174.30370855809
 20
4555683.7293856954
 30
0.0
  0
VERTEX
  5
CAC
  8
STREAMS
 10
731292.88901300437
 20
4555658.1111415448
 30
0.0
  0
VERTEX
  5
CAD
  8
STREAMS
 10
731302.50408367475
 20
4555645.3020194704
 30
0.0
  0
VERTEX
  5
CAE
  8
STREAMS
 10
731296.09407707211
 20
4555530.0199207962
 30
0.0
  0
VERTEX
  5
CAF
  8
STREAMS
 10
731286.47900640185
 20
4555461.1708597783
 30
0.0
  0
VERTEX
  5
CB0
  8
STREAMS
 10
731286.47900640185
 20
4555411.5355216917
 30
0.0
  0
VERTEX
  5
CB1
  8
STREAMS
 10
731308.91409027716
 20
4555366.7035546079
 30
0.0
  0
VERTEX
  5
CB2
  8
STREAMS
 10
731332.95158465335
 20
4555345.8887611022
 30
0.0
  0
VERTEX
  5
CB3
  8
STREAMS
 10
731365.00173919904
 20
4555342.6864606719
 30
0.0
  0
VERTEX
  5
CB4
  8
STREAMS
 10
731413.07684948447
 20
4555344.2876108866
 30
0.0
  0
VERTEX
  5
CB5
  8
STREAMS
 10
731464.35702383751
 20
4555328.2761883829
 30
0.0
  0
VERTEX
  5
CB6
  8
STREAMS
 10
731542.87975663471
 20
4555283.4443009421
 30
0.0
  0
VERTEX
  5
CB7
  8
STREAMS
 10
731626.2099640005
 20
4555221.1291019646
 30
0.0
  0
VERTEX
  5
CB8
  8
STREAMS
 10
731680.69508088857
 20
4555174.6959846653
 30
0.0
  0
VERTEX
  5
CB9
  8
STREAMS
 10
731711.14270340034
 20
4555133.0663180118
 30
0.0
  0
VERTEX
  5
CBA
  8
STREAMS
 10
731730.37272320781
 20
4555080.2286794959
 30
0.0
  0
VERTEX
  5
CBB
  8
STREAMS
 10
731727.16778067313
 20
4555035.396792056
 30
0.0
  0
VERTEX
  5
CBC
  8
STREAMS
 10
731695.11762612744
 20
4554995.3682756172
 30
0.0
  0
VERTEX
  5
CBD
  8
STREAMS
 10
731653.45252244466
 20
4554958.5420596069
 30
0.0
  0
VERTEX
  5
CBE
  8
STREAMS
 10
731634.22250263696
 20
4554912.1089423085
 30
0.0
  0
VERTEX
  5
CBF
  8
STREAMS
 10
731623.00489993289
 20
4554872.0804258687
 30
0.0
  0
VERTEX
  5
CC0
  8
STREAMS
 10
731631.450946211
 20
4554826.6513724755
 30
0.0
  0
VERTEX
  5
CC1
  8
STREAMS
 10
731694.18352471595
 20
4554757.7042704737
 30
0.0
  0
VERTEX
  5
CC2
  8
STREAMS
 10
731794.55567463045
 20
4554660.5514706708
 30
0.0
  0
VERTEX
  5
CC3
  8
STREAMS
 10
731891.79118346632
 20
4554660.5514706708
 30
0.0
  0
VERTEX
  5
CC4
  8
STREAMS
 10
731967.07032628544
 20
4554657.4175042501
 30
0.0
  0
VERTEX
  5
CC5
  8
STREAMS
 10
732039.21282802604
 20
4554663.6854370944
 30
0.0
  0
VERTEX
  5
CC6
  8
STREAMS
 10
732073.71575835685
 20
4554663.6854370944
 30
0.0
  0
VERTEX
  5
CC7
  8
STREAMS
 10
732130.17505470465
 20
4554638.61378536
 30
0.0
  0
VERTEX
  5
CC8
  8
STREAMS
 10
732155.26806180016
 20
4554585.3364358274
 30
0.0
  0
VERTEX
  5
CC9
  8
STREAMS
 10
732158.40470287867
 20
4554541.460985559
 30
0.0
  0
VERTEX
  5
CCA
  8
STREAMS
 10
732108.21856715507
 20
4554497.5855352907
 30
0.0
  0
VERTEX
  5
CCB
  8
STREAMS
 10
732029.80290479027
 20
4554453.7100850241
 30
0.0
  0
VERTEX
  5
CCC
  8
STREAMS
 10
732010.98305831908
 20
4554438.0403325558
 30
0.0
  0
VERTEX
  5
CCD
  8
STREAMS
 10
731992.16333338094
 20
4554387.896949444
 30
0.0
  0
VERTEX
  5
CCE
  8
STREAMS
 10
731970.20696736383
 20
4554284.4762964416
 30
0.0
  0
VERTEX
  5
CCF
  8
STREAMS
 10
731967.07032628544
 20
4554174.787630952
 30
0.0
  0
VERTEX
  5
CD0
  8
STREAMS
 10
731957.6604030499
 20
4554093.5574513022
 30
0.0
  0
VERTEX
  5
CD1
  8
STREAMS
 10
731945.11383873562
 20
4553958.7971340781
 30
0.0
  0
VERTEX
  5
CD2
  8
STREAMS
 10
731951.38712089264
 20
4553889.8500320762
 30
0.0
  0
VERTEX
  5
CD3
  8
STREAMS
 10
731935.70403703291
 20
4553824.036896497
 30
0.0
  0
VERTEX
  5
CD4
  8
STREAMS
 10
731929.43075487588
 20
4553798.9651651187
 30
0.0
  0
VERTEX
  5
CD5
  8
STREAMS
 10
731929.43075487588
 20
4553748.8218616508
 30
0.0
  0
VERTEX
  5
CD6
  8
STREAMS
 10
731903.09726207831
 20
4553646.7533140602
 30
0.0
  0
SEQEND
  5
CD7
  8
STREAMS
  0
POLYLINE
  5
8B
  8
STREAMS
 66
     1
 10
0.0
 20
0.0
 30
0.0
  0
VERTEX
  5
CD8
  8
STREAMS
 10
724584.73233429156
 20
4567747.7224712493
 30
0.0
  0
VERTEX
  5
CD9
  8
STREAMS
 10
724692.01143859315
 20
4567725.3916662866
 30
0.0
  0
VERTEX
  5
CDA
  8
STREAMS
 10
724870.80982422945
 20
4567662.8654920328
 30
0.0
  0
VERTEX
  5
CDB
  8
STREAMS
 10
724946.7992049678
 20
4567604.8053991301
 30
0.0
  0
VERTEX
  5
CDC
  8
STREAMS
 10
725058.54828713997
 20
4567528.8807418998
 30
0.0
  0
VERTEX
  5
CDD
  8
STREAMS
 10
725102.20567867626
 20
4567492.1902381843
 30
0.0
  0
VERTEX
  5
CDE
  8
STREAMS
 10
725136.99870789726
 20
4567450.741600899
 30
0.0
  0
VERTEX
  5
CDF
  8
STREAMS
 10
725204.74626279098
 20
4567414.3131389124
 30
0.0
  0
SEQEND
  5
CE0
  8
STREAMS
  0
POLYLINE
  5
8C
  8
STREAMS
 66
     1
 10
0.0
 20
0.0
 30
0.0
  0
VERTEX
  5
CE1
  8
STREAMS
 10
723058.56606839213
 20
4558337.5578958523
 30
0.0
  0
VERTEX
  5
CE2
  8
STREAMS
 10
723033.18709452322
 20
4558337.5578958523
 30
0.0
  0
VERTEX
  5
CE3
  8
STREAMS
 10
723017.95975881512
 20
4558330.7960148547
 30
0.0
  0
VERTEX
  5
CE4
  8
STREAMS
 10
722994.27288668323
 20
4558335.8674654234
 30
0.0
  0
VERTEX
  5
CE5
  8
STREAMS
 10
722967.20205414284
 20
4558361.2247182652
 30
0.0
  0
VERTEX
  5
CE6
  8
STREAMS
 10
722916.44422793796
 20
4558386.582050751
 30
0.0
  0
VERTEX
  5
CE7
  8
STREAMS
 10
722894.44921447756
 20
4558413.6298136637
 30
0.0
  0
VERTEX
  5
CE8
  8
STREAMS
 10
722850.45906602463
 20
4558455.8919282807
 30
0.0
  0
VERTEX
  5
CE9
  8
STREAMS
 10
722835.23173031642
 20
4558506.6065136082
 30
0.0
  0
VERTEX
  5
CEA
  8
STREAMS
 10
722803.08520022838
 20
4558557.3210989358
 30
0.0
  0
VERTEX
  5
CEB
  8
STREAMS
 10
722767.5547097316
 20
4558609.7261943342
 30
0.0
  0
VERTEX
  5
CEC
  8
STREAMS
 10
722726.69075053278
 20
4558630.5014050873
 30
0.0
  0
VERTEX
  5
CED
  8
STREAMS
 10
722685.50825375912
 20
4558659.7028838834
 30
0.0
  0
VERTEX
  5
CEE
  8
STREAMS
 10
722660.26721966406
 20
4558691.5590353282
 30
0.0
  0
VERTEX
  5
CEF
  8
STREAMS
 10
722633.69783162326
 20
4558702.1777259288
 30
0.0
  0
VERTEX
  5
CF0
  8
STREAMS
 10
722546.01881462848
 20
4558712.7964165295
 30
0.0
  0
VERTEX
  5
CF1
  8
STREAMS
 10
722443.72656736826
 20
4558760.5806835191
 30
0.0
  0
VERTEX
  5
CF2
  8
STREAMS
 10
722381.28846293571
 20
4558781.8181443643
 30
0.0
  0
VERTEX
  5
CF3
  8
STREAMS
 10
722269.69688732445
 20
4558824.2929864107
 30
0.0
  0
VERTEX
  5
CF4
  8
STREAMS
 10
722208.58725837059
 20
4558841.548438279
 30
0.0
  0
VERTEX
  5
CF5
  8
STREAMS
 10
722146.14915393805
 20
4558874.731926051
 30
0.0
  0
VERTEX
  5
CF6
  8
STREAMS
 10
722108.7548358005
 20
4558895.5147825666
 30
0.0
  0
VERTEX
  5
CF7
  8
STREAMS
 10
722043.23283554194
 20
4558913.5180059923
 30
0.0
  0
VERTEX
  5
CF8
  8
STREAMS
 10
721913.82697618147
 20
4558962.6176628033
 30
0.0
  0
VERTEX
  5
CF9
  8
STREAMS
 10
721830.28651700157
 20
4558983.8941488964
 30
0.0
  0
VERTEX
  5
CFA
  8
STREAMS
 10
721746.74593628896
 20
4559018.2639245922
 30
0.0
  0
VERTEX
  5
CFB
  8
STREAMS
 10
721713.98505769274
 20
4559039.5404106863
 30
0.0
  0
VERTEX
  5
CFC
  8
STREAMS
 10
721640.27283778542
 20
4559069.0002525579
 30
0.0
  0
VERTEX
  5
CFD
  8
STREAMS
 10
721579.66501792963
 20
4559088.6400674963
 30
0.0
  0
VERTEX
  5
CFE
  8
STREAMS
 10
721501.03861761955
 20
4559113.1898959018
 30
0.0
  0
VERTEX
  5
CFF
  8
STREAMS
 10
721448.62113894569
 20
4559136.1030531507
 30
0.0
  0
VERTEX
  5
D00
  8
STREAMS
 10
721399.47957798548
 20
4559180.2927761376
 30
0.0
  0
VERTEX
  5
D01
  8
STREAMS
 10
721348.70011893485
 20
4559204.8426045422
 30
0.0
  0
VERTEX
  5
D02
  8
STREAMS
 10
721222.90487873042
 20
4559284.5079513509
 30
0.0
  0
VERTEX
  5
D03
  8
STREAMS
 10
721141.14742785238
 20
4559338.9664916359
 30
0.0
  0
VERTEX
  5
D04
  8
STREAMS
 10
721067.40543239925
 20
4559391.8233242007
 30
0.0
  0
VERTEX
  5
D05
  8
STREAMS
 10
720995.26645511098
 20
4559451.0870672837
 30
0.0
  0
VERTEX
  5
D06
  8
STREAMS
 10
720910.3028463698
 20
4559487.9267430231
 30
0.0
  0
VERTEX
  5
D07
  8
STREAMS
 10
720870.22569077997
 20
4559505.5456872117
 30
0.0
  0
VERTEX
  5
D08
  8
STREAMS
 10
720810.91146647756
 20
4559521.562923681
 30
0.0
  0
VERTEX
  5
D09
  8
STREAMS
 10
720778.84964477934
 20
4559535.9783727899
 30
0.0
  0
VERTEX
  5
D0A
  8
STREAMS
 10
720732.36017346301
 20
4559580.826666764
 30
0.0
  0
VERTEX
  5
D0B
  8
STREAMS
 10
720631.36565387284
 20
4559656.1075666733
 30
0.0
  0
VERTEX
  5
D0C
  8
STREAMS
 10
720581.67002469313
 20
4559728.185130788
 30
0.0
  0
VERTEX
  5
D0D
  8
STREAMS
 10
720543.19588726829
 20
4559774.6350528374
 30
0.0
  0
VERTEX
  5
D0E
  8
STREAMS
 10
720509.53104740498
 20
4559827.4919650462
 30
0.0
  0
VERTEX
  5
D0F
  8
STREAMS
 10
720467.85075211688
 20
4559880.348797611
 30
0.0
  0
VERTEX
  5
D10
  8
STREAMS
 10
720429.37673622509
 20
4559954.0280694449
 30
0.0
  0
VERTEX
  5
D11
  8
STREAMS
 10
720422.96429896576
 20
4560029.3090489982
 30
0.0
  0
VERTEX
  5
D12
  8
STREAMS
 10
720413.34582537599
 20
4560117.4037699411
 30
0.0
  0
VERTEX
  5
D13
  8
STREAMS
 10
720391.05293492402
 20
4560185.0069697974
 30
0.0
  0
VERTEX
  5
D14
  8
STREAMS
 10
720329.14933192357
 20
4560254.5893072803
 30
0.0
  0
VERTEX
  5
D15
  8
STREAMS
 10
720239.48199301481
 20
4560397.2868123241
 30
0.0
  0
VERTEX
  5
D16
  8
STREAMS
 10
720219.75126022694
 20
4560545.2009198386
 30
0.0
  0
VERTEX
  5
D17
  8
STREAMS
 10
720249.34713295707
 20
4560663.5323627628
 30
0.0
  0
VERTEX
  5
D18
  8
STREAMS
 10
720331.99405111943
 20
4560776.7578903222
 30
0.0
  0
VERTEX
  5
D19
  8
STREAMS
 10
720386.12234758795
 20
4560811.9112770883
 30
0.0
  0
VERTEX
  5
D1A
  8
STREAMS
 10
720491.67240416864
 20
4560841.6564811384
 30
0.0
  0
VERTEX
  5
D1B
  8
STREAMS
 10
720553.91994510742
 20
4560884.9222614449
 30
0.0
  0
VERTEX
  5
D1C
  8
STREAMS
 10
720608.04824157595
 20
4560933.5963041112
 30
0.0
  0
VERTEX
  5
D1D
  8
STREAMS
 10
720629.69956016331
 20
4561025.53604744
 30
0.0
  0
VERTEX
  5
D1E
  8
STREAMS
 10
720632.40597498673
 20
4561125.5881843111
 30
0.0
  0
VERTEX
  5
D1F
  8
STREAMS
 10
720608.04824157595
 20
4561228.3443727158
 30
0.0
  0
VERTEX
  5
D20
  8
STREAMS
 10
720568.2918111519
 20
4561258.2819951372
 30
0.0
  0
VERTEX
  5
D21
  8
STREAMS
 10
720568.2918111519
 20
4561326.3506308198
 30
0.0
  0
VERTEX
  5
D22
  8
STREAMS
 10
720620.69689347607
 20
4561425.8355476428
 30
0.0
  0
VERTEX
  5
D23
  8
STREAMS
 10
720699.30457772873
 20
4561509.6123238951
 30
0.0
  0
VERTEX
  5
D24
  8
STREAMS
 10
720767.43114829005
 20
4561572.444965817
 30
0.0
  0
VERTEX
  5
D25
  8
STREAMS
 10
720843.4212582258
 20
4561605.5508809509
 30
0.0
  0
VERTEX
  5
D26
  8
STREAMS
 10
720873.1511077818
 20
4561650.107759851
 30
0.0
  0
VERTEX
  5
D27
  8
STREAMS
 10
720910.31354125985
 20
4561679.8123457851
 30
0.0
  0
VERTEX
  5
D28
  8
STREAMS
 10
720969.77324037207
 20
4561697.6350973453
 30
0.0
  0
VERTEX
  5
D29
  8
STREAMS
 10
721009.90861019259
 20
4561751.1033520252
 30
0.0
  0
VERTEX
  5
D2A
  8
STREAMS
 10
721027.74647131329
 20
4561789.7192340959
 30
0.0
  0
VERTEX
  5
D2B
  8
STREAMS
 10
721047.0709221377
 20
4561837.7785096252
 30
0.0
  0
VERTEX
  5
D2C
  8
STREAMS
 10
721084.23323408305
 20
4561885.3057674756
 30
0.0
  0
VERTEX
  5
D2D
  8
STREAMS
 10
721118.42260968569
 20
4561940.2592912754
 30
0.0
  0
VERTEX
  5
D2E
  8
STREAMS
 10
721137.74706051021
 20
4561949.1706670541
 30
0.0
  0
VERTEX
  5
D2F
  8
STREAMS
 10
721189.77429723344
 20
4561972.9342561588
 30
0.0
  0
VERTEX
  5
D30
  8
STREAMS
 10
721256.66658026748
 20
4562032.343428025
 30
0.0
  0
VERTEX
  5
D31
  8
STREAMS
 10
721326.53179964423
 20
4562136.3093991503
 30
0.0
  0
VERTEX
  5
D32
  8
STREAMS
 10
721357.74811737181
 20
4562179.3810885753
 30
0.0
  0
VERTEX
  5
D33
  8
STREAMS
 10
721429.09980491968
 20
4562209.0856745094
 30
0.0
  0
VERTEX
  5
D34
  8
STREAMS
 10
721490.04609373584
 20
4562284.8323288178
 30
0.0
  0
VERTEX
  5
D35
  8
STREAMS
 10
721540.58686228795
 20
4562332.3595866682
 30
0.0
  0
VERTEX
  5
D36
  8
STREAMS
 10
721589.64116266859
 20
4562403.6505929092
 30
0.0
  0
VERTEX
  5
D37
  8
STREAMS
 10
721689.23623160145
 20
4562497.2199987788
 30
0.0
  0
VERTEX
  5
D38
  8
STREAMS
 10
721760.14955019404
 20
4562562.1233681971
 30
0.0
  0
VERTEX
  5
D39
  8
STREAMS
 10
721765.04829592572
 20
4562594.7540513687
 30
0.0
  0
VERTEX
  5
D3A
  8
STREAMS
 10
721809.13725057815
 20
4562637.1738598496
 30
0.0
  0
VERTEX
  5
D3B
  8
STREAMS
 10
721851.59328998649
 20
4562687.751378946
 30
0.0
  0
VERTEX
  5
D3C
  8
STREAMS
 10
721923.44180378597
 20
4562743.2235403396
 30
0.0
  0
VERTEX
  5
D3D
  8
STREAMS
 10
721959.33336835157
 20
4562785.7723710714
 30
0.0
  0
VERTEX
  5
D3E
  8
STREAMS
 10
722037.71366465976
 20
4562868.9805733403
 30
0.0
  0
VERTEX
  5
D3F
  8
STREAMS
 10
722104.66355426027
 20
4562935.8734340221
 30
0.0
  0
VERTEX
  5
D40
  8
STREAMS
 10
722147.11959366885
 20
4562996.2401580699
 30
0.0
  0
VERTEX
  5
D41
  8
STREAMS
 10
722214.06936173653
 20
4563058.2383764545
 30
0.0
  0
VERTEX
  5
D42
  8
STREAMS
 10
722315.31059299281
 20
4563157.7619203087
 30
0.0
  0
VERTEX
  5
D43
  8
STREAMS
 10
722374.09578484064
 20
4563245.8646852309
 30
0.0
  0
VERTEX
  5
D44
  8
STREAMS
 10
722390.42505881307
 20
4563271.9692317694
 30
0.0
  0
VERTEX
  5
D45
  8
STREAMS
 10
722411.65307851729
 20
4563338.8620128073
 30
0.0
  0
VERTEX
  5
D46
  8
STREAMS
 10
722449.21025066101
 20
4563466.1215975368
 30
0.0
  0
VERTEX
  5
D47
  8
STREAMS
 10
722473.70410085295
 20
4563554.22436246
 30
0.0
  0
VERTEX
  5
D48
  8
STREAMS
 10
722485.13450756075
 20
4563599.9073189013
 30
0.0
  0
VERTEX
  5
D49
  8
STREAMS
 10
722486.76742280484
 20
4563627.6433597757
 30
0.0
  0
VERTEX
  5
D4A
  8
STREAMS
 10
722485.31777908409
 20
4563664.2557333503
 30
0.0
  0
VERTEX
  5
D4B
  8
STREAMS
 10
722504.28905547445
 20
4563717.9618031196
 30
0.0
  0
VERTEX
  5
D4C
  8
STREAMS
 10
722526.42213024129
 20
4563796.9414205542
 30
0.0
  0
VERTEX
  5
D4D
  8
STREAMS
 10
722529.58405015059
 20
4563860.1251304299
 30
0.0
  0
VERTEX
  5
D4E
  8
STREAMS
 10
722554.87904482696
 20
4563923.3088403055
 30
0.0
  0
VERTEX
  5
D4F
  8
STREAMS
 10
722586.49775778886
 20
4564046.5170466891
 30
0.0
  0
VERTEX
  5
D50
  8
STREAMS
 10
722605.46903417935
 20
4564141.2925716806
 30
0.0
  0
VERTEX
  5
D51
  8
STREAMS
 10
722640.24966705055
 20
4564283.4558989909
 30
0.0
  0
VERTEX
  5
D52
  8
STREAMS
 10
722671.86838001257
 20
4564425.619146659
 30
0.0
  0
VERTEX
  5
D53
  8
STREAMS
 10
722687.67785802647
 20
4564523.5538850203
 30
0.0
  0
VERTEX
  5
D54
  8
STREAMS
 10
722716.13465107896
 20
4564564.6232605996
 30
0.0
  0
VERTEX
  5
D55
  8
STREAMS
 10
722719.29657098849
 20
4564621.4886233807
 30
0.0
  0
VERTEX
  5
D56
  8
STREAMS
 10
722722.45849089778
 20
4564706.7865879089
 30
0.0
  0
VERTEX
  5
D57
  8
STREAMS
 10
722728.78220918367
 20
4564766.8110844167
 30
0.0
  0
VERTEX
  5
D58
  8
STREAMS
 10
722769.88656034088
 20
4564855.2682623146
 30
0.0
  0
VERTEX
  5
D59
  8
STREAMS
 10
722792.01975664054
 20
4564927.9295326546
 30
0.0
  0
VERTEX
  5
D5A
  8
STREAMS
 10
722807.82911312161
 20
4564978.4764686981
 30
0.0
  0
VERTEX
  5
D5B
  8
STREAMS
 10
722820.47654969315
 20
4565041.6601785729
 30
0.0
  0
VERTEX
  5
D5C
  8
STREAMS
 10
722829.96218788845
 20
4565089.0479012476
 30
0.0
  0
VERTEX
  5
D5D
  8
STREAMS
 10
722829.96218788845
 20
4565161.7091715876
 30
0.0
  0
VERTEX
  5
D5E
  8
STREAMS
 10
722867.90474066895
 20
4565180.0313666919
 30
0.0
  0
VERTEX
  5
D5F
  8
STREAMS
 10
722902.6853735405
 20
4565217.9416085463
 30
0.0
  0
VERTEX
  5
D60
  8
STREAMS
 10
722953.27536289266
 20
4565243.2150765667
 30
0.0
  0
VERTEX
  5
D61
  8
STREAMS
 10
723035.48418673989
 20
4565284.2844521478
 30
0.0
  0
VERTEX
  5
D62
  8
STREAMS
 10
723060.77918141615
 20
4565344.3089486538
 30
0.0
  0
VERTEX
  5
D63
  8
STREAMS
 10
723092.39789437817
 20
4565398.015098067
 30
0.0
  0
VERTEX
  5
D64
  8
STREAMS
 10
723139.8260853542
 20
4565439.0844736472
 30
0.0
  0
VERTEX
  5
D65
  8
STREAMS
 10
723193.57787308295
 20
4565476.9947155016
 30
0.0
  0
VERTEX
  5
D66
  8
STREAMS
 10
723266.30105873512
 20
4565492.7906230604
 30
0.0
  0
VERTEX
  5
D67
  8
STREAMS
 10
723339.02424438717
 20
4565565.4518933985
 30
0.0
  0
VERTEX
  5
D68
  8
STREAMS
 10
723591.97431268182
 20
4565736.0478224568
 30
0.0
  0
VERTEX
  5
D69
  8
STREAMS
 10
723712.12556777697
 20
4565919.2805253472
 30
0.0
  0
VERTEX
  5
D6A
  8
STREAMS
 10
723762.71555712936
 20
4566014.0560503397
 30
0.0
  0
VERTEX
  5
D6B
  8
STREAMS
 10
723832.27682287211
 20
4566108.8316549752
 30
0.0
  0
VERTEX
  5
D6C
  8
STREAMS
 10
723841.76246106718
 20
4566159.3785910178
 30
0.0
  0
VERTEX
  5
D6D
  8
STREAMS
 10
723838.60054115776
 20
4566197.2887532301
 30
0.0
  0
VERTEX
  5
D6E
  8
STREAMS
 10
723800.65810991009
 20
4566209.9255270623
 30
0.0
  0
VERTEX
  5
D6F
  8
STREAMS
 10
723775.36311523383
 20
4566222.5623008953
 30
0.0
  0
VERTEX
  5
D70
  8
STREAMS
 10
723781.68683351972
 20
4566254.1541160112
 30
0.0
  0
VERTEX
  5
D71
  8
STREAMS
 10
723825.95310458622
 20
4566295.2234915914
 30
0.0
  0
VERTEX
  5
D72
  8
STREAMS
 10
723841.76246106718
 20
4566348.9296410028
 30
0.0
  0
VERTEX
  5
D73
  8
STREAMS
 10
723848.08617935295
 20
4566386.8398828581
 30
0.0
  0
VERTEX
  5
D74
  8
STREAMS
 10
723829.11490296281
 20
4566440.5460322713
 30
0.0
  0
VERTEX
  5
D75
  8
STREAMS
 10
723816.46746639104
 20
4566456.3419398284
 30
0.0
  0
VERTEX
  5
D76
  8
STREAMS
 10
723822.79118467693
 20
4566541.6399043566
 30
0.0
  0
VERTEX
  5
D77
  8
STREAMS
 10
723791.1724717149
 20
4566547.9582514521
 30
0.0
  0
VERTEX
  5
D78
  8
STREAMS
 10
723791.1724717149
 20
4566595.3460537698
 30
0.0
  0
VERTEX
  5
D79
  8
STREAMS
 10
723784.84863189631
 20
4566626.9378688857
 30
0.0
  0
VERTEX
  5
D7A
  8
STREAMS
 10
723803.81990828644
 20
4566639.5746427188
 30
0.0
  0
VERTEX
  5
D7B
  8
STREAMS
 10
723844.92438097671
 20
4566668.0073241098
 30
0.0
  0
VERTEX
  5
D7C
  8
STREAMS
 10
723829.11490296281
 20
4566746.9869415434
 30
0.0
  0
VERTEX
  5
D7D
  8
STREAMS
 10
723819.62926476763
 20
4566835.4440397983
 30
0.0
  0
VERTEX
  5
D7E
  8
STREAMS
 10
723803.81990828644
 20
4566968.1298066452
 30
0.0
  0
VERTEX
  5
D7F
  8
STREAMS
 10
723784.84863189631
 20
4567048.3720899913
 30
0.0
  0
VERTEX
  5
D80
  8
STREAMS
 10
723740.58248236252
 20
4567187.3762039328
 30
0.0
  0
VERTEX
  5
D81
  8
STREAMS
 10
723671.02121661976
 20
4567301.106849852
 30
0.0
  0
VERTEX
  5
D82
  8
STREAMS
 10
723595.13611105841
 20
4567408.5191486776
 30
0.0
  0
VERTEX
  5
D83
  8
STREAMS
 10
723535.06048351096
 20
4567440.1109637944
 30
0.0
  0
VERTEX
  5
D84
  8
STREAMS
 10
723493.95613235375
 20
4567534.886488785
 30
0.0
  0
VERTEX
  5
D85
  8
STREAMS
 10
723512.927408744
 20
4567677.0498160962
 30
0.0
  0
VERTEX
  5
D86
  8
STREAMS
 10
723573.00303629145
 20
4567737.0743126031
 30
0.0
  0
VERTEX
  5
D87
  8
STREAMS
 10
723604.62174925348
 20
4567825.531490501
 30
0.0
  0
VERTEX
  5
D88
  8
STREAMS
 10
723626.75494555326
 20
4567939.2621364202
 30
0.0
  0
VERTEX
  5
D89
  8
STREAMS
 10
723601.459950877
 20
4568030.8784480439
 30
0.0
  0
VERTEX
  5
D8A
  8
STREAMS
 10
723581.01363040239
 20
4568129.7795789996
 30
0.0
  0
VERTEX
  5
D8B
  8
STREAMS
 10
723556.5239123269
 20
4568264.3584686369
 30
0.0
  0
VERTEX
  5
D8C
  8
STREAMS
 10
723519.78927444725
 20
4568368.3511999324
 30
0.0
  0
VERTEX
  5
D8D
  8
STREAMS
 10
723495.29955637164
 20
4568502.9300895724
 30
0.0
  0
VERTEX
  5
D8E
  8
STREAMS
 10
723476.93217666552
 20
4568613.0400684634
 30
0.0
  0
VERTEX
  5
D8F
  8
STREAMS
 10
723495.29955637164
 20
4568759.8533736533
 30
0.0
  0
VERTEX
  5
D90
  8
STREAMS
 10
723560.04824316641
 20
4568885.894892755
 30
0.0
  0
VERTEX
  5
D91
  8
STREAMS
 10
723819.05319910403
 20
4569096.1573591558
 30
0.0
  0
VERTEX
  5
D92
  8
STREAMS
 10
723910.78412099835
 20
4569225.5496339211
 30
0.0
  0
VERTEX
  5
D93
  8
STREAMS
 10
723963.17194565933
 20
4569280.7152480017
 30
0.0
  0
VERTEX
  5
D94
  8
STREAMS
 10
724030.24519109284
 20
4569354.432987581
 30
0.0
  0
VERTEX
  5
D95
  8
STREAMS
 10
724099.55415465881
 20
4569448.2555797081
 30
0.0
  0
VERTEX
  5
D96
  8
STREAMS
 10
724108.49727025442
 20
4569508.5701373508
 30
0.0
  0
VERTEX
  5
D97
  8
STREAMS
 10
724121.91194364754
 20
4569629.1991729951
 30
0.0
  0
VERTEX
  5
D98
  8
STREAMS
 10
724148.74116890132
 20
4569749.8282086384
 30
0.0
  0
VERTEX
  5
D99
  8
STREAMS
 10
724166.62740009231
 20
4569832.481455937
 30
0.0
  0
VERTEX
  5
D9A
  8
STREAMS
 10
724251.58675518411
 20
4569941.9411467519
 30
0.0
  0
VERTEX
  5
D9B
  8
STREAMS
 10
724363.37557859533
 20
4570031.2959850188
 30
0.0
  0
SEQEND
  5
D9C
  8
STREAMS
  0
POLYLINE
  5
8D
  8
STREAMS
 66
     1
 10
0.0
 20
0.0
 30
0.0
  0
VERTEX
  5
D9D
  8
STREAMS
 10
724956.87597889896
 20
4572306.9112151619
 30
0.0
  0
VERTEX
  5
D9E
  8
STREAMS
 10
725017.00058418105
 20
4572216.801118861
 30
0.0
  0
VERTEX
  5
D9F
  8
STREAMS
 10
725042.05251317634
 20
4572184.2613884127
 30
0.0
  0
VERTEX
  5
DA0
  8
STREAMS
 10
725087.14593675488
 20
4572129.1941338871
 30
0.0
  0
VERTEX
  5
DA1
  8
STREAMS
 10
725114.70302219002
 20
4572086.6421174211
 30
0.0
  0
VERTEX
  5
DA2
  8
STREAMS
 10
725119.71333506925
 20
4572069.120736355
 30
0.0
  0
VERTEX
  5
DA3
  8
STREAMS
 10
725154.78601135628
 20
4572064.1145933447
 30
0.0
  0
VERTEX
  5
DA4
  8
STREAMS
 10
725167.3119150874
 20
4572019.0595451957
 30
0.0
  0
VERTEX
  5
DA5
  8
STREAMS
 10
725192.36384408269
 20
4571958.9861476617
 30
0.0
  0
VERTEX
  5
DA6
  8
STREAMS
 10
725192.36384408269
 20
4571928.9495285396
 30
0.0
  0
VERTEX
  5
DA7
  8
STREAMS
 10
725224.93136393011
 20
4571886.3975120718
 30
0.0
  0
VERTEX
  5
DA8
  8
STREAMS
 10
725265.01435309625
 20
4571801.293558781
 30
0.0
  0
VERTEX
  5
DA9
  8
STREAMS
 10
725285.05584767938
 20
4571706.1773991147
 30
0.0
  0
VERTEX
  5
DAA
  8
STREAMS
 10
725337.66486210981
 20
4571656.1162079563
 30
0.0
  0
VERTEX
  5
DAB
  8
STREAMS
 10
725337.66486210981
 20
4571623.5764775071
 30
0.0
  0
VERTEX
  5
DAC
  8
STREAMS
 10
725367.72710398445
 20
4571586.0306040486
 30
0.0
  0
VERTEX
  5
DAD
  8
STREAMS
 10
725387.76859856769
 20
4571533.4663812071
 30
0.0
  0
VERTEX
  5
DAE
  8
STREAMS
 10
725407.81021468365
 20
4571488.4114127001
 30
0.0
  0
VERTEX
  5
DAF
  8
STREAMS
 10
725434.64126292989
 20
4571449.7960881339
 30
0.0
  0
VERTEX
  5
DB0
  8
STREAMS
 10
725494.18238904525
 20
4571403.3644840587
 30
0.0
  0
VERTEX
  5
DB1
  8
STREAMS
 10
725520.3225230939
 20
4571393.2075656904
 30
0.0
  0
VERTEX
  5
DB2
  8
STREAMS
 10
725540.65363043558
 20
4571351.1288697422
 30
0.0
  0
VERTEX
  5
DB3
  8
STREAMS
 10
725562.43693368766
 20
4571290.1873595277
 30
0.0
  0
VERTEX
  5
DB4
  8
STREAMS
 10
725597.29036473064
 20
4571262.6185697187
 30
0.0
  0
VERTEX
  5
DB5
  8
STREAMS
 10
725627.78708650975
 20
4571206.0300472761
 30
0.0
  0
VERTEX
  5
DB6
  8
STREAMS
 10
725668.44930119347
 20
4571166.8533962714
 30
0.0
  0
VERTEX
  5
DB7
  8
STREAMS
 10
725720.72944775771
 20
4571076.8920737766
 30
0.0
  0
VERTEX
  5
DB8
  8
STREAMS
 10
725753.26451833639
 20
4571029.7502101706
 30
0.0
  0
VERTEX
  5
DB9
  8
STREAMS
 10
725782.85715731559
 20
4570987.2470150869
 30
0.0
  0
VERTEX
  5
DBA
  8
STREAMS
 10
725830.94515008235
 20
4570937.3520396315
 30
0.0
  0
VERTEX
  5
DBB
  8
STREAMS
 10
725840.19282697584
 20
4570918.872389595
 30
0.0
  0
VERTEX
  5
DBC
  8
STREAMS
 10
725842.04231374152
 20
4570800.6027090028
 30
0.0
  0
VERTEX
  5
DBD
  8
STREAMS
 10
725867.93585765676
 20
4570758.0995139191
 30
0.0
  0
VERTEX
  5
DBE
  8
STREAMS
 10
725884.5817246784
 20
4570715.5963984784
 30
0.0
  0
VERTEX
  5
DBF
  8
STREAMS
 10
725877.18353455048
 20
4570689.7248884272
 30
0.0
  0
VERTEX
  5
DC0
  8
STREAMS
 10
725899.37798340176
 20
4570630.590087953
 30
0.0
  0
VERTEX
  5
DC1
  8
STREAMS
 10
725921.57243225304
 20
4570571.4552078359
 30
0.0
  0
VERTEX
  5
DC2
  8
STREAMS
 10
725928.97062238085
 20
4570527.1041273912
 30
0.0
  0
VERTEX
  5
DC3
  8
STREAMS
 10
725938.21829927457
 20
4570477.2090722919
 30
0.0
  0
VERTEX
  5
DC4
  8
STREAMS
 10
725967.81081672106
 20
4570410.6824118029
 30
0.0
  0
VERTEX
  5
DC5
  8
STREAMS
 10
725978.90810191305
 20
4570368.1792963622
 30
0.0
  0
VERTEX
  5
DC6
  8
STREAMS
 10
725969.66042501945
 20
4570327.5240662806
 30
0.0
  0
VERTEX
  5
DC7
  8
STREAMS
 10
725982.60719697725
 20
4570303.5005212342
 30
0.0
  0
VERTEX
  5
DC8
  8
STREAMS
 10
726004.80164582841
 20
4570283.1729858369
 30
0.0
  0
VERTEX
  5
DC9
  8
STREAMS
 10
726015.89880948758
 20
4570218.4942107089
 30
0.0
  0
VERTEX
  5
DCA
  8
STREAMS
 10
726021.44751285005
 20
4570129.7919701757
 30
0.0
  0
VERTEX
  5
DCB
  8
STREAMS
 10
726026.99609467958
 20
4570039.2417646386
 30
0.0
  0
VERTEX
  5
DCC
  8
STREAMS
 10
726040.66465017654
 20
4570008.4329234473
 30
0.0
  0
VERTEX
  5
DCD
  8
STREAMS
 10
726089.80147135595
 20
4570002.7681298079
 30
0.0
  0
VERTEX
  5
DCE
  8
STREAMS
 10
726103.03056410188
 20
4569980.1089552501
 30
0.0
  0
VERTEX
  5
DCF
  8
STREAMS
 10
726114.36982117919
 20
4569925.3492834009
 30
0.0
  0
VERTEX
  5
DD0
  8
STREAMS
 10
726108.70019264054
 20
4569853.5951509923
 30
0.0
  0
VERTEX
  5
DD1
  8
STREAMS
 10
726118.14949251642
 20
4569817.7181246104
 30
0.0
  0
VERTEX
  5
DD2
  8
STREAMS
 10
726165.39635649452
 20
4569800.7237436911
 30
0.0
  0
VERTEX
  5
DD3
  8
STREAMS
 10
726195.63433485641
 20
4569793.1706855064
 30
0.0
  0
VERTEX
  5
DD4
  8
STREAMS
 10
726214.53305614088
 20
4569764.8466376653
 30
0.0
  0
VERTEX
  5
DD5
  8
STREAMS
 10
726203.1939205965
 20
4569728.9696112825
 30
0.0
  0
VERTEX
  5
DD6
  8
STREAMS
 10
726218.31284901116
 20
4569710.086965817
 30
0.0
  0
VERTEX
  5
DD7
  8
STREAMS
 10
726235.32173462701
 20
4569704.4221721767
 30
0.0
  0
VERTEX
  5
DD8
  8
STREAMS
 10
726231.54194175696
 20
4569676.0982039813
 30
0.0
  0
VERTEX
  5
DD9
  8
STREAMS
 10
726218.31284901116
 20
4569655.3272939678
 30
0.0
  0
VERTEX
  5
DDA
  8
STREAMS
 10
726184.29507777921
 20
4569638.3328334074
 30
0.0
  0
VERTEX
  5
DDB
  8
STREAMS
 10
726167.28631369583
 20
4569627.0032461276
 30
0.0
  0
VERTEX
  5
DDC
  8
STREAMS
 10
726172.95582070167
 20
4569451.3945636628
 30
0.0
  0
VERTEX
  5
DDD
  8
STREAMS
 10
726188.07487064914
 20
4569423.0705954647
 30
0.0
  0
VERTEX
  5
DDE
  8
STREAMS
 10
726212.64322047227
 20
4569409.8527436387
 30
0.0
  0
VERTEX
  5
DDF
  8
STREAMS
 10
726254.22045591171
 20
4569377.7521667061
 30
0.0
  0
VERTEX
  5
DE0
  8
STREAMS
 10
726279.62337175023
 20
4569372.4464053567
 30
0.0
  0
VERTEX
  5
DE1
  8
STREAMS
 10
726304.11831573781
 20
4569315.0420959229
 30
0.0
  0
VERTEX
  5
DE2
  8
STREAMS
 10
726341.40301125345
 20
4569217.2528659906
 30
0.0
  0
VERTEX
  5
DE3
  8
STREAMS
 10
726406.65144108783
 20
4569128.7768922588
 30
0.0
  0
VERTEX
  5
DE4
  8
STREAMS
 10
726439.2755952389
 20
4569086.8671995318
 30
0.0
  0
VERTEX
  5
DE5
  8
STREAMS
 10
726471.89974938973
 20
4569086.8671995318
 30
0.0
  0
VERTEX
  5
DE6
  8
STREAMS
 10
726504.52390354045
 20
4569072.8973550508
 30
0.0
  0
VERTEX
  5
DE7
  8
STREAMS
 10
726527.94546948164
 20
4569035.8843753505
 30
0.0
  0
VERTEX
  5
DE8
  8
STREAMS
 10
726556.82847820548
 20
4569023.8599793529
 30
0.0
  0
VERTEX
  5
DE9
  8
STREAMS
 10
726576.08389837679
 20
4569016.6453258255
 30
0.0
  0
VERTEX
  5
DEA
  8
STREAMS
 10
726614.59461718646
 20
4569028.6697218232
 30
0.0
  0
VERTEX
  5
DEB
  8
STREAMS
 10
726653.10545752919
 20
4569033.4794642944
 30
0.0
  0
VERTEX
  5
DEC
  8
STREAMS
 10
726694.02313424344
 20
4569023.8599793529
 30
0.0
  0
VERTEX
  5
DED
  8
STREAMS
 10
726694.02313424344
 20
4568980.5722174766
 30
0.0
  0
VERTEX
  5
DEE
  8
STREAMS
 10
726701.24388642434
 20
4568932.4747131327
 30
0.0
  0
VERTEX
  5
DEF
  8
STREAMS
 10
726722.90626450023
 20
4568930.0698020756
 30
0.0
  0
VERTEX
  5
DF0
  8
STREAMS
 10
726739.75472676696
 20
4568913.2356636068
 30
0.0
  0
VERTEX
  5
DF1
  8
STREAMS
 10
726771.0446933955
 20
4568913.2356636068
 30
0.0
  0
VERTEX
  5
DF2
  8
STREAMS
 10
726807.1485758333
 20
4568845.8991893819
 30
0.0
  0
VERTEX
  5
DF3
  8
STREAMS
 10
726821.59008019546
 20
4568761.7285766881
 30
0.0
  0
VERTEX
  5
DF4
  8
STREAMS
 10
726850.47321045236
 20
4568658.3189144703
 30
0.0
  0
VERTEX
  5
DF5
  8
STREAMS
 10
726872.13546699542
 20
4568607.8165787114
 30
0.0
  0
VERTEX
  5
DF6
  8
STREAMS
 10
726901.01859725232
 20
4568566.9336482491
 30
0.0
  0
VERTEX
  5
DF7
  8
STREAMS
 10
726944.34323187126
 20
4568554.9093318954
 30
0.0
  0
VERTEX
  5
DF8
  8
STREAMS
 10
726961.19169413787
 20
4568523.6458863728
 30
0.0
  0
VERTEX
  5
DF9
  8
STREAMS
 10
726958.78473623341
 20
4568499.5971740233
 30
0.0
  0
VERTEX
  5
DFA
  8
STREAMS
 10
726929.90172750922
 20
4568473.1435506139
 30
0.0
  0
VERTEX
  5
DFB
  8
STREAMS
 10
726937.12247969036
 20
4568444.2850161502
 30
0.0
  0
VERTEX
  5
DFC
  8
STREAMS
 10
726970.81940422347
 20
4568386.568026864
 30
0.0
  0
VERTEX
  5
DFD
  8
STREAMS
 10
727011.73708093795
 20
4568372.1387994532
 30
0.0
  0
VERTEX
  5
DFE
  8
STREAMS
 10
727115.23481244245
 20
4568309.6120676976
 30
0.0
  0
VERTEX
  5
DFF
  8
STREAMS
 10
727140.57635419653
 20
4568294.6114787832
 30
0.0
  0
VERTEX
  5
E00
  8
STREAMS
 10
727145.39027000568
 20
4568234.4895784417
 30
0.0
  0
VERTEX
  5
E01
  8
STREAMS
 10
727157.42481646303
 20
4568152.7237971611
 30
0.0
  0
VERTEX
  5
E02
  8
STREAMS
 10
727181.49403091066
 20
4568087.7921543485
 30
0.0
  0
VERTEX
  5
E03
  8
STREAMS
 10
727210.37716116745
 20
4568027.670333649
 30
0.0
  0
VERTEX
  5
E04
  8
STREAMS
 10
727217.59791334858
 20
4568013.2410265952
 30
0.0
  0
VERTEX
  5
E05
  8
STREAMS
 10
727246.48104360548
 20
4568003.6215416547
 30
0.0
  0
VERTEX
  5
E06
  8
STREAMS
 10
727268.14330014854
 20
4568022.8605911778
 30
0.0
  0
VERTEX
  5
E07
  8
STREAMS
 10
727294.61947250075
 20
4568034.8849075316
 30
0.0
  0
VERTEX
  5
E08
  8
STREAMS
 10
727330.72335493879
 20
4568037.2898185886
 30
0.0
  0
VERTEX
  5
E09
  8
STREAMS
 10
727364.42027947202
 20
4567994.0020567141
 30
0.0
  0
VERTEX
  5
E0A
  8
STREAMS
 10
727410.15187199553
 20
4567969.9533443628
 30
0.0
  0
VERTEX
  5
E0B
  8
STREAMS
 10
727487.17343114794
 20
4567957.9289483661
 30
0.0
  0
VERTEX
  5
E0C
  8
STREAMS
 10
727513.64960350003
 20
4567957.9289483661
 30
0.0
  0
VERTEX
  5
E0D
  8
STREAMS
 10
727520.87035568105
 20
4567945.9045523684
 30
0.0
  0
VERTEX
  5
E0E
  8
STREAMS
 10
727520.87035568105
 20
4567931.4753249567
 30
0.0
  0
VERTEX
  5
E0F
  8
STREAMS
 10
727540.12565431965
 20
4567914.6411864897
 30
0.0
  0
VERTEX
  5
E10
  8
STREAMS
 10
727621.96112928085
 20
4567900.2119590798
 30
0.0
  0
VERTEX
  5
E11
  8
STREAMS
 10
727691.76193625235
 20
4567909.8314440204
 30
0.0
  0
VERTEX
  5
E12
  8
STREAMS
 10
727718.23810860456
 20
4567914.6411864897
 30
0.0
  0
VERTEX
  5
E13
  8
STREAMS
 10
727768.78349540429
 20
4567919.4509289609
 30
0.0
  0
VERTEX
  5
E14
  8
STREAMS
 10
727905.97815144213
 20
4567859.3290286176
 30
0.0
  0
VERTEX
  5
E15
  8
STREAMS
 10
727997.44121495646
 20
4567849.709543677
 30
0.0
  0
VERTEX
  5
E16
  8
STREAMS
 10
728125.00816090859
 20
4567784.7779008653
 30
0.0
  0
VERTEX
  5
E17
  8
STREAMS
 10
728175.55354770855
 20
4567722.2511691079
 30
0.0
  0
VERTEX
  5
E18
  8
STREAMS
 10
728271.83052703214
 20
4567678.9634072334
 30
0.0
  0
VERTEX
  5
E19
  8
STREAMS
 10
728380.14205281285
 20
4567621.2464179471
 30
0.0
  0
VERTEX
  5
E1A
  8
STREAMS
 10
728500.48824658408
 20
4567585.173309599
 30
0.0
  0
VERTEX
  5
E1B
  8
STREAMS
 10
728514.92987247894
 20
4567549.1001216071
 30
0.0
  0
VERTEX
  5
E1C
  8
STREAMS
 10
728567.88209565065
 20
4567503.4075283185
 30
0.0
  0
VERTEX
  5
E1D
  8
STREAMS
 10
728613.61368817429
 20
4567484.1685584374
 30
0.0
  0
VERTEX
  5
E1E
  8
STREAMS
 10
728688.22828942176
 20
4567426.4514895082
 30
0.0
  0
VERTEX
  5
E1F
  8
STREAMS
 10
728758.02909639291
 20
4567392.7832922162
 30
0.0
  0
VERTEX
  5
E20
  8
STREAMS
 10
728782.09831084067
 20
4567368.734500221
 30
0.0
  0
VERTEX
  5
E21
  8
STREAMS
 10
728803.76068891655
 20
4567330.2564808168
 30
0.0
  0
VERTEX
  5
E22
  8
STREAMS
 10
728810.98144109757
 20
4567243.6810367098
 30
0.0
  0
VERTEX
  5
E23
  8
STREAMS
 10
728825.42294545972
 20
4567202.7981062466
 30
0.0
  0
VERTEX
  5
E24
  8
STREAMS
 10
728854.30607571651
 20
4567161.9152554302
 30
0.0
  0
VERTEX
  5
E25
  8
STREAMS
 10
728888.00300024985
 20
4567140.271374491
 30
0.0
  0
VERTEX
  5
E26
  8
STREAMS
 10
728957.80380722089
 20
4567133.0567209637
 30
0.0
  0
VERTEX
  5
E27
  8
STREAMS
 10
728991.50073175423
 20
4567149.8908594334
 30
0.0
  0
VERTEX
  5
E28
  8
STREAMS
 10
729058.89458082092
 20
4567152.2957704887
 30
0.0
  0
VERTEX
  5
E29
  8
STREAMS
 10
729121.47463561106
 20
4567137.8664634349
 30
0.0
  0
VERTEX
  5
E2A
  8
STREAMS
 10
729174.42698031571
 20
4567137.8664634349
 30
0.0
  0
VERTEX
  5
E2B
  8
STREAMS
 10
729278.90390191542
 20
4567144.3018862763
 30
0.0
  0
VERTEX
  5
E2C
  8
STREAMS
 10
729278.90390191542
 20
4567164.7080296744
 30
0.0
  0
VERTEX
  5
E2D
  8
STREAMS
 10
729333.36653522775
 20
4567208.9213270983
 30
0.0
  0
VERTEX
  5
E2E
  8
STREAMS
 10
729340.17444034992
 20
4567239.5305023734
 30
0.0
  0
VERTEX
  5
E2F
  8
STREAMS
 10
729394.6370736626
 20
4567239.5305023734
 30
0.0
  0
VERTEX
  5
E30
  8
STREAMS
 10
729442.29192338581
 20
4567225.9264598703
 30
0.0
  0
VERTEX
  5
E31
  8
STREAMS
 10
729486.54288131453
 20
4567181.7131624473
 30
0.0
  0
VERTEX
  5
E32
  8
STREAMS
 10
729558.0252166657
 20
4567147.7029765453
 30
0.0
  0
VERTEX
  5
E33
  8
STREAMS
 10
729595.46826947224
 20
4567123.8958225213
 30
0.0
  0
VERTEX
  5
E34
  8
STREAMS
 10
729700.98976583546
 20
4567100.0886684973
 30
0.0
  0
VERTEX
  5
E35
  8
STREAMS
 10
729786.08778989827
 20
4567100.0886684973
 30
0.0
  0
VERTEX
  5
E36
  8
STREAMS
 10
729857.57000371686
 20
4567093.2865676023
 30
0.0
  0
VERTEX
  5
E37
  8
STREAMS
 10
729908.62886676728
 20
4567089.8855569763
 30
0.0
  0
VERTEX
  5
E38
  8
STREAMS
 10
730003.93856621406
 20
4567079.6825250983
 30
0.0
  0
VERTEX
  5
E39
  8
STREAMS
 10
730095.84437386587
 20
4567032.0682170503
 30
0.0
  0
VERTEX
  5
E3A
  8
STREAMS
 10
730160.51880409522
 20
4566981.0528983753
 30
0.0
  0
VERTEX
  5
E3B
  8
STREAMS
 10
730255.82850354165
 20
4566940.2406115783
 30
0.0
  0
VERTEX
  5
E3C
  8
STREAMS
 10
730374.96568861627
 20
4566845.0119954813
 30
0.0
  0
VERTEX
  5
E3D
  8
STREAMS
 10
730626.85562594386
 20
4566678.3619969543
 30
0.0
  0
VERTEX
  5
E3E
  8
STREAMS
 10
730790.2437689472
 20
4566562.7272374583
 30
0.0
  0
VERTEX
  5
E3F
  8
STREAMS
 10
730929.80442632234
 20
4566477.7017328832
 30
0.0
  0
VERTEX
  5
E40
  8
STREAMS
 10
731025.11412576889
 20
4566413.0822920613
 30
0.0
  0
VERTEX
  5
E41
  8
STREAMS
 10
731086.38466420351
 20
4566372.2700052643
 30
0.0
  0
VERTEX
  5
E42
  8
STREAMS
 10
731188.50226877222
 20
4566311.0516547123
 30
0.0
  0
VERTEX
  5
E43
  8
STREAMS
 10
731263.38837438531
 20
4566263.4373466633
 30
0.0
  0
VERTEX
  5
E44
  8
STREAMS
 10
731362.13368569792
 20
4566192.8323087282
 30
0.0
  0
VERTEX
  5
E45
  8
STREAMS
 10
731460.84739847179
 20
4566124.8118572803
 30
0.0
  0
VERTEX
  5
E46
  8
STREAMS
 10
731488.07877589436
 20
4566080.5985598583
 30
0.0
  0
VERTEX
  5
E47
  8
STREAMS
 10
731532.32973382308
 20
4566022.7812199313
 30
0.0
  0
VERTEX
  5
E48
  8
STREAMS
 10
731590.19625893026
 20
4565964.9638003623
 30
0.0
  0
VERTEX
  5
E49
  8
STREAMS
 10
731627.63943326962
 20
4565917.3494923133
 30
0.0
  0
VERTEX
  5
E4A
  8
STREAMS
 10
731678.69817478757
 20
4565903.7454498103
 30
0.0
  0
VERTEX
  5
E4B
  8
STREAMS
 10
731712.73733579949
 20
4565917.3494923133
 30
0.0
  0
VERTEX
  5
E4C
  8
STREAMS
 10
731750.18051013898
 20
4565924.1515932083
 30
0.0
  0
VERTEX
  5
E4D
  8
STREAMS
 10
731814.85494036798
 20
4565924.1515932083
 30
0.0
  0
VERTEX
  5
E4E
  8
STREAMS
 10
731842.08631779091
 20
4565910.5474710613
 30
0.0
  0
VERTEX
  5
E4F
  8
STREAMS
 10
731865.91368188604
 20
4565879.9382957863
 30
0.0
  0
VERTEX
  5
E50
  8
STREAMS
 10
731893.14505930874
 20
4565839.1260089893
 30
0.0
  0
VERTEX
  5
E51
  8
STREAMS
 10
731916.97242340399
 20
4565808.5168337133
 30
0.0
  0
VERTEX
  5
E52
  8
STREAMS
 10
731926.29472146148
 20
4565798.5044680517
 30
0.0
  0
VERTEX
  5
E53
  8
STREAMS
 10
731959.69522739702
 20
4565807.2865826497
 30
0.0
  0
VERTEX
  5
E54
  8
STREAMS
 10
731993.09585486539
 20
4565807.2865826497
 30
0.0
  0
VERTEX
  5
E55
  8
STREAMS
 10
732037.04395295563
 20
4565819.5816068035
 30
0.0
  0
VERTEX
  5
E56
  8
STREAMS
 10
732098.57129028207
 20
4565812.5558673376
 30
0.0
  0
VERTEX
  5
E57
  8
STREAMS
 10
732142.5192668396
 20
4565754.593735774
 30
0.0
  0
VERTEX
  5
E58
  8
STREAMS
 10
732163.61445114913
 20
4565680.8238297896
 30
0.0
  0
VERTEX
  5
E59
  8
STREAMS
 10
732182.95154138934
 20
4565584.2203302784
 30
0.0
  0
VERTEX
  5
E5A
  8
STREAMS
 10
732209.32040024339
 20
4565559.6302819727
 30
0.0
  0
VERTEX
  5
E5B
  8
STREAMS
 10
732246.23685125238
 20
4565552.6046221526
 30
0.0
  0
VERTEX
  5
E5C
  8
STREAMS
 10
732281.39532972465
 20
4565550.8481673747
 30
0.0
  0
VERTEX
  5
E5D
  8
STREAMS
 10
732307.76418857882
 20
4565559.6302819727
 30
0.0
  0
VERTEX
  5
E5E
  8
STREAMS
 10
732335.89089843689
 20
4565564.8995666606
 30
0.0
  0
VERTEX
  5
E5F
  8
STREAMS
 10
732348.19634159561
 20
4565577.1945908125
 30
0.0
  0
VERTEX
  5
E60
  8
STREAMS
 10
732371.04937690916
 20
4565577.1945908125
 30
0.0
  0
VERTEX
  5
E61
  8
STREAMS
 10
732378.08102399041
 20
4565563.1431915276
 30
0.0
  0
VERTEX
  5
E62
  8
STREAMS
 10
732392.14443968586
 20
4565549.0917922417
 30
0.0
  0
VERTEX
  5
E63
  8
STREAMS
 10
732404.44988284481
 20
4565526.2581987139
 30
0.0
  0
VERTEX
  5
E64
  8
STREAMS
 10
732402.69203184079
 20
4565506.937514741
 30
0.0
  0
VERTEX
  5
E65
  8
STREAMS
 10
732392.53686922765
 20
4565426.7373627331
 30
0.0
  0
VERTEX
  5
E66
  8
STREAMS
 10
732396.09085408016
 20
4565405.4314882392
 30
0.0
  0
VERTEX
  5
E67
  8
STREAMS
 10
732424.52297596645
 20
4565391.2274922654
 30
0.0
  0
VERTEX
  5
E68
  8
STREAMS
 10
732456.50896117208
 20
4565387.6765131811
 30
0.0
  0
VERTEX
  5
E69
  8
STREAMS
 10
732474.27900696755
 20
4565391.2274922654
 30
0.0
  0
VERTEX
  5
E6A
  8
STREAMS
 10
732548.91329653549
 20
4565330.8607682167
 30
0.0
  0
VERTEX
  5
E6B
  8
STREAMS
 10
732598.66944906977
 20
4565256.2901278399
 30
0.0
  0
VERTEX
  5
E6C
  8
STREAMS
 10
732648.42548007099
 20
4565192.3723450648
 30
0.0
  0
VERTEX
  5
E6D
  8
STREAMS
 10
732666.19564739941
 20
4565181.7194078183
 30
0.0
  0
VERTEX
  5
E6E
  8
STREAMS
 10
732701.73573899048
 20
4565174.6174496533
 30
0.0
  0
VERTEX
  5
E6F
  8
STREAMS
 10
732719.50578478631
 20
4565174.6174496533
 30
0.0
  0
VERTEX
  5
E70
  8
STREAMS
 10
732779.92389187822
 20
4565128.4546419354
 30
0.0
  0
VERTEX
  5
E71
  8
STREAMS
 10
732865.22013600345
 20
4565043.2309846673
 30
0.0
  0
VERTEX
  5
E72
  8
STREAMS
 10
732897.20624274213
 20
4564986.415239702
 30
0.0
  0
VERTEX
  5
E73
  8
STREAMS
 10
732975.39439562953
 20
4564918.9465574892
 30
0.0
  0
VERTEX
  5
E74
  8
STREAMS
 10
733067.79873099294
 20
4564851.4777956344
 30
0.0
  0
VERTEX
  5
E75
  8
STREAMS
 10
733188.63506670948
 20
4564826.6209420552
 30
0.0
  0
VERTEX
  5
E76
  8
STREAMS
 10
733305.91729604069
 20
4564801.7640088331
 30
0.0
  0
VERTEX
  5
E77
  8
STREAMS
 10
733416.09167719958
 20
4564769.8051970899
 30
0.0
  0
VERTEX
  5
E78
  8
STREAMS
 10
733487.17186038196
 20
4564769.8051970899
 30
0.0
  0
VERTEX
  5
E79
  8
STREAMS
 10
733533.37402806361
 20
4564766.2542180074
 30
0.0
  0
VERTEX
  5
E7A
  8
STREAMS
 10
733590.2381503029
 20
4564741.3972847862
 30
0.0
  0
VERTEX
  5
E7B
  8
STREAMS
 10
733597.34612000803
 20
4564709.438473043
 30
0.0
  0
VERTEX
  5
E7C
  8
STREAMS
 10
733643.54828768969
 20
4564705.8874143166
 30
0.0
  0
VERTEX
  5
E7D
  8
STREAMS
 10
733743.06059275812
 20
4564702.3364352342
 30
0.0
  0
VERTEX
  5
E7E
  8
STREAMS
 10
733782.15466920182
 20
4564684.5815398209
 30
0.0
  0
VERTEX
  5
E7F
  8
STREAMS
 10
733799.92471499753
 20
4564673.9286025735
 30
0.0
  0
VERTEX
  5
E80
  8
STREAMS
 10
733846.12688267895
 20
4564624.2148157731
 30
0.0
  0
VERTEX
  5
E81
  8
STREAMS
 10
733846.12688267895
 20
4564546.093116669
 30
0.0
  0
VERTEX
  5
E82
  8
STREAMS
 10
733849.68086753169
 20
4564467.9714972088
 30
0.0
  0
VERTEX
  5
E83
  8
STREAMS
 10
733867.45091332728
 20
4564411.1556725996
 30
0.0
  0
VERTEX
  5
E84
  8
STREAMS
 10
733888.7749439755
 20
4564393.4007771881
 30
0.0
  0
VERTEX
  5
E85
  8
STREAMS
 10
733959.85512715776
 20
4564400.5027353531
 30
0.0
  0
VERTEX
  5
E86
  8
STREAMS
 10
733963.56309411919
 20
4564413.996790369
 30
0.0
  0
VERTEX
  5
E87
  8
STREAMS
 10
733987.42375821259
 20
4564413.996790369
 30
0.0
  0
VERTEX
  5
E88
  8
STREAMS
 10
734007.61352286115
 20
4564379.1531366501
 30
0.0
  0
VERTEX
  5
E89
  8
STREAMS
 10
734014.95532175107
 20
4564322.3030653941
 30
0.0
  0
VERTEX
  5
E8A
  8
STREAMS
 10
734011.28442230611
 20
4564274.6223347792
 30
0.0
  0
VERTEX
  5
E8B
  8
STREAMS
 10
733981.91746981151
 20
4564212.2705794964
 30
0.0
  0
VERTEX
  5
E8C
  8
STREAMS
 10
733961.72758363024
 20
4564186.5963460598
 30
0.0
  0
VERTEX
  5
E8D
  8
STREAMS
 10
733974.57567092124
 20
4564113.2413820103
 30
0.0
  0
VERTEX
  5
E8E
  8
STREAMS
 10
733985.58824772364
 20
4564041.7202064442
 30
0.0
  0
VERTEX
  5
E8F
  8
STREAMS
 10
733988.32030597643
 20
4564004.4023519391
 30
0.0
  0
VERTEX
  5
E90
  8
STREAMS
 10
734009.37198152917
 20
4563970.7484904537
 30
0.0
  0
VERTEX
  5
E91
  8
STREAMS
 10
734059.89585701632
 20
4563878.2002718141
 30
0.0
  0
VERTEX
  5
E92
  8
STREAMS
 10
734114.62999469426
 20
4563806.685706648
 30
0.0
  0
VERTEX
  5
E93
  8
STREAMS
 10
734144.10219462879
 20
4563747.7914291369
 30
0.0
  0
VERTEX
  5
E94
  8
STREAMS
 10
734160.94348645792
 20
4563705.7240425469
 30
0.0
  0
VERTEX
  5
E95
  8
STREAMS
 10
734198.83633230685
 20
4563676.2768639699
 30
0.0
  0
VERTEX
  5
E96
  8
STREAMS
 10
734236.72929968871
 20
4563625.7960319193
 30
0.0
  0
VERTEX
  5
E97
  8
STREAMS
 10
734261.99123743235
 20
4563533.2478132797
 30
0.0
  0
VERTEX
  5
E98
  8
STREAMS
 10
734270.41188334685
 20
4563440.6995946392
 30
0.0
  0
VERTEX
  5
E99
  8
STREAMS
 10
734278.83252926124
 20
4563381.8053171281
 30
0.0
  0
VERTEX
  5
E9A
  8
STREAMS
 10
734316.72537511028
 20
4563343.9446930904
 30
0.0
  0
VERTEX
  5
E9B
  8
STREAMS
 10
734405.14209644624
 20
4563289.2570984876
 30
0.0
  0
VERTEX
  5
E9C
  8
STREAMS
 10
734464.08661784814
 20
4563268.223445015
 30
0.0
  0
VERTEX
  5
E9D
  8
STREAMS
 10
734476.71752595354
 20
4563221.9492958738
 30
0.0
  0
VERTEX
  5
E9E
  8
STREAMS
 10
734496.31129355251
 20
4563168.7087415736
 30
0.0
  0
VERTEX
  5
E9F
  8
STREAMS
 10
734522.47913708875
 20
4563071.0986295696
 30
0.0
  0
VERTEX
  5
EA0
  8
STREAMS
 10
734538.1798432105
 20
4562999.6341600791
 30
0.0
  0
VERTEX
  5
EA1
  8
STREAMS
 10
734527.71270579589
 20
4562928.1696905894
 30
0.0
  0
VERTEX
  5
EA2
  8
STREAMS
 10
734503.28934465116
 20
4562849.7330019753
 30
0.0
  0
VERTEX
  5
EA3
  8
STREAMS
 10
734505.0339485755
 20
4562816.6152996244
 30
0.0
  0
VERTEX
  5
EA4
  8
STREAMS
 10
734524.22361948027
 20
4562793.9558064938
 30
0.0
  0
VERTEX
  5
EA5
  8
STREAMS
 10
734546.90237670054
 20
4562781.7546022264
 30
0.0
  0
VERTEX
  5
EA6
  8
STREAMS
 10
734614.93876989454
 20
4562743.407755442
 30
0.0
  0
VERTEX
  5
EA7
  8
STREAMS
 10
734618.42785621015
 20
4562712.0331277838
 30
0.0
  0
VERTEX
  5
EA8
  8
STREAMS
 10
734625.4059073088
 20
4562633.5964391697
 30
0.0
  0
VERTEX
  5
EA9
  8
STREAMS
 10
734607.96071879566
 20
4562556.9029048923
 30
0.0
  0
VERTEX
  5
EAA
  8
STREAMS
 10
734595.56692126195
 20
4562417.8298197957
 30
0.0
  0
VERTEX
  5
EAB
  8
STREAMS
 10
734613.5746852936
 20
4562361.8531973278
 30
0.0
  0
VERTEX
  5
EAC
  8
STREAMS
 10
734677.60243927885
 20
4562331.8657181598
 30
0.0
  0
VERTEX
  5
EAD
  8
STREAMS
 10
734713.6180888745
 20
4562291.8824391523
 30
0.0
  0
VERTEX
  5
EAE
  8
STREAMS
 10
734809.65978061897
 20
4562249.8999523902
 30
0.0
  0
VERTEX
  5
EAF
  8
STREAMS
 10
734883.69187496253
 20
4562229.9083527084
 30
0.0
  0
VERTEX
  5
EB0
  8
STREAMS
 10
734949.72042409959
 20
4562225.9100168422
 30
0.0
  0
VERTEX
  5
EB1
  8
STREAMS
 10
735013.74817808496
 20
4562197.9217454288
 30
0.0
  0
VERTEX
  5
EB2
  8
STREAMS
 10
735067.77159171226
 20
4562141.94512296
 30
0.0
  0
VERTEX
  5
EB3
  8
STREAMS
 10
735153.80894309853
 20
4562089.9668363566
 30
0.0
  0
VERTEX
  5
EB4
  8
STREAMS
 10
735193.82630453096
 20
4562067.9760289211
 30
0.0
  0
VERTEX
  5
EB5
  8
STREAMS
 10
735241.84708963672
 20
4561990.0085990159
 30
0.0
  0
VERTEX
  5
EB6
  8
STREAMS
 10
735301.87313178543
 20
4561964.0194557142
 30
0.0
  0
VERTEX
  5
EB7
  8
STREAMS
 10
735355.8965454126
 20
4561904.044577023
 30
0.0
  0
VERTEX
  5
EB8
  8
STREAMS
 10
735363.89996908593
 20
4561838.0721547129
 30
0.0
  0
VERTEX
  5
EB9
  8
STREAMS
 10
735435.93126827735
 20
4561784.0946603557
 30
0.0
  0
VERTEX
  5
EBA
  8
STREAMS
 10
735493.9563937413
 20
4561786.0938681094
 30
0.0
  0
VERTEX
  5
EBB
  8
STREAMS
 10
735551.98151920526
 20
4561786.0938681094
 30
0.0
  0
VERTEX
  5
EBC
  8
STREAMS
 10
735610.00664466934
 20
4561762.1038529193
 30
0.0
  0
VERTEX
  5
EBD
  8
STREAMS
 10
735636.01795390702
 20
4561706.1273100944
 30
0.0
  0
VERTEX
  5
EBE
  8
STREAMS
 10
735668.03189166589
 20
4561638.1556800297
 30
0.0
  0
VERTEX
  5
EBF
  8
STREAMS
 10
735668.03189166589
 20
4561592.1749370452
 30
0.0
  0
VERTEX
  5
EC0
  8
STREAMS
 10
735702.04662457702
 20
4561554.1907861466
 30
0.0
  0
VERTEX
  5
EC1
  8
STREAMS
 10
735746.065697846
 20
4561514.20750714
 30
0.0
  0
VERTEX
  5
EC2
  8
STREAMS
 10
735803.08647591656
 20
4561480.1442787563
 30
0.0
  0
VERTEX
  5
EC3
  8
STREAMS
 10
735857.10988954385
 20
4561474.1468147803
 30
0.0
  0
VERTEX
  5
EC4
  8
STREAMS
 10
735913.13409832306
 20
4561494.138414463
 30
0.0
  0
VERTEX
  5
EC5
  8
STREAMS
 10
735999.17144970933
 20
4561510.1317579234
 30
0.0
  0
VERTEX
  5
EC6
  8
STREAMS
 10
736063.1992036947
 20
4561510.1317579234
 30
0.0
  0
VERTEX
  5
EC7
  8
STREAMS
 10
736147.23563839635
 20
4561474.1468147803
 30
0.0
  0
VERTEX
  5
EC8
  8
STREAMS
 10
736177.24865947058
 20
4561456.1543432092
 30
0.0
  0
VERTEX
  5
EC9
  8
STREAMS
 10
736243.27720860788
 20
4561454.1551354546
 30
0.0
  0
VERTEX
  5
ECA
  8
STREAMS
 10
736315.3085077994
 20
4561468.1493508043
 30
0.0
  0
VERTEX
  5
ECB
  8
STREAMS
 10
736339.31890035234
 20
4561498.1367503284
 30
0.0
  0
VERTEX
  5
ECC
  8
STREAMS
 10
736367.33100474195
 20
4561498.1367503284
 30
0.0
  0
VERTEX
  5
ECD
  8
STREAMS
 10
736397.34402581607
 20
4561488.140950487
 30
0.0
  0
VERTEX
  5
ECE
  8
STREAMS
 10
736453.36835612811
 20
4561502.1350861927
 30
0.0
  0
VERTEX
  5
ECF
  8
STREAMS
 10
736493.38571756065
 20
4561524.1258936301
 30
0.0
  0
VERTEX
  5
ED0
  8
STREAMS
 10
736561.41518338257
 20
4561502.1350861927
 30
0.0
  0
VERTEX
  5
ED1
  8
STREAMS
 10
736667.97226107924
 20
4561423.2425986007
 30
0.0
  0
VERTEX
  5
ED2
  8
STREAMS
 10
736713.408771866
 20
4561364.8738876572
 30
0.0
  0
VERTEX
  5
ED3
  8
STREAMS
 10
736784.80907255015
 20
4561335.689611828
 30
0.0
  0
VERTEX
  5
ED4
  8
STREAMS
 10
736823.75463586277
 20
4561332.4468525685
 30
0.0
  0
VERTEX
  5
ED5
  8
STREAMS
 10
736836.73653081129
 20
4561319.4760544617
 30
0.0
  0
VERTEX
  5
ED6
  8
STREAMS
 10
736891.90940204344
 20
4561212.466830709
 30
0.0
  0
VERTEX
  5
ED7
  8
STREAMS
 10
736901.6458840213
 20
4561147.6127605336
 30
0.0
  0
VERTEX
  5
ED8
  8
STREAMS
 10
736930.27841356106
 20
4561124.9946023095
 30
0.0
  0
VERTEX
  5
ED9
  8
STREAMS
 10
737001.48547702888
 20
4561112.058847283
 30
0.0
  0
VERTEX
  5
EDA
  8
STREAMS
 10
737096.42802576441
 20
4561064.6279579056
 30
0.0
  0
VERTEX
  5
EDB
  8
STREAMS
 10
737183.81840226334
 20
4561031.2107168576
 30
0.0
  0
VERTEX
  5
EDC
  8
STREAMS
 10
737234.52640000358
 20
4561027.9767980119
 30
0.0
  0
VERTEX
  5
EDD
  8
STREAMS
 10
737307.89115752047
 20
4561023.6649062177
 30
0.0
  0
VERTEX
  5
EDE
  8
STREAMS
 10
737340.25802664796
 20
4560998.871448759
 30
0.0
  0
VERTEX
  5
EDF
  8
STREAMS
 10
737348.8891674421
 20
4560929.8810207667
 30
0.0
  0
VERTEX
  5
EE0
  8
STREAMS
 10
737341.33687367244
 20
4560879.2162125418
 30
0.0
  0
VERTEX
  5
EE1
  8
STREAMS
 10
737351.04686149105
 20
4560858.7347265212
 30
0.0
  0
VERTEX
  5
EE2
  8
STREAMS
 10
737410.38600002555
 20
4560804.8359198077
 30
0.0
  0
VERTEX
  5
EE3
  8
STREAMS
 10
737458.93630371708
 20
4560787.5883526299
 30
0.0
  0
VERTEX
  5
EE4
  8
STREAMS
 10
737473.49593800015
 20
4560762.1162540559
 30
0.0
  0
VERTEX
  5
EE5
  8
STREAMS
 10
737452.37839164794
 20
4560707.257505862
 30
0.0
  0
VERTEX
  5
EE6
  8
STREAMS
 10
737427.03733602527
 20
4560681.938003975
 30
0.0
  0
VERTEX
  5
EE7
  8
STREAMS
 10
737401.6964019353
 20
4560639.7389669018
 30
0.0
  0
VERTEX
  5
EE8
  8
STREAMS
 10
737376.35534631251
 20
4560612.3095529843
 30
0.0
  0
VERTEX
  5
EE9
  8
STREAMS
 10
737382.69061021821
 20
4560584.8802187089
 30
0.0
  0
VERTEX
  5
EEA
  8
STREAMS
 10
737405.91991120565
 20
4560570.1105159111
 30
0.0
  0
VERTEX
  5
EEB
  8
STREAMS
 10
737479.83108037291
 20
4560570.1105159111
 30
0.0
  0
VERTEX
  5
EEC
  8
STREAMS
 10
737538.96008862637
 20
4560551.1209890507
 30
0.0
  0
VERTEX
  5
EED
  8
STREAMS
 10
737583.30693596625
 20
4560515.2517677173
 30
0.0
  0
VERTEX
  5
EEE
  8
STREAMS
 10
737645.70080244471
 20
4560457.9766398203
 30
0.0
  0
VERTEX
  5
EEF
  8
STREAMS
 10
737784.35190804233
 20
4560365.6212377679
 30
0.0
  0
VERTEX
  5
EF0
  8
STREAMS
 10
737867.27072674315
 20
4560309.9364285897
 30
0.0
  0
VERTEX
  5
EF1
  8
STREAMS
 10
737959.32407526346
 20
4560244.7443519719
 30
0.0
  0
VERTEX
  5
EF2
  8
STREAMS
 10
738005.54119148443
 20
4560235.237164177
 30
0.0
  0
VERTEX
  5
EF3
  8
STREAMS
 10
738017.7750518003
 20
4560237.9534807922
 30
0.0
  0
VERTEX
  5
EF4
  8
STREAMS
 10
738072.14811540931
 20
4560269.191360794
 30
0.0
  0
VERTEX
  5
EF5
  8
STREAMS
 10
738101.81975073495
 20
4560283.3755255686
 30
0.0
  0
SEQEND
  5
EF6
  8
STREAMS
  0
ENDSEC
  0
EOF
