  0
SECTION
  2
HEADER
  9
$ACADVER
  1
AC1009
  9
$INSBASE
 10
0.0
 20
0.0
 30
0.0
  9
$EXTMIN
 10
732718.61830768164
 20
4554956.7605962511
 30
0.0
  9
$EXTMAX
 10
733615.97878939146
 20
4555267.9377264567
 30
0.0
  9
$LIMMIN
 10
0.0
 20
0.0
  9
$LIMMAX
 10
12.0
 20
9.0
  9
$ORTHOMODE
 70
     0
  9
$REGENMODE
 70
     1
  9
$FILLMODE
 70
     1
  9
$QTEXTMODE
 70
     0
  9
$MIRRTEXT
 70
     1
  9
$DRAGMODE
 70
     2
  9
$LTSCALE
 40
1.0
  9
$OSMODE
 70
   557
  9
$ATTMODE
 70
     1
  9
$TEXTSIZE
 40
2.0
  9
$TRACEWID
 40
0.05
  9
$TEXTSTYLE
  7
STANDARD
  9
$CLAYER
  8
TESTS
  9
$CELTYPE
  6
BYLAYER
  9
$CECOLOR
 62
   256
  9
$DIMSCALE
 40
1.0
  9
$DIMASZ
 40
0.18
  9
$DIMEXO
 40
0.0625
  9
$DIMDLI
 40
0.38
  9
$DIMRND
 40
0.0
  9
$DIMDLE
 40
0.0
  9
$DIMEXE
 40
0.18
  9
$DIMTP
 40
0.0
  9
$DIMTM
 40
0.0
  9
$DIMTXT
 40
0.18
  9
$DIMCEN
 40
0.09
  9
$DIMTSZ
 40
0.0
  9
$DIMTOL
 70
     0
  9
$DIMLIM
 70
     0
  9
$DIMTIH
 70
     1
  9
$DIMTOH
 70
     1
  9
$DIMSE1
 70
     0
  9
$DIMSE2
 70
     0
  9
$DIMTAD
 70
     0
  9
$DIMZIN
 70
     0
  9
$DIMBLK
  1

  9
$DIMASO
 70
     1
  9
$DIMSHO
 70
     1
  9
$DIMPOST
  1

  9
$DIMAPOST
  1

  9
$DIMALT
 70
     0
  9
$DIMALTD
 70
     2
  9
$DIMALTF
 40
25.399999999999999
  9
$DIMLFAC
 40
1.0
  9
$DIMTOFL
 70
     0
  9
$DIMTVP
 40
0.0
  9
$DIMTIX
 70
     0
  9
$DIMSOXD
 70
     0
  9
$DIMSAH
 70
     0
  9
$DIMBLK1
  1

  9
$DIMBLK2
  1

  9
$DIMSTYLE
  2
STANDARD
  9
$DIMCLRD
 70
     0
  9
$DIMCLRE
 70
     0
  9
$DIMCLRT
 70
     0
  9
$DIMTFAC
 40
1.0
  9
$DIMGAP
 40
0.09
  9
$LUNITS
 70
     2
  9
$LUPREC
 70
     4
  9
$SKETCHINC
 40
0.1
  9
$FILLETRAD
 40
0.5
  9
$AUNITS
 70
     0
  9
$AUPREC
 70
     0
  9
$MENU
  1
.
  9
$ELEVATION
 40
0.0
  9
$PELEVATION
 40
0.0
  9
$THICKNESS
 40
0.0
  9
$LIMCHECK
 70
     0
  9
$BLIPMODE
 70
     0
  9
$CHAMFERA
 40
0.5
  9
$CHAMFERB
 40
0.5
  9
$SKPOLY
 70
     0
  9
$TDCREATE
 40
2454974.6445596418
  9
$TDUPDATE
 40
2456117.60666015
  9
$TDINDWG
 40
12.566613692100001
  9
$TDUSRTIMER
 40
12.5666133218
  9
$USRTIMER
 70
     1
  9
$ANGBASE
 50
0.0
  9
$ANGDIR
 70
     1
  9
$PDMODE
 70
    66
  9
$PDSIZE
 40
10.0
  9
$PLINEWID
 40
0.0
  9
$COORDS
 70
     1
  9
$SPLFRAME
 70
     0
  9
$SPLINETYPE
 70
     6
  9
$SPLINESEGS
 70
     8
  9
$ATTDIA
 70
     0
  9
$ATTREQ
 70
     1
  9
$HANDLING
 70
     1
  9
$HANDSEED
  5
32D
  9
$SURFTAB1
 70
     6
  9
$SURFTAB2
 70
     6
  9
$SURFTYPE
 70
     6
  9
$SURFU
 70
     6
  9
$SURFV
 70
     6
  9
$UCSNAME
  2

  9
$UCSORG
 10
0.0
 20
0.0
 30
0.0
  9
$UCSXDIR
 10
1.0
 20
0.0
 30
0.0
  9
$UCSYDIR
 10
0.0
 20
1.0
 30
0.0
  9
$PUCSNAME
  2

  9
$PUCSORG
 10
0.0
 20
0.0
 30
0.0
  9
$PUCSXDIR
 10
1.0
 20
0.0
 30
0.0
  9
$PUCSYDIR
 10
0.0
 20
1.0
 30
0.0
  9
$USERI1
 70
     0
  9
$USERI2
 70
     0
  9
$USERI3
 70
     0
  9
$USERI4
 70
     0
  9
$USERI5
 70
     0
  9
$USERR1
 40
0.0
  9
$USERR2
 40
0.0
  9
$USERR3
 40
0.0
  9
$USERR4
 40
0.0
  9
$USERR5
 40
0.0
  9
$WORLDVIEW
 70
     1
  9
$SHADEDGE
 70
     3
  9
$SHADEDIF
 70
    70
  9
$TILEMODE
 70
     1
  9
$MAXACTVP
 70
    64
  9
$PLIMCHECK
 70
     0
  9
$PEXTMIN
 10
0.0
 20
0.0
 30
0.0
  9
$PEXTMAX
 10
0.0
 20
0.0
 30
0.0
  9
$PLIMMIN
 10
0.0
 20
0.0
  9
$PLIMMAX
 10
12.0
 20
9.0
  9
$UNITMODE
 70
     0
  9
$VISRETAIN
 70
     1
  9
$PLINEGEN
 70
     0
  9
$PSLTSCALE
 70
     1
  0
ENDSEC
  0
SECTION
  2
TABLES
  0
TABLE
  2
VPORT
 70
     1
  0
VPORT
  2
*ACTIVE
 70
     0
 10
0.0
 20
0.0
 11
1.0
 21
1.0
 12
733167.49545622186
 22
4555228.5686115539
 13
0.0
 23
0.0
 14
1.0
 24
1.0
 15
0.5
 25
0.5
 16
0.0
 26
0.0
 36
1.0
 17
0.0
 27
0.0
 37
0.0
 40
792.77208773364953
 41
1.136898395721925
 42
50.0
 43
0.0
 44
0.0
 50
0.0
 51
0.0
 71
     0
 72
   100
 73
     1
 74
     2
 75
     0
 76
     0
 77
     0
 78
     0
  0
ENDTAB
  0
TABLE
  2
LTYPE
 70
     1
  0
LTYPE
  2
CONTINUOUS
 70
     0
  3
Solid line
 72
    65
 73
     0
 40
0.0
  0
ENDTAB
  0
TABLE
  2
LAYER
 70
     3
  0
LAYER
  2
0
 70
     0
 62
    -1
  6
CONTINUOUS
  0
LAYER
  2
TESTS
 70
     0
 62
     4
  6
CONTINUOUS
  0
LAYER
  2
TEST_NUMBERS
 70
     0
 62
     4
  6
CONTINUOUS
  0
ENDTAB
  0
TABLE
  2
STYLE
 70
     3
  0
STYLE
  2
STANDARD
 70
     0
 40
0.0
 41
1.0
 50
0.0
 71
     0
 42
2.0
  3
txt
  4

  0
STYLE
  2
ANNOTATIVE
 70
     0
 40
0.0
 41
1.0
 50
0.0
 71
     0
 42
0.2
  3
txt
  4

  0
STYLE
  2
LEGEND
 70
     0
 40
0.0
 41
1.0
 50
0.0
 71
     0
 42
2.0
  3
txt
  4

  0
ENDTAB
  0
TABLE
  2
VIEW
 70
     0
  0
ENDTAB
  0
TABLE
  2
UCS
 70
     0
  0
ENDTAB
  0
TABLE
  2
APPID
 70
     9
  0
APPID
  2
ACAD
 70
     0
  0
APPID
  2
ACADANNOTATIVE
 70
     0
  0
APPID
  2
ADE
 70
     0
  0
APPID
  2
ADE_PROJECTION
 70
     0
  0
APPID
  2
ACMAPDMDISPLAYSTYLEREGAPP
 70
     0
  0
APPID
  2
ACADANNOPO
 70
     0
  0
APPID
  2
MAPGWS
 70
     0
  0
APPID
  2
DCO15
 70
     0
  0
APPID
  2
ACAD_MLEADERVER
 70
     0
  0
ENDTAB
  0
TABLE
  2
DIMSTYLE
 70
     2
  0
DIMSTYLE
  2
STANDARD
 70
     0
  3

  4

  5

  6

  7

 40
1.0
 41
0.18
 42
0.0625
 43
0.38
 44
0.18
 45
0.0
 46
0.0
 47
0.0
 48
0.0
140
0.18
141
0.09
142
0.0
143
25.399999999999999
144
1.0
145
0.0
146
1.0
147
0.09
 71
     0
 72
     0
 73
     1
 74
     1
 75
     0
 76
     0
 77
     0
 78
     0
170
     0
171
     2
172
     0
173
     0
174
     0
175
     0
176
     0
177
     0
178
     0
  0
DIMSTYLE
  2
ANNOTATIVE
 70
     0
  3

  4

  5

  6

  7

 40
1.0
 41
0.18
 42
0.0625
 43
0.38
 44
0.18
 45
0.0
 46
0.0
 47
0.0
 48
0.0
140
0.18
141
0.09
142
0.0
143
25.399999999999999
144
1.0
145
0.0
146
1.0
147
0.09
 71
     0
 72
     0
 73
     1
 74
     1
 75
     0
 76
     0
 77
     0
 78
     0
170
     0
171
     2
172
     0
173
     0
174
     0
175
     0
176
     0
177
     0
178
     0
  0
ENDTAB
  0
ENDSEC
  0
SECTION
  2
BLOCKS
  0
BLOCK
  8
0
  2
$MODEL_SPACE
 70
     0
 10
0.0
 20
0.0
 30
0.0
  3
$MODEL_SPACE
  1

  0
ENDBLK
  5
281
  8
0
  0
BLOCK
 67
     1
  8
0
  2
$PAPER_SPACE
 70
     0
 10
0.0
 20
0.0
 30
0.0
  3
$PAPER_SPACE
  1

  0
ENDBLK
  5
27D
 67
     1
  8
0
  0
ENDSEC
  0
SECTION
  2
ENTITIES
  0
TEXT
  5
73
  8
TEST_NUMBERS
 10
732719.53245261544
 20
4555221.5141658038
 30
0.0
 40
2.0
  1
YA
  0
POLYLINE
  5
75
  8
TESTS
 66
     1
 10
0.0
 20
0.0
 30
0.0
 70
     1
  0
VERTEX
  5
2BF
  8
TESTS
 10
732720.6183076814
 20
4555221.9769628691
 30
0.0
  0
VERTEX
  5
2C0
  8
TESTS
 10
732718.61830768164
 20
4555221.9769628691
 30
0.0
  0
VERTEX
  5
2C1
  8
TESTS
 10
732718.61830768164
 20
4555220.9769628691
 30
0.0
  0
VERTEX
  5
2C2
  8
TESTS
 10
732720.6183076814
 20
4555220.9769628691
 30
0.0
  0
SEQEND
  5
2C3
  8
TESTS
  0
TEXT
  5
76
  8
TEST_NUMBERS
 10
732725.92270878924
 20
4555237.047893743
 30
0.0
 40
2.0
  1
XZ
  0
POLYLINE
  5
77
  8
TESTS
 66
     1
 10
0.0
 20
0.0
 30
0.0
 70
     1
  0
VERTEX
  5
2C4
  8
TESTS
 10
732727.11517163331
 20
4555237.5106894476
 30
0.0
  0
VERTEX
  5
2C5
  8
TESTS
 10
732725.11517163354
 20
4555237.5106894476
 30
0.0
  0
VERTEX
  5
2C6
  8
TESTS
 10
732725.11517163354
 20
4555236.5106894476
 30
0.0
  0
VERTEX
  5
2C7
  8
TESTS
 10
732727.11517163331
 20
4555236.5106894476
 30
0.0
  0
SEQEND
  5
2C8
  8
TESTS
  0
TEXT
  5
78
  8
TEST_NUMBERS
 10
732743.93161084002
 20
4555265.9377264557
 30
0.0
 40
2.0
  1
XY
  0
POLYLINE
  5
79
  8
TESTS
 66
     1
 10
0.0
 20
0.0
 30
0.0
 70
     1
  0
VERTEX
  5
2C9
  8
TESTS
 10
732743.42727646756
 20
4555266.9274793426
 30
0.0
  0
VERTEX
  5
2CA
  8
TESTS
 10
732743.42727646756
 20
4555264.9274793426
 30
0.0
  0
VERTEX
  5
2CB
  8
TESTS
 10
732744.42727646756
 20
4555264.9274793426
 30
0.0
  0
VERTEX
  5
2CC
  8
TESTS
 10
732744.42727646756
 20
4555266.9274793426
 30
0.0
  0
SEQEND
  5
2CD
  8
TESTS
  0
TEXT
  5
7A
  8
TEST_NUMBERS
 10
733197.64810608153
 20
4555252.7177040922
 30
0.0
 40
2.0
  1
XX
  0
POLYLINE
  5
7B
  8
TESTS
 66
     1
 10
0.0
 20
0.0
 30
0.0
 70
     1
  0
VERTEX
  5
2CE
  8
TESTS
 10
733198.41432859295
 20
4555253.1337629082
 30
0.0
  0
VERTEX
  5
2CF
  8
TESTS
 10
733196.41432859295
 20
4555253.1337629082
 30
0.0
  0
VERTEX
  5
2D0
  8
TESTS
 10
733196.41432859295
 20
4555252.1337629082
 30
0.0
  0
VERTEX
  5
2D1
  8
TESTS
 10
733198.41432859295
 20
4555252.1337629082
 30
0.0
  0
SEQEND
  5
2D2
  8
TESTS
  0
TEXT
  5
7C
  8
TEST_NUMBERS
 10
733211.96093825845
 20
4555230.1089381026
 30
0.0
 40
2.0
  1
XW
  0
POLYLINE
  5
7D
  8
TESTS
 66
     1
 10
0.0
 20
0.0
 30
0.0
 70
     1
  0
VERTEX
  5
2D3
  8
TESTS
 10
733212.63338498946
 20
4555230.6531192306
 30
0.0
  0
VERTEX
  5
2D4
  8
TESTS
 10
733210.63338498992
 20
4555230.6531192306
 30
0.0
  0
VERTEX
  5
2D5
  8
TESTS
 10
733210.63338498992
 20
4555229.6531192316
 30
0.0
  0
VERTEX
  5
2D6
  8
TESTS
 10
733212.63338498946
 20
4555229.6531192316
 30
0.0
  0
SEQEND
  5
2D7
  8
TESTS
  0
TEXT
  5
7E
  8
TEST_NUMBERS
 10
733238.05286755704
 20
4555178.1422679732
 30
0.0
 40
2.0
  1
XV
  0
POLYLINE
  5
7F
  8
TESTS
 66
     1
 10
0.0
 20
0.0
 30
0.0
 70
     1
  0
VERTEX
  5
2D8
  8
TESTS
 10
733237.57763736381
 20
4555179.0797954313
 30
0.0
  0
VERTEX
  5
2D9
  8
TESTS
 10
733237.57763736381
 20
4555177.0797954323
 30
0.0
  0
VERTEX
  5
2DA
  8
TESTS
 10
733238.57763736381
 20
4555177.0797954323
 30
0.0
  0
VERTEX
  5
2DB
  8
TESTS
 10
733238.57763736381
 20
4555179.0797954313
 30
0.0
  0
SEQEND
  5
2DC
  8
TESTS
  0
TEXT
  5
80
  8
TEST_NUMBERS
 10
733257.66674621019
 20
4555155.8867625287
 30
0.0
 40
2.0
  1
XU
  0
POLYLINE
  5
81
  8
TESTS
 66
     1
 10
0.0
 20
0.0
 30
0.0
 70
     1
  0
VERTEX
  5
2DD
  8
TESTS
 10
733258.70138482715
 20
4555156.1947245123
 30
0.0
  0
VERTEX
  5
2DE
  8
TESTS
 10
733256.70138482715
 20
4555156.1947245123
 30
0.0
  0
VERTEX
  5
2DF
  8
TESTS
 10
733256.70138482715
 20
4555155.1947245132
 30
0.0
  0
VERTEX
  5
2E0
  8
TESTS
 10
733258.70138482715
 20
4555155.1947245132
 30
0.0
  0
SEQEND
  5
2E1
  8
TESTS
  0
TEXT
  5
82
  8
TEST_NUMBERS
 10
733411.77917874383
 20
4555168.3649638919
 30
0.0
 40
2.0
  1
XT
  0
TEXT
  5
83
  8
TEST_NUMBERS
 10
733398.91089074302
 20
4555147.0433256924
 30
0.0
 40
2.0
  1
XS
  0
POLYLINE
  5
84
  8
TESTS
 66
     1
 10
0.0
 20
0.0
 30
0.0
 70
     1
  0
VERTEX
  5
2E2
  8
TESTS
 10
733400.180229133
 20
4555147.5451258654
 30
0.0
  0
VERTEX
  5
2E3
  8
TESTS
 10
733398.180229133
 20
4555147.5451258654
 30
0.0
  0
VERTEX
  5
2E4
  8
TESTS
 10
733398.180229133
 20
4555146.5451258654
 30
0.0
  0
VERTEX
  5
2E5
  8
TESTS
 10
733400.180229133
 20
4555146.5451258654
 30
0.0
  0
SEQEND
  5
2E6
  8
TESTS
  0
POLYLINE
  5
85
  8
TESTS
 66
     1
 10
0.0
 20
0.0
 30
0.0
 70
     1
  0
VERTEX
  5
2E7
  8
TESTS
 10
733411.26140665682
 20
4555169.6635792786
 30
0.0
  0
VERTEX
  5
2E8
  8
TESTS
 10
733411.26140665682
 20
4555167.6635792824
 30
0.0
  0
VERTEX
  5
2E9
  8
TESTS
 10
733412.26140665682
 20
4555167.6635792824
 30
0.0
  0
VERTEX
  5
2EA
  8
TESTS
 10
733412.26140665682
 20
4555169.6635792786
 30
0.0
  0
SEQEND
  5
2EB
  8
TESTS
  0
TEXT
  5
86
  8
TEST_NUMBERS
 10
733430.18473450094
 20
4555138.9356454629
 30
0.0
 40
2.0
  1
XR
  0
POLYLINE
  5
87
  8
TESTS
 66
     1
 10
0.0
 20
0.0
 30
0.0
 70
     1
  0
VERTEX
  5
2EC
  8
TESTS
 10
733431.17035667563
 20
4555139.3017391404
 30
0.0
  0
VERTEX
  5
2ED
  8
TESTS
 10
733429.17035667575
 20
4555139.3017391404
 30
0.0
  0
VERTEX
  5
2EE
  8
TESTS
 10
733429.17035667575
 20
4555138.3017391404
 30
0.0
  0
VERTEX
  5
2EF
  8
TESTS
 10
733431.17035667563
 20
4555138.3017391404
 30
0.0
  0
SEQEND
  5
2F0
  8
TESTS
  0
TEXT
  5
88
  8
TEST_NUMBERS
 10
733593.43719873345
 20
4554974.9190254547
 30
0.0
 40
2.0
  1
XQ
  0
POLYLINE
  5
89
  8
TESTS
 66
     1
 10
0.0
 20
0.0
 30
0.0
 70
     1
  0
VERTEX
  5
2F1
  8
TESTS
 10
733592.88112465735
 20
4554975.8875056002
 30
0.0
  0
VERTEX
  5
2F2
  8
TESTS
 10
733592.88112465735
 20
4554973.8875056002
 30
0.0
  0
VERTEX
  5
2F3
  8
TESTS
 10
733593.88112465735
 20
4554973.8875056002
 30
0.0
  0
VERTEX
  5
2F4
  8
TESTS
 10
733593.88112465735
 20
4554975.8875056002
 30
0.0
  0
SEQEND
  5
2F5
  8
TESTS
  0
TEXT
  5
8A
  8
TEST_NUMBERS
 10
733612.64545605809
 20
4554957.687735335
 30
0.0
 40
2.0
  1
XP
  0
POLYLINE
  5
8B
  8
TESTS
 66
     1
 10
0.0
 20
0.0
 30
0.0
 70
     1
  0
VERTEX
  5
2F6
  8
TESTS
 10
733612.09420247935
 20
4554958.7605962483
 30
0.0
  0
VERTEX
  5
2F7
  8
TESTS
 10
733612.09420247935
 20
4554956.7605962511
 30
0.0
  0
VERTEX
  5
2F8
  8
TESTS
 10
733613.09420247935
 20
4554956.7605962511
 30
0.0
  0
VERTEX
  5
2F9
  8
TESTS
 10
733613.09420247935
 20
4554958.7605962483
 30
0.0
  0
SEQEND
  5
2FA
  8
TESTS
  0
ENDSEC
  0
EOF
